0
SECTION
  2
HEADER
  9
$ACADVER
  1
AC1027
  9
$ACADMAINTVER
 70
     8
  9
$DWGCODEPAGE
  3
ANSI_1252
  9
$REQUIREDVERSIONS
160
                 0
  9
$COMMENTS
  1
File was created by Cadenas
  9
$CUSTOMPROPERTYTAG
  1
NN
  9
$CUSTOMPROPERTY
  1
D-Lok Two-Bolt Pillow Block Inch Bore - Stainless Housing, Corrosion Resistant Insert
  9
$CUSTOMPROPERTYTAG
  1
NT
  9
$CUSTOMPROPERTY
  1
DLEZ Normal Duty Stainless Steel Housed Pillow Blocks
  9
$CUSTOMPROPERTYTAG
  1
NB
  9
$CUSTOMPROPERTY
  1
127715
  9
$CUSTOMPROPERTYTAG
  1
NBSYN
  9
$CUSTOMPROPERTY
  1
$PN.
  9
$CUSTOMPROPERTYTAG
  1
LINA
  9
$CUSTOMPROPERTY
  1
127715
  9
$CUSTOMPROPERTYTAG
  1
SERIES
  9
$CUSTOMPROPERTY
  1
204
  9
$CUSTOMPROPERTYTAG
  1
SS
  9
$CUSTOMPROPERTY
  1
3/4
  9
$CUSTOMPROPERTYTAG
  1
PN
  9
$CUSTOMPROPERTY
  1
127715
  9
$CUSTOMPROPERTYTAG
  1
DESCRIPTION
  9
$CUSTOMPROPERTY
  1
P2B-DLEZ-012-SHCR
  9
$CUSTOMPROPERTYTAG
  1
W
  9
$CUSTOMPROPERTY
  1
1.46
  9
$CUSTOMPROPERTYTAG
  1
A
  9
$CUSTOMPROPERTY
  1
1.28
  9
$CUSTOMPROPERTYTAG
  1
B
  9
$CUSTOMPROPERTY
  1
5.00
  9
$CUSTOMPROPERTYTAG
  1
C
  9
$CUSTOMPROPERTY
  1
1.00
  9
$CUSTOMPROPERTYTAG
  1
DMIN
  9
$CUSTOMPROPERTY
  1
3.38
  9
$CUSTOMPROPERTYTAG
  1
DMAX
  9
$CUSTOMPROPERTY
  1
4.18
  9
$CUSTOMPROPERTYTAG
  1
F
  9
$CUSTOMPROPERTY
  1
3/8
  9
$CUSTOMPROPERTYTAG
  1
G
  9
$CUSTOMPROPERTY
  1
0.84
  9
$CUSTOMPROPERTYTAG
  1
H
  9
$CUSTOMPROPERTY
  1
0.50
  9
$CUSTOMPROPERTYTAG
  1
J
  9
$CUSTOMPROPERTY
  1
2.50
  9
$CUSTOMPROPERTYTAG
  1
L
  9
$CUSTOMPROPERTY
  1
1.71
  9
$CUSTOMPROPERTYTAG
  1
M
  9
$CUSTOMPROPERTY
  1
1.31
  9
$CUSTOMPROPERTYTAG
  1
R
  9
$CUSTOMPROPERTY
  1
0.50
  9
$CUSTOMPROPERTYTAG
  1
S
  9
$CUSTOMPROPERTY
  1
0.78
  9
$CUSTOMPROPERTYTAG
  1
COMPANY
  9
$CUSTOMPROPERTY
  1
baldor
  9
$INSBASE
 10
0.0
 20
0.0
 30
0.0
  9
$EXTMIN
 10
1.000000000000000E+20
 20
1.000000000000000E+20
 30
1.000000000000000E+20
  9
$EXTMAX
 10
-1.000000000000000E+20
 20
-1.000000000000000E+20
 30
-1.000000000000000E+20
  9
$LIMMIN
 10
0.0
 20
0.0
  9
$LIMMAX
 10
12.0
 20
9.0
  9
$ORTHOMODE
 70
     0
  9
$REGENMODE
 70
     1
  9
$FILLMODE
 70
     1
  9
$QTEXTMODE
 70
     0
  9
$MIRRTEXT
 70
     1
  9
$LTSCALE
 40
1.0
  9
$ATTMODE
 70
     1
  9
$TEXTSIZE
 40
0.2
  9
$TRACEWID
 40
0.05
  9
$TEXTSTYLE
  7
Standard
  9
$CLAYER
  8
0
  9
$CELTYPE
  6
ByLayer
  9
$CECOLOR
 62
   256
  9
$CELTSCALE
 40
1.0
  9
$DISPSILH
 70
     0
  9
$DIMSCALE
 40
1.0
  9
$DIMASZ
 40
0.18
  9
$DIMEXO
 40
0.0625
  9
$DIMDLI
 40
0.38
  9
$DIMRND
 40
0.0
  9
$DIMDLE
 40
0.0
  9
$DIMEXE
 40
0.18
  9
$DIMTP
 40
0.0
  9
$DIMTM
 40
0.0
  9
$DIMTXT
 40
0.18
  9
$DIMCEN
 40
0.09
  9
$DIMTSZ
 40
0.0
  9
$DIMTOL
 70
     0
  9
$DIMLIM
 70
     0
  9
$DIMTIH
 70
     1
  9
$DIMTOH
 70
     1
  9
$DIMSE1
 70
     0
  9
$DIMSE2
 70
     0
  9
$DIMTAD
 70
     0
  9
$DIMZIN
 70
     0
  9
$DIMBLK
  1

  9
$DIMASO
 70
     1
  9
$DIMSHO
 70
     1
  9
$DIMPOST
  1

  9
$DIMAPOST
  1

  9
$DIMALT
 70
     0
  9
$DIMALTD
 70
     2
  9
$DIMALTF
 40
25.4
  9
$DIMLFAC
 40
1.0
  9
$DIMTOFL
 70
     0
  9
$DIMTVP
 40
0.0
  9
$DIMTIX
 70
     0
  9
$DIMSOXD
 70
     0
  9
$DIMSAH
 70
     0
  9
$DIMBLK1
  1

  9
$DIMBLK2
  1

  9
$DIMSTYLE
  2
Standard
  9
$DIMCLRD
 70
     0
  9
$DIMCLRE
 70
     0
  9
$DIMCLRT
 70
     0
  9
$DIMTFAC
 40
1.0
  9
$DIMGAP
 40
0.09
  9
$DIMJUST
 70
     0
  9
$DIMSD1
 70
     0
  9
$DIMSD2
 70
     0
  9
$DIMTOLJ
 70
     1
  9
$DIMTZIN
 70
     0
  9
$DIMALTZ
 70
     0
  9
$DIMALTTZ
 70
     0
  9
$DIMUPT
 70
     0
  9
$DIMDEC
 70
     4
  9
$DIMTDEC
 70
     4
  9
$DIMALTU
 70
     2
  9
$DIMALTTD
 70
     2
  9
$DIMTXSTY
  7
Standard
  9
$DIMAUNIT
 70
     0
  9
$DIMADEC
 70
     0
  9
$DIMALTRND
 40
0.0
  9
$DIMAZIN
 70
     0
  9
$DIMDSEP
 70
    46
  9
$DIMATFIT
 70
     3
  9
$DIMFRAC
 70
     0
  9
$DIMLDRBLK
  1

  9
$DIMLUNIT
 70
     2
  9
$DIMLWD
 70
    -2
  9
$DIMLWE
 70
    -2
  9
$DIMTMOVE
 70
     0
  9
$DIMFXL
 40
1.0
  9
$DIMFXLON
 70
     0
  9
$DIMJOGANG
 40
0.7853981633974483
  9
$DIMTFILL
 70
     0
  9
$DIMTFILLCLR
 70
     0
  9
$DIMARCSYM
 70
     0
  9
$DIMLTYPE
  6

  9
$DIMLTEX1
  6

  9
$DIMLTEX2
  6

  9
$DIMTXTDIRECTION
 70
     0
  9
$LUNITS
 70
     2
  9
$LUPREC
 70
     4
  9
$SKETCHINC
 40
0.1
  9
$FILLETRAD
 40
0.5
  9
$AUNITS
 70
     0
  9
$AUPREC
 70
     0
  9
$MENU
  1
.
  9
$ELEVATION
 40
0.0
  9
$PELEVATION
 40
0.0
  9
$THICKNESS
 40
0.0
  9
$LIMCHECK
 70
     0
  9
$CHAMFERA
 40
0.0
  9
$CHAMFERB
 40
0.0
  9
$CHAMFERC
 40
0.0
  9
$CHAMFERD
 40
0.0
  9
$SKPOLY
 70
     0
  9
$TDCREATE
 40
2458168.996386366
  9
$TDUCREATE
 40
2458168.954719699
  9
$TDUPDATE
 40
2458168.996386366
  9
$TDUUPDATE
 40
2458168.954719699
  9
$TDINDWG
 40
0.0000000116
  9
$TDUSRTIMER
 40
0.0000000116
  9
$USRTIMER
 70
     1
  9
$ANGBASE
 50
0.0
  9
$ANGDIR
 70
     0
  9
$PDMODE
 70
     0
  9
$PDSIZE
 40
0.0
  9
$PLINEWID
 40
0.0
  9
$SPLFRAME
 70
     0
  9
$SPLINETYPE
 70
     6
  9
$SPLINESEGS
 70
     8
  9
$HANDSEED
  5
1A6
  9
$SURFTAB1
 70
     6
  9
$SURFTAB2
 70
     6
  9
$SURFTYPE
 70
     6
  9
$SURFU
 70
     6
  9
$SURFV
 70
     6
  9
$UCSBASE
  2

  9
$UCSNAME
  2

  9
$UCSORG
 10
0.0
 20
0.0
 30
0.0
  9
$UCSXDIR
 10
1.0
 20
0.0
 30
0.0
  9
$UCSYDIR
 10
0.0
 20
1.0
 30
0.0
  9
$UCSORTHOREF
  2

  9
$UCSORTHOVIEW
 70
     0
  9
$UCSORGTOP
 10
0.0
 20
0.0
 30
0.0
  9
$UCSORGBOTTOM
 10
0.0
 20
0.0
 30
0.0
  9
$UCSORGLEFT
 10
0.0
 20
0.0
 30
0.0
  9
$UCSORGRIGHT
 10
0.0
 20
0.0
 30
0.0
  9
$UCSORGFRONT
 10
0.0
 20
0.0
 30
0.0
  9
$UCSORGBACK
 10
0.0
 20
0.0
 30
0.0
  9
$PUCSBASE
  2

  9
$PUCSNAME
  2

  9
$PUCSORG
 10
0.0
 20
0.0
 30
0.0
  9
$PUCSXDIR
 10
1.0
 20
0.0
 30
0.0
  9
$PUCSYDIR
 10
0.0
 20
1.0
 30
0.0
  9
$PUCSORTHOREF
  2

  9
$PUCSORTHOVIEW
 70
     0
  9
$PUCSORGTOP
 10
0.0
 20
0.0
 30
0.0
  9
$PUCSORGBOTTOM
 10
0.0
 20
0.0
 30
0.0
  9
$PUCSORGLEFT
 10
0.0
 20
0.0
 30
0.0
  9
$PUCSORGRIGHT
 10
0.0
 20
0.0
 30
0.0
  9
$PUCSORGFRONT
 10
0.0
 20
0.0
 30
0.0
  9
$PUCSORGBACK
 10
0.0
 20
0.0
 30
0.0
  9
$USERI1
 70
     0
  9
$USERI2
 70
     0
  9
$USERI3
 70
     0
  9
$USERI4
 70
     0
  9
$USERI5
 70
     0
  9
$USERR1
 40
0.0
  9
$USERR2
 40
0.0
  9
$USERR3
 40
0.0
  9
$USERR4
 40
0.0
  9
$USERR5
 40
0.0
  9
$WORLDVIEW
 70
     1
  9
$SHADEDGE
 70
     3
  9
$SHADEDIF
 70
    70
  9
$TILEMODE
 70
     1
  9
$MAXACTVP
 70
    64
  9
$PINSBASE
 10
0.0
 20
0.0
 30
0.0
  9
$PLIMCHECK
 70
     0
  9
$PEXTMIN
 10
1.000000000000000E+20
 20
1.000000000000000E+20
 30
1.000000000000000E+20
  9
$PEXTMAX
 10
-1.000000000000000E+20
 20
-1.000000000000000E+20
 30
-1.000000000000000E+20
  9
$PLIMMIN
 10
0.0
 20
0.0
  9
$PLIMMAX
 10
12.0
 20
9.0
  9
$UNITMODE
 70
     0
  9
$VISRETAIN
 70
     1
  9
$PLINEGEN
 70
     0
  9
$PSLTSCALE
 70
     1
  9
$TREEDEPTH
 70
  3020
  9
$CMLSTYLE
  2
Standard
  9
$CMLJUST
 70
     0
  9
$CMLSCALE
 40
1.0
  9
$PROXYGRAPHICS
 70
     1
  9
$MEASUREMENT
 70
     0
  9
$CELWEIGHT
370
    -1
  9
$ENDCAPS
280
     0
  9
$JOINSTYLE
280
     0
  9
$LWDISPLAY
290
     0
  9
$INSUNITS
 70
     1
  9
$HYPERLINKBASE
  1

  9
$STYLESHEET
  1

  9
$XEDIT
290
     1
  9
$CEPSNTYPE
380
     0
  9
$PSTYLEMODE
290
     1
  9
$FINGERPRINTGUID
  2
{B7DC02F2-86E8-4405-9622-AE4631D2C8D8}
  9
$VERSIONGUID
  2
{FAEB1C32-E019-11D5-929B-00C0DF256EC4}
  9
$EXTNAMES
290
     1
  9
$PSVPSCALE
 40
0.0
  9
$OLESTARTUP
290
     0
  9
$SORTENTS
280
   127
  9
$INDEXCTL
280
     0
  9
$HIDETEXT
280
     1
  9
$XCLIPFRAME
280
     2
  9
$HALOGAP
280
     0
  9
$OBSCOLOR
 70
   257
  9
$OBSLTYPE
280
     0
  9
$INTERSECTIONDISPLAY
280
     0
  9
$INTERSECTIONCOLOR
 70
   257
  9
$DIMASSOC
280
     2
  9
$PROJECTNAME
  1

  9
$CAMERADISPLAY
290
     0
  9
$LENSLENGTH
 40
50.0
  9
$CAMERAHEIGHT
 40
0.0
  9
$STEPSPERSEC
 40
2.0
  9
$STEPSIZE
 40
6.0
  9
$3DDWFPREC
 40
2.0
  9
$PSOLWIDTH
 40
0.25
  9
$PSOLHEIGHT
 40
4.0
  9
$LOFTANG1
 40
1.570796326794897
  9
$LOFTANG2
 40
1.570796326794897
  9
$LOFTMAG1
 40
0.0
  9
$LOFTMAG2
 40
0.0
  9
$LOFTPARAM
 70
     7
  9
$LOFTNORMALS
280
     1
  9
$LATITUDE
 40
37.795
  9
$LONGITUDE
 40
-122.394
  9
$NORTHDIRECTION
 40
0.0
  9
$TIMEZONE
 70
 -8000
  9
$LIGHTGLYPHDISPLAY
280
     1
  9
$TILEMODELIGHTSYNCH
280
     1
  9
$CMATERIAL
347
44
  9
$SOLIDHIST
280
     0
  9
$SHOWHIST
280
     1
  9
$DWFFRAME
280
     2
  9
$DGNFRAME
280
     2
  9
$REALWORLDSCALE
290
     1
  9
$INTERFERECOLOR
 62
   256
  9
$CSHADOW
280
     0
  9
$SHADOWPLANELOCATION
 40
0.0
  0
ENDSEC
  0
SECTION
  2
CLASSES
  0
CLASS
  1
ACDBDICTIONARYWDFLT
  2
AcDbDictionaryWithDefault
  3
ObjectDBX Classes
 90
        0
 91
        4
280
     0
281
     0
  0
CLASS
  1
VISUALSTYLE
  2
AcDbVisualStyle
  3
ObjectDBX Classes
 90
     4095
 91
        4
280
     0
281
     0
  0
CLASS
  1
MATERIAL
  2
AcDbMaterial
  3
ObjectDBX Classes
 90
     1153
 91
        4
280
     0
281
     0
  0
CLASS
  1
SCALE
  2
AcDbScale
  3
ObjectDBX Classes
 90
     1153
 91
        4
280
     0
281
     0
  0
CLASS
  1
TABLESTYLE
  2
AcDbTableStyle
  3
ObjectDBX Classes
 90
     4095
 91
        4
280
     0
281
     0
  0
CLASS
  1
MLEADERSTYLE
  2
AcDbMLeaderStyle
  3
ACDB_MLEADERSTYLE_CLASS
 90
     4095
 91
        4
280
     0
281
     0
  0
CLASS
  1
SUN
  2
AcDbSun
  3
SCENEOE
 90
     1153
 91
        4
280
     0
281
     0
  0
CLASS
  1
DICTIONARYVAR
  2
AcDbDictionaryVar
  3
ObjectDBX Classes
 90
        0
 91
        4
280
     0
281
     0
  0
CLASS
  1
CELLSTYLEMAP
  2
AcDbCellStyleMap
  3
ObjectDBX Classes
 90
     1152
 91
        4
280
     0
281
     0
  0
ENDSEC
  0
SECTION
  2
TABLES
  0
TABLE
  2
VPORT
  5
8
330
0
100
AcDbSymbolTable
 70
     1
  0
VPORT
  5
29
330
8
100
AcDbSymbolTableRecord
100
AcDbViewportTableRecord
  2
*Active
 70
     0
 10
0.0
 20
0.0
 11
1.0
 21
1.0
 12
0.0
 22
-0.1400000000000006
 13
0.0
 23
0.0
 14
0.5
 24
0.5
 15
0.5
 25
0.5
 16
0.0
 26
0.0
 36
1.0
 17
0.0
 27
0.0
 37
0.0
 40
1.436160000000001
 41
3.551136363636362
 42
50.0
 43
0.0
 44
0.0
 50
0.0
 51
0.0
 71
     0
 72
   100
 73
     1
 74
     3
 75
     0
 76
     0
 77
     0
 78
     0
281
     0
 65
     1
110
0.0
120
0.0
130
0.0
111
1.0
121
0.0
131
0.0
112
0.0
122
1.0
132
0.0
 79
     0
146
0.0
348
2F
 60
     3
 61
     5
292
     1
282
     1
141
0.0
142
0.0
 63
   250
361
6D
  0
ENDTAB
  0
TABLE
  2
LTYPE
  5
5
330
0
100
AcDbSymbolTable
 70
     3
  0
LTYPE
  5
14
330
5
100
AcDbSymbolTableRecord
100
AcDbLinetypeTableRecord
  2
ByBlock
 70
     0
  3

 72
    65
 73
     0
 40
0.0
  0
LTYPE
  5
15
330
5
100
AcDbSymbolTableRecord
100
AcDbLinetypeTableRecord
  2
ByLayer
 70
     0
  3

 72
    65
 73
     0
 40
0.0
  0
LTYPE
  5
16
330
5
100
AcDbSymbolTableRecord
100
AcDbLinetypeTableRecord
  2
Continuous
 70
     0
  3
Solid line
 72
    65
 73
     0
 40
0.0
  0
LTYPE
  5
9D
330
5
100
AcDbSymbolTableRecord
100
AcDbLinetypeTableRecord
  2
Dashed
 70
     0
  3

 72
    65
 73
     2
 40
2.0
 49
1.0
 74
     0
 49
-1.0
 74
     0
  0
LTYPE
  5
11A
330
5
100
AcDbSymbolTableRecord
100
AcDbLinetypeTableRecord
  2
Center
 70
     0
  3

 72
    65
 73
     4
 40
1.5
 49
0.45
 74
     0
 49
-0.5
 74
     0
 49
0.05
 74
     0
 49
-0.5
 74
     0
  0
ENDTAB
  0
TABLE
  2
LAYER
  5
2
330
0
100
AcDbSymbolTable
 70
     6
  0
LAYER
  5
10
330
2
100
AcDbSymbolTableRecord
100
AcDbLayerTableRecord
  2
0
 70
     0
 62
     7
  6
Continuous
370
    -3
390
F
347
46
348
0
  0
LAYER
  5
72
330
2
100
AcDbSymbolTableRecord
100
AcDbLayerTableRecord
  2
AM_6
 70
     0
 62
    -2
  6
Continuous
370
    35
390
F
347
46
348
0
  0
LAYER
  5
9E
330
2
100
AcDbSymbolTableRecord
100
AcDbLayerTableRecord
  2
AM_9
 70
     0
 62
     6
  6
Dashed
370
    25
390
F
347
46
348
0
  0
LAYER
  5
C0
330
2
100
AcDbSymbolTableRecord
100
AcDbLayerTableRecord
  2
AM_4
 70
     0
 62
     7
  6
Continuous
370
    50
390
F
347
46
348
0
  0
LAYER
  5
11B
330
2
100
AcDbSymbolTableRecord
100
AcDbLayerTableRecord
  2
AM_7
 70
     0
 62
     7
  6
Center
370
    25
390
F
347
46
348
0
  0
LAYER
  5
197
330
2
100
AcDbSymbolTableRecord
100
AcDbLayerTableRecord
  2
ConnectionPoints
 70
     0
 62
     7
  6
Continuous
370
    50
390
F
347
46
348
0
  0
ENDTAB
  0
TABLE
  2
STYLE
  5
3
330
0
100
AcDbSymbolTable
 70
     1
  0
STYLE
  5
11
330
3
100
AcDbSymbolTableRecord
100
AcDbTextStyleTableRecord
  2
Standard
 70
     0
 40
0.0
 41
1.0
 50
0.0
 71
     0
 42
0.2
  3
txt
  4

  0
ENDTAB
  0
TABLE
  2
VIEW
  5
6
330
0
100
AcDbSymbolTable
 70
     0
  0
ENDTAB
  0
TABLE
  2
UCS
  5
7
330
0
100
AcDbSymbolTable
 70
     0
  0
ENDTAB
  0
TABLE
  2
APPID
  5
9
330
0
100
AcDbSymbolTable
 70
     1
  0
APPID
  5
12
330
9
100
AcDbSymbolTableRecord
100
AcDbRegAppTableRecord
  2
ACAD
 70
     0
  0
ENDTAB
  0
TABLE
  2
DIMSTYLE
  5
A
330
0
100
AcDbSymbolTable
 70
     1
100
AcDbDimStyleTable
  0
DIMSTYLE
105
27
330
A
100
AcDbSymbolTableRecord
100
AcDbDimStyleTableRecord
  2
Standard
 70
     0
178
     0
340
11
  0
ENDTAB
  0
TABLE
  2
BLOCK_RECORD
  5
1
330
0
100
AcDbSymbolTable
 70
     5
  0
BLOCK_RECORD
  5
1F
330
1
100
AcDbSymbolTableRecord
100
AcDbBlockTableRecord
  2
*Model_Space
340
22
 70
     0
280
     1
281
     0
  0
BLOCK_RECORD
  5
1B
330
1
100
AcDbSymbolTableRecord
100
AcDbBlockTableRecord
  2
*Paper_Space
340
1E
 70
     0
280
     1
281
     0
  0
BLOCK_RECORD
  5
23
330
1
100
AcDbSymbolTableRecord
100
AcDbBlockTableRecord
  2
*Paper_Space0
340
26
 70
     0
280
     1
281
     0
  0
BLOCK_RECORD
  5
6E
330
1
100
AcDbSymbolTableRecord
100
AcDbBlockTableRecord
  2
1_127715_4
340
0
102
{BLKREFS
331
6F
102
}
 70
     0
280
     1
281
     0
  0
BLOCK_RECORD
  5
8B
330
1
100
AcDbSymbolTableRecord
100
AcDbBlockTableRecord
  2
2_405020c_Inch_0_in_127715_4
340
0
102
{BLKREFS
331
8C
102
}
 70
     0
280
     1
281
     0
  0
BLOCK_RECORD
  5
E4
330
1
100
AcDbSymbolTableRecord
100
AcDbBlockTableRecord
  2
3_128646_0_in_127715_4
340
0
102
{BLKREFS
331
E5
102
}
 70
     0
280
     1
281
     0
  0
BLOCK_RECORD
  5
12F
330
1
100
AcDbSymbolTableRecord
100
AcDbBlockTableRecord
  2
4_127715h_0_in_127715_4
340
0
102
{BLKREFS
331
130
102
}
 70
     0
280
     1
281
     0
  0
ENDTAB
  0
ENDSEC
  0
SECTION
  2
BLOCKS
  0
BLOCK
  5
20
330
1F
100
AcDbEntity
  8
0
100
AcDbBlockBegin
  2
*Model_Space
 70
     0
 10
0.0
 20
0.0
 30
0.0
  3
*Model_Space
  1

  0
ENDBLK
  5
21
330
1F
100
AcDbEntity
  8
0
100
AcDbBlockEnd
  0
BLOCK
  5
1C
330
1B
100
AcDbEntity
 67
     1
  8
0
100
AcDbBlockBegin
  2
*Paper_Space
 70
     0
 10
0.0
 20
0.0
 30
0.0
  3
*Paper_Space
  1

  0
ENDBLK
  5
1D
330
1B
100
AcDbEntity
 67
     1
  8
0
100
AcDbBlockEnd
  0
BLOCK
  5
24
330
23
100
AcDbEntity
  8
0
100
AcDbBlockBegin
  2
*Paper_Space0
 70
     0
 10
0.0
 20
0.0
 30
0.0
  3
*Paper_Space0
  1

  0
ENDBLK
  5
25
330
23
100
AcDbEntity
  8
0
100
AcDbBlockEnd
  0
BLOCK
  5
70
330
6E
100
AcDbEntity
  8
0
100
AcDbBlockBegin
  2
1_127715_4
 70
     2
 10
0.0
 20
0.0
 30
0.0
  3
1_127715_4
  1

  0
ATTDEF
  5
73
330
6E
100
AcDbEntity
  8
AM_6
100
AcDbText
 10
7.5
 20
0.5640000000000001
 30
0.0
 40
0.5
  1
D-Lok Two-Bolt Pillow Block Inch Bore - Stainless Housing, Corrosion Resistant Insert
100
AcDbAttributeDefinition
  3

  2
NN
 70
     8
280
     0
  0
ATTDEF
  5
74
330
6E
100
AcDbEntity
  8
AM_6
100
AcDbText
 10
7.5
 20
0.0640000000000001
 30
0.0
 40
0.5
  1
DLEZ Normal Duty Stainless Steel Housed Pillow Blocks
100
AcDbAttributeDefinition
  3

  2
NT
 70
     8
280
     0
  0
ATTDEF
  5
75
330
6E
100
AcDbEntity
  8
AM_6
100
AcDbText
 10
7.5
 20
-0.4359999999999999
 30
0.0
 40
0.5
  1
127715
100
AcDbAttributeDefinition
  3

  2
NB
 70
     8
280
     0
  0
ATTDEF
  5
76
330
6E
100
AcDbEntity
  8
AM_6
100
AcDbText
 10
7.5
 20
-0.9359999999999999
 30
0.0
 40
0.5
  1
$PN.
100
AcDbAttributeDefinition
  3

  2
NBSYN
 70
     8
280
     0
  0
ATTDEF
  5
77
330
6E
100
AcDbEntity
  8
AM_6
100
AcDbText
 10
7.5
 20
-1.436
 30
0.0
 40
0.5
  1
127715
100
AcDbAttributeDefinition
  3

  2
LINA
 70
     8
280
     0
  0
ATTDEF
  5
78
330
6E
100
AcDbEntity
  8
AM_6
100
AcDbText
 10
7.5
 20
-1.936
 30
0.0
 40
0.5
  1
204
100
AcDbAttributeDefinition
  3

  2
SERIES
 70
     8
280
     0
  0
ATTDEF
  5
79
330
6E
100
AcDbEntity
  8
AM_6
100
AcDbText
 10
7.5
 20
-2.436
 30
0.0
 40
0.5
  1
3/4
100
AcDbAttributeDefinition
  3

  2
SS
 70
     8
280
     0
  0
ATTDEF
  5
7A
330
6E
100
AcDbEntity
  8
AM_6
100
AcDbText
 10
7.5
 20
-2.936
 30
0.0
 40
0.5
  1
127715
100
AcDbAttributeDefinition
  3

  2
PN
 70
     8
280
     0
  0
ATTDEF
  5
7B
330
6E
100
AcDbEntity
  8
AM_6
100
AcDbText
 10
7.5
 20
-3.436
 30
0.0
 40
0.5
  1
P2B-DLEZ-012-SHCR
100
AcDbAttributeDefinition
  3

  2
DESCRIPTION
 70
     8
280
     0
  0
ATTDEF
  5
7C
330
6E
100
AcDbEntity
  8
AM_6
100
AcDbText
 10
7.5
 20
-3.936
 30
0.0
 40
0.5
  1
1.46
100
AcDbAttributeDefinition
  3

  2
W
 70
     8
280
     0
  0
ATTDEF
  5
7D
330
6E
100
AcDbEntity
  8
AM_6
100
AcDbText
 10
7.5
 20
-4.436
 30
0.0
 40
0.5
  1
1.28
100
AcDbAttributeDefinition
  3

  2
A
 70
     8
280
     0
  0
ATTDEF
  5
7E
330
6E
100
AcDbEntity
  8
AM_6
100
AcDbText
 10
7.5
 20
-4.936
 30
0.0
 40
0.5
  1
5.00
100
AcDbAttributeDefinition
  3

  2
B
 70
     8
280
     0
  0
ATTDEF
  5
7F
330
6E
100
AcDbEntity
  8
AM_6
100
AcDbText
 10
7.5
 20
-5.436
 30
0.0
 40
0.5
  1
1.00
100
AcDbAttributeDefinition
  3

  2
C
 70
     8
280
     0
  0
ATTDEF
  5
80
330
6E
100
AcDbEntity
  8
AM_6
100
AcDbText
 10
7.5
 20
-5.936
 30
0.0
 40
0.5
  1
3.38
100
AcDbAttributeDefinition
  3

  2
DMIN
 70
     8
280
     0
  0
ATTDEF
  5
81
330
6E
100
AcDbEntity
  8
AM_6
100
AcDbText
 10
7.5
 20
-6.436
 30
0.0
 40
0.5
  1
4.18
100
AcDbAttributeDefinition
  3

  2
DMAX
 70
     8
280
     0
  0
ATTDEF
  5
82
330
6E
100
AcDbEntity
  8
AM_6
100
AcDbText
 10
7.5
 20
-6.936
 30
0.0
 40
0.5
  1
3/8
100
AcDbAttributeDefinition
  3

  2
F
 70
     8
280
     0
  0
ATTDEF
  5
83
330
6E
100
AcDbEntity
  8
AM_6
100
AcDbText
 10
7.5
 20
-7.436
 30
0.0
 40
0.5
  1
0.84
100
AcDbAttributeDefinition
  3

  2
G
 70
     8
280
     0
  0
ATTDEF
  5
84
330
6E
100
AcDbEntity
  8
AM_6
100
AcDbText
 10
7.5
 20
-7.936
 30
0.0
 40
0.5
  1
0.50
100
AcDbAttributeDefinition
  3

  2
H
 70
     8
280
     0
  0
ATTDEF
  5
85
330
6E
100
AcDbEntity
  8
AM_6
100
AcDbText
 10
7.5
 20
-8.436
 30
0.0
 40
0.5
  1
2.50
100
AcDbAttributeDefinition
  3

  2
J
 70
     8
280
     0
  0
ATTDEF
  5
86
330
6E
100
AcDbEntity
  8
AM_6
100
AcDbText
 10
7.5
 20
-8.936
 30
0.0
 40
0.5
  1
1.71
100
AcDbAttributeDefinition
  3

  2
L
 70
     8
280
     0
  0
ATTDEF
  5
87
330
6E
100
AcDbEntity
  8
AM_6
100
AcDbText
 10
7.5
 20
-9.436
 30
0.0
 40
0.5
  1
1.31
100
AcDbAttributeDefinition
  3

  2
M
 70
     8
280
     0
  0
ATTDEF
  5
88
330
6E
100
AcDbEntity
  8
AM_6
100
AcDbText
 10
7.5
 20
-9.936
 30
0.0
 40
0.5
  1
0.50
100
AcDbAttributeDefinition
  3

  2
R
 70
     8
280
     0
  0
ATTDEF
  5
89
330
6E
100
AcDbEntity
  8
AM_6
100
AcDbText
 10
7.5
 20
-10.436
 30
0.0
 40
0.5
  1
0.78
100
AcDbAttributeDefinition
  3

  2
S
 70
     8
280
     0
  0
ATTDEF
  5
8A
330
6E
100
AcDbEntity
  8
AM_6
100
AcDbText
 10
7.5
 20
-10.936
 30
0.0
 40
0.5
  1
baldor
100
AcDbAttributeDefinition
  3

  2
COMPANY
 70
     8
280
     0
  0
INSERT
  5
8C
330
6E
100
AcDbEntity
  8
0
100
AcDbBlockReference
  2
2_405020c_Inch_0_in_127715_4
 10
0.0
 20
0.0
 30
0.0
  0
INSERT
  5
E5
330
6E
100
AcDbEntity
  8
0
100
AcDbBlockReference
  2
3_128646_0_in_127715_4
 10
0.0
 20
0.0
 30
0.0
  0
INSERT
  5
130
330
6E
100
AcDbEntity
  8
0
100
AcDbBlockReference
  2
4_127715h_0_in_127715_4
 10
0.0
 20
0.0
 30
0.0
  0
ENDBLK
  5
71
330
6E
100
AcDbEntity
  8
0
100
AcDbBlockEnd
  0
BLOCK
  5
8D
330
8B
100
AcDbEntity
  8
0
100
AcDbBlockBegin
  2
2_405020c_Inch_0_in_127715_4
 70
     2
 10
0.0
 20
0.0
 30
0.0
  3
2_405020c_Inch_0_in_127715_4
  1

  0
ATTDEF
  5
8F
330
8B
100
AcDbEntity
  8
AM_6
100
AcDbText
 10
6.149844591989998
 20
0.1624086307230418
 30
0.0
 40
0.5
  1
405020C -Inch
100
AcDbAttributeDefinition
  3

  2
NN
 70
     8
280
     0
  0
ATTDEF
  5
90
330
8B
100
AcDbEntity
  8
AM_6
100
AcDbText
 10
6.149844591989998
 20
-0.3375913692769582
 30
0.0
 40
0.5
  1
Grease fitting
100
AcDbAttributeDefinition
  3

  2
NT
 70
     8
280
     0
  0
ATTDEF
  5
91
330
8B
100
AcDbEntity
  8
AM_6
100
AcDbText
 10
6.149844591989998
 20
-0.8375913692769582
 30
0.0
 40
0.5
  1
405020c-Inch
100
AcDbAttributeDefinition
  3

  2
NB
 70
     8
280
     0
  0
ATTDEF
  5
92
330
8B
100
AcDbEntity
  8
AM_6
100
AcDbText
 10
6.149844591989998
 20
-1.337591369276958
 30
0.0
 40
0.5
  1
$MN.-Inch
100
AcDbAttributeDefinition
  3

  2
NBSYN
 70
     8
280
     0
  0
ATTDEF
  5
93
330
8B
100
AcDbEntity
  8
AM_6
100
AcDbText
 10
6.149844591989998
 20
-1.837591369276958
 30
0.0
 40
0.5
  1
405020c
100
AcDbAttributeDefinition
  3

  2
LINA
 70
     8
280
     0
  0
ATTDEF
  5
94
330
8B
100
AcDbEntity
  8
AM_6
100
AcDbText
 10
6.149844591989998
 20
-2.337591369276958
 30
0.0
 40
0.5
  1
405020c
100
AcDbAttributeDefinition
  3

  2
MN
 70
     8
280
     0
  0
ATTDEF
  5
95
330
8B
100
AcDbEntity
  8
AM_6
100
AcDbText
 10
6.149844591989998
 20
-2.837591369276958
 30
0.0
 40
0.5
  1
0.230
100
AcDbAttributeDefinition
  3

  2
NDR
 70
     8
280
     0
  0
ATTDEF
  5
96
330
8B
100
AcDbEntity
  8
AM_6
100
AcDbText
 10
6.149844591989998
 20
-3.337591369276958
 30
0.0
 40
0.5
  1
0.210
100
AcDbAttributeDefinition
  3

  2
KDR
 70
     8
280
     0
  0
ATTDEF
  5
97
330
8B
100
AcDbEntity
  8
AM_6
100
AcDbText
 10
6.149844591989998
 20
-3.837591369276958
 30
0.0
 40
0.5
  1
0.157
100
AcDbAttributeDefinition
  3

  2
BZE
 70
     8
280
     0
  0
ATTDEF
  5
98
330
8B
100
AcDbEntity
  8
AM_6
100
AcDbText
 10
6.149844591989998
 20
-4.337591369276958
 30
0.0
 40
0.5
  1
9/32
100
AcDbAttributeDefinition
  3

  2
WAF
 70
     8
280
     0
  0
ATTDEF
  5
99
330
8B
100
AcDbEntity
  8
AM_6
100
AcDbText
 10
6.149844591989998
 20
-4.837591369276958
 30
0.0
 40
0.5
  1
0.2813
100
AcDbAttributeDefinition
  3

  2
WAF1
 70
     8
280
     0
  0
ATTDEF
  5
9A
330
8B
100
AcDbEntity
  8
AM_6
100
AcDbText
 10
6.149844591989998
 20
-5.337591369276958
 30
0.0
 40
0.5
  1
0.545
100
AcDbAttributeDefinition
  3

  2
BL
 70
     8
280
     0
  0
ATTDEF
  5
9B
330
8B
100
AcDbEntity
  8
AM_6
100
AcDbText
 10
6.149844591989998
 20
-5.837591369276958
 30
0.0
 40
0.5
  1
0.200
100
AcDbAttributeDefinition
  3

  2
TL
 70
     8
280
     0
  0
ATTDEF
  5
9C
330
8B
100
AcDbEntity
  8
AM_6
100
AcDbText
 10
6.149844591989998
 20
-6.337591369276958
 30
0.0
 40
0.5
  1
baldor
100
AcDbAttributeDefinition
  3

  2
COMPANY
 70
     8
280
     0
  0
ELLIPSE
  5
9F
330
8B
100
AcDbEntity
  8
AM_9
100
AcDbEllipse
 10
0.700035713374682
 20
0.0
 30
0.0
 11
-1.838598171376523E-17
 21
-0.1000886227036577
 31
0.0
210
0.0
220
0.0
230
1.0
 40
0.7071067811865474
 41
0.0
 42
6.283185307179586
  0
LINE
  5
A0
330
8B
100
AcDbEntity
  8
AM_9
100
AcDbLine
 10
0.9839295111843379
 20
0.0812043153615209
 30
0.0
 11
0.9450342176665243
 21
0.0812043153615209
 31
0.0
  0
LINE
  5
A1
330
8B
100
AcDbEntity
  8
AM_9
100
AcDbLine
 10
0.9839295111843379
 20
-0.0812043153615208
 30
0.0
 11
0.9450342176665243
 21
-0.0812043153615208
 31
0.0
  0
LWPOLYLINE
  5
A2
330
8B
100
AcDbEntity
  8
AM_9
100
AcDbPolyline
 90
        3
 70
     0
 43
0.0
 10
0.9409116383858795
 20
0.0
 10
0.9419997876607931
 20
-0.0406021576807604
 10
0.9450342176665243
 20
-0.0812043153615208
  0
LWPOLYLINE
  5
A3
330
8B
100
AcDbEntity
  8
AM_9
100
AcDbPolyline
 90
        4
 70
     0
 43
0.0
 10
0.9450342176665243
 20
0.0812043153615209
 10
0.9434089970099373
 20
0.0623017518439032
 10
0.9415611808289113
 20
0.0312428256208204
 10
0.9409116383858795
 20
0.0
  0
LWPOLYLINE
  5
A4
330
8B
100
AcDbEntity
  8
AM_9
100
AcDbPolyline
 90
        3
 70
     0
 43
0.0
 10
0.8911843539989356
 20
0.1218064730422814
 10
0.9171361454673211
 20
0.1015053942019011
 10
0.9450342176665243
 20
0.0812043153615209
  0
LWPOLYLINE
  5
A5
330
8B
100
AcDbEntity
  8
AM_9
100
AcDbPolyline
 90
        3
 70
     0
 43
0.0
 10
0.9450342176665243
 20
-0.0812043153615208
 10
0.9172575522806756
 20
-0.1014141150849085
 10
0.8911843539989355
 20
-0.1218064730422813
  0
LWPOLYLINE
  5
A6
330
8B
100
AcDbEntity
  8
AM_9
100
AcDbPolyline
 90
        3
 70
     0
 43
0.0
 10
0.9502883685595337
 20
-0.1118199743330278
 10
0.9621002989965972
 20
-0.101505394201901
 10
0.9839295111843379
 20
-0.0812043153615208
  0
LWPOLYLINE
  5
A7
330
8B
100
AcDbEntity
  8
AM_9
100
AcDbPolyline
 90
        3
 70
     0
 43
0.0
 10
0.9839295111843379
 20
-0.0812043153615208
 10
0.9869543280071164
 20
-0.0407847159147454
 10
0.9880520904649825
 20
0.0
  0
LWPOLYLINE
  5
A8
330
8B
100
AcDbEntity
  8
AM_9
100
AcDbPolyline
 90
        3
 70
     0
 43
0.0
 10
0.9839295111843379
 20
0.0812043153615209
 10
0.9622024794440461
 20
0.1014141150849086
 10
0.9502895185305205
 20
0.1118189926816819
  0
LWPOLYLINE
  5
A9
330
8B
100
AcDbEntity
  8
AM_9
100
AcDbPolyline
 90
        4
 70
     0
 43
0.0
 10
0.9880465674943367
 20
0.0028636834329521
 10
0.9874063205299007
 20
0.0311508759219516
 10
0.9855547318409249
 20
0.0623017518439032
 10
0.9839295111843379
 20
0.0812043153615209
  0
LINE
  5
AA
330
8B
100
AcDbEntity
  8
AM_9
100
AcDbLine
 10
0.9880520904649825
 20
0.0
 30
0.0
 11
0.9880495134377922
 21
0.0019560778638409
 31
0.0
  0
LWPOLYLINE
  5
AB
330
8B
100
AcDbEntity
  8
AM_9
100
AcDbPolyline
 90
        3
 70
     0
 43
0.0
 10
0.8911843539989355
 20
-0.1218064730422813
 10
0.8674088610803771
 20
-0.1421075518826615
 10
0.8455796488926363
 20
-0.1624086307230417
  0
LWPOLYLINE
  5
AC
330
8B
100
AcDbEntity
  8
AM_9
100
AcDbPolyline
 90
        3
 70
     0
 43
0.0
 10
0.8455796488926363
 20
0.1624086307230418
 10
0.867306680632928
 20
0.1421988309996541
 10
0.8911843539989356
 20
0.1218064730422814
  0
LINE
  5
AD
330
8B
100
AcDbEntity
  8
AM_9
100
AcDbLine
 10
0.7048984558369675
 20
-0.1103623268442186
 30
0.0
 11
0.8388821578355334
 21
-0.1162868155867446
 31
0.0
  0
LINE
  5
AE
330
8B
100
AcDbEntity
  8
AM_9
100
AcDbLine
 10
0.8388821578355334
 20
0.1162868155867447
 30
0.0
 11
0.7048984558369675
 21
0.1103623268442187
 31
0.0
  0
ELLIPSE
  5
AF
330
8B
100
AcDbEntity
  8
AM_9
100
AcDbEllipse
 10
0.8885975216910954
 20
-0.0000000000000003
 30
0.0
 11
8.612328615003724E-18
 21
0.1406499999999994
 31
0.0
210
0.0
220
0.0
230
1.0
 40
0.7071067811865451
 41
3.798906696793615
 42
5.625871263975766
  0
ELLIPSE
  5
B0
330
8B
100
AcDbEntity
  8
AM_9
100
AcDbEllipse
 10
0.9107444945766261
 20
-0.0000000000000003
 30
0.0
 11
6.694498085252812E-18
 21
0.1093294505797718
 31
0.0
210
0.0
220
0.0
230
1.0
 40
0.7071067811865513
 41
5.283862896383474
 42
5.928986666165874
  0
ELLIPSE
  5
B1
330
8B
100
AcDbEntity
  8
AM_9
100
AcDbEllipse
 10
0.9107444945766264
 20
-0.0000000000000004
 30
0.0
 11
6.694498085252754E-18
 21
0.1093294505797708
 31
0.0
210
0.0
220
0.0
230
1.0
 40
0.7071067811865525
 41
3.495791294603503
 42
4.051565552870194
  0
ELLIPSE
  5
B2
330
8B
100
AcDbEntity
  8
AM_9
100
AcDbEllipse
 10
0.910744494576455
 20
0.0000000000000822
 30
0.0
 11
6.694498085268486E-18
 21
0.1093294505800277
 31
0.0
210
0.0
220
0.0
230
1.0
 40
0.707106781186547
 41
4.357233394780076
 42
5.108079338102884
  0
LWPOLYLINE
  5
B3
330
8B
100
AcDbEntity
  8
AM_9
100
AcDbPolyline
 90
       16
 70
     0
 43
0.0
 10
0.9357444945766268
 20
0.0946847896390988
 10
0.9370746329332263
 20
0.0946452168050772
 10
0.9409458258518355
 20
0.0940839895097975
 10
0.9445825071369115
 20
0.0929700767563293
 10
0.9482205030596021
 20
0.0913108548529057
 10
0.9519228658082614
 20
0.0890752588066496
 10
0.9560845674765475
 20
0.0858964401411183
 10
0.9602158915067402
 20
0.0820064968064231
 10
0.9642734960840152
 20
0.0774001379757891
 10
0.9682030201942954
 20
0.0720811393878264
 10
0.971941122347934
 20
0.0660697149533024
 10
0.9754222131814954
 20
0.0594018167565312
 10
0.9785806032837867
 20
0.0521330459443359
 10
0.9813589972181223
 20
0.044325376154082
 10
0.9837065357694538
 20
0.0360508821766432
 10
0.984305452024476
 20
0.0335530835053113
  0
LWPOLYLINE
  5
B4
330
8B
100
AcDbEntity
  8
AM_9
100
AcDbPolyline
 90
        4
 70
     0
 43
0.0
 10
0.9256140347504144
 20
-0.0924420776374126
 10
0.9229398689609475
 20
-0.0911346827793232
 10
0.9192310328116613
 20
-0.0888456668272543
 10
0.9178996531160385
 20
-0.0878882696092024
  0
LWPOLYLINE
  5
B5
330
8B
100
AcDbEntity
  8
AM_9
100
AcDbPolyline
 90
       19
 70
     0
 43
0.0
 10
0.9844477982364731
 20
-0.0329277926739432
 10
0.9837032334959672
 20
-0.0360641097620156
 10
0.9813527421075847
 20
-0.0443449665889605
 10
0.9785736314134573
 20
-0.0521507192784553
 10
0.9754209238682424
 20
-0.059404518510319
 10
0.9719579202524798
 20
-0.0660402553136735
 10
0.968254763441248
 20
-0.0720047437167846
 10
0.9643867727171221
 20
-0.0772593210523112
 10
0.9604353916148551
 20
-0.0817780961057523
 10
0.9564773100818013
 20
-0.0855589971056095
 10
0.9525806912666143
 20
-0.0886202298742332
 10
0.9487961488964113
 20
-0.0909993974391896
 10
0.9451429938601891
 20
-0.0927494846146213
 10
0.9415859843389994
 20
-0.0939283677762536
 10
0.9379911870808235
 20
-0.0945720025342749
 10
0.9340465704963533
 20
-0.0946203293181563
 10
0.9302137757698443
 20
-0.0940061051815072
 10
0.9265822794090981
 20
-0.092844049206895
 10
0.9256140347504144
 20
-0.0924420776374126
  0
LWPOLYLINE
  5
B6
330
8B
100
AcDbEntity
  8
AM_9
100
AcDbPolyline
 90
        6
 70
     0
 43
0.0
 10
0.9227899901056337
 20
0.0910528936406798
 10
0.9229903314137661
 20
0.0911620174165902
 10
0.9266335352141484
 20
0.0928642608508301
 10
0.9301868789378419
 20
0.0939995401618893
 10
0.9337951870113952
 20
0.0945998528221435
 10
0.9357444945766268
 20
0.0946847896390988
  0
LWPOLYLINE
  5
B7
330
8B
100
AcDbEntity
  8
AM_9
100
AcDbPolyline
 90
        3
 70
     0
 43
0.0
 10
0.9180929326017191
 20
0.0880317576968519
 10
0.919216144509948
 20
0.088835360190327
 10
0.9227899901056337
 20
0.0910528936406798
  0
ELLIPSE
  5
B8
330
8B
100
AcDbEntity
  8
AM_9
100
AcDbEllipse
 10
0.9506863065131327
 20
0.0
 30
0.0
 11
6.084620899749641E-18
 21
0.09936940028726635
 31
0.0
210
0.0
220
0.0
230
1.0
 40
0.7071067811865456
 41
2.656480407116015
 42
6.283185307179586
  0
ELLIPSE
  5
B9
330
8B
100
AcDbEntity
  8
AM_9
100
AcDbEllipse
 10
0.9990176352176083
 20
0.0000000000000001
 30
0.0
 11
8.036249332247508E-18
 21
0.1312419113468905
 31
0.0
210
0.0
220
0.0
230
1.0
 40
0.7071067811865474
 41
2.656480407116016
 42
6.725896430505369
  0
ELLIPSE
  5
BA
330
8B
100
AcDbEntity
  8
AM_9
100
AcDbEllipse
 10
1.027773878682886
 20
0.0000000000000001
 30
0.0
 11
8.079715312105952E-18
 21
0.1319517646676799
 31
0.0
210
0.0
220
0.0
230
1.0
 40
0.7071067811865475
 41
3.584358532729958
 42
5.840624309092914
  0
ELLIPSE
  5
BB
330
8B
100
AcDbEntity
  8
AM_9
100
AcDbEllipse
 10
0.9990176352182918
 20
-0.0000000000000454
 30
0.0
 11
8.036249332250679E-18
 21
0.1312419113469423
 31
0.0
210
0.0
220
0.0
230
1.0
 40
0.7071067811888315
 41
0.4603808085707009
 42
0.4861959457325885
  0
ELLIPSE
  5
BC
330
8B
100
AcDbEntity
  8
AM_9
100
AcDbEllipse
 10
1.074638455356073
 20
0.0000000000000001
 30
0.0
 11
6.357083428131002E-18
 21
0.1038190510530391
 31
0.0
210
0.0
220
0.0
230
1.0
 40
0.707106781186548
 41
3.585724656945292
 42
5.844803532225581
  0
ELLIPSE
  5
BD
330
8B
100
AcDbEntity
  8
AM_9
100
AcDbEllipse
 10
0.8414570696119928
 20
-0.0000000000000006
 30
0.0
 11
8.612328615003826E-18
 21
0.1406500000000011
 31
0.0
210
0.0
220
0.0
230
1.0
 40
0.7071067811865518
 41
0.0
 42
6.283185307179586
  0
ELLIPSE
  5
BE
330
8B
100
AcDbEntity
  8
AM_9
100
AcDbEllipse
 10
0.8414570696119917
 20
0.0000000000000001
 30
0.0
 11
7.124004163867288E-18
 21
0.1163438171532771
 31
0.0
210
0.0
220
0.0
230
1.0
 40
0.7071067811865471
 41
0.0
 42
6.283185307179586
  0
ELLIPSE
  5
BF
330
8B
100
AcDbEntity
  8
AM_9
100
AcDbEllipse
 10
0.7073384554534677
 20
0.0000000000000001
 30
0.0
 11
6.761045944280101E-18
 21
0.1104162595939891
 31
0.0
210
0.0
220
0.0
230
1.0
 40
0.7071067811865472
 41
0.0
 42
6.283185307179586
  0
LINE
  5
C1
330
8B
100
AcDbEntity
  8
AM_4
100
AcDbLine
 10
0.9383248060780386
 20
-0.1218064730422812
 30
0.0
 11
0.9502883685595337
 21
-0.1118199743330278
 31
0.0
  0
LINE
  5
C2
330
8B
100
AcDbEntity
  8
AM_4
100
AcDbLine
 10
0.9502895185305205
 20
0.1118189926816819
 30
0.0
 11
0.9383248060780386
 21
0.1218064730422813
 31
0.0
  0
LWPOLYLINE
  5
C3
330
8B
100
AcDbEntity
  8
AM_4
100
AcDbPolyline
 90
        3
 70
     0
 43
0.0
 10
0.9383248060780386
 20
0.1218064730422813
 10
0.9123730146096533
 20
0.1421075518826616
 10
0.8844749424104501
 20
0.1624086307230418
  0
LWPOLYLINE
  5
C4
330
8B
100
AcDbEntity
  8
AM_4
100
AcDbPolyline
 90
        3
 70
     0
 43
0.0
 10
0.8844749424104501
 20
-0.1624086307230417
 10
0.9122516077962987
 20
-0.142198830999654
 10
0.9383248060780386
 20
-0.1218064730422812
  0
LWPOLYLINE
  5
C5
330
8B
100
AcDbEntity
  8
AM_4
100
AcDbPolyline
 90
        3
 70
     0
 43
0.0
 10
0.7917297852250476
 20
-0.1218064730422812
 10
0.7679542923064892
 20
-0.101505394201901
 10
0.7461250801187485
 20
-0.0812043153615208
  0
LWPOLYLINE
  5
C6
330
8B
100
AcDbEntity
  8
AM_4
100
AcDbPolyline
 90
        3
 70
     0
 43
0.0
 10
0.8455796488926363
 20
-0.1624086307230417
 10
0.8178029835067876
 20
-0.142198830999654
 10
0.7917297852250476
 20
-0.1218064730422812
  0
LINE
  5
C7
330
8B
100
AcDbEntity
  8
AM_4
100
AcDbLine
 10
0.8844749424104501
 20
-0.1624086307230417
 30
0.0
 11
0.8455796488926363
 21
-0.1624086307230417
 31
0.0
  0
LWPOLYLINE
  5
C8
330
8B
100
AcDbEntity
  8
AM_4
100
AcDbPolyline
 90
        3
 70
     0
 43
0.0
 10
0.8388702373041508
 20
-0.1218064730422812
 10
0.8626457302227092
 20
-0.1421075518826615
 10
0.8844749424104501
 20
-0.1624086307230417
  0
LWPOLYLINE
  5
C9
330
8B
100
AcDbEntity
  8
AM_4
100
AcDbPolyline
 90
        4
 70
     0
 43
0.0
 10
0.7420025008381036
 20
0.0000000000000001
 10
0.7426482707731855
 20
0.0311508759219516
 10
0.7444998594621615
 20
0.0623017518439032
 10
0.7461250801187485
 20
0.0812043153615209
  0
LWPOLYLINE
  5
CA
330
8B
100
AcDbEntity
  8
AM_4
100
AcDbPolyline
 90
        3
 70
     0
 43
0.0
 10
0.7461250801187485
 20
-0.0812043153615208
 10
0.74310026329597
 20
-0.0407847159147454
 10
0.7420025008381036
 20
0.0000000000000001
  0
LINE
  5
CB
330
8B
100
AcDbEntity
  8
AM_4
100
AcDbLine
 10
0.7850203736365621
 20
-0.0812043153615208
 30
0.0
 11
0.7461250801187485
 21
-0.0812043153615208
 31
0.0
  0
LWPOLYLINE
  5
CC
330
8B
100
AcDbEntity
  8
AM_4
100
AcDbPolyline
 90
        4
 70
     0
 43
0.0
 10
0.7850203736365621
 20
0.0812043153615209
 10
0.7866455942931491
 20
0.0623017518439032
 10
0.7884934104741751
 20
0.0312428256208205
 10
0.7891429529172068
 20
0.0000000000000001
  0
LINE
  5
CD
330
8B
100
AcDbEntity
  8
AM_4
100
AcDbLine
 10
0.8844749424104501
 20
0.1624086307230418
 30
0.0
 11
0.8455796488926363
 21
0.1624086307230418
 31
0.0
  0
LWPOLYLINE
  5
CE
330
8B
100
AcDbEntity
  8
AM_4
100
AcDbPolyline
 90
        3
 70
     0
 43
0.0
 10
0.7917297852250476
 20
0.1218064730422813
 10
0.8176815766934331
 20
0.1421075518826616
 10
0.8455796488926363
 20
0.1624086307230418
  0
LWPOLYLINE
  5
CF
330
8B
100
AcDbEntity
  8
AM_4
100
AcDbPolyline
 90
        3
 70
     0
 43
0.0
 10
0.7461250801187485
 20
0.0812043153615209
 10
0.7678521118590402
 20
0.1014141150849086
 10
0.7917297852250476
 20
0.1218064730422813
  0
LINE
  5
D0
330
8B
100
AcDbEntity
  8
AM_4
100
AcDbLine
 10
0.7850203736365621
 20
0.0812043153615209
 30
0.0
 11
0.7461250801187485
 21
0.0812043153615209
 31
0.0
  0
LWPOLYLINE
  5
D1
330
8B
100
AcDbEntity
  8
AM_4
100
AcDbPolyline
 90
        3
 70
     0
 43
0.0
 10
0.8388702373041508
 20
0.1218064730422813
 10
0.8129184458357652
 20
0.1015053942019011
 10
0.7850203736365621
 20
0.0812043153615209
  0
LWPOLYLINE
  5
D2
330
8B
100
AcDbEntity
  8
AM_4
100
AcDbPolyline
 90
        3
 70
     0
 43
0.0
 10
0.8844749424104501
 20
0.1624086307230418
 10
0.8627479106701582
 20
0.1421988309996541
 10
0.8388702373041508
 20
0.1218064730422813
  0
LWPOLYLINE
  5
D3
330
8B
100
AcDbEntity
  8
AM_4
100
AcDbPolyline
 90
        3
 70
     0
 43
0.0
 10
0.7891429529172068
 20
0.0000000000000001
 10
0.7880548036422933
 20
-0.0406021576807604
 10
0.7850203736365621
 20
-0.0812043153615208
  0
LWPOLYLINE
  5
D4
330
8B
100
AcDbEntity
  8
AM_4
100
AcDbPolyline
 90
        3
 70
     0
 43
0.0
 10
0.7850203736365621
 20
-0.0812043153615208
 10
0.8127970390224107
 20
-0.1014141150849085
 10
0.8388702373041508
 20
-0.1218064730422812
  0
ELLIPSE
  5
D5
330
8B
100
AcDbEntity
  8
AM_4
100
AcDbEllipse
 10
0.8885975216910947
 20
0.0
 30
0.0
 11
8.612328615003763E-18
 21
0.14065
 31
0.0
210
0.0
220
0.0
230
1.0
 40
0.7071067811865475
 41
5.62587126397576
 42
10.08209200397321
  0
ELLIPSE
  5
D6
330
8B
100
AcDbEntity
  8
AM_4
100
AcDbEllipse
 10
0.9107444945766233
 20
0.0000000000000007
 30
0.0
 11
6.694498085252746E-18
 21
0.1093294505797707
 31
0.0
210
0.0
220
0.0
230
1.0
 40
0.7071067811865532
 41
5.928986666165836
 42
9.778976601783125
  0
LINE
  5
D7
330
8B
100
AcDbEntity
  8
AM_4
100
AcDbLine
 10
0.9179213029994715
 20
-0.0879044185632922
 30
0.0
 11
0.9557433307135133
 21
-0.116099562589007
 31
0.0
  0
LINE
  5
D8
330
8B
100
AcDbEntity
  8
AM_4
100
AcDbLine
 10
0.9557433307135133
 20
0.1160995625890071
 30
0.0
 11
0.9179213029994715
 21
0.0879044185632924
 31
0.0
  0
ELLIPSE
  5
D9
330
8B
100
AcDbEntity
  8
AM_4
100
AcDbEllipse
 10
0.9506863065131326
 20
0.0000000000000001
 30
0.0
 11
6.084620899749628E-18
 21
0.09936940028726615
 31
0.0
210
0.0
220
0.0
230
1.0
 40
0.7071067811865437
 41
0.4851122464737792
 42
2.656480407116014
  0
LWPOLYLINE
  5
DA
330
8B
100
AcDbEntity
  8
AM_4
100
AcDbPolyline
 90
        8
 70
     0
 43
0.0
 10
1.013959447154114
 20
0.135926521995058
 10
1.006803387311245
 20
0.1356507805799859
 10
0.9976293290260656
 20
0.1344836315528015
 10
0.9886199799372243
 20
0.13242244267289
 10
0.9798250762538112
 20
0.1294893507734142
 10
0.971290243090295
 20
0.1257059155642863
 10
0.9630585063343624
 20
0.1210928591253577
 10
0.9556285102568726
 20
0.116013848668458
  0
LWPOLYLINE
  5
DB
330
8B
100
AcDbEntity
  8
AM_4
100
AcDbPolyline
 90
       14
 70
     0
 43
0.0
 10
0.9552490724538829
 20
-0.115728900535599
 10
0.9621678305237735
 20
-0.1205321510553685
 10
0.9708263666095024
 20
-0.1254721159149237
 10
0.9797635073614812
 20
-0.1294654595938795
 10
0.9889007346035683
 20
-0.1325007804752802
 10
0.9981631643986539
 20
-0.1345769491482366
 10
1.007480040746217
 20
-0.1357005080966791
 10
1.01678499105474
 20
-0.13588357429465
 10
1.026016203620863
 20
-0.1351421360907422
 10
1.035109131085694
 20
-0.1334963104523902
 10
1.044010218432272
 20
-0.1309682649991889
 10
1.052672163111022
 20
-0.1275798969441717
 10
1.061050906972369
 20
-0.1233523073160761
 10
1.067845838324874
 20
-0.1191631146243436
  0
LWPOLYLINE
  5
DC
330
8B
100
AcDbEntity
  8
AM_4
100
AcDbPolyline
 90
        8
 70
     0
 43
0.0
 10
1.06782887228711
 20
0.1191744912720627
 10
1.061181440067678
 20
0.1232785189044592
 10
1.052364631301134
 20
0.1277167232189766
 10
1.0433114193586
 20
0.1312007823679203
 10
1.034098476850705
 20
0.1337251160095356
 10
1.024798529818291
 20
0.1352929696703004
 10
1.016035249806516
 20
0.1359033441844304
 10
1.013959447154114
 20
0.135926521995058
  0
ELLIPSE
  5
DD
330
8B
100
AcDbEntity
  8
AM_4
100
AcDbEllipse
 10
0.999017635217608
 20
0.0000000000000001
 30
0.0
 11
8.036249332247490E-18
 21
0.1312419113468902
 31
0.0
210
0.0
220
0.0
230
1.0
 40
0.7071067811865464
 41
0.4861959457275713
 42
2.651639085308158
  0
ELLIPSE
  5
DE
330
8B
100
AcDbEntity
  8
AM_4
100
AcDbEllipse
 10
1.085408909121351
 20
0.0000000000000001
 30
0.0
 11
-1.484390032546748E-17
 21
-0.08080642971672804
 31
0.0
210
0.0
220
0.0
230
1.0
 40
0.7071067811865461
 41
0.0
 42
6.283185307179586
  0
LWPOLYLINE
  5
DF
330
8B
100
AcDbEntity
  8
AM_4
100
AcDbPolyline
 90
       25
 70
     0
 43
0.0
 10
1.106248237996101
 20
-0.0937022095077426
 10
1.108240112920839
 20
-0.0923156412579409
 10
1.114726668453327
 20
-0.0871178346262539
 10
1.120817105992526
 20
-0.081138846870994
 10
1.126455215575306
 20
-0.0744205589235747
 10
1.131584687390881
 20
-0.0670186097250971
 10
1.136152988630114
 20
-0.059001859846123
 10
1.140114771948578
 20
-0.0504492660351031
 10
1.143433684203954
 20
-0.0414456507874581
 10
1.14608207438533
 20
-0.0320793771462632
 10
1.148040827954858
 20
-0.022437565433325
 10
1.149297576178105
 20
-0.0126039328302386
 10
1.149844591989998
 20
-0.0026608750690755
 10
1.149677924483793
 20
0.0073102906946408
 10
1.148796907931748
 20
0.0172285828347744
 10
1.147204119771253
 20
0.0270125951929627
 10
1.144904995297261
 20
0.0365825680564619
 10
1.141907987038616
 20
0.0458584579459639
 10
1.138225222369629
 20
0.0547591769272136
 10
1.133873921878217
 20
0.0632016585303194
 10
1.128881214196994
 20
0.0710967487883942
 10
1.123284257570896
 20
0.0783564596761407
 10
1.11713388846474
 20
0.0848944311142027
 10
1.110495805771307
 20
0.0906309908678056
 10
1.10608678344098
 20
0.0938105937500328
  0
ELLIPSE
  5
E0
330
8B
100
AcDbEntity
  8
AM_4
100
AcDbEllipse
 10
1.027773878682885
 20
-0.0000000000000009
 30
0.0
 11
8.079715312106012E-18
 21
0.1319517646676809
 31
0.0
210
0.0
220
0.0
230
1.0
 40
0.7071067811865523
 41
5.844803532225574
 42
9.863159735723398
  0
ELLIPSE
  5
E1
330
8B
100
AcDbEntity
  8
AM_4
100
AcDbEllipse
 10
1.074638455356075
 20
0.0000000000000016
 30
0.0
 11
6.357083428130903E-18
 21
0.1038190510530375
 31
0.0
210
0.0
220
0.0
230
1.0
 40
0.707106781186544
 41
5.844803532225605
 42
9.86315973572335
  0
LINE
  5
E2
330
8B
100
AcDbEntity
  8
AM_4
100
AcDbLine
 10
1.105799641889206
 20
0.0940018950300904
 30
0.0
 11
1.067379071665097
 21
0.1194743720494001
 31
0.0
  0
LINE
  5
E3
330
8B
100
AcDbEntity
  8
AM_4
100
AcDbLine
 10
1.067379071665097
 20
-0.1194743720493999
 30
0.0
 11
1.105799641889206
 21
-0.0940018950300903
 31
0.0
  0
ENDBLK
  5
8E
330
8B
100
AcDbEntity
  8
0
100
AcDbBlockEnd
  0
BLOCK
  5
E6
330
E4
100
AcDbEntity
  8
0
100
AcDbBlockBegin
  2
3_128646_0_in_127715_4
 70
     2
 10
0.0
 20
0.0
 30
0.0
  3
3_128646_0_in_127715_4
  1

  0
ATTDEF
  5
E8
330
E4
100
AcDbEntity
  8
AM_6
100
AcDbText
 10
5.924466108247843
 20
0.5640000000000001
 30
0.0
 40
0.5
  1
D-Lok Insert Inch Bore
100
AcDbAttributeDefinition
  3

  2
NN
 70
     8
280
     0
  0
ATTDEF
  5
E9
330
E4
100
AcDbEntity
  8
AM_6
100
AcDbText
 10
5.924466108247843
 20
0.0640000000000001
 30
0.0
 40
0.5
  1
D-LOK
100
AcDbAttributeDefinition
  3

  2
NT
 70
     8
280
     0
  0
ATTDEF
  5
EA
330
E4
100
AcDbEntity
  8
AM_6
100
AcDbText
 10
5.924466108247843
 20
-0.4359999999999999
 30
0.0
 40
0.5
  1
128646
100
AcDbAttributeDefinition
  3

  2
NB
 70
     8
280
     0
  0
ATTDEF
  5
EB
330
E4
100
AcDbEntity
  8
AM_6
100
AcDbText
 10
5.924466108247843
 20
-0.9359999999999999
 30
0.0
 40
0.5
  1
$PN.
100
AcDbAttributeDefinition
  3

  2
NBSYN
 70
     8
280
     0
  0
ATTDEF
  5
EC
330
E4
100
AcDbEntity
  8
AM_6
100
AcDbText
 10
5.924466108247843
 20
-1.436
 30
0.0
 40
0.5
  1
128646
100
AcDbAttributeDefinition
  3

  2
LINA
 70
     8
280
     0
  0
ATTDEF
  5
ED
330
E4
100
AcDbEntity
  8
AM_6
100
AcDbText
 10
5.924466108247843
 20
-1.936
 30
0.0
 40
0.5
  1
204
100
AcDbAttributeDefinition
  3

  2
SERIES
 70
     8
280
     0
  0
ATTDEF
  5
EE
330
E4
100
AcDbEntity
  8
AM_6
100
AcDbText
 10
5.924466108247843
 20
-2.436
 30
0.0
 40
0.5
  1
3/4
100
AcDbAttributeDefinition
  3

  2
SS
 70
     8
280
     0
  0
ATTDEF
  5
EF
330
E4
100
AcDbEntity
  8
AM_6
100
AcDbText
 10
5.924466108247843
 20
-2.936
 30
0.0
 40
0.5
  1
128646
100
AcDbAttributeDefinition
  3

  2
PN
 70
     8
280
     0
  0
ATTDEF
  5
F0
330
E4
100
AcDbEntity
  8
AM_6
100
AcDbText
 10
5.924466108247843
 20
-3.436
 30
0.0
 40
0.5
  1
INS-DL-012
100
AcDbAttributeDefinition
  3

  2
DESCRIPTION
 70
     8
280
     0
  0
ATTDEF
  5
F1
330
E4
100
AcDbEntity
  8
AM_6
100
AcDbText
 10
5.924466108247843
 20
-3.936
 30
0.0
 40
0.5
  1
0.6
100
AcDbAttributeDefinition
  3

  2
WEIGHT
 70
     8
280
     0
  0
ATTDEF
  5
F2
330
E4
100
AcDbEntity
  8
AM_6
100
AcDbText
 10
5.924466108247843
 20
-4.436
 30
0.0
 40
0.5
  1
1.28
100
AcDbAttributeDefinition
  3

  2
A
 70
     8
280
     0
  0
ATTDEF
  5
F3
330
E4
100
AcDbEntity
  8
AM_6
100
AcDbText
 10
5.924466108247843
 20
-4.936
 30
0.0
 40
0.5
  1
0.58
100
AcDbAttributeDefinition
  3

  2
C
 70
     8
280
     0
  0
ATTDEF
  5
F4
330
E4
100
AcDbEntity
  8
AM_6
100
AcDbText
 10
5.924466108247843
 20
-5.436
 30
0.0
 40
0.5
  1
1.8504
100
AcDbAttributeDefinition
  3

  2
D
 70
     8
280
     0
  0
ATTDEF
  5
F5
330
E4
100
AcDbEntity
  8
AM_6
100
AcDbText
 10
5.924466108247843
 20
-5.936
 30
0.0
 40
0.5
  1
0.15
100
AcDbAttributeDefinition
  3

  2
J
 70
     8
280
     0
  0
ATTDEF
  5
F6
330
E4
100
AcDbEntity
  8
AM_6
100
AcDbText
 10
5.924466108247843
 20
-6.436
 30
0.0
 40
0.5
  1
1.71
100
AcDbAttributeDefinition
  3

  2
L
 70
     8
280
     0
  0
ATTDEF
  5
F7
330
E4
100
AcDbEntity
  8
AM_6
100
AcDbText
 10
5.924466108247843
 20
-6.936
 30
0.0
 40
0.5
  1
#8-32
100
AcDbAttributeDefinition
  3

  2
N
 70
     8
280
     0
  0
ATTDEF
  5
F8
330
E4
100
AcDbEntity
  8
AM_6
100
AcDbText
 10
5.924466108247843
 20
-7.436
 30
0.0
 40
0.5
  1
0.50
100
AcDbAttributeDefinition
  3

  2
W
 70
     8
280
     0
  0
ATTDEF
  5
F9
330
E4
100
AcDbEntity
  8
AM_6
100
AcDbText
 10
5.924466108247843
 20
-7.936
 30
0.0
 40
0.5
  1
0.78
100
AcDbAttributeDefinition
  3

  2
Y
 70
     8
280
     0
  0
ATTDEF
  5
FA
330
E4
100
AcDbEntity
  8
AM_6
100
AcDbText
 10
5.924466108247843
 20
-8.436
 30
0.0
 40
0.5
  1
1.12
100
AcDbAttributeDefinition
  3

  2
Z
 70
     8
280
     0
  0
ATTDEF
  5
FB
330
E4
100
AcDbEntity
  8
AM_6
100
AcDbText
 10
5.924466108247843
 20
-8.936
 30
0.0
 40
0.5
  1
baldor
100
AcDbAttributeDefinition
  3

  2
COMPANY
 70
     8
280
     0
  0
LINE
  5
FC
330
E4
100
AcDbEntity
  8
AM_9
100
AcDbLine
 10
0.3749999999999999
 20
-0.7458000000000001
 30
0.0
 11
0.3749999999999999
 21
0.4658
 31
0.0
  0
LINE
  5
FD
330
E4
100
AcDbEntity
  8
AM_9
100
AcDbLine
 10
-0.3749999999999999
 20
0.4658
 30
0.0
 11
-0.3749999999999999
 21
-0.7458000000000001
 31
0.0
  0
LINE
  5
FE
330
E4
100
AcDbEntity
  8
AM_9
100
AcDbLine
 10
0.3749999999999999
 20
0.4658
 30
0.0
 11
0.4092000000000001
 21
0.5
 31
0.0
  0
LINE
  5
FF
330
E4
100
AcDbEntity
  8
AM_9
100
AcDbLine
 10
-0.4092000000000001
 20
0.5
 30
0.0
 11
-0.3749999999999999
 21
0.4658
 31
0.0
  0
LINE
  5
100
330
E4
100
AcDbEntity
  8
AM_9
100
AcDbLine
 10
-0.3749999999999999
 20
-0.7458000000000001
 30
0.0
 11
-0.4092000000000001
 21
-0.78
 31
0.0
  0
LINE
  5
101
330
E4
100
AcDbEntity
  8
AM_9
100
AcDbLine
 10
0.4092000000000001
 20
-0.78
 30
0.0
 11
0.3749999999999999
 21
-0.7458000000000001
 31
0.0
  0
LINE
  5
102
330
E4
100
AcDbEntity
  8
AM_9
100
AcDbLine
 10
0.5600000000000003
 20
0.29
 30
0.0
 11
0.5600000000000003
 21
0.3647009919786802
 31
0.0
  0
LINE
  5
103
330
E4
100
AcDbEntity
  8
AM_9
100
AcDbLine
 10
-0.5600000000000003
 20
0.3647009919786802
 30
0.0
 11
-0.5600000000000003
 21
0.29
 31
0.0
  0
LINE
  5
104
330
E4
100
AcDbEntity
  8
AM_9
100
AcDbLine
 10
0.5600000000000005
 20
-0.3647009919786801
 30
0.0
 11
0.5600000000000005
 21
-0.29
 31
0.0
  0
LINE
  5
105
330
E4
100
AcDbEntity
  8
AM_9
100
AcDbLine
 10
-0.5600000000000005
 20
-0.29
 30
0.0
 11
-0.5600000000000005
 21
-0.3647009919786801
 31
0.0
  0
LINE
  5
106
330
E4
100
AcDbEntity
  8
AM_9
100
AcDbLine
 10
0.8098843146162098
 20
-0.3900000000000001
 30
0.0
 11
0.8208
 21
-0.3900000000000001
 31
0.0
  0
LINE
  5
107
330
E4
100
AcDbEntity
  8
AM_9
100
AcDbLine
 10
-0.8208
 20
-0.3900000000000001
 30
0.0
 11
-0.8098843146162098
 21
-0.3900000000000001
 31
0.0
  0
LINE
  5
108
330
E4
100
AcDbEntity
  8
AM_9
100
AcDbLine
 10
-0.8208
 20
-0.3900000000000001
 30
0.0
 11
-0.8229441734999938
 21
-0.392144173499994
 31
0.0
  0
LINE
  5
109
330
E4
100
AcDbEntity
  8
AM_9
100
AcDbLine
 10
0.8229441734999938
 20
-0.392144173499994
 30
0.0
 11
0.8208
 21
-0.3900000000000001
 31
0.0
  0
LINE
  5
10A
330
E4
100
AcDbEntity
  8
AM_9
100
AcDbLine
 10
0.8752
 20
-0.1799999999999999
 30
0.0
 11
0.8752
 21
-0.12
 31
0.0
  0
LINE
  5
10B
330
E4
100
AcDbEntity
  8
AM_9
100
AcDbLine
 10
-0.8752
 20
-0.12
 30
0.0
 11
-0.8752
 21
-0.1799999999999999
 31
0.0
  0
LINE
  5
10C
330
E4
100
AcDbEntity
  8
AM_9
100
AcDbLine
 10
-0.8566113709062414
 20
-0.29
 30
0.0
 11
0.8566113709058554
 21
-0.29
 31
0.0
  0
ARC
  5
10D
330
E4
100
AcDbEntity
  8
AM_9
100
AcDbCircle
 10
0.8566113704592067
 20
-0.2599999999999999
 30
0.0
 40
0.0300000000000001
100
AcDbArc
 50
270.0
 51
343.1158262695214
  0
ARC
  5
10E
330
E4
100
AcDbEntity
  8
AM_9
100
AcDbCircle
 10
-0.8566113704592067
 20
-0.2599999999999999
 30
0.0
 40
0.03
100
AcDbArc
 50
196.8841737304786
 51
270.0
  0
LINE
  5
10F
330
E4
100
AcDbEntity
  8
AM_9
100
AcDbLine
 10
-0.8566113704592065
 20
0.29
 30
0.0
 11
0.8566113704588205
 21
0.29
 31
0.0
  0
ARC
  5
110
330
E4
100
AcDbEntity
  8
AM_9
100
AcDbCircle
 10
0.8566113704592061
 20
0.2599999999999996
 30
0.0
 40
0.0300000000000004
100
AcDbArc
 50
16.88417219008338
 51
90.0
  0
ARC
  5
111
330
E4
100
AcDbEntity
  8
AM_9
100
AcDbCircle
 10
-0.8566113704592063
 20
0.2599999999999998
 30
0.0
 40
0.0300000000000001
100
AcDbArc
 50
90.0
 51
163.1158278099169
  0
LINE
  5
112
330
E4
100
AcDbEntity
  8
AM_9
100
AcDbLine
 10
-0.885318185823121
 20
-0.2687131367292226
 30
0.0
 11
0.8853181858231396
 21
-0.2687131367292226
 31
0.0
  0
LINE
  5
113
330
E4
100
AcDbEntity
  8
AM_9
100
AcDbLine
 10
-0.907521371649175
 20
-0.18
 30
0.0
 11
0.9075213716491937
 21
-0.18
 31
0.0
  0
ARC
  5
114
330
E4
100
AcDbEntity
  8
AM_9
100
AcDbCircle
 10
0.0000000000143271
 20
-0.000000000003581
 30
0.0
 40
0.9251999999852683
100
AcDbArc
 50
343.1158262694767
 51
348.7814152155348
  0
ARC
  5
115
330
E4
100
AcDbEntity
  8
AM_9
100
AcDbCircle
 10
-0.0000000000143695
 20
-0.0000000000035916
 30
0.0
 40
0.9251999999852246
100
AcDbArc
 50
191.2185847844651
 51
196.8841737305234
  0
LINE
  5
116
330
E4
100
AcDbEntity
  8
AM_9
100
AcDbLine
 10
-0.917384891961929
 20
-0.12
 30
0.0
 11
0.917384891961929
 21
-0.12
 31
0.0
  0
LINE
  5
117
330
E4
100
AcDbEntity
  8
AM_9
100
AcDbLine
 10
-0.8853181860573732
 20
0.2687131359574407
 30
0.0
 11
0.8853181860573732
 21
0.2687131359574407
 31
0.0
  0
ARC
  5
118
330
E4
100
AcDbEntity
  8
AM_9
100
AcDbCircle
 10
0.0000000000008428
 20
0.0000000000000691
 30
0.0
 40
0.9251999999991734
100
AcDbArc
 50
352.5476457552895
 51
16.88417368054122
  0
ARC
  5
119
330
E4
100
AcDbEntity
  8
AM_9
100
AcDbCircle
 10
-0.0000000000000253
 20
0.0000000000000017
 30
0.0
 40
0.9251999999999752
100
AcDbArc
 50
163.1158263194695
 51
187.4523542446998
  0
LINE
  5
11C
330
E4
100
AcDbEntity
  8
AM_7
100
AcDbLine
 10
0.0
 20
-0.8440000000000001
 30
0.0
 11
0.0
 21
0.5640000000000001
 31
0.0
  0
LINE
  5
11D
330
E4
100
AcDbEntity
  8
AM_4
100
AcDbLine
 10
-0.5258
 20
0.5
 30
0.0
 11
0.5258
 21
0.5
 31
0.0
  0
LINE
  5
11E
330
E4
100
AcDbEntity
  8
AM_4
100
AcDbLine
 10
-0.5258
 20
0.5
 30
0.0
 11
-0.56
 21
0.4658
 31
0.0
  0
LINE
  5
11F
330
E4
100
AcDbEntity
  8
AM_4
100
AcDbLine
 10
0.56
 20
0.4658
 30
0.0
 11
0.5258
 21
0.5
 31
0.0
  0
LINE
  5
120
330
E4
100
AcDbEntity
  8
AM_4
100
AcDbLine
 10
-0.56
 20
0.4658
 30
0.0
 11
0.5600000000000003
 21
0.4658
 31
0.0
  0
LINE
  5
121
330
E4
100
AcDbEntity
  8
AM_4
100
AcDbLine
 10
0.5600000000000003
 20
0.3647009919786802
 30
0.0
 11
0.5600000000000003
 21
0.4658
 31
0.0
  0
LINE
  5
122
330
E4
100
AcDbEntity
  8
AM_4
100
AcDbLine
 10
-0.5600000000000003
 20
0.4658
 30
0.0
 11
-0.5600000000000003
 21
0.3647009919786802
 31
0.0
  0
LINE
  5
123
330
E4
100
AcDbEntity
  8
AM_4
100
AcDbLine
 10
0.5600000000000005
 20
-0.3900000000000001
 30
0.0
 11
0.5600000000000005
 21
-0.3647009919786801
 31
0.0
  0
LINE
  5
124
330
E4
100
AcDbEntity
  8
AM_4
100
AcDbLine
 10
-0.5600000000000005
 20
-0.3647009919786801
 30
0.0
 11
-0.5600000000000005
 21
-0.3900000000000001
 31
0.0
  0
LINE
  5
125
330
E4
100
AcDbEntity
  8
AM_4
100
AcDbLine
 10
-0.8098843146162098
 20
-0.3900000000000001
 30
0.0
 11
0.8098843146162098
 21
-0.3900000000000001
 31
0.0
  0
LINE
  5
126
330
E4
100
AcDbEntity
  8
AM_4
100
AcDbLine
 10
-0.8229441734999938
 20
-0.392144173499994
 30
0.0
 11
-0.855
 21
-0.4242000000000002
 31
0.0
  0
LINE
  5
127
330
E4
100
AcDbEntity
  8
AM_4
100
AcDbLine
 10
0.855
 20
-0.4242000000000002
 30
0.0
 11
0.8229441734999938
 21
-0.392144173499994
 31
0.0
  0
LINE
  5
128
330
E4
100
AcDbEntity
  8
AM_4
100
AcDbLine
 10
-0.8208
 20
-0.78
 30
0.0
 11
0.8208
 21
-0.78
 31
0.0
  0
LINE
  5
129
330
E4
100
AcDbEntity
  8
AM_4
100
AcDbLine
 10
0.8208
 20
-0.78
 30
0.0
 11
0.855
 21
-0.7458000000000001
 31
0.0
  0
LINE
  5
12A
330
E4
100
AcDbEntity
  8
AM_4
100
AcDbLine
 10
-0.855
 20
-0.7458000000000001
 30
0.0
 11
-0.8208
 21
-0.78
 31
0.0
  0
LINE
  5
12B
330
E4
100
AcDbEntity
  8
AM_4
100
AcDbLine
 10
-0.855
 20
-0.7458000000000001
 30
0.0
 11
0.855
 21
-0.7458000000000001
 31
0.0
  0
LINE
  5
12C
330
E4
100
AcDbEntity
  8
AM_4
100
AcDbLine
 10
-0.855
 20
-0.4242000000000002
 30
0.0
 11
0.855
 21
-0.4242000000000002
 31
0.0
  0
LINE
  5
12D
330
E4
100
AcDbEntity
  8
AM_4
100
AcDbLine
 10
0.855
 20
-0.7458000000000001
 30
0.0
 11
0.855
 21
-0.4242000000000002
 31
0.0
  0
LINE
  5
12E
330
E4
100
AcDbEntity
  8
AM_4
100
AcDbLine
 10
-0.855
 20
-0.4242000000000002
 30
0.0
 11
-0.855
 21
-0.7458000000000001
 31
0.0
  0
ENDBLK
  5
E7
330
E4
100
AcDbEntity
  8
0
100
AcDbBlockEnd
  0
BLOCK
  5
131
330
12F
100
AcDbEntity
  8
0
100
AcDbBlockBegin
  2
4_127715h_0_in_127715_4
 70
     2
 10
0.0
 20
0.0
 30
0.0
  3
4_127715h_0_in_127715_4
  1

  0
ATTDEF
  5
133
330
12F
100
AcDbEntity
  8
AM_6
100
AcDbText
 10
7.5
 20
0.4999999999999999
 30
0.0
 40
0.5
  1
P2B-DLEZ-SHCR - Inch - Housing
100
AcDbAttributeDefinition
  3

  2
NN
 70
     8
280
     0
  0
ATTDEF
  5
134
330
12F
100
AcDbEntity
  8
AM_6
100
AcDbText
 10
7.5
 20
-0.0000000000000001
 30
0.0
 40
0.5
  1
DLEZ Normal Duty Stainless Steel Housed Pillow Blocks
100
AcDbAttributeDefinition
  3

  2
NT
 70
     8
280
     0
  0
ATTDEF
  5
135
330
12F
100
AcDbEntity
  8
AM_6
100
AcDbText
 10
7.5
 20
-0.5
 30
0.0
 40
0.5
  1
127715h
100
AcDbAttributeDefinition
  3

  2
NB
 70
     8
280
     0
  0
ATTDEF
  5
136
330
12F
100
AcDbEntity
  8
AM_6
100
AcDbText
 10
7.5
 20
-1.0
 30
0.0
 40
0.5
  1
$PN.h
100
AcDbAttributeDefinition
  3

  2
NBSYN
 70
     8
280
     0
  0
ATTDEF
  5
137
330
12F
100
AcDbEntity
  8
AM_6
100
AcDbText
 10
7.5
 20
-1.5
 30
0.0
 40
0.5
  1
127715
100
AcDbAttributeDefinition
  3

  2
LINA
 70
     8
280
     0
  0
ATTDEF
  5
138
330
12F
100
AcDbEntity
  8
AM_6
100
AcDbText
 10
7.5
 20
-2.0
 30
0.0
 40
0.5
  1
204
100
AcDbAttributeDefinition
  3

  2
SERIES
 70
     8
280
     0
  0
ATTDEF
  5
139
330
12F
100
AcDbEntity
  8
AM_6
100
AcDbText
 10
7.5
 20
-2.5
 30
0.0
 40
0.5
  1
3/4
100
AcDbAttributeDefinition
  3

  2
SS
 70
     8
280
     0
  0
ATTDEF
  5
13A
330
12F
100
AcDbEntity
  8
AM_6
100
AcDbText
 10
7.5
 20
-3.0
 30
0.0
 40
0.5
  1
127715
100
AcDbAttributeDefinition
  3

  2
PN
 70
     8
280
     0
  0
ATTDEF
  5
13B
330
12F
100
AcDbEntity
  8
AM_6
100
AcDbText
 10
7.5
 20
-3.5
 30
0.0
 40
0.5
  1
P2B-DLEZ-012-SHCR
100
AcDbAttributeDefinition
  3

  2
DESCRIPTION
 70
     8
280
     0
  0
ATTDEF
  5
13C
330
12F
100
AcDbEntity
  8
AM_6
100
AcDbText
 10
7.5
 20
-4.0
 30
0.0
 40
0.5
  1
1.46
100
AcDbAttributeDefinition
  3

  2
W
 70
     8
280
     0
  0
ATTDEF
  5
13D
330
12F
100
AcDbEntity
  8
AM_6
100
AcDbText
 10
7.5
 20
-4.5
 30
0.0
 40
0.5
  1
1.28
100
AcDbAttributeDefinition
  3

  2
A
 70
     8
280
     0
  0
ATTDEF
  5
13E
330
12F
100
AcDbEntity
  8
AM_6
100
AcDbText
 10
7.5
 20
-5.0
 30
0.0
 40
0.5
  1
1.280000
100
AcDbAttributeDefinition
  3

  2
A1
 70
     8
280
     0
  0
ATTDEF
  5
13F
330
12F
100
AcDbEntity
  8
AM_6
100
AcDbText
 10
7.5
 20
-5.5
 30
0.0
 40
0.5
  1
5.00
100
AcDbAttributeDefinition
  3

  2
B
 70
     8
280
     0
  0
ATTDEF
  5
140
330
12F
100
AcDbEntity
  8
AM_6
100
AcDbText
 10
7.5
 20
-6.0
 30
0.0
 40
0.5
  1
5.000000
100
AcDbAttributeDefinition
  3

  2
B1
 70
     8
280
     0
  0
ATTDEF
  5
141
330
12F
100
AcDbEntity
  8
AM_6
100
AcDbText
 10
7.5
 20
-6.5
 30
0.0
 40
0.5
  1
1.00
100
AcDbAttributeDefinition
  3

  2
C
 70
     8
280
     0
  0
ATTDEF
  5
142
330
12F
100
AcDbEntity
  8
AM_6
100
AcDbText
 10
7.5
 20
-7.0
 30
0.0
 40
0.5
  1
1.000000
100
AcDbAttributeDefinition
  3

  2
C1
 70
     8
280
     0
  0
ATTDEF
  5
143
330
12F
100
AcDbEntity
  8
AM_6
100
AcDbText
 10
7.5
 20
-7.5
 30
0.0
 40
0.5
  1
3.38
100
AcDbAttributeDefinition
  3

  2
DMIN
 70
     8
280
     0
  0
ATTDEF
  5
144
330
12F
100
AcDbEntity
  8
AM_6
100
AcDbText
 10
7.5
 20
-8.0
 30
0.0
 40
0.5
  1
3.380000
100
AcDbAttributeDefinition
  3

  2
DMIN1
 70
     8
280
     0
  0
ATTDEF
  5
145
330
12F
100
AcDbEntity
  8
AM_6
100
AcDbText
 10
7.5
 20
-8.5
 30
0.0
 40
0.5
  1
4.18
100
AcDbAttributeDefinition
  3

  2
DMAX
 70
     8
280
     0
  0
ATTDEF
  5
146
330
12F
100
AcDbEntity
  8
AM_6
100
AcDbText
 10
7.5
 20
-9.0
 30
0.0
 40
0.5
  1
4.180000
100
AcDbAttributeDefinition
  3

  2
DMAX1
 70
     8
280
     0
  0
ATTDEF
  5
147
330
12F
100
AcDbEntity
  8
AM_6
100
AcDbText
 10
7.5
 20
-9.5
 30
0.0
 40
0.5
  1
3/8
100
AcDbAttributeDefinition
  3

  2
F
 70
     8
280
     0
  0
ATTDEF
  5
148
330
12F
100
AcDbEntity
  8
AM_6
100
AcDbText
 10
7.5
 20
-10.0
 30
0.0
 40
0.5
  1
0.375
100
AcDbAttributeDefinition
  3

  2
F1
 70
     8
280
     0
  0
ATTDEF
  5
149
330
12F
100
AcDbEntity
  8
AM_6
100
AcDbText
 10
7.5
 20
-10.5
 30
0.0
 40
0.5
  1
1.850400
100
AcDbAttributeDefinition
  3

  2
BOD
 70
     8
280
     0
  0
ATTDEF
  5
14A
330
12F
100
AcDbEntity
  8
AM_6
100
AcDbText
 10
7.5
 20
-11.0
 30
0.0
 40
0.5
  1
0.84
100
AcDbAttributeDefinition
  3

  2
G
 70
     8
280
     0
  0
ATTDEF
  5
14B
330
12F
100
AcDbEntity
  8
AM_6
100
AcDbText
 10
7.5
 20
-11.5
 30
0.0
 40
0.5
  1
0.840000
100
AcDbAttributeDefinition
  3

  2
G1
 70
     8
280
     0
  0
ATTDEF
  5
14C
330
12F
100
AcDbEntity
  8
AM_6
100
AcDbText
 10
7.5
 20
-12.0
 30
0.0
 40
0.5
  1
0.50
100
AcDbAttributeDefinition
  3

  2
H
 70
     8
280
     0
  0
ATTDEF
  5
14D
330
12F
100
AcDbEntity
  8
AM_6
100
AcDbText
 10
7.5
 20
-12.5
 30
0.0
 40
0.5
  1
0.500000
100
AcDbAttributeDefinition
  3

  2
H1
 70
     8
280
     0
  0
ATTDEF
  5
14E
330
12F
100
AcDbEntity
  8
AM_6
100
AcDbText
 10
7.5
 20
-13.0
 30
0.0
 40
0.5
  1
2.50
100
AcDbAttributeDefinition
  3

  2
J
 70
     8
280
     0
  0
ATTDEF
  5
14F
330
12F
100
AcDbEntity
  8
AM_6
100
AcDbText
 10
7.5
 20
-13.5
 30
0.0
 40
0.5
  1
2.500000
100
AcDbAttributeDefinition
  3

  2
J1
 70
     8
280
     0
  0
ATTDEF
  5
150
330
12F
100
AcDbEntity
  8
AM_6
100
AcDbText
 10
7.5
 20
-14.0
 30
0.0
 40
0.5
  1
1.71
100
AcDbAttributeDefinition
  3

  2
L
 70
     8
280
     0
  0
ATTDEF
  5
151
330
12F
100
AcDbEntity
  8
AM_6
100
AcDbText
 10
7.5
 20
-14.5
 30
0.0
 40
0.5
  1
1.710000
100
AcDbAttributeDefinition
  3

  2
L1
 70
     8
280
     0
  0
ATTDEF
  5
152
330
12F
100
AcDbEntity
  8
AM_6
100
AcDbText
 10
7.5
 20
-15.0
 30
0.0
 40
0.5
  1
1.31
100
AcDbAttributeDefinition
  3

  2
M
 70
     8
280
     0
  0
ATTDEF
  5
153
330
12F
100
AcDbEntity
  8
AM_6
100
AcDbText
 10
7.5
 20
-15.5
 30
0.0
 40
0.5
  1
1.310000
100
AcDbAttributeDefinition
  3

  2
M1
 70
     8
280
     0
  0
ATTDEF
  5
154
330
12F
100
AcDbEntity
  8
AM_6
100
AcDbText
 10
7.5
 20
-16.0
 30
0.0
 40
0.5
  1
0.50
100
AcDbAttributeDefinition
  3

  2
R
 70
     8
280
     0
  0
ATTDEF
  5
155
330
12F
100
AcDbEntity
  8
AM_6
100
AcDbText
 10
7.5
 20
-16.5
 30
0.0
 40
0.5
  1
0.500000
100
AcDbAttributeDefinition
  3

  2
R1
 70
     8
280
     0
  0
ATTDEF
  5
156
330
12F
100
AcDbEntity
  8
AM_6
100
AcDbText
 10
7.5
 20
-17.0
 30
0.0
 40
0.5
  1
0.78
100
AcDbAttributeDefinition
  3

  2
S
 70
     8
280
     0
  0
ATTDEF
  5
157
330
12F
100
AcDbEntity
  8
AM_6
100
AcDbText
 10
7.5
 20
-17.5
 30
0.0
 40
0.5
  1
0.780000
100
AcDbAttributeDefinition
  3

  2
S1
 70
     8
280
     0
  0
ATTDEF
  5
158
330
12F
100
AcDbEntity
  8
AM_6
100
AcDbText
 10
7.5
 20
-18.0
 30
0.0
 40
0.5
  1
1390
100
AcDbAttributeDefinition
  3

  2
CAPS
 70
     8
280
     0
  0
ATTDEF
  5
159
330
12F
100
AcDbEntity
  8
AM_6
100
AcDbText
 10
7.5
 20
-18.5
 30
0.0
 40
0.5
  1
2899
100
AcDbAttributeDefinition
  3

  2
CAPD
 70
     8
280
     0
  0
ATTDEF
  5
15A
330
12F
100
AcDbEntity
  8
AM_6
100
AcDbText
 10
7.5
 20
-19.0
 30
0.0
 40
0.5
  1
baldor
100
AcDbAttributeDefinition
  3

  2
COMPANY
 70
     8
280
     0
  0
LINE
  5
15B
330
12F
100
AcDbEntity
  8
AM_9
100
AcDbLine
 10
-0.8307999999999999
 20
-0.4
 30
0.0
 11
0.8307999999999999
 21
-0.4
 31
0.0
  0
LINE
  5
15C
330
12F
100
AcDbEntity
  8
AM_9
100
AcDbLine
 10
0.8367849795501272
 20
-0.4059849795501272
 30
0.0
 11
0.8549999999999999
 21
-0.4375343204302128
 31
0.0
  0
LINE
  5
15D
330
12F
100
AcDbEntity
  8
AM_9
100
AcDbLine
 10
-0.8550000000000003
 20
-0.4375241013157848
 30
0.0
 11
-0.8367989391200413
 21
-0.4059989391200415
 31
0.0
  0
LINE
  5
15E
330
12F
100
AcDbEntity
  8
AM_9
100
AcDbLine
 10
0.5600000000000003
 20
0.3999999999999999
 30
0.0
 11
-0.5600000000000003
 21
0.3999999999999999
 31
0.0
  0
LINE
  5
15F
330
12F
100
AcDbEntity
  8
AM_9
100
AcDbLine
 10
0.9252
 20
-0.4291341825440015
 30
0.0
 11
0.9252
 21
0.4291341825440015
 31
0.0
  0
LINE
  5
160
330
12F
100
AcDbEntity
  8
AM_9
100
AcDbLine
 10
-0.9252
 20
0.4291341825440015
 30
0.0
 11
-0.9252
 21
-0.4291341825440015
 31
0.0
  0
LINE
  5
161
330
12F
100
AcDbEntity
  8
AM_7
100
AcDbLine
 10
-2.286875
 20
0.0000000000000002
 30
0.0
 11
-1.893125
 21
0.0000000000000002
 31
0.0
  0
LINE
  5
162
330
12F
100
AcDbEntity
  8
AM_7
100
AcDbLine
 10
-2.09
 20
-0.1968749999999998
 30
0.0
 11
-2.09
 21
0.1968750000000002
 31
0.0
  0
LINE
  5
163
330
12F
100
AcDbEntity
  8
AM_7
100
AcDbLine
 10
-1.886874999999999
 20
0.0000000000000002
 30
0.0
 11
-1.493125
 21
0.0000000000000002
 31
0.0
  0
LINE
  5
164
330
12F
100
AcDbEntity
  8
AM_7
100
AcDbLine
 10
-1.69
 20
-0.1968749999999999
 30
0.0
 11
-1.69
 21
0.1968750000000002
 31
0.0
  0
LINE
  5
165
330
12F
100
AcDbEntity
  8
AM_7
100
AcDbLine
 10
1.493125
 20
-0.0000000000000001
 30
0.0
 11
1.886874999999999
 21
-0.0000000000000001
 31
0.0
  0
LINE
  5
166
330
12F
100
AcDbEntity
  8
AM_7
100
AcDbLine
 10
1.69
 20
-0.1968750000000001
 30
0.0
 11
1.69
 21
0.1968749999999999
 31
0.0
  0
LINE
  5
167
330
12F
100
AcDbEntity
  8
AM_7
100
AcDbLine
 10
1.893125
 20
0.0
 30
0.0
 11
2.286875
 21
0.0
 31
0.0
  0
LINE
  5
168
330
12F
100
AcDbEntity
  8
AM_7
100
AcDbLine
 10
2.09
 20
-0.196875
 30
0.0
 11
2.09
 21
0.1968750000000001
 31
0.0
  0
LINE
  5
169
330
12F
100
AcDbEntity
  8
AM_4
100
AcDbLine
 10
-2.5
 20
0.3750000000000001
 30
0.0
 11
-2.375
 21
0.4999999999999999
 31
0.0
  0
LINE
  5
16A
330
12F
100
AcDbEntity
  8
AM_4
100
AcDbLine
 10
-2.375
 20
-0.5000000000000001
 30
0.0
 11
-2.5
 21
-0.3750000000000002
 31
0.0
  0
LINE
  5
16B
330
12F
100
AcDbEntity
  8
AM_4
100
AcDbLine
 10
-2.5
 20
-0.3750000000000001
 30
0.0
 11
-2.5
 21
0.3749999999999999
 31
0.0
  0
LINE
  5
16C
330
12F
100
AcDbEntity
  8
AM_4
100
AcDbLine
 10
-0.8910704769231957
 20
-0.5000000000000001
 30
0.0
 11
-2.375
 21
-0.5000000000000001
 31
0.0
  0
ARC
  5
16D
330
12F
100
AcDbEntity
  8
AM_4
100
AcDbCircle
 10
-2.09
 20
0.0000000000000002
 30
0.0
 40
0.1875
100
AcDbArc
 50
90.0
 51
270.0
  0
LINE
  5
16E
330
12F
100
AcDbEntity
  8
AM_4
100
AcDbLine
 10
-2.09
 20
0.1875000000000002
 30
0.0
 11
-1.69
 21
0.1875000000000002
 31
0.0
  0
ARC
  5
16F
330
12F
100
AcDbEntity
  8
AM_4
100
AcDbCircle
 10
-1.69
 20
0.0000000000000002
 30
0.0
 40
0.1875
100
AcDbArc
 50
270.0
 51
90.0
  0
LINE
  5
170
330
12F
100
AcDbEntity
  8
AM_4
100
AcDbLine
 10
-1.69
 20
-0.1874999999999998
 30
0.0
 11
-2.09
 21
-0.1874999999999998
 31
0.0
  0
LINE
  5
171
330
12F
100
AcDbEntity
  8
AM_4
100
AcDbLine
 10
-2.4409449
 20
-0.4340551
 30
0.0
 11
-2.4409449
 21
0.4340550999999999
 31
0.0
  0
LINE
  5
172
330
12F
100
AcDbEntity
  8
AM_4
100
AcDbLine
 10
-0.8910704769231954
 20
0.4999999999999998
 30
0.0
 11
-2.375
 21
0.4999999999999999
 31
0.0
  0
LINE
  5
173
330
12F
100
AcDbEntity
  8
AM_4
100
AcDbLine
 10
2.375
 20
-0.5000000000000001
 30
0.0
 11
0.8910645769147292
 21
-0.4999999999999999
 31
0.0
  0
LINE
  5
174
330
12F
100
AcDbEntity
  8
AM_4
100
AcDbLine
 10
2.375
 20
0.4999999999999999
 30
0.0
 11
2.5
 21
0.3750000000000001
 31
0.0
  0
LINE
  5
175
330
12F
100
AcDbEntity
  8
AM_4
100
AcDbLine
 10
2.5
 20
-0.3750000000000001
 30
0.0
 11
2.375
 21
-0.5000000000000001
 31
0.0
  0
ARC
  5
176
330
12F
100
AcDbEntity
  8
AM_4
100
AcDbCircle
 10
1.69
 20
-0.0000000000000001
 30
0.0
 40
0.1875000000000001
100
AcDbArc
 50
90.0
 51
270.0
  0
LINE
  5
177
330
12F
100
AcDbEntity
  8
AM_4
100
AcDbLine
 10
1.69
 20
0.1874999999999999
 30
0.0
 11
2.09
 21
0.1875000000000001
 31
0.0
  0
ARC
  5
178
330
12F
100
AcDbEntity
  8
AM_4
100
AcDbCircle
 10
2.09
 20
0.0
 30
0.0
 40
0.1875000000000001
100
AcDbArc
 50
270.0
 51
90.0
  0
LINE
  5
179
330
12F
100
AcDbEntity
  8
AM_4
100
AcDbLine
 10
2.09
 20
-0.1875
 30
0.0
 11
1.69
 21
-0.1875000000000001
 31
0.0
  0
LINE
  5
17A
330
12F
100
AcDbEntity
  8
AM_4
100
AcDbLine
 10
2.375
 20
0.4999999999999999
 30
0.0
 11
0.8910645769147295
 21
0.4999999999999999
 31
0.0
  0
LINE
  5
17B
330
12F
100
AcDbEntity
  8
AM_4
100
AcDbLine
 10
2.440944899999999
 20
-0.434055100000001
 30
0.0
 11
2.440944899999999
 21
0.4340551000000004
 31
0.0
  0
LINE
  5
17C
330
12F
100
AcDbEntity
  8
AM_4
100
AcDbLine
 10
2.5
 20
-0.3750000000000001
 30
0.0
 11
2.5
 21
0.3749999999999999
 31
0.0
  0
LINE
  5
17D
330
12F
100
AcDbEntity
  8
AM_4
100
AcDbLine
 10
-1.2490551
 20
-0.5000000000000001
 30
0.0
 11
-1.2490551
 21
0.4999999999999999
 31
0.0
  0
LINE
  5
17E
330
12F
100
AcDbEntity
  8
AM_4
100
AcDbLine
 10
1.2490551
 20
-0.5000000000000001
 30
0.0
 11
1.2490551
 21
0.4999999999999999
 31
0.0
  0
LINE
  5
17F
330
12F
100
AcDbEntity
  8
AM_4
100
AcDbLine
 10
0.8307999999999999
 20
-0.4
 30
0.0
 11
0.8333295499957664
 21
-0.4
 31
0.0
  0
LINE
  5
180
330
12F
100
AcDbEntity
  8
AM_4
100
AcDbLine
 10
-0.8333354500042331
 20
-0.4
 30
0.0
 11
-0.8307999999999999
 21
-0.4
 31
0.0
  0
LINE
  5
181
330
12F
100
AcDbEntity
  8
AM_4
100
AcDbLine
 10
0.8549999999999999
 20
-0.4375343204302128
 30
0.0
 11
0.8910645769147292
 21
-0.4999999999999999
 31
0.0
  0
LINE
  5
182
330
12F
100
AcDbEntity
  8
AM_4
100
AcDbLine
 10
0.8333295499957669
 20
-0.4000000000000002
 30
0.0
 11
0.8367849795501272
 21
-0.4059849795501272
 31
0.0
  0
LINE
  5
183
330
12F
100
AcDbEntity
  8
AM_4
100
AcDbLine
 10
-0.8367989391200413
 20
-0.4059989391200415
 30
0.0
 11
-0.8333354500042336
 21
-0.4000000000000008
 31
0.0
  0
LINE
  5
184
330
12F
100
AcDbEntity
  8
AM_4
100
AcDbLine
 10
-0.8910704769231957
 20
-0.5000000000000001
 30
0.0
 11
-0.8550000000000003
 21
-0.4375241013157848
 31
0.0
  0
LINE
  5
185
330
12F
100
AcDbEntity
  8
AM_4
100
AcDbLine
 10
-0.5600000000000003
 20
0.3999999999999999
 30
0.0
 11
-0.8333354500042328
 21
0.4
 31
0.0
  0
LINE
  5
186
330
12F
100
AcDbEntity
  8
AM_4
100
AcDbLine
 10
0.8333295499957668
 20
0.4
 30
0.0
 11
0.5600000000000003
 21
0.3999999999999999
 31
0.0
  0
LINE
  5
187
330
12F
100
AcDbEntity
  8
AM_4
100
AcDbLine
 10
-0.8333354500042331
 20
0.4000000000000001
 30
0.0
 11
-0.8910704769231954
 21
0.4999999999999998
 31
0.0
  0
LINE
  5
188
330
12F
100
AcDbEntity
  8
AM_4
100
AcDbLine
 10
0.8910645769147295
 20
0.4999999999999999
 30
0.0
 11
0.833329549995767
 21
0.4000000000000004
 31
0.0
  0
LWPOLYLINE
  5
189
330
12F
100
AcDbEntity
  8
AM_4
100
AcDbPolyline
 90
       37
 70
     0
 43
0.0
 10
-0.9252
 20
-0.4291341825440015
 10
-0.9216793346744829
 20
-0.4220794035233795
 10
-0.9111441330868949
 20
-0.4150783156308964
 10
-0.8936745744826461
 20
-0.4081842013727866
 10
-0.8694036127511225
 20
-0.4014495291213342
 10
-0.8385159645663088
 20
-0.3949255537988791
 10
-0.8012467035813631
 20
-0.3886619267969091
 10
-0.7578794713761757
 20
-0.3827063180989906
 10
-0.7087443187736792
 20
-0.3771040534834098
 10
-0.6542151939537946
 20
-0.371897769566631
 10
-0.594707096481987
 20
-0.3671270893129009
 10
-0.5306729189119889
 20
-0.3628283204795662
 10
-0.4626000000000012
 20
-0.3590341792931159
 10
-0.3910064157624964
 20
-0.3557735414589441
 10
-0.3164370366049101
 20
-0.3530712223997958
 10
-0.2394593805288537
 20
-0.350947788395416
 10
-0.1606592939774456
 20
-0.3494194000607424
 10
-0.0806364931901351
 20
-0.3484976893538681
 10
-0.0000000000000019
 20
-0.3481896710498166
 10
0.0806364931901314
 20
-0.3484976893538681
 10
0.1606592939774419
 20
-0.3494194000607424
 10
0.2394593805288501
 20
-0.3509477883954158
 10
0.3164370366049066
 20
-0.3530712223997957
 10
0.391006415762493
 20
-0.355773541458944
 10
0.4625999999999979
 20
-0.3590341792931158
 10
0.5306729189119858
 20
-0.362828320479566
 10
0.5947070964819842
 20
-0.3671270893129007
 10
0.6542151939537919
 20
-0.3718977695666308
 10
0.7087443187736766
 20
-0.3771040534834096
 10
0.7578794713761736
 20
-0.3827063180989905
 10
0.8012467035813612
 20
-0.3886619267969089
 10
0.8385159645663073
 20
-0.3949255537988788
 10
0.8694036127511213
 20
-0.4014495291213339
 10
0.893674574482645
 20
-0.4081842013727863
 10
0.9111441330868943
 20
-0.4150783156308961
 10
0.9216793346744827
 20
-0.4220794035233792
 10
0.9252
 20
-0.4291341825440012
  0
LWPOLYLINE
  5
18A
330
12F
100
AcDbEntity
  8
AM_4
100
AcDbPolyline
 90
        6
 70
     0
 43
0.0
 10
0.9252
 20
-0.4291341825440015
 10
0.9216793346744829
 20
-0.4361889615646235
 10
0.9111441330868949
 20
-0.4431900494571066
 10
0.8936745744826461
 20
-0.4500841637152164
 10
0.8694036127511225
 20
-0.4568188359666688
 10
0.8665275513997522
 20
-0.4575006251414458
  0
LWPOLYLINE
  5
18B
330
12F
100
AcDbEntity
  8
AM_4
100
AcDbPolyline
 90
       37
 70
     0
 43
0.0
 10
0.9252
 20
0.4291341825440015
 10
0.9216793346744829
 20
0.4220794035233795
 10
0.9111441330868949
 20
0.4150783156308964
 10
0.8936745744826461
 20
0.4081842013727866
 10
0.8694036127511225
 20
0.4014495291213342
 10
0.8385159645663087
 20
0.3949255537988791
 10
0.8012467035813631
 20
0.3886619267969091
 10
0.7578794713761756
 20
0.3827063180989907
 10
0.7087443187736789
 20
0.3771040534834099
 10
0.6542151939537943
 20
0.3718977695666311
 10
0.5947070964819869
 20
0.367127089312901
 10
0.5306729189119888
 20
0.3628283204795663
 10
0.462600000000001
 20
0.359034179293116
 10
0.3910064157624963
 20
0.3557735414589442
 10
0.3164370366049101
 20
0.3530712223997959
 10
0.2394593805288537
 20
0.3509477883954161
 10
0.1606592939774455
 20
0.3494194000607425
 10
0.080636493190135
 20
0.3484976893538682
 10
0.0000000000000018
 20
0.3481896710498166
 10
-0.0806364931901315
 20
0.3484976893538682
 10
-0.1606592939774421
 20
0.3494194000607424
 10
-0.2394593805288502
 20
0.350947788395416
 10
-0.3164370366049067
 20
0.3530712223997958
 10
-0.3910064157624931
 20
0.355773541458944
 10
-0.462599999999998
 20
0.3590341792931158
 10
-0.5306729189119859
 20
0.362828320479566
 10
-0.5947070964819843
 20
0.3671270893129008
 10
-0.6542151939537919
 20
0.3718977695666308
 10
-0.7087443187736766
 20
0.3771040534834096
 10
-0.7578794713761736
 20
0.3827063180989905
 10
-0.8012467035813612
 20
0.3886619267969089
 10
-0.8385159645663073
 20
0.3949255537988788
 10
-0.8694036127511213
 20
0.4014495291213339
 10
-0.8936745744826452
 20
0.4081842013727863
 10
-0.9111441330868943
 20
0.4150783156308961
 10
-0.9216793346744827
 20
0.4220794035233792
 10
-0.9252
 20
0.4291341825440012
  0
LWPOLYLINE
  5
18C
330
12F
100
AcDbEntity
  8
AM_4
100
AcDbPolyline
 90
        6
 70
     0
 43
0.0
 10
-0.9252
 20
0.4291341825440015
 10
-0.9216793346744829
 20
0.4361889615646235
 10
-0.9111441330868949
 20
0.4431900494571066
 10
-0.8936745744826461
 20
0.4500841637152164
 10
-0.8694036127511225
 20
0.4568188359666688
 10
-0.8665327496489733
 20
0.457499409658779
  0
LWPOLYLINE
  5
18D
330
12F
100
AcDbEntity
  8
AM_4
100
AcDbPolyline
 90
       19
 70
     0
 43
0.0
 10
1.249055100000001
 20
-0.5
 10
1.243908108896463
 20
-0.4999803393301475
 10
1.238800289503062
 20
-0.4999215069501588
 10
1.233770515409567
 20
-0.4998239506099696
 10
1.228857066233889
 20
-0.4996884127722351
 10
1.224097336291077
 20
-0.4995159249617401
 10
1.21952755
 20
-0.4993077999148737
 10
1.215182486193646
 20
-0.4990656215889118
 10
1.211095213431201
 20
-0.4987912331071462
 10
1.20729683832635
 20
-0.4984867227316037
 10
1.203816268807165
 20
-0.4981544079701101
 10
1.200679994109309
 20
-0.4977968179386579
 10
1.19791188317697
 20
-0.4974166741133051
 10
1.195533003005772
 20
-0.4970168696180997
 10
1.193561458310226
 20
-0.4966004472066587
 10
1.192012253735917
 20
-0.4961705761049762
 10
1.190897179665089
 20
-0.495730527891699
 10
1.190224722484722
 20
-0.4952836515994385
 10
1.19
 20
-0.4948333482266102
  0
LWPOLYLINE
  5
18E
330
12F
100
AcDbEntity
  8
AM_4
100
AcDbPolyline
 90
       19
 70
     0
 43
0.0
 10
-1.19
 20
-0.4948333482266102
 10
-1.190224722484722
 20
-0.4952836515994385
 10
-1.190897179665089
 20
-0.495730527891699
 10
-1.192012253735917
 20
-0.4961705761049762
 10
-1.193561458310226
 20
-0.4966004472066589
 10
-1.195533003005772
 20
-0.4970168696180998
 10
-1.19791188317697
 20
-0.4974166741133051
 10
-1.200679994109309
 20
-0.4977968179386579
 10
-1.203816268807165
 20
-0.4981544079701102
 10
-1.207296838326351
 20
-0.4984867227316037
 10
-1.211095213431201
 20
-0.4987912331071463
 10
-1.215182486193646
 20
-0.4990656215889118
 10
-1.21952755
 20
-0.4993077999148737
 10
-1.224097336291077
 20
-0.4995159249617401
 10
-1.228857066233889
 20
-0.4996884127722351
 10
-1.233770515409567
 20
-0.4998239506099696
 10
-1.238800289503063
 20
-0.4999215069501588
 10
-1.243908108896463
 20
-0.4999803393301475
 10
-1.2490551
 20
-0.5
  0
LWPOLYLINE
  5
18F
330
12F
100
AcDbEntity
  8
AM_4
100
AcDbPolyline
 90
        6
 70
     0
 43
0.0
 10
-0.8665327496489735
 20
-0.457499409658779
 10
-0.8914926197850788
 20
-0.4507840383504577
 10
-0.9096676927866583
 20
-0.4439038985669088
 10
-0.9209196453737607
 20
-0.4369113523262272
 10
-0.9251628433930835
 20
-0.4298596171275195
 10
-0.9252
 20
-0.4291341825440015
  0
LWPOLYLINE
  5
190
330
12F
100
AcDbEntity
  8
AM_4
100
AcDbPolyline
 90
       37
 70
     0
 43
0.0
 10
-1.19
 20
-0.4291341825440015
 10
-1.185471690729177
 20
-0.4200602665965953
 10
-1.171921226084528
 20
-0.4110554086285291
 10
-1.149451733283992
 20
-0.4021881410462219
 10
-1.118234218735231
 20
-0.3935259491101774
 10
-1.078506266573614
 20
-0.3851347573314035
 10
-1.030570230503483
 20
-0.3770784277460767
 10
-0.9747909327039007
 20
-0.3694182738868864
 10
-0.9115928873115846
 20
-0.3622125941500282
 10
-0.8414570696119924
 20
-0.355516228109208
 10
-0.7649172555269828
 20
-0.3493801391533728
 10
-0.6825559592577461
 20
-0.3438510266245484
 10
-0.5950000000000014
 20
-0.3389709704076485
 10
-0.502915731471434
 20
-0.3347771106771422
 10
-0.4070039705575477
 20
-0.3313013652379004
 10
-0.3079946636720017
 20
-0.3285701866114282
 10
-0.2066413314236493
 20
-0.326604360716204
 10
-0.1037153338697156
 20
-0.3254188486742883
 10
-0.0000000000000025
 20
-0.3250226729481518
 10
0.1037153338697106
 20
-0.3254188486742882
 10
0.2066413314236444
 20
-0.3266043607162039
 10
0.307994663671997
 20
-0.3285701866114282
 10
0.4070039705575429
 20
-0.3313013652379003
 10
0.5029157314714295
 20
-0.334777110677142
 10
0.5949999999999971
 20
-0.3389709704076482
 10
0.682555959257742
 20
-0.3438510266245481
 10
0.764917255526979
 20
-0.3493801391533725
 10
0.8414570696119889
 20
-0.3555162281092077
 10
0.9115928873115813
 20
-0.3622125941500279
 10
0.974790932703898
 20
-0.3694182738868861
 10
1.03057023050348
 20
-0.3770784277460764
 10
1.078506266573612
 20
-0.3851347573314031
 10
1.118234218735229
 20
-0.393525949110177
 10
1.14945173328399
 20
-0.4021881410462214
 10
1.171921226084527
 20
-0.4110554086285287
 10
1.185471690729176
 20
-0.4200602665965949
 10
1.19
 20
-0.4291341825440011
  0
LWPOLYLINE
  5
191
330
12F
100
AcDbEntity
  8
AM_4
100
AcDbPolyline
 90
       19
 70
     0
 43
0.0
 10
-1.2490551
 20
0.4999999999999999
 10
-1.243908108896463
 20
0.4999803393301474
 10
-1.238800289503062
 20
0.4999215069501586
 10
-1.233770515409566
 20
0.4998239506099696
 10
-1.228857066233888
 20
0.499688412772235
 10
-1.224097336291077
 20
0.49951592496174
 10
-1.21952755
 20
0.4993077999148736
 10
-1.215182486193645
 20
0.4990656215889118
 10
-1.211095213431201
 20
0.4987912331071462
 10
-1.20729683832635
 20
0.4984867227316036
 10
-1.203816268807165
 20
0.4981544079701101
 10
-1.200679994109309
 20
0.4977968179386579
 10
-1.19791188317697
 20
0.497416674113305
 10
-1.195533003005772
 20
0.4970168696180996
 10
-1.193561458310226
 20
0.4966004472066587
 10
-1.192012253735916
 20
0.4961705761049761
 10
-1.190897179665089
 20
0.4957305278916989
 10
-1.190224722484722
 20
0.4952836515994384
 10
-1.19
 20
0.4948333482266102
  0
LINE
  5
192
330
12F
100
AcDbEntity
  8
AM_4
100
AcDbLine
 10
-1.19
 20
-0.4948333482266102
 30
0.0
 11
-1.19
 21
0.4948333482266101
 31
0.0
  0
LWPOLYLINE
  5
193
330
12F
100
AcDbEntity
  8
AM_4
100
AcDbPolyline
 90
       37
 70
     0
 43
0.0
 10
1.19
 20
0.4291341825440015
 10
1.185471690729177
 20
0.4200602665965953
 10
1.171921226084527
 20
0.4110554086285291
 10
1.149451733283991
 20
0.4021881410462219
 10
1.118234218735231
 20
0.3935259491101774
 10
1.078506266573613
 20
0.3851347573314035
 10
1.030570230503482
 20
0.3770784277460767
 10
0.9747909327039005
 20
0.3694182738868864
 10
0.911592887311584
 20
0.3622125941500282
 10
0.8414570696119918
 20
0.355516228109208
 10
0.7649172555269822
 20
0.3493801391533729
 10
0.6825559592577453
 20
0.3438510266245485
 10
0.5950000000000009
 20
0.3389709704076485
 10
0.5029157314714332
 20
0.3347771106771423
 10
0.4070039705575468
 20
0.3313013652379005
 10
0.3079946636720009
 20
0.3285701866114284
 10
0.2066413314236485
 20
0.326604360716204
 10
0.1037153338697148
 20
0.3254188486742883
 10
0.0000000000000017
 20
0.325022672948152
 10
-0.1037153338697114
 20
0.3254188486742883
 10
-0.2066413314236452
 20
0.326604360716204
 10
-0.3079946636719978
 20
0.3285701866114282
 10
-0.4070039705575437
 20
0.3313013652379003
 10
-0.5029157314714302
 20
0.3347771106771421
 10
-0.5949999999999979
 20
0.3389709704076484
 10
-0.6825559592577426
 20
0.3438510266245483
 10
-0.7649172555269798
 20
0.3493801391533727
 10
-0.8414570696119896
 20
0.3555162281092078
 10
-0.9115928873115822
 20
0.362212594150028
 10
-0.9747909327038988
 20
0.3694182738868863
 10
-1.030570230503481
 20
0.3770784277460765
 10
-1.078506266573612
 20
0.3851347573314032
 10
-1.11823421873523
 20
0.3935259491101771
 10
-1.14945173328399
 20
0.4021881410462216
 10
-1.171921226084527
 20
0.4110554086285289
 10
-1.185471690729177
 20
0.4200602665965951
 10
-1.19
 20
0.4291341825440012
  0
LINE
  5
194
330
12F
100
AcDbEntity
  8
AM_4
100
AcDbLine
 10
1.19
 20
0.4948333482266101
 30
0.0
 11
1.19
 21
-0.4948333482266102
 31
0.0
  0
LWPOLYLINE
  5
195
330
12F
100
AcDbEntity
  8
AM_4
100
AcDbPolyline
 90
       19
 70
     0
 43
0.0
 10
1.19
 20
0.4948333482266101
 10
1.190224722484722
 20
0.4952836515994384
 10
1.190897179665089
 20
0.4957305278916989
 10
1.192012253735917
 20
0.4961705761049761
 10
1.193561458310226
 20
0.4966004472066587
 10
1.195533003005772
 20
0.4970168696180996
 10
1.19791188317697
 20
0.497416674113305
 10
1.200679994109309
 20
0.4977968179386579
 10
1.203816268807165
 20
0.4981544079701101
 10
1.20729683832635
 20
0.4984867227316036
 10
1.211095213431201
 20
0.4987912331071462
 10
1.215182486193646
 20
0.4990656215889118
 10
1.21952755
 20
0.4993077999148737
 10
1.224097336291077
 20
0.49951592496174
 10
1.228857066233889
 20
0.499688412772235
 10
1.233770515409567
 20
0.4998239506099696
 10
1.238800289503062
 20
0.4999215069501587
 10
1.243908108896463
 20
0.4999803393301474
 10
1.249055100000001
 20
0.4999999999999999
  0
LWPOLYLINE
  5
196
330
12F
100
AcDbEntity
  8
AM_4
100
AcDbPolyline
 90
        6
 70
     0
 43
0.0
 10
0.8665275513997526
 20
0.4575006251414458
 10
0.8914886521741539
 20
0.4507852888452212
 10
0.909664986009944
 20
0.4439051745567488
 10
0.9209182200314625
 20
0.4369126441000906
 10
0.9251627103329169
 20
0.4298609148542271
 10
0.9252
 20
0.4291341825440015
  0
ENDBLK
  5
132
330
12F
100
AcDbEntity
  8
0
100
AcDbBlockEnd
  0
ENDSEC
  0
SECTION
  2
ENTITIES
  0
INSERT
  5
6F
330
1F
100
AcDbEntity
  8
0
100
AcDbBlockReference
  2
1_127715_4
 10
0.0
 20
0.0
 30
0.0
  0
POINT
  5
198
330
1F
100
AcDbEntity
  8
ConnectionPoints
100
AcDbPoint
 10
0.0
 20
-0.78
 30
0.0
  0
POINT
  5
199
330
1F
100
AcDbEntity
  8
ConnectionPoints
100
AcDbPoint
 10
0.0
 20
0.5
 30
0.0
  0
POINT
  5
19A
330
1F
100
AcDbEntity
  8
ConnectionPoints
100
AcDbPoint
 10
0.0
 20
0.0
 30
0.0
  0
POINT
  5
19B
330
1F
100
AcDbEntity
  8
ConnectionPoints
100
AcDbPoint
 10
0.0
 20
-0.78
 30
0.0
  0
POINT
  5
19C
330
1F
100
AcDbEntity
  8
ConnectionPoints
100
AcDbPoint
 10
0.8414570696119915
 20
0.0000000000000001
 30
0.8414570696119915
  0
ENDSEC
  0
SECTION
  2
OBJECTS
  0
DICTIONARY
  5
C
330
0
100
AcDbDictionary
281
     1
  3
ACAD_DETAILVIEWSTYLE
350
1A4
  3
ACAD_GROUP
350
D
  3
ACAD_LAYOUT
350
1A
  3
ACAD_MATERIAL
350
43
  3
ACAD_MLEADERSTYLE
350
6B
  3
ACAD_MLINESTYLE
350
17
  3
ACAD_PLOTSETTINGS
350
19
  3
ACAD_PLOTSTYLENAME
350
E
  3
ACAD_SCALELIST
350
47
  3
ACAD_SECTIONVIEWSTYLE
350
1A5
  3
ACAD_TABLESTYLE
350
69
  3
ACAD_VISUALSTYLE
350
2A
  3
ACDB_RECOMPOSE_DATA
350
1A1
  3
AcDbVariableDictionary
350
19D
  0
SUN
  5
6D
330
29
100
AcDbSun
 90
        1
290
     0
 63
     7
421
 16777215
 40
1.0
291
     1
 91
  2455826
 92
 54000000
292
     0
 70
     2
 71
   256
280
     1
  0
DICTIONARY
  5
1A4
102
{ACAD_REACTORS
330
C
102
}
330
C
100
AcDbDictionary
281
     1
  0
DICTIONARY
  5
D
102
{ACAD_REACTORS
330
C
102
}
330
C
100
AcDbDictionary
281
     1
  0
DICTIONARY
  5
1A
102
{ACAD_REACTORS
330
C
102
}
330
C
100
AcDbDictionary
281
     1
  3
Layout1
350
1E
  3
Layout2
350
26
  3
Model
350
22
  0
DICTIONARY
  5
43
102
{ACAD_REACTORS
330
C
102
}
330
C
100
AcDbDictionary
281
     1
  3
ByBlock
350
45
  3
ByLayer
350
44
  3
Global
350
46
  0
DICTIONARY
  5
6B
102
{ACAD_REACTORS
330
C
102
}
330
C
100
AcDbDictionary
281
     1
  3
Standard
350
6C
  0
DICTIONARY
  5
17
102
{ACAD_REACTORS
330
C
102
}
330
C
100
AcDbDictionary
281
     1
  3
Standard
350
18
  0
DICTIONARY
  5
19
102
{ACAD_REACTORS
330
C
102
}
330
C
100
AcDbDictionary
281
     1
  0
ACDBDICTIONARYWDFLT
  5
E
102
{ACAD_REACTORS
330
C
102
}
330
C
100
AcDbDictionary
281
     1
  3
Normal
350
F
100
AcDbDictionaryWithDefault
340
F
  0
DICTIONARY
  5
47
102
{ACAD_REACTORS
330
C
102
}
330
C
100
AcDbDictionary
281
     1
  3
A0
350
48
  3
A1
350
49
  3
A2
350
4A
  3
A3
350
4B
  3
A4
350
4C
  3
A5
350
4D
  3
A6
350
4E
  3
A7
350
4F
  3
A8
350
50
  3
A9
350
51
  3
B0
350
52
  3
B1
350
53
  3
B2
350
54
  3
B3
350
55
  3
B4
350
56
  3
B5
350
57
  3
B6
350
58
  3
B7
350
59
  3
B8
350
5A
  3
B9
350
5B
  3
C0
350
5C
  3
C1
350
5D
  3
C2
350
5E
  3
C3
350
5F
  3
C4
350
60
  3
C5
350
61
  3
C6
350
62
  3
C7
350
63
  3
C8
350
64
  3
C9
350
65
  3
D0
350
66
  3
D1
350
67
  3
D2
350
68
  0
DICTIONARY
  5
1A5
102
{ACAD_REACTORS
330
C
102
}
330
C
100
AcDbDictionary
281
     1
  0
DICTIONARY
  5
69
102
{ACAD_REACTORS
330
C
102
}
330
C
100
AcDbDictionary
281
     1
  3
Standard
350
6A
  0
DICTIONARY
  5
2A
102
{ACAD_REACTORS
330
C
102
}
330
C
100
AcDbDictionary
281
     1
  3
2dWireframe
350
2F
  3
Basic
350
32
  3
Brighten
350
36
  3
ColorChange
350
3A
  3
Conceptual
350
34
  3
Dim
350
35
  3
EdgeColorOff
350
3D
  3
Facepattern
350
39
  3
Flat
350
2B
  3
FlatWithEdges
350
2C
  3
Gouraud
350
2D
  3
GouraudWithEdges
350
2E
  3
Hidden
350
31
  3
JitterOff
350
3B
  3
Linepattern
350
38
  3
OverhangOff
350
3C
  3
Realistic
350
33
  3
Shaded
350
42
  3
Shaded with edges
350
41
  3
Shades of Gray
350
3E
  3
Sketchy
350
3F
  3
Thicken
350
37
  3
Wireframe
350
30
  3
X-Ray
350
40
  0
XRECORD
  5
1A1
102
{ACAD_REACTORS
330
C
102
}
330
C
100
AcDbXrecord
280
     1
 90
        1
330
6A
  0
DICTIONARY
  5
19D
102
{ACAD_REACTORS
330
C
102
}
330
C
100
AcDbDictionary
281
     1
  3
CANNOSCALE
350
19E
  3
CMLEADERSTYLE
350
1A3
  3
CTABLESTYLE
350
1A2
  0
LAYOUT
  5
1E
102
{ACAD_REACTORS
330
1A
102
}
330
1A
100
AcDbPlotSettings
  1

  2
none_device
  4

  6

 40
0.0
 41
0.0
 42
0.0
 43
0.0
 44
0.0
 45
0.0
 46
0.0
 47
0.0
 48
0.0
 49
0.0
140
0.0
141
0.0
142
1.0
143
1.0
 70
   688
 72
     0
 73
     0
 74
     5
  7

 75
    16
 76
     0
 77
     2
 78
   300
147
1.0
148
0.0
149
0.0
100
AcDbLayout
  1
Layout1
 70
     1
 71
     1
 10
0.0
 20
0.0
 11
12.0
 21
9.0
 12
0.0
 22
0.0
 32
0.0
 14
1.000000000000000E+20
 24
1.000000000000000E+20
 34
1.000000000000000E+20
 15
-1.000000000000000E+20
 25
-1.000000000000000E+20
 35
-1.000000000000000E+20
146
0.0
 13
0.0
 23
0.0
 33
0.0
 16
1.0
 26
0.0
 36
0.0
 17
0.0
 27
1.0
 37
0.0
 76
     0
330
1B
  0
LAYOUT
  5
26
102
{ACAD_REACTORS
330
1A
102
}
330
1A
100
AcDbPlotSettings
  1

  2
none_device
  4

  6

 40
0.0
 41
0.0
 42
0.0
 43
0.0
 44
0.0
 45
0.0
 46
0.0
 47
0.0
 48
0.0
 49
0.0
140
0.0
141
0.0
142
1.0
143
1.0
 70
   688
 72
     0
 73
     0
 74
     5
  7

 75
    16
 76
     0
 77
     2
 78
   300
147
1.0
148
0.0
149
0.0
100
AcDbLayout
  1
Layout2
 70
     1
 71
     2
 10
0.0
 20
0.0
 11
0.0
 21
0.0
 12
0.0
 22
0.0
 32
0.0
 14
0.0
 24
0.0
 34
0.0
 15
0.0
 25
0.0
 35
0.0
146
0.0
 13
0.0
 23
0.0
 33
0.0
 16
1.0
 26
0.0
 36
0.0
 17
0.0
 27
1.0
 37
0.0
 76
     0
330
23
  0
LAYOUT
  5
22
102
{ACAD_REACTORS
330
1A
102
}
330
1A
100
AcDbPlotSettings
  1

  2
none_device
  4
Letter_(8.50_x_11.00_Inches)
  6

 40
6.35
 41
6.35
 42
6.35000508
 43
6.35000508
 44
215.9
 45
279.4
 46
0.0
 47
0.0
 48
0.0
 49
0.0
140
0.0
141
0.0
142
1.0
143
1.0
 70
  1712
 72
     0
 73
     0
 74
     0
  7

 75
     0
 76
     0
 77
     2
 78
   300
147
1.0
148
0.0
149
0.0
100
AcDbLayout
  1
Model
 70
     1
 71
     0
 10
0.0
 20
0.0
 11
12.0
 21
9.0
 12
0.0
 22
0.0
 32
0.0
 14
1.000000000000000E+20
 24
1.000000000000000E+20
 34
1.000000000000000E+20
 15
-1.000000000000000E+20
 25
-1.000000000000000E+20
 35
-1.000000000000000E+20
146
0.0
 13
0.0
 23
0.0
 33
0.0
 16
1.0
 26
0.0
 36
0.0
 17
0.0
 27
1.0
 37
0.0
 76
     0
330
1F
331
29
  0
MATERIAL
  5
45
102
{ACAD_REACTORS
330
43
102
}
330
43
100
AcDbMaterial
  1
ByBlock
 72
     1
 94
      127
  0
MATERIAL
  5
44
102
{ACAD_REACTORS
330
43
102
}
330
43
100
AcDbMaterial
  1
ByLayer
 72
     1
 94
      127
  0
MATERIAL
  5
46
102
{ACAD_REACTORS
330
43
102
}
330
43
100
AcDbMaterial
  1
Global
 72
     1
 94
      127
  0
MLEADERSTYLE
  5
6C
102
{ACAD_REACTORS
330
6B
102
}
330
6B
100
AcDbMLeaderStyle
179
     2
170
     2
171
     1
172
     0
 90
        2
 40
0.0
 41
0.0
173
     1
 91
-1056964608
340
14
 92
       -2
290
     1
 42
0.09
291
     1
 43
0.36
  3
Standard
341
0
 44
0.18
300

342
11
174
     1
178
     6
175
     1
176
     0
 93
-1056964608
 45
0.18
292
     0
297
     0
 46
0.18
343
0
 94
-1056964608
 47
1.0
 49
1.0
140
1.0
293
     1
141
0.0
294
     1
177
     0
142
1.0
295
     0
296
     0
143
0.125
271
     0
272
     9
273
     9
298
     0
  0
MLINESTYLE
  5
18
102
{ACAD_REACTORS
330
17
102
}
330
17
100
AcDbMlineStyle
  2
Standard
 70
     0
  3

 62
   256
 51
90.0
 52
90.0
 71
     2
 49
0.5
 62
   256
  6
BYLAYER
 49
-0.5
 62
   256
  6
BYLAYER
  0
ACDBPLACEHOLDER
  5
F
102
{ACAD_REACTORS
330
E
102
}
330
E
  0
SCALE
  5
48
102
{ACAD_REACTORS
330
47
102
}
330
47
100
AcDbScale
 70
     0
300
1:1
140
1.0
141
1.0
290
     1
  0
SCALE
  5
49
102
{ACAD_REACTORS
330
47
102
}
330
47
100
AcDbScale
 70
     0
300
1:2
140
1.0
141
2.0
290
     0
  0
SCALE
  5
4A
102
{ACAD_REACTORS
330
47
102
}
330
47
100
AcDbScale
 70
     0
300
1:4
140
1.0
141
4.0
290
     0
  0
SCALE
  5
4B
102
{ACAD_REACTORS
330
47
102
}
330
47
100
AcDbScale
 70
     0
300
1:5
140
1.0
141
5.0
290
     0
  0
SCALE
  5
4C
102
{ACAD_REACTORS
330
47
102
}
330
47
100
AcDbScale
 70
     0
300
1:8
140
1.0
141
8.0
290
     0
  0
SCALE
  5
4D
102
{ACAD_REACTORS
330
47
102
}
330
47
100
AcDbScale
 70
     0
300
1:10
140
1.0
141
10.0
290
     0
  0
SCALE
  5
4E
102
{ACAD_REACTORS
330
47
102
}
330
47
100
AcDbScale
 70
     0
300
1:16
140
1.0
141
16.0
290
     0
  0
SCALE
  5
4F
102
{ACAD_REACTORS
330
47
102
}
330
47
100
AcDbScale
 70
     0
300
1:20
140
1.0
141
20.0
290
     0
  0
SCALE
  5
50
102
{ACAD_REACTORS
330
47
102
}
330
47
100
AcDbScale
 70
     0
300
1:30
140
1.0
141
30.0
290
     0
  0
SCALE
  5
51
102
{ACAD_REACTORS
330
47
102
}
330
47
100
AcDbScale
 70
     0
300
1:40
140
1.0
141
40.0
290
     0
  0
SCALE
  5
52
102
{ACAD_REACTORS
330
47
102
}
330
47
100
AcDbScale
 70
     0
300
1:50
140
1.0
141
50.0
290
     0
  0
SCALE
  5
53
102
{ACAD_REACTORS
330
47
102
}
330
47
100
AcDbScale
 70
     0
300
1:100
140
1.0
141
100.0
290
     0
  0
SCALE
  5
54
102
{ACAD_REACTORS
330
47
102
}
330
47
100
AcDbScale
 70
     0
300
2:1
140
2.0
141
1.0
290
     0
  0
SCALE
  5
55
102
{ACAD_REACTORS
330
47
102
}
330
47
100
AcDbScale
 70
     0
300
4:1
140
4.0
141
1.0
290
     0
  0
SCALE
  5
56
102
{ACAD_REACTORS
330
47
102
}
330
47
100
AcDbScale
 70
     0
300
8:1
140
8.0
141
1.0
290
     0
  0
SCALE
  5
57
102
{ACAD_REACTORS
330
47
102
}
330
47
100
AcDbScale
 70
     0
300
10:1
140
10.0
141
1.0
290
     0
  0
SCALE
  5
58
102
{ACAD_REACTORS
330
47
102
}
330
47
100
AcDbScale
 70
     0
300
100:1
140
100.0
141
1.0
290
     0
  0
SCALE
  5
59
102
{ACAD_REACTORS
330
47
102
}
330
47
100
AcDbScale
 70
     0
300
1/128" = 1'-0"
140
0.0078125
141
12.0
290
     0
  0
SCALE
  5
5A
102
{ACAD_REACTORS
330
47
102
}
330
47
100
AcDbScale
 70
     0
300
1/64" = 1'-0"
140
0.015625
141
12.0
290
     0
  0
SCALE
  5
5B
102
{ACAD_REACTORS
330
47
102
}
330
47
100
AcDbScale
 70
     0
300
1/32" = 1'-0"
140
0.03125
141
12.0
290
     0
  0
SCALE
  5
5C
102
{ACAD_REACTORS
330
47
102
}
330
47
100
AcDbScale
 70
     0
300
1/16" = 1'-0"
140
0.0625
141
12.0
290
     0
  0
SCALE
  5
5D
102
{ACAD_REACTORS
330
47
102
}
330
47
100
AcDbScale
 70
     0
300
3/32" = 1'-0"
140
0.09375
141
12.0
290
     0
  0
SCALE
  5
5E
102
{ACAD_REACTORS
330
47
102
}
330
47
100
AcDbScale
 70
     0
300
1/8" = 1'-0"
140
0.125
141
12.0
290
     0
  0
SCALE
  5
5F
102
{ACAD_REACTORS
330
47
102
}
330
47
100
AcDbScale
 70
     0
300
3/16" = 1'-0"
140
0.1875
141
12.0
290
     0
  0
SCALE
  5
60
102
{ACAD_REACTORS
330
47
102
}
330
47
100
AcDbScale
 70
     0
300
1/4" = 1'-0"
140
0.25
141
12.0
290
     0
  0
SCALE
  5
61
102
{ACAD_REACTORS
330
47
102
}
330
47
100
AcDbScale
 70
     0
300
3/8" = 1'-0"
140
0.375
141
12.0
290
     0
  0
SCALE
  5
62
102
{ACAD_REACTORS
330
47
102
}
330
47
100
AcDbScale
 70
     0
300
1/2" = 1'-0"
140
0.5
141
12.0
290
     0
  0
SCALE
  5
63
102
{ACAD_REACTORS
330
47
102
}
330
47
100
AcDbScale
 70
     0
300
3/4" = 1'-0"
140
0.75
141
12.0
290
     0
  0
SCALE
  5
64
102
{ACAD_REACTORS
330
47
102
}
330
47
100
AcDbScale
 70
     0
300
1" = 1'-0"
140
1.0
141
12.0
290
     0
  0
SCALE
  5
65
102
{ACAD_REACTORS
330
47
102
}
330
47
100
AcDbScale
 70
     0
300
1-1/2" = 1'-0"
140
1.5
141
12.0
290
     0
  0
SCALE
  5
66
102
{ACAD_REACTORS
330
47
102
}
330
47
100
AcDbScale
 70
     0
300
3" = 1'-0"
140
3.0
141
12.0
290
     0
  0
SCALE
  5
67
102
{ACAD_REACTORS
330
47
102
}
330
47
100
AcDbScale
 70
     0
300
6" = 1'-0"
140
6.0
141
12.0
290
     0
  0
SCALE
  5
68
102
{ACAD_REACTORS
330
47
102
}
330
47
100
AcDbScale
 70
     0
300
1'-0" = 1'-0"
140
12.0
141
12.0
290
     0
  0
TABLESTYLE
  5
6A
102
{ACAD_REACTORS
330
69
102
}
102
{ACAD_XDICTIONARY
360
19F
102
}
330
69
100
AcDbTableStyle
  3
Standard
 70
     0
 71
     0
 40
0.06
 41
0.06
280
     0
281
     0
  7
Standard
140
0.18
170
     2
 62
     0
 63
   257
283
     0
 90
        4
 91
        0
  1

274
    -2
284
     1
 64
     0
275
    -2
285
     1
 65
     0
276
    -2
286
     1
 66
     0
277
    -2
287
     1
 67
     0
278
    -2
288
     1
 68
     0
279
    -2
289
     1
 69
     0
  7
Standard
140
0.25
170
     5
 62
     0
 63
   257
283
     0
 90
        4
 91
        0
  1

274
    -2
284
     1
 64
     0
275
    -2
285
     1
 65
     0
276
    -2
286
     1
 66
     0
277
    -2
287
     1
 67
     0
278
    -2
288
     1
 68
     0
279
    -2
289
     1
 69
     0
  7
Standard
140
0.18
170
     5
 62
     0
 63
   257
283
     0
 90
        4
 91
        0
  1

274
    -2
284
     1
 64
     0
275
    -2
285
     1
 65
     0
276
    -2
286
     1
 66
     0
277
    -2
287
     1
 67
     0
278
    -2
288
     1
 68
     0
279
    -2
289
     1
 69
     0
  0
VISUALSTYLE
  5
2F
102
{ACAD_REACTORS
330
2A
102
}
330
2A
100
AcDbVisualStyle
  2
2dWireframe
 70
     4
177
     3
291
     0
 70
    58
 90
        0
176
     1
 90
        2
176
     1
 90
        0
176
     1
 90
        0
176
     1
 40
0.6
176
     1
 40
30.0
176
     1
 62
     7
420
 16777215
176
     1
 90
        1
176
     1
 90
        4
176
     1
 62
     7
176
     1
 62
   257
176
     1
 90
        1
176
     1
 90
        1
176
     1
 40
1.0
176
     1
 90
        0
176
     1
 62
   257
176
     1
 40
1.0
176
     1
 90
        1
176
     1
 90
        6
176
     1
 90
        2
176
     1
 62
     7
176
     1
 90
        5
176
     1
 90
        0
176
     1
 90
        0
176
     1
290
     0
176
     1
 90
        1
176
     1
 40
0.0
176
     1
 90
        0
176
     1
290
     1
176
     1
290
     1
176
     1
290
     0
176
     1
290
     0
176
     1
290
     0
176
     1
290
     0
176
     1
290
     0
176
     1
290
     0
176
     1
290
     0
176
     1
 90
       50
176
     1
 40
0.0
176
     1
 40
1.0
176
     1
 90
        0
176
     1
 62
    18
420
        0
176
     1
 90
       50
176
     1
 90
        3
176
     1
 62
     5
420
      255
176
     1
290
     0
176
     1
 90
       50
176
     1
 90
       50
176
     1
 90
       50
176
     1
290
     0
176
     1
 90
       50
176
     1
 62
   256
176
     0
 40
1.0
176
     0
 90
        2
176
     1
  1
strokes_ogs.tif
176
     1
290
     0
176
     1
 40
1.0
176
     1
 40
1.0
176
     1
  0
VISUALSTYLE
  5
32
102
{ACAD_REACTORS
330
2A
102
}
330
2A
100
AcDbVisualStyle
  2
Basic
 70
     7
177
     3
291
     1
 70
    58
 90
        1
176
     1
 90
        0
176
     1
 90
        1
176
     1
 90
        0
176
     1
 40
0.6
176
     1
 40
30.0
176
     1
 62
     7
420
 16777215
176
     1
 90
        0
176
     1
 90
        4
176
     1
 62
     7
176
     1
 62
   257
176
     1
 90
        1
176
     1
 90
        1
176
     1
 40
1.0
176
     1
 90
        8
176
     1
 62
     7
176
     1
 40
1.0
176
     1
 90
        1
176
     1
 90
        6
176
     1
 90
        2
176
     1
 62
     7
176
     1
 90
        5
176
     1
 90
        0
176
     1
 90
        0
176
     1
290
     0
176
     1
 90
        1
176
     1
 40
0.0
176
     1
 90
        0
176
     1
290
     0
176
     1
290
     1
176
     1
290
     1
176
     1
290
     0
176
     1
290
     0
176
     1
290
     0
176
     1
290
     0
176
     1
290
     0
176
     1
290
     0
176
     1
 90
       50
176
     1
 40
0.0
176
     1
 40
1.0
176
     1
 90
        0
176
     1
 62
    18
420
        0
176
     1
 90
       50
176
     1
 90
        3
176
     1
 62
     5
420
      255
176
     1
290
     0
176
     1
 90
       50
176
     1
 90
       50
176
     1
 90
       50
176
     1
290
     0
176
     1
 90
       50
176
     1
 62
   256
176
     0
 40
1.0
176
     0
 90
        2
176
     1
  1
strokes_ogs.tif
176
     1
290
     0
176
     1
 40
1.0
176
     1
 40
1.0
176
     1
  0
VISUALSTYLE
  5
36
102
{ACAD_REACTORS
330
2A
102
}
330
2A
100
AcDbVisualStyle
  2
Brighten
 70
    12
177
     3
291
     1
 70
    58
 90
        2
176
     1
 90
        2
176
     1
 90
        0
176
     1
 90
        0
176
     1
 40
0.6
176
     1
 40
30.0
176
     1
 62
     7
420
 16777215
176
     1
 90
        1
176
     1
 90
        4
176
     1
 62
     7
176
     1
 62
   257
176
     1
 90
        1
176
     1
 90
        1
176
     1
 40
1.0
176
     1
 90
        8
176
     1
 62
     7
176
     1
 40
1.0
176
     1
 90
        1
176
     1
 90
        6
176
     1
 90
        2
176
     1
 62
     7
176
     1
 90
        5
176
     1
 90
        0
176
     1
 90
        0
176
     1
290
     0
176
     1
 90
        1
176
     1
 40
50.0
176
     1
 90
        0
176
     1
290
     0
176
     1
290
     1
176
     1
290
     1
176
     1
290
     0
176
     1
290
     0
176
     1
290
     0
176
     1
290
     0
176
     1
290
     0
176
     1
290
     0
176
     1
 90
       50
176
     1
 40
0.0
176
     1
 40
1.0
176
     1
 90
        0
176
     1
 62
    18
420
        0
176
     1
 90
       50
176
     1
 90
        3
176
     1
 62
     5
420
      255
176
     1
290
     0
176
     1
 90
       50
176
     1
 90
       50
176
     1
 90
       50
176
     1
290
     0
176
     1
 90
       50
176
     1
 62
   256
176
     0
 40
1.0
176
     0
 90
        2
176
     1
  1
strokes_ogs.tif
176
     1
290
     0
176
     1
 40
1.0
176
     1
 40
1.0
176
     1
  0
VISUALSTYLE
  5
3A
102
{ACAD_REACTORS
330
2A
102
}
330
2A
100
AcDbVisualStyle
  2
ColorChange
 70
    16
177
     3
291
     1
 70
    58
 90
        2
176
     1
 90
        2
176
     1
 90
        3
176
     1
 90
        0
176
     1
 40
0.6
176
     1
 40
30.0
176
     1
 62
     8
420
  8421504
176
     1
 90
        1
176
     1
 90
        4
176
     1
 62
     7
176
     1
 62
   257
176
     1
 90
        1
176
     1
 90
        1
176
     1
 40
1.0
176
     1
 90
        8
176
     1
 62
     8
420
  8421504
176
     1
 40
1.0
176
     1
 90
        1
176
     1
 90
        6
176
     1
 90
        2
176
     1
 62
     7
176
     1
 90
        5
176
     1
 90
        0
176
     1
 90
        0
176
     1
290
     0
176
     1
 90
        1
176
     1
 40
0.0
176
     1
 90
        0
176
     1
290
     0
176
     1
290
     1
176
     1
290
     1
176
     1
290
     0
176
     1
290
     0
176
     1
290
     0
176
     1
290
     0
176
     1
290
     0
176
     1
290
     0
176
     1
 90
       50
176
     1
 40
0.0
176
     1
 40
1.0
176
     1
 90
        0
176
     1
 62
    18
420
        0
176
     1
 90
       50
176
     1
 90
        3
176
     1
 62
     5
420
      255
176
     1
290
     0
176
     1
 90
       50
176
     1
 90
       50
176
     1
 90
       50
176
     1
290
     0
176
     1
 90
       50
176
     1
 62
   256
176
     0
 40
1.0
176
     0
 90
        2
176
     1
  1
strokes_ogs.tif
176
     1
290
     0
176
     1
 40
1.0
176
     1
 40
1.0
176
     1
  0
VISUALSTYLE
  5
34
102
{ACAD_REACTORS
330
2A
102
}
330
2A
100
AcDbVisualStyle
  2
Conceptual
 70
     9
177
     3
291
     0
 70
    58
 90
        3
176
     1
 90
        2
176
     1
 90
        0
176
     1
 90
        0
176
     1
 40
0.6
176
     1
 40
30.0
176
     1
 62
     7
420
 16777215
176
     1
 90
        2
176
     1
 90
        2
176
     1
 62
     7
176
     1
 62
   257
176
     1
 90
        1
176
     1
 90
        1
176
     1
 40
179.0
176
     1
 90
        8
176
     1
 62
     7
176
     1
 40
1.0
176
     1
 90
        1
176
     1
 90
        6
176
     1
 90
        2
176
     1
 62
     7
176
     1
 90
        3
176
     1
 90
        0
176
     1
 90
        0
176
     1
290
     0
176
     1
 90
        1
176
     1
 40
0.0
176
     1
 90
        0
176
     1
290
     0
176
     1
290
     1
176
     1
290
     1
176
     1
290
     0
176
     1
290
     0
176
     1
290
     0
176
     1
290
     0
176
     1
290
     0
176
     1
290
     0
176
     1
 90
       50
176
     1
 40
0.0
176
     1
 40
1.0
176
     1
 90
        0
176
     1
 62
    18
420
        0
176
     1
 90
       50
176
     1
 90
        3
176
     1
 62
     5
420
      255
176
     1
290
     0
176
     1
 90
       50
176
     1
 90
       50
176
     1
 90
       50
176
     1
290
     0
176
     1
 90
       50
176
     1
 62
   256
176
     0
 40
1.0
176
     0
 90
        2
176
     1
  1
strokes_ogs.tif
176
     1
290
     0
176
     1
 40
1.0
176
     1
 40
1.0
176
     1
  0
VISUALSTYLE
  5
35
102
{ACAD_REACTORS
330
2A
102
}
330
2A
100
AcDbVisualStyle
  2
Dim
 70
    11
177
     3
291
     1
 70
    58
 90
        2
176
     1
 90
        2
176
     1
 90
        0
176
     1
 90
        0
176
     1
 40
0.6
176
     1
 40
30.0
176
     1
 62
     7
420
 16777215
176
     1
 90
        1
176
     1
 90
        4
176
     1
 62
     7
176
     1
 62
   257
176
     1
 90
        1
176
     1
 90
        1
176
     1
 40
1.0
176
     1
 90
        8
176
     1
 62
     7
176
     1
 40
1.0
176
     1
 90
        1
176
     1
 90
        6
176
     1
 90
        2
176
     1
 62
     7
176
     1
 90
        5
176
     1
 90
        0
176
     1
 90
        0
176
     1
290
     0
176
     1
 90
        1
176
     1
 40
-50.0
176
     1
 90
        0
176
     1
290
     0
176
     1
290
     1
176
     1
290
     1
176
     1
290
     0
176
     1
290
     0
176
     1
290
     0
176
     1
290
     0
176
     1
290
     0
176
     1
290
     0
176
     1
 90
       50
176
     1
 40
0.0
176
     1
 40
1.0
176
     1
 90
        0
176
     1
 62
    18
420
        0
176
     1
 90
       50
176
     1
 90
        3
176
     1
 62
     5
420
      255
176
     1
290
     0
176
     1
 90
       50
176
     1
 90
       50
176
     1
 90
       50
176
     1
290
     0
176
     1
 90
       50
176
     1
 62
   256
176
     0
 40
1.0
176
     0
 90
        2
176
     1
  1
strokes_ogs.tif
176
     1
290
     0
176
     1
 40
1.0
176
     1
 40
1.0
176
     1
  0
VISUALSTYLE
  5
3D
102
{ACAD_REACTORS
330
2A
102
}
330
2A
100
AcDbVisualStyle
  2
EdgeColorOff
 70
    22
177
     3
291
     1
 70
    58
 90
        2
176
     0
 90
        2
176
     0
 90
        0
176
     0
 90
        0
176
     0
 40
0.6
176
     0
 40
30.0
176
     0
 62
     7
420
 16777215
176
     0
 90
        1
176
     0
 90
        4
176
     0
 62
     7
176
     0
 62
   257
176
     0
 90
        1
176
     0
 90
        1
176
     0
 40
1.0
176
     0
 90
        8
176
     2
 62
     7
176
     0
 40
1.0
176
     0
 90
        1
176
     0
 90
        6
176
     0
 90
        2
176
     0
 62
     7
176
     0
 90
        5
176
     0
 90
        0
176
     0
 90
        0
176
     0
290
     0
176
     0
 90
        1
176
     0
 40
0.0
176
     0
 90
        0
176
     0
290
     0
176
     0
290
     1
176
     0
290
     1
176
     0
290
     0
176
     0
290
     0
176
     0
290
     0
176
     0
290
     0
176
     0
290
     0
176
     0
290
     0
176
     0
 90
       50
176
     0
 40
0.0
176
     0
 40
1.0
176
     0
 90
        0
176
     0
 62
    18
420
        0
176
     0
 90
       50
176
     0
 90
        3
176
     0
 62
     5
420
      255
176
     0
290
     0
176
     0
 90
       50
176
     0
 90
       50
176
     0
 90
       50
176
     0
290
     0
176
     0
 90
       50
176
     0
 62
   256
176
     0
 40
1.0
176
     0
 90
        2
176
     0
  1
strokes_ogs.tif
176
     0
290
     0
176
     0
 40
1.0
176
     0
 40
1.0
176
     0
  0
VISUALSTYLE
  5
39
102
{ACAD_REACTORS
330
2A
102
}
330
2A
100
AcDbVisualStyle
  2
Facepattern
 70
    15
177
     3
291
     1
 70
    58
 90
        2
176
     1
 90
        2
176
     1
 90
        0
176
     1
 90
        0
176
     1
 40
0.6
176
     1
 40
30.0
176
     1
 62
     7
420
 16777215
176
     1
 90
        1
176
     1
 90
        4
176
     1
 62
     7
176
     1
 62
   257
176
     1
 90
        1
176
     1
 90
        1
176
     1
 40
1.0
176
     1
 90
        8
176
     1
 62
     7
176
     1
 40
1.0
176
     1
 90
        1
176
     1
 90
        6
176
     1
 90
        2
176
     1
 62
     7
176
     1
 90
        5
176
     1
 90
        0
176
     1
 90
        0
176
     1
290
     0
176
     1
 90
        1
176
     1
 40
0.0
176
     1
 90
        0
176
     1
290
     0
176
     1
290
     1
176
     1
290
     1
176
     1
290
     0
176
     1
290
     0
176
     1
290
     0
176
     1
290
     0
176
     1
290
     0
176
     1
290
     0
176
     1
 90
       50
176
     1
 40
0.0
176
     1
 40
1.0
176
     1
 90
        0
176
     1
 62
    18
420
        0
176
     1
 90
       50
176
     1
 90
        3
176
     1
 62
     5
420
      255
176
     1
290
     0
176
     1
 90
       50
176
     1
 90
       50
176
     1
 90
       50
176
     1
290
     0
176
     1
 90
       50
176
     1
 62
   256
176
     0
 40
1.0
176
     0
 90
        2
176
     1
  1
strokes_ogs.tif
176
     1
290
     0
176
     1
 40
1.0
176
     1
 40
1.0
176
     1
  0
VISUALSTYLE
  5
2B
102
{ACAD_REACTORS
330
2A
102
}
330
2A
100
AcDbVisualStyle
  2
Flat
 70
     0
177
     3
291
     1
 70
    58
 90
        2
176
     1
 90
        1
176
     1
 90
        1
176
     1
 90
        2
176
     1
 40
0.6
176
     1
 40
30.0
176
     1
 62
     7
420
 16777215
176
     1
 90
        0
176
     1
 90
        0
176
     1
 62
     7
176
     1
 62
   257
176
     1
 90
        1
176
     1
 90
        1
176
     1
 40
1.0
176
     1
 90
        8
176
     1
 62
     7
176
     1
 40
1.0
176
     1
 90
        1
176
     1
 90
        6
176
     1
 90
        2
176
     1
 62
     7
176
     1
 90
        5
176
     1
 90
        0
176
     1
 90
        0
176
     1
290
     0
176
     1
 90
       13
176
     1
 40
0.0
176
     1
 90
        0
176
     1
290
     0
176
     1
290
     1
176
     1
290
     1
176
     1
290
     0
176
     1
290
     0
176
     1
290
     0
176
     1
290
     0
176
     1
290
     0
176
     1
290
     0
176
     1
 90
       50
176
     1
 40
0.0
176
     1
 40
1.0
176
     1
 90
        0
176
     1
 62
    18
420
        0
176
     1
 90
       50
176
     1
 90
        3
176
     1
 62
     5
420
      255
176
     1
290
     0
176
     1
 90
       50
176
     1
 90
       50
176
     1
 90
       50
176
     1
290
     0
176
     1
 90
       50
176
     1
 62
   256
176
     0
 40
1.0
176
     0
 90
        2
176
     1
  1
strokes_ogs.tif
176
     1
290
     0
176
     1
 40
1.0
176
     1
 40
1.0
176
     1
  0
VISUALSTYLE
  5
2C
102
{ACAD_REACTORS
330
2A
102
}
330
2A
100
AcDbVisualStyle
  2
FlatWithEdges
 70
     1
177
     3
291
     1
 70
    58
 90
        2
176
     1
 90
        1
176
     1
 90
        1
176
     1
 90
        2
176
     1
 40
0.6
176
     1
 40
30.0
176
     1
 62
     7
420
 16777215
176
     1
 90
        1
176
     1
 90
        0
176
     1
 62
     7
176
     1
 62
   257
176
     1
 90
        1
176
     1
 90
        1
176
     1
 40
1.0
176
     1
 90
        0
176
     1
 62
   257
176
     1
 40
1.0
176
     1
 90
        1
176
     1
 90
        6
176
     1
 90
        2
176
     1
 62
     7
176
     1
 90
        5
176
     1
 90
        0
176
     1
 90
        0
176
     1
290
     0
176
     1
 90
       13
176
     1
 40
0.0
176
     1
 90
        0
176
     1
290
     0
176
     1
290
     1
176
     1
290
     1
176
     1
290
     0
176
     1
290
     0
176
     1
290
     0
176
     1
290
     0
176
     1
290
     0
176
     1
290
     0
176
     1
 90
       50
176
     1
 40
0.0
176
     1
 40
1.0
176
     1
 90
        0
176
     1
 62
    18
420
        0
176
     1
 90
       50
176
     1
 90
        3
176
     1
 62
     5
420
      255
176
     1
290
     0
176
     1
 90
       50
176
     1
 90
       50
176
     1
 90
       50
176
     1
290
     0
176
     1
 90
       50
176
     1
 62
   256
176
     0
 40
1.0
176
     0
 90
        2
176
     1
  1
strokes_ogs.tif
176
     1
290
     0
176
     1
 40
1.0
176
     1
 40
1.0
176
     1
  0
VISUALSTYLE
  5
2D
102
{ACAD_REACTORS
330
2A
102
}
330
2A
100
AcDbVisualStyle
  2
Gouraud
 70
     2
177
     3
291
     1
 70
    58
 90
        2
176
     1
 90
        2
176
     1
 90
        1
176
     1
 90
        2
176
     1
 40
0.6
176
     1
 40
30.0
176
     1
 62
     7
420
 16777215
176
     1
 90
        0
176
     1
 90
        0
176
     1
 62
     7
176
     1
 62
   257
176
     1
 90
        1
176
     1
 90
        1
176
     1
 40
1.0
176
     1
 90
        0
176
     1
 62
     7
176
     1
 40
1.0
176
     1
 90
        1
176
     1
 90
        6
176
     1
 90
        2
176
     1
 62
     7
176
     1
 90
        5
176
     1
 90
        0
176
     1
 90
        0
176
     1
290
     0
176
     1
 90
       13
176
     1
 40
0.0
176
     1
 90
        0
176
     1
290
     0
176
     1
290
     1
176
     1
290
     1
176
     1
290
     0
176
     1
290
     0
176
     1
290
     0
176
     1
290
     0
176
     1
290
     0
176
     1
290
     0
176
     1
 90
       50
176
     1
 40
0.0
176
     1
 40
1.0
176
     1
 90
        0
176
     1
 62
    18
420
        0
176
     1
 90
       50
176
     1
 90
        3
176
     1
 62
     5
420
      255
176
     1
290
     0
176
     1
 90
       50
176
     1
 90
       50
176
     1
 90
       50
176
     1
290
     0
176
     1
 90
       50
176
     1
 62
   256
176
     0
 40
1.0
176
     0
 90
        2
176
     1
  1
strokes_ogs.tif
176
     1
290
     0
176
     1
 40
1.0
176
     1
 40
1.0
176
     1
  0
VISUALSTYLE
  5
2E
102
{ACAD_REACTORS
330
2A
102
}
330
2A
100
AcDbVisualStyle
  2
GouraudWithEdges
 70
     3
177
     3
291
     1
 70
    58
 90
        2
176
     1
 90
        2
176
     1
 90
        1
176
     1
 90
        2
176
     1
 40
0.6
176
     1
 40
30.0
176
     1
 62
     7
420
 16777215
176
     1
 90
        1
176
     1
 90
        0
176
     1
 62
     7
176
     1
 62
   257
176
     1
 90
        1
176
     1
 90
        1
176
     1
 40
1.0
176
     1
 90
        0
176
     1
 62
   257
176
     1
 40
1.0
176
     1
 90
        1
176
     1
 90
        6
176
     1
 90
        2
176
     1
 62
     7
176
     1
 90
        5
176
     1
 90
        0
176
     1
 90
        0
176
     1
290
     0
176
     1
 90
       13
176
     1
 40
0.0
176
     1
 90
        0
176
     1
290
     0
176
     1
290
     1
176
     1
290
     1
176
     1
290
     0
176
     1
290
     0
176
     1
290
     0
176
     1
290
     0
176
     1
290
     0
176
     1
290
     0
176
     1
 90
       50
176
     1
 40
0.0
176
     1
 40
1.0
176
     1
 90
        0
176
     1
 62
    18
420
        0
176
     1
 90
       50
176
     1
 90
        3
176
     1
 62
     5
420
      255
176
     1
290
     0
176
     1
 90
       50
176
     1
 90
       50
176
     1
 90
       50
176
     1
290
     0
176
     1
 90
       50
176
     1
 62
   256
176
     0
 40
1.0
176
     0
 90
        2
176
     1
  1
strokes_ogs.tif
176
     1
290
     0
176
     1
 40
1.0
176
     1
 40
1.0
176
     1
  0
VISUALSTYLE
  5
31
102
{ACAD_REACTORS
330
2A
102
}
330
2A
100
AcDbVisualStyle
  2
Hidden
 70
     6
177
     3
291
     0
 70
    58
 90
        1
176
     1
 90
        2
176
     1
 90
        2
176
     1
 90
        0
176
     1
 40
0.6
176
     1
 40
30.0
176
     1
 62
     7
420
 16777215
176
     1
 90
        2
176
     1
 90
        2
176
     1
 62
     7
176
     1
 62
   257
176
     1
 90
        2
176
     1
 90
        1
176
     1
 40
40.0
176
     1
 90
        0
176
     1
 62
   257
176
     1
 40
1.0
176
     1
 90
        1
176
     1
 90
        6
176
     1
 90
        2
176
     1
 62
     7
176
     1
 90
        3
176
     1
 90
        0
176
     1
 90
        0
176
     1
290
     0
176
     1
 90
        1
176
     1
 40
0.0
176
     1
 90
        0
176
     1
290
     0
176
     1
290
     1
176
     1
290
     1
176
     1
290
     0
176
     1
290
     0
176
     1
290
     0
176
     1
290
     0
176
     1
290
     0
176
     1
290
     0
176
     1
 90
       50
176
     1
 40
0.0
176
     1
 40
1.0
176
     1
 90
        0
176
     1
 62
    18
420
        0
176
     1
 90
       50
176
     1
 90
        3
176
     1
 62
     5
420
      255
176
     1
290
     0
176
     1
 90
       50
176
     1
 90
       50
176
     1
 90
       50
176
     1
290
     0
176
     1
 90
       50
176
     1
 62
   256
176
     0
 40
1.0
176
     0
 90
        2
176
     1
  1
strokes_ogs.tif
176
     1
290
     0
176
     1
 40
1.0
176
     1
 40
1.0
176
     1
  0
VISUALSTYLE
  5
3B
102
{ACAD_REACTORS
330
2A
102
}
330
2A
100
AcDbVisualStyle
  2
JitterOff
 70
    20
177
     3
291
     1
 70
    58
 90
        2
176
     0
 90
        2
176
     0
 90
        0
176
     0
 90
        0
176
     0
 40
0.6
176
     0
 40
30.0
176
     0
 62
     7
420
 16777215
176
     0
 90
        1
176
     0
 90
        4
176
     0
 62
     7
176
     0
 62
   257
176
     0
 90
        1
176
     0
 90
        1
176
     0
 40
1.0
176
     0
 90
       10
176
     2
 62
     7
176
     0
 40
1.0
176
     0
 90
        1
176
     0
 90
        6
176
     0
 90
        2
176
     0
 62
     7
176
     0
 90
        5
176
     0
 90
        0
176
     0
 90
        0
176
     0
290
     0
176
     0
 90
        1
176
     0
 40
0.0
176
     0
 90
        0
176
     0
290
     0
176
     0
290
     1
176
     0
290
     1
176
     0
290
     0
176
     0
290
     0
176
     0
290
     0
176
     0
290
     0
176
     0
290
     0
176
     0
290
     0
176
     0
 90
       50
176
     0
 40
0.0
176
     0
 40
1.0
176
     0
 90
        0
176
     0
 62
    18
420
        0
176
     0
 90
       50
176
     0
 90
        3
176
     0
 62
     5
420
      255
176
     0
290
     0
176
     0
 90
       50
176
     0
 90
       50
176
     0
 90
       50
176
     0
290
     0
176
     0
 90
       50
176
     0
 62
   256
176
     0
 40
1.0
176
     0
 90
        2
176
     0
  1
strokes_ogs.tif
176
     0
290
     0
176
     0
 40
1.0
176
     0
 40
1.0
176
     0
  0
VISUALSTYLE
  5
38
102
{ACAD_REACTORS
330
2A
102
}
330
2A
100
AcDbVisualStyle
  2
Linepattern
 70
    14
177
     3
291
     1
 70
    58
 90
        2
176
     1
 90
        2
176
     1
 90
        0
176
     1
 90
        0
176
     1
 40
0.6
176
     1
 40
30.0
176
     1
 62
     7
420
 16777215
176
     1
 90
        1
176
     1
 90
        4
176
     1
 62
     7
176
     1
 62
   257
176
     1
 90
        7
176
     1
 90
        7
176
     1
 40
1.0
176
     1
 90
        8
176
     1
 62
     7
176
     1
 40
1.0
176
     1
 90
        1
176
     1
 90
        6
176
     1
 90
        2
176
     1
 62
     7
176
     1
 90
        5
176
     1
 90
        0
176
     1
 90
        0
176
     1
290
     0
176
     1
 90
        1
176
     1
 40
0.0
176
     1
 90
        0
176
     1
290
     0
176
     1
290
     1
176
     1
290
     1
176
     1
290
     0
176
     1
290
     0
176
     1
290
     0
176
     1
290
     0
176
     1
290
     0
176
     1
290
     0
176
     1
 90
       50
176
     1
 40
0.0
176
     1
 40
1.0
176
     1
 90
        0
176
     1
 62
    18
420
        0
176
     1
 90
       50
176
     1
 90
        3
176
     1
 62
     5
420
      255
176
     1
290
     0
176
     1
 90
       50
176
     1
 90
       50
176
     1
 90
       50
176
     1
290
     0
176
     1
 90
       50
176
     1
 62
   256
176
     0
 40
1.0
176
     0
 90
        2
176
     1
  1
strokes_ogs.tif
176
     1
290
     0
176
     1
 40
1.0
176
     1
 40
1.0
176
     1
  0
VISUALSTYLE
  5
3C
102
{ACAD_REACTORS
330
2A
102
}
330
2A
100
AcDbVisualStyle
  2
OverhangOff
 70
    21
177
     3
291
     1
 70
    58
 90
        2
176
     0
 90
        2
176
     0
 90
        0
176
     0
 90
        0
176
     0
 40
0.6
176
     0
 40
30.0
176
     0
 62
     7
420
 16777215
176
     0
 90
        1
176
     0
 90
        4
176
     0
 62
     7
176
     0
 62
   257
176
     0
 90
        1
176
     0
 90
        1
176
     0
 40
1.0
176
     0
 90
        9
176
     2
 62
     7
176
     0
 40
1.0
176
     0
 90
        1
176
     0
 90
        6
176
     0
 90
        2
176
     0
 62
     7
176
     0
 90
        5
176
     0
 90
        0
176
     0
 90
        0
176
     0
290
     0
176
     0
 90
        1
176
     0
 40
0.0
176
     0
 90
        0
176
     0
290
     0
176
     0
290
     1
176
     0
290
     1
176
     0
290
     0
176
     0
290
     0
176
     0
290
     0
176
     0
290
     0
176
     0
290
     0
176
     0
290
     0
176
     0
 90
       50
176
     0
 40
0.0
176
     0
 40
1.0
176
     0
 90
        0
176
     0
 62
    18
420
        0
176
     0
 90
       50
176
     0
 90
        3
176
     0
 62
     5
420
      255
176
     0
290
     0
176
     0
 90
       50
176
     0
 90
       50
176
     0
 90
       50
176
     0
290
     0
176
     0
 90
       50
176
     0
 62
   256
176
     0
 40
1.0
176
     0
 90
        2
176
     0
  1
strokes_ogs.tif
176
     0
290
     0
176
     0
 40
1.0
176
     0
 40
1.0
176
     0
  0
VISUALSTYLE
  5
33
102
{ACAD_REACTORS
330
2A
102
}
330
2A
100
AcDbVisualStyle
  2
Realistic
 70
     8
177
     3
291
     0
 70
    58
 90
        2
176
     1
 90
        3
176
     1
 90
        0
176
     1
 90
        2
176
     1
 40
0.6
176
     1
 40
30.0
176
     1
 62
     7
420
 16777215
176
     1
 90
        0
176
     1
 90
        0
176
     1
 62
     7
176
     1
 62
   257
176
     1
 90
        1
176
     1
 90
        1
176
     1
 40
1.0
176
     1
 90
        8
176
     1
 62
   257
176
     1
 40
1.0
176
     1
 90
        1
176
     1
 90
        6
176
     1
 90
        2
176
     1
 62
     7
176
     1
 90
        3
176
     1
 90
        0
176
     1
 90
        0
176
     1
290
     0
176
     1
 90
       13
176
     1
 40
0.0
176
     1
 90
        0
176
     1
290
     0
176
     1
290
     1
176
     1
290
     1
176
     1
290
     0
176
     1
290
     0
176
     1
290
     0
176
     1
290
     0
176
     1
290
     0
176
     1
290
     0
176
     1
 90
       50
176
     1
 40
0.0
176
     1
 40
1.0
176
     1
 90
        0
176
     1
 62
    18
420
        0
176
     1
 90
       50
176
     1
 90
        3
176
     1
 62
     5
420
      255
176
     1
290
     0
176
     1
 90
       50
176
     1
 90
       50
176
     1
 90
       50
176
     1
290
     0
176
     1
 90
       50
176
     1
 62
   256
176
     0
 40
1.0
176
     0
 90
        2
176
     1
  1
strokes_ogs.tif
176
     1
290
     0
176
     1
 40
1.0
176
     1
 40
1.0
176
     1
  0
VISUALSTYLE
  5
42
102
{ACAD_REACTORS
330
2A
102
}
330
2A
100
AcDbVisualStyle
  2
Shaded
 70
    27
177
     3
291
     0
 70
    58
 90
        2
176
     1
 90
        2
176
     1
 90
        1
176
     1
 90
        2
176
     1
 40
0.6
176
     1
 40
30.0
176
     1
 62
     7
420
 16777215
176
     1
 90
        0
176
     1
 90
        4
176
     1
 62
     7
176
     1
 62
   257
176
     1
 90
        1
176
     1
 90
        1
176
     1
 40
1.0
176
     1
 90
        8
176
     1
 62
   257
176
     1
 40
1.0
176
     1
 90
        1
176
     1
 90
        6
176
     1
 90
        2
176
     1
 62
     8
420
  7895160
176
     1
 90
        3
176
     1
 90
        0
176
     1
 90
        0
176
     1
290
     0
176
     1
 90
        5
176
     1
 40
0.0
176
     1
 90
        0
176
     1
290
     0
176
     1
290
     1
176
     1
290
     1
176
     1
290
     0
176
     1
290
     0
176
     1
290
     0
176
     1
290
     0
176
     1
290
     0
176
     1
290
     0
176
     1
 90
       50
176
     1
 40
0.0
176
     1
 40
1.0
176
     1
 90
        0
176
     1
 62
    18
420
        0
176
     1
 90
       50
176
     1
 90
        3
176
     1
 62
     5
420
      255
176
     1
290
     0
176
     1
 90
       50
176
     1
 90
       50
176
     1
 90
       50
176
     1
290
     0
176
     1
 90
       50
176
     1
 62
   256
176
     0
 40
1.0
176
     0
 90
        2
176
     1
  1
strokes_ogs.tif
176
     1
290
     0
176
     1
 40
1.0
176
     1
 40
1.0
176
     1
  0
VISUALSTYLE
  5
41
102
{ACAD_REACTORS
330
2A
102
}
330
2A
100
AcDbVisualStyle
  2
Shaded with edges
 70
    26
177
     3
291
     0
 70
    58
 90
        2
176
     1
 90
        2
176
     1
 90
        1
176
     1
 90
        2
176
     1
 40
0.6
176
     1
 40
30.0
176
     1
 62
     7
420
 16777215
176
     1
 90
        1
176
     1
 90
       10
176
     1
 62
     7
176
     1
 62
   257
176
     1
 90
        2
176
     1
 90
        1
176
     1
 40
1.0
176
     1
 90
        8
176
     1
 62
   257
176
     1
 40
1.0
176
     1
 90
        1
176
     1
 90
        6
176
     1
 90
        2
176
     1
 62
     7
176
     1
 90
        3
176
     1
 90
        0
176
     1
 90
        0
176
     1
290
     0
176
     1
 90
        5
176
     1
 40
0.0
176
     1
 90
        0
176
     1
290
     0
176
     1
290
     1
176
     1
290
     1
176
     1
290
     0
176
     1
290
     0
176
     1
290
     0
176
     1
290
     0
176
     1
290
     0
176
     1
290
     0
176
     1
 90
       50
176
     1
 40
0.0
176
     1
 40
1.0
176
     1
 90
        0
176
     1
 62
    18
420
        0
176
     1
 90
       50
176
     1
 90
        3
176
     1
 62
     5
420
      255
176
     1
290
     0
176
     1
 90
       50
176
     1
 90
       50
176
     1
 90
       50
176
     1
290
     0
176
     1
 90
       50
176
     1
 62
   256
176
     0
 40
1.0
176
     0
 90
        2
176
     1
  1
strokes_ogs.tif
176
     1
290
     0
176
     1
 40
1.0
176
     1
 40
1.0
176
     1
  0
VISUALSTYLE
  5
3E
102
{ACAD_REACTORS
330
2A
102
}
330
2A
100
AcDbVisualStyle
  2
Shades of Gray
 70
    23
177
     3
291
     0
 70
    58
 90
        2
176
     1
 90
        2
176
     1
 90
        3
176
     1
 90
        0
176
     1
 40
0.6
176
     1
 40
30.0
176
     1
 62
     7
420
 16777215
176
     1
 90
        2
176
     1
 90
        2
176
     1
 62
     7
176
     1
 62
     7
176
     1
 90
        1
176
     1
 90
        1
176
     1
 40
40.0
176
     1
 90
        8
176
     1
 62
     7
176
     1
 40
1.0
176
     1
 90
        1
176
     1
 90
        6
176
     1
 90
        2
176
     1
 62
     7
176
     1
 90
        3
176
     1
 90
        0
176
     1
 90
        0
176
     1
290
     0
176
     1
 90
        1
176
     1
 40
0.0
176
     1
 90
        0
176
     1
290
     0
176
     1
290
     1
176
     1
290
     1
176
     1
290
     0
176
     1
290
     0
176
     1
290
     0
176
     1
290
     0
176
     1
290
     0
176
     1
290
     0
176
     1
 90
       50
176
     1
 40
0.0
176
     1
 40
1.0
176
     1
 90
        0
176
     1
 62
    18
420
        0
176
     1
 90
       50
176
     1
 90
        3
176
     1
 62
     5
420
      255
176
     1
290
     0
176
     1
 90
       50
176
     1
 90
       50
176
     1
 90
       50
176
     1
290
     0
176
     1
 90
       50
176
     1
 62
   256
176
     0
 40
1.0
176
     0
 90
        2
176
     1
  1
strokes_ogs.tif
176
     1
290
     0
176
     1
 40
1.0
176
     1
 40
1.0
176
     1
  0
VISUALSTYLE
  5
3F
102
{ACAD_REACTORS
330
2A
102
}
330
2A
100
AcDbVisualStyle
  2
Sketchy
 70
    24
177
     3
291
     0
 70
    58
 90
        1
176
     1
 90
        2
176
     1
 90
        2
176
     1
 90
        0
176
     1
 40
0.6
176
     1
 40
30.0
176
     1
 62
     7
420
 16777215
176
     1
 90
        2
176
     1
 90
        2
176
     1
 62
     7
176
     1
 62
     7
176
     1
 90
        1
176
     1
 90
        1
176
     1
 40
40.0
176
     1
 90
       11
176
     1
 62
     7
176
     1
 40
1.0
176
     1
 90
        1
176
     1
 90
        6
176
     1
 90
        2
176
     1
 62
     7
176
     1
 90
        6
176
     1
 90
        0
176
     1
 90
        0
176
     1
290
     0
176
     1
 90
        1
176
     1
 40
0.0
176
     1
 90
        0
176
     1
290
     0
176
     1
290
     1
176
     1
290
     1
176
     1
290
     0
176
     1
290
     0
176
     1
290
     0
176
     1
290
     0
176
     1
290
     0
176
     1
290
     0
176
     1
 90
       50
176
     1
 40
0.0
176
     1
 40
1.0
176
     1
 90
        0
176
     1
 62
    18
420
        0
176
     1
 90
       50
176
     1
 90
        3
176
     1
 62
     5
420
      255
176
     1
290
     0
176
     1
 90
       50
176
     1
 90
       50
176
     1
 90
       50
176
     1
290
     0
176
     1
 90
       50
176
     1
 62
   256
176
     0
 40
1.0
176
     0
 90
        2
176
     1
  1
strokes_ogs.tif
176
     1
290
     0
176
     1
 40
1.0
176
     1
 40
1.0
176
     1
  0
VISUALSTYLE
  5
37
102
{ACAD_REACTORS
330
2A
102
}
330
2A
100
AcDbVisualStyle
  2
Thicken
 70
    13
177
     3
291
     1
 70
    58
 90
        2
176
     1
 90
        2
176
     1
 90
        0
176
     1
 90
        0
176
     1
 40
0.6
176
     1
 40
30.0
176
     1
 62
     7
420
 16777215
176
     1
 90
        1
176
     1
 90
        4
176
     1
 62
     7
176
     1
 62
   257
176
     1
 90
        1
176
     1
 90
        1
176
     1
 40
1.0
176
     1
 90
       12
176
     1
 62
     7
176
     1
 40
1.0
176
     1
 90
        1
176
     1
 90
        6
176
     1
 90
        2
176
     1
 62
     7
176
     1
 90
        5
176
     1
 90
        0
176
     1
 90
        0
176
     1
290
     0
176
     1
 90
        1
176
     1
 40
0.0
176
     1
 90
        0
176
     1
290
     0
176
     1
290
     1
176
     1
290
     1
176
     1
290
     0
176
     1
290
     0
176
     1
290
     0
176
     1
290
     0
176
     1
290
     0
176
     1
290
     0
176
     1
 90
       50
176
     1
 40
0.0
176
     1
 40
1.0
176
     1
 90
        0
176
     1
 62
    18
420
        0
176
     1
 90
       50
176
     1
 90
        3
176
     1
 62
     5
420
      255
176
     1
290
     0
176
     1
 90
       50
176
     1
 90
       50
176
     1
 90
       50
176
     1
290
     0
176
     1
 90
       50
176
     1
 62
   256
176
     0
 40
1.0
176
     0
 90
        2
176
     1
  1
strokes_ogs.tif
176
     1
290
     0
176
     1
 40
1.0
176
     1
 40
1.0
176
     1
  0
VISUALSTYLE
  5
30
102
{ACAD_REACTORS
330
2A
102
}
330
2A
100
AcDbVisualStyle
  2
Wireframe
 70
     5
177
     3
291
     0
 70
    58
 90
        0
176
     1
 90
        2
176
     1
 90
        0
176
     1
 90
        0
176
     1
 40
0.6
176
     1
 40
30.0
176
     1
 62
     7
420
 16777215
176
     1
 90
        1
176
     1
 90
        4
176
     1
 62
     7
176
     1
 62
   257
176
     1
 90
        1
176
     1
 90
        1
176
     1
 40
1.0
176
     1
 90
        0
176
     1
 62
   257
176
     1
 40
1.0
176
     1
 90
        1
176
     1
 90
        6
176
     1
 90
        2
176
     1
 62
     7
176
     1
 90
        3
176
     1
 90
        0
176
     1
 90
        0
176
     1
290
     0
176
     1
 90
        1
176
     1
 40
0.0
176
     1
 90
        0
176
     1
290
     0
176
     1
290
     1
176
     1
290
     1
176
     1
290
     0
176
     1
290
     0
176
     1
290
     0
176
     1
290
     0
176
     1
290
     0
176
     1
290
     0
176
     1
 90
       50
176
     1
 40
0.0
176
     1
 40
1.0
176
     1
 90
        0
176
     1
 62
    18
420
        0
176
     1
 90
       50
176
     1
 90
        3
176
     1
 62
     5
420
      255
176
     1
290
     0
176
     1
 90
       50
176
     1
 90
       50
176
     1
 90
       50
176
     1
290
     0
176
     1
 90
       50
176
     1
 62
   256
176
     0
 40
1.0
176
     0
 90
        2
176
     1
  1
strokes_ogs.tif
176
     1
290
     0
176
     1
 40
1.0
176
     1
 40
1.0
176
     1
  0
VISUALSTYLE
  5
40
102
{ACAD_REACTORS
330
2A
102
}
330
2A
100
AcDbVisualStyle
  2
X-Ray
 70
    25
177
     3
291
     0
 70
    58
 90
        2
176
     1
 90
        2
176
     1
 90
        1
176
     1
 90
        1
176
     1
 40
0.5
176
     1
 40
30.0
176
     1
 62
     7
420
 16777215
176
     1
 90
        1
176
     1
 90
        0
176
     1
 62
     7
176
     1
 62
   257
176
     1
 90
        1
176
     1
 90
        1
176
     1
 40
1.0
176
     1
 90
        8
176
     1
 62
     7
176
     1
 40
1.0
176
     1
 90
        1
176
     1
 90
        6
176
     1
 90
        2
176
     1
 62
     7
176
     1
 90
        3
176
     1
 90
        0
176
     1
 90
        0
176
     1
290
     0
176
     1
 90
       13
176
     1
 40
0.0
176
     1
 90
        0
176
     1
290
     0
176
     1
290
     1
176
     1
290
     1
176
     1
290
     0
176
     1
290
     0
176
     1
290
     0
176
     1
290
     0
176
     1
290
     0
176
     1
290
     0
176
     1
 90
       50
176
     1
 40
0.0
176
     1
 40
1.0
176
     1
 90
        0
176
     1
 62
    18
420
        0
176
     1
 90
       50
176
     1
 90
        3
176
     1
 62
     5
420
      255
176
     1
290
     0
176
     1
 90
       50
176
     1
 90
       50
176
     1
 90
       50
176
     1
290
     0
176
     1
 90
       50
176
     1
 62
   256
176
     0
 40
1.0
176
     0
 90
        2
176
     1
  1
strokes_ogs.tif
176
     1
290
     0
176
     1
 40
1.0
176
     1
 40
1.0
176
     1
  0
DICTIONARYVAR
  5
19E
102
{ACAD_REACTORS
330
19D
102
}
330
19D
100
DictionaryVariables
280
     0
  1
1:1
  0
DICTIONARYVAR
  5
1A3
102
{ACAD_REACTORS
330
19D
102
}
330
19D
100
DictionaryVariables
280
     0
  1
Standard
  0
DICTIONARYVAR
  5
1A2
102
{ACAD_REACTORS
330
19D
102
}
330
19D
100
DictionaryVariables
280
     0
  1
Standard
  0
DICTIONARY
  5
19F
330
6A
100
AcDbDictionary
280
     1
281
     1
  3
ACAD_ROUNDTRIP_2008_TABLESTYLE_CELLSTYLEMAP
360
1A0
  0
CELLSTYLEMAP
  5
1A0
102
{ACAD_REACTORS
330
19F
102
}
330
19F
100
AcDbCellStyleMap
 90
        3
300
CELLSTYLE
  1
TABLEFORMAT_BEGIN
 90
        5
170
     1
 91
        0
 92
    32768
 62
   257
 93
        1
300
CONTENTFORMAT
  1
CONTENTFORMAT_BEGIN
 90
        0
 91
        0
 92
        4
 93
        0
300

 40
0.0
140
1.0
 94
        5
 62
     0
340
11
144
0.25
309
CONTENTFORMAT_END
171
     1
301
MARGIN
  1
CELLMARGIN_BEGIN
 40
0.06
 40
0.06
 40
0.06
 40
0.06
 40
0.06
 40
0.06
309
CELLMARGIN_END
 94
        6
 95
        1
302
GRIDFORMAT
  1
GRIDFORMAT_BEGIN
 90
        0
 91
        1
 62
     0
 92
       -2
340
14
 93
        0
 40
0.045
309
GRIDFORMAT_END
 95
        2
302
GRIDFORMAT
  1
GRIDFORMAT_BEGIN
 90
        0
 91
        1
 62
     0
 92
       -2
340
14
 93
        0
 40
0.045
309
GRIDFORMAT_END
 95
        4
302
GRIDFORMAT
  1
GRIDFORMAT_BEGIN
 90
        0
 91
        1
 62
     0
 92
       -2
340
14
 93
        0
 40
0.045
309
GRIDFORMAT_END
 95
        8
302
GRIDFORMAT
  1
GRIDFORMAT_BEGIN
 90
        0
 91
        1
 62
     0
 92
       -2
340
14
 93
        0
 40
0.045
309
GRIDFORMAT_END
 95
       16
302
GRIDFORMAT
  1
GRIDFORMAT_BEGIN
 90
        0
 91
        1
 62
     0
 92
       -2
340
14
 93
        0
 40
0.045
309
GRIDFORMAT_END
 95
       32
302
GRIDFORMAT
  1
GRIDFORMAT_BEGIN
 90
        0
 91
        1
 62
     0
 92
       -2
340
14
 93
        0
 40
0.045
309
GRIDFORMAT_END
309
TABLEFORMAT_END
  1
CELLSTYLE_BEGIN
 90
        1
 91
        1
300
_TITLE
309
CELLSTYLE_END
300
CELLSTYLE
  1
TABLEFORMAT_BEGIN
 90
        5
170
     1
 91
        0
 92
        0
 62
   257
 93
        1
300
CONTENTFORMAT
  1
CONTENTFORMAT_BEGIN
 90
        0
 91
        0
 92
        4
 93
        0
300

 40
0.0
140
1.0
 94
        5
 62
     0
340
11
144
0.18
309
CONTENTFORMAT_END
171
     1
301
MARGIN
  1
CELLMARGIN_BEGIN
 40
0.06
 40
0.06
 40
0.06
 40
0.06
 40
0.06
 40
0.06
309
CELLMARGIN_END
 94
        6
 95
        1
302
GRIDFORMAT
  1
GRIDFORMAT_BEGIN
 90
        0
 91
        1
 62
     0
 92
       -2
340
14
 93
        0
 40
0.045
309
GRIDFORMAT_END
 95
        2
302
GRIDFORMAT
  1
GRIDFORMAT_BEGIN
 90
        0
 91
        1
 62
     0
 92
       -2
340
14
 93
        0
 40
0.045
309
GRIDFORMAT_END
 95
        4
302
GRIDFORMAT
  1
GRIDFORMAT_BEGIN
 90
        0
 91
        1
 62
     0
 92
       -2
340
14
 93
        0
 40
0.045
309
GRIDFORMAT_END
 95
        8
302
GRIDFORMAT
  1
GRIDFORMAT_BEGIN
 90
        0
 91
        1
 62
     0
 92
       -2
340
14
 93
        0
 40
0.045
309
GRIDFORMAT_END
 95
       16
302
GRIDFORMAT
  1
GRIDFORMAT_BEGIN
 90
        0
 91
        1
 62
     0
 92
       -2
340
14
 93
        0
 40
0.045
309
GRIDFORMAT_END
 95
       32
302
GRIDFORMAT
  1
GRIDFORMAT_BEGIN
 90
        0
 91
        1
 62
     0
 92
       -2
340
14
 93
        0
 40
0.045
309
GRIDFORMAT_END
309
TABLEFORMAT_END
  1
CELLSTYLE_BEGIN
 90
        2
 91
        1
300
_HEADER
309
CELLSTYLE_END
300
CELLSTYLE
  1
TABLEFORMAT_BEGIN
 90
        5
170
     1
 91
        0
 92
        0
 62
   257
 93
        1
300
CONTENTFORMAT
  1
CONTENTFORMAT_BEGIN
 90
        0
 91
        0
 92
        4
 93
        0
300

 40
0.0
140
1.0
 94
        2
 62
     0
340
11
144
0.18
309
CONTENTFORMAT_END
171
     1
301
MARGIN
  1
CELLMARGIN_BEGIN
 40
0.06
 40
0.06
 40
0.06
 40
0.06
 40
0.06
 40
0.06
309
CELLMARGIN_END
 94
        6
 95
        1
302
GRIDFORMAT
  1
GRIDFORMAT_BEGIN
 90
        0
 91
        1
 62
     0
 92
       -2
340
14
 93
        0
 40
0.045
309
GRIDFORMAT_END
 95
        2
302
GRIDFORMAT
  1
GRIDFORMAT_BEGIN
 90
        0
 91
        1
 62
     0
 92
       -2
340
14
 93
        0
 40
0.045
309
GRIDFORMAT_END
 95
        4
302
GRIDFORMAT
  1
GRIDFORMAT_BEGIN
 90
        0
 91
        1
 62
     0
 92
       -2
340
14
 93
        0
 40
0.045
309
GRIDFORMAT_END
 95
        8
302
GRIDFORMAT
  1
GRIDFORMAT_BEGIN
 90
        0
 91
        1
 62
     0
 92
       -2
340
14
 93
        0
 40
0.045
309
GRIDFORMAT_END
 95
       16
302
GRIDFORMAT
  1
GRIDFORMAT_BEGIN
 90
        0
 91
        1
 62
     0
 92
       -2
340
14
 93
        0
 40
0.045
309
GRIDFORMAT_END
 95
       32
302
GRIDFORMAT
  1
GRIDFORMAT_BEGIN
 90
        0
 91
        1
 62
     0
 92
       -2
340
14
 93
        0
 40
0.045
309
GRIDFORMAT_END
309
TABLEFORMAT_END
  1
CELLSTYLE_BEGIN
 90
        3
 91
        2
300
_DATA
309
CELLSTYLE_END
  0
ENDSEC
  0
EOF