0
SECTION
  2
HEADER
  9
$ACADVER
  1
AC1027
  9
$ACADMAINTVER
 70
     8
  9
$DWGCODEPAGE
  3
ANSI_1252
  9
$REQUIREDVERSIONS
160
                 0
  9
$COMMENTS
  1
File was created by Cadenas
  9
$CUSTOMPROPERTYTAG
  1
NN
  9
$CUSTOMPROPERTY
  1
Set Screw Two-Bolt Flange Inch Bore - Stainless Housing, Corrosion Resistant Insert
  9
$CUSTOMPROPERTYTAG
  1
NT
  9
$CUSTOMPROPERTY
  1
SC 2 Bolt Flange Bearings -(Normal Duty) -Corrosion Resistant Insert -E-Z KLEEN
  9
$CUSTOMPROPERTYTAG
  1
NB
  9
$CUSTOMPROPERTY
  1
127684
  9
$CUSTOMPROPERTYTAG
  1
NBSYN
  9
$CUSTOMPROPERTY
  1
$PN.
  9
$CUSTOMPROPERTYTAG
  1
LINA
  9
$CUSTOMPROPERTY
  1
127684
  9
$CUSTOMPROPERTYTAG
  1
SERIES
  9
$CUSTOMPROPERTY
  1
206
  9
$CUSTOMPROPERTYTAG
  1
SS
  9
$CUSTOMPROPERTY
  1
1-1/4
  9
$CUSTOMPROPERTYTAG
  1
PN
  9
$CUSTOMPROPERTY
  1
127684
  9
$CUSTOMPROPERTYTAG
  1
DESCRIPTION
  9
$CUSTOMPROPERTY
  1
F2B-SCEZ-104S-SHCR
  9
$CUSTOMPROPERTYTAG
  1
W
  9
$CUSTOMPROPERTY
  1
1.87
  9
$CUSTOMPROPERTYTAG
  1
A
  9
$CUSTOMPROPERTY
  1
1.52
  9
$CUSTOMPROPERTYTAG
  1
B
  9
$CUSTOMPROPERTY
  1
5.51
  9
$CUSTOMPROPERTYTAG
  1
C
  9
$CUSTOMPROPERTY
  1
1.59
  9
$CUSTOMPROPERTYTAG
  1
D
  9
$CUSTOMPROPERTY
  1
4.59
  9
$CUSTOMPROPERTYTAG
  1
F
  9
$CUSTOMPROPERTY
  1
3/8
  9
$CUSTOMPROPERTYTAG
  1
H
  9
$CUSTOMPROPERTY
  1
0.35
  9
$CUSTOMPROPERTYTAG
  1
J
  9
$CUSTOMPROPERTY
  1
0.46
  9
$CUSTOMPROPERTYTAG
  1
L
  9
$CUSTOMPROPERTY
  1
1.57
  9
$CUSTOMPROPERTYTAG
  1
M
  9
$CUSTOMPROPERTY
  1
3.13
  9
$CUSTOMPROPERTYTAG
  1
COMPANY
  9
$CUSTOMPROPERTY
  1
baldor
  9
$INSBASE
 10
0.0
 20
0.0
 30
0.0
  9
$EXTMIN
 10
1.000000000000000E+20
 20
1.000000000000000E+20
 30
1.000000000000000E+20
  9
$EXTMAX
 10
-1.000000000000000E+20
 20
-1.000000000000000E+20
 30
-1.000000000000000E+20
  9
$LIMMIN
 10
0.0
 20
0.0
  9
$LIMMAX
 10
12.0
 20
9.0
  9
$ORTHOMODE
 70
     0
  9
$REGENMODE
 70
     1
  9
$FILLMODE
 70
     1
  9
$QTEXTMODE
 70
     0
  9
$MIRRTEXT
 70
     1
  9
$LTSCALE
 40
1.0
  9
$ATTMODE
 70
     1
  9
$TEXTSIZE
 40
0.2
  9
$TRACEWID
 40
0.05
  9
$TEXTSTYLE
  7
Standard
  9
$CLAYER
  8
0
  9
$CELTYPE
  6
ByLayer
  9
$CECOLOR
 62
   256
  9
$CELTSCALE
 40
1.0
  9
$DISPSILH
 70
     0
  9
$DIMSCALE
 40
1.0
  9
$DIMASZ
 40
0.18
  9
$DIMEXO
 40
0.0625
  9
$DIMDLI
 40
0.38
  9
$DIMRND
 40
0.0
  9
$DIMDLE
 40
0.0
  9
$DIMEXE
 40
0.18
  9
$DIMTP
 40
0.0
  9
$DIMTM
 40
0.0
  9
$DIMTXT
 40
0.18
  9
$DIMCEN
 40
0.09
  9
$DIMTSZ
 40
0.0
  9
$DIMTOL
 70
     0
  9
$DIMLIM
 70
     0
  9
$DIMTIH
 70
     1
  9
$DIMTOH
 70
     1
  9
$DIMSE1
 70
     0
  9
$DIMSE2
 70
     0
  9
$DIMTAD
 70
     0
  9
$DIMZIN
 70
     0
  9
$DIMBLK
  1

  9
$DIMASO
 70
     1
  9
$DIMSHO
 70
     1
  9
$DIMPOST
  1

  9
$DIMAPOST
  1

  9
$DIMALT
 70
     0
  9
$DIMALTD
 70
     2
  9
$DIMALTF
 40
25.4
  9
$DIMLFAC
 40
1.0
  9
$DIMTOFL
 70
     0
  9
$DIMTVP
 40
0.0
  9
$DIMTIX
 70
     0
  9
$DIMSOXD
 70
     0
  9
$DIMSAH
 70
     0
  9
$DIMBLK1
  1

  9
$DIMBLK2
  1

  9
$DIMSTYLE
  2
Standard
  9
$DIMCLRD
 70
     0
  9
$DIMCLRE
 70
     0
  9
$DIMCLRT
 70
     0
  9
$DIMTFAC
 40
1.0
  9
$DIMGAP
 40
0.09
  9
$DIMJUST
 70
     0
  9
$DIMSD1
 70
     0
  9
$DIMSD2
 70
     0
  9
$DIMTOLJ
 70
     1
  9
$DIMTZIN
 70
     0
  9
$DIMALTZ
 70
     0
  9
$DIMALTTZ
 70
     0
  9
$DIMUPT
 70
     0
  9
$DIMDEC
 70
     4
  9
$DIMTDEC
 70
     4
  9
$DIMALTU
 70
     2
  9
$DIMALTTD
 70
     2
  9
$DIMTXSTY
  7
Standard
  9
$DIMAUNIT
 70
     0
  9
$DIMADEC
 70
     0
  9
$DIMALTRND
 40
0.0
  9
$DIMAZIN
 70
     0
  9
$DIMDSEP
 70
    46
  9
$DIMATFIT
 70
     3
  9
$DIMFRAC
 70
     0
  9
$DIMLDRBLK
  1

  9
$DIMLUNIT
 70
     2
  9
$DIMLWD
 70
    -2
  9
$DIMLWE
 70
    -2
  9
$DIMTMOVE
 70
     0
  9
$DIMFXL
 40
1.0
  9
$DIMFXLON
 70
     0
  9
$DIMJOGANG
 40
0.7853981633974483
  9
$DIMTFILL
 70
     0
  9
$DIMTFILLCLR
 70
     0
  9
$DIMARCSYM
 70
     0
  9
$DIMLTYPE
  6

  9
$DIMLTEX1
  6

  9
$DIMLTEX2
  6

  9
$DIMTXTDIRECTION
 70
     0
  9
$LUNITS
 70
     2
  9
$LUPREC
 70
     4
  9
$SKETCHINC
 40
0.1
  9
$FILLETRAD
 40
0.5
  9
$AUNITS
 70
     0
  9
$AUPREC
 70
     0
  9
$MENU
  1
.
  9
$ELEVATION
 40
0.0
  9
$PELEVATION
 40
0.0
  9
$THICKNESS
 40
0.0
  9
$LIMCHECK
 70
     0
  9
$CHAMFERA
 40
0.0
  9
$CHAMFERB
 40
0.0
  9
$CHAMFERC
 40
0.0
  9
$CHAMFERD
 40
0.0
  9
$SKPOLY
 70
     0
  9
$TDCREATE
 40
2458168.965177847
  9
$TDUCREATE
 40
2458168.923511181
  9
$TDUPDATE
 40
2458168.965177847
  9
$TDUUPDATE
 40
2458168.923511181
  9
$TDINDWG
 40
0.0000000116
  9
$TDUSRTIMER
 40
0.0000000116
  9
$USRTIMER
 70
     1
  9
$ANGBASE
 50
0.0
  9
$ANGDIR
 70
     0
  9
$PDMODE
 70
     0
  9
$PDSIZE
 40
0.0
  9
$PLINEWID
 40
0.0
  9
$SPLFRAME
 70
     0
  9
$SPLINETYPE
 70
     6
  9
$SPLINESEGS
 70
     8
  9
$HANDSEED
  5
172
  9
$SURFTAB1
 70
     6
  9
$SURFTAB2
 70
     6
  9
$SURFTYPE
 70
     6
  9
$SURFU
 70
     6
  9
$SURFV
 70
     6
  9
$UCSBASE
  2

  9
$UCSNAME
  2

  9
$UCSORG
 10
0.0
 20
0.0
 30
0.0
  9
$UCSXDIR
 10
1.0
 20
0.0
 30
0.0
  9
$UCSYDIR
 10
0.0
 20
1.0
 30
0.0
  9
$UCSORTHOREF
  2

  9
$UCSORTHOVIEW
 70
     0
  9
$UCSORGTOP
 10
0.0
 20
0.0
 30
0.0
  9
$UCSORGBOTTOM
 10
0.0
 20
0.0
 30
0.0
  9
$UCSORGLEFT
 10
0.0
 20
0.0
 30
0.0
  9
$UCSORGRIGHT
 10
0.0
 20
0.0
 30
0.0
  9
$UCSORGFRONT
 10
0.0
 20
0.0
 30
0.0
  9
$UCSORGBACK
 10
0.0
 20
0.0
 30
0.0
  9
$PUCSBASE
  2

  9
$PUCSNAME
  2

  9
$PUCSORG
 10
0.0
 20
0.0
 30
0.0
  9
$PUCSXDIR
 10
1.0
 20
0.0
 30
0.0
  9
$PUCSYDIR
 10
0.0
 20
1.0
 30
0.0
  9
$PUCSORTHOREF
  2

  9
$PUCSORTHOVIEW
 70
     0
  9
$PUCSORGTOP
 10
0.0
 20
0.0
 30
0.0
  9
$PUCSORGBOTTOM
 10
0.0
 20
0.0
 30
0.0
  9
$PUCSORGLEFT
 10
0.0
 20
0.0
 30
0.0
  9
$PUCSORGRIGHT
 10
0.0
 20
0.0
 30
0.0
  9
$PUCSORGFRONT
 10
0.0
 20
0.0
 30
0.0
  9
$PUCSORGBACK
 10
0.0
 20
0.0
 30
0.0
  9
$USERI1
 70
     0
  9
$USERI2
 70
     0
  9
$USERI3
 70
     0
  9
$USERI4
 70
     0
  9
$USERI5
 70
     0
  9
$USERR1
 40
0.0
  9
$USERR2
 40
0.0
  9
$USERR3
 40
0.0
  9
$USERR4
 40
0.0
  9
$USERR5
 40
0.0
  9
$WORLDVIEW
 70
     1
  9
$SHADEDGE
 70
     3
  9
$SHADEDIF
 70
    70
  9
$TILEMODE
 70
     1
  9
$MAXACTVP
 70
    64
  9
$PINSBASE
 10
0.0
 20
0.0
 30
0.0
  9
$PLIMCHECK
 70
     0
  9
$PEXTMIN
 10
1.000000000000000E+20
 20
1.000000000000000E+20
 30
1.000000000000000E+20
  9
$PEXTMAX
 10
-1.000000000000000E+20
 20
-1.000000000000000E+20
 30
-1.000000000000000E+20
  9
$PLIMMIN
 10
0.0
 20
0.0
  9
$PLIMMAX
 10
12.0
 20
9.0
  9
$UNITMODE
 70
     0
  9
$VISRETAIN
 70
     1
  9
$PLINEGEN
 70
     0
  9
$PSLTSCALE
 70
     1
  9
$TREEDEPTH
 70
  3020
  9
$CMLSTYLE
  2
Standard
  9
$CMLJUST
 70
     0
  9
$CMLSCALE
 40
1.0
  9
$PROXYGRAPHICS
 70
     1
  9
$MEASUREMENT
 70
     0
  9
$CELWEIGHT
370
    -1
  9
$ENDCAPS
280
     0
  9
$JOINSTYLE
280
     0
  9
$LWDISPLAY
290
     0
  9
$INSUNITS
 70
     1
  9
$HYPERLINKBASE
  1

  9
$STYLESHEET
  1

  9
$XEDIT
290
     1
  9
$CEPSNTYPE
380
     0
  9
$PSTYLEMODE
290
     1
  9
$FINGERPRINTGUID
  2
{B40E17CB-8573-4A25-AC2D-8D08B82CF417}
  9
$VERSIONGUID
  2
{FAEB1C32-E019-11D5-929B-00C0DF256EC4}
  9
$EXTNAMES
290
     1
  9
$PSVPSCALE
 40
0.0
  9
$OLESTARTUP
290
     0
  9
$SORTENTS
280
   127
  9
$INDEXCTL
280
     0
  9
$HIDETEXT
280
     1
  9
$XCLIPFRAME
280
     2
  9
$HALOGAP
280
     0
  9
$OBSCOLOR
 70
   257
  9
$OBSLTYPE
280
     0
  9
$INTERSECTIONDISPLAY
280
     0
  9
$INTERSECTIONCOLOR
 70
   257
  9
$DIMASSOC
280
     2
  9
$PROJECTNAME
  1

  9
$CAMERADISPLAY
290
     0
  9
$LENSLENGTH
 40
50.0
  9
$CAMERAHEIGHT
 40
0.0
  9
$STEPSPERSEC
 40
2.0
  9
$STEPSIZE
 40
6.0
  9
$3DDWFPREC
 40
2.0
  9
$PSOLWIDTH
 40
0.25
  9
$PSOLHEIGHT
 40
4.0
  9
$LOFTANG1
 40
1.570796326794897
  9
$LOFTANG2
 40
1.570796326794897
  9
$LOFTMAG1
 40
0.0
  9
$LOFTMAG2
 40
0.0
  9
$LOFTPARAM
 70
     7
  9
$LOFTNORMALS
280
     1
  9
$LATITUDE
 40
37.795
  9
$LONGITUDE
 40
-122.394
  9
$NORTHDIRECTION
 40
0.0
  9
$TIMEZONE
 70
 -8000
  9
$LIGHTGLYPHDISPLAY
280
     1
  9
$TILEMODELIGHTSYNCH
280
     1
  9
$CMATERIAL
347
44
  9
$SOLIDHIST
280
     0
  9
$SHOWHIST
280
     1
  9
$DWFFRAME
280
     2
  9
$DGNFRAME
280
     2
  9
$REALWORLDSCALE
290
     1
  9
$INTERFERECOLOR
 62
   256
  9
$CSHADOW
280
     0
  9
$SHADOWPLANELOCATION
 40
0.0
  0
ENDSEC
  0
SECTION
  2
CLASSES
  0
CLASS
  1
ACDBDICTIONARYWDFLT
  2
AcDbDictionaryWithDefault
  3
ObjectDBX Classes
 90
        0
 91
        4
280
     0
281
     0
  0
CLASS
  1
VISUALSTYLE
  2
AcDbVisualStyle
  3
ObjectDBX Classes
 90
     4095
 91
        4
280
     0
281
     0
  0
CLASS
  1
MATERIAL
  2
AcDbMaterial
  3
ObjectDBX Classes
 90
     1153
 91
        4
280
     0
281
     0
  0
CLASS
  1
SCALE
  2
AcDbScale
  3
ObjectDBX Classes
 90
     1153
 91
        4
280
     0
281
     0
  0
CLASS
  1
TABLESTYLE
  2
AcDbTableStyle
  3
ObjectDBX Classes
 90
     4095
 91
        4
280
     0
281
     0
  0
CLASS
  1
MLEADERSTYLE
  2
AcDbMLeaderStyle
  3
ACDB_MLEADERSTYLE_CLASS
 90
     4095
 91
        4
280
     0
281
     0
  0
CLASS
  1
SUN
  2
AcDbSun
  3
SCENEOE
 90
     1153
 91
        4
280
     0
281
     0
  0
CLASS
  1
DICTIONARYVAR
  2
AcDbDictionaryVar
  3
ObjectDBX Classes
 90
        0
 91
        4
280
     0
281
     0
  0
CLASS
  1
CELLSTYLEMAP
  2
AcDbCellStyleMap
  3
ObjectDBX Classes
 90
     1152
 91
        4
280
     0
281
     0
  0
ENDSEC
  0
SECTION
  2
TABLES
  0
TABLE
  2
VPORT
  5
8
330
0
100
AcDbSymbolTable
 70
     1
  0
VPORT
  5
29
330
8
100
AcDbSymbolTableRecord
100
AcDbViewportTableRecord
  2
*Active
 70
     0
 10
0.0
 20
0.0
 11
1.0
 21
1.0
 12
0.0
 22
-0.7949999999999999
 13
0.0
 23
0.0
 14
0.5
 24
0.5
 15
0.5
 25
0.5
 16
0.0
 26
0.0
 36
1.0
 17
0.0
 27
0.0
 37
0.0
 40
1.783980000000001
 41
1.789594053744996
 42
50.0
 43
0.0
 44
0.0
 50
0.0
 51
0.0
 71
     0
 72
   100
 73
     1
 74
     3
 75
     0
 76
     0
 77
     0
 78
     0
281
     0
 65
     1
110
0.0
120
0.0
130
0.0
111
1.0
121
0.0
131
0.0
112
0.0
122
1.0
132
0.0
 79
     0
146
0.0
348
2F
 60
     3
 61
     5
292
     1
282
     1
141
0.0
142
0.0
 63
   250
361
6D
  0
ENDTAB
  0
TABLE
  2
LTYPE
  5
5
330
0
100
AcDbSymbolTable
 70
     3
  0
LTYPE
  5
14
330
5
100
AcDbSymbolTableRecord
100
AcDbLinetypeTableRecord
  2
ByBlock
 70
     0
  3

 72
    65
 73
     0
 40
0.0
  0
LTYPE
  5
15
330
5
100
AcDbSymbolTableRecord
100
AcDbLinetypeTableRecord
  2
ByLayer
 70
     0
  3

 72
    65
 73
     0
 40
0.0
  0
LTYPE
  5
16
330
5
100
AcDbSymbolTableRecord
100
AcDbLinetypeTableRecord
  2
Continuous
 70
     0
  3
Solid line
 72
    65
 73
     0
 40
0.0
  0
LTYPE
  5
99
330
5
100
AcDbSymbolTableRecord
100
AcDbLinetypeTableRecord
  2
Dashed
 70
     0
  3

 72
    65
 73
     2
 40
2.0
 49
1.0
 74
     0
 49
-1.0
 74
     0
  0
LTYPE
  5
123
330
5
100
AcDbSymbolTableRecord
100
AcDbLinetypeTableRecord
  2
Center
 70
     0
  3

 72
    65
 73
     4
 40
1.5
 49
0.45
 74
     0
 49
-0.5
 74
     0
 49
0.05
 74
     0
 49
-0.5
 74
     0
  0
ENDTAB
  0
TABLE
  2
LAYER
  5
2
330
0
100
AcDbSymbolTable
 70
     7
  0
LAYER
  5
10
330
2
100
AcDbSymbolTableRecord
100
AcDbLayerTableRecord
  2
0
 70
     0
 62
     7
  6
Continuous
370
    -3
390
F
347
46
348
0
  0
LAYER
  5
72
330
2
100
AcDbSymbolTableRecord
100
AcDbLayerTableRecord
  2
AM_6
 70
     0
 62
    -2
  6
Continuous
370
    35
390
F
347
46
348
0
  0
LAYER
  5
9A
330
2
100
AcDbSymbolTableRecord
100
AcDbLayerTableRecord
  2
AM_9
 70
     0
 62
     6
  6
Dashed
370
    25
390
F
347
46
348
0
  0
LAYER
  5
B7
330
2
100
AcDbSymbolTableRecord
100
AcDbLayerTableRecord
  2
AM_4
 70
     0
 62
     7
  6
Continuous
370
    50
390
F
347
46
348
0
  0
LAYER
  5
11E
330
2
100
AcDbSymbolTableRecord
100
AcDbLayerTableRecord
  2
AM_5
 70
     0
 62
     3
  6
Continuous
370
    25
390
F
347
46
348
0
  0
LAYER
  5
124
330
2
100
AcDbSymbolTableRecord
100
AcDbLayerTableRecord
  2
AM_7
 70
     0
 62
     7
  6
Center
370
    25
390
F
347
46
348
0
  0
LAYER
  5
164
330
2
100
AcDbSymbolTableRecord
100
AcDbLayerTableRecord
  2
ConnectionPoints
 70
     0
 62
     7
  6
Continuous
370
    50
390
F
347
46
348
0
  0
ENDTAB
  0
TABLE
  2
STYLE
  5
3
330
0
100
AcDbSymbolTable
 70
     1
  0
STYLE
  5
11
330
3
100
AcDbSymbolTableRecord
100
AcDbTextStyleTableRecord
  2
Standard
 70
     0
 40
0.0
 41
1.0
 50
0.0
 71
     0
 42
0.2
  3
txt
  4

  0
ENDTAB
  0
TABLE
  2
VIEW
  5
6
330
0
100
AcDbSymbolTable
 70
     0
  0
ENDTAB
  0
TABLE
  2
UCS
  5
7
330
0
100
AcDbSymbolTable
 70
     0
  0
ENDTAB
  0
TABLE
  2
APPID
  5
9
330
0
100
AcDbSymbolTable
 70
     1
  0
APPID
  5
12
330
9
100
AcDbSymbolTableRecord
100
AcDbRegAppTableRecord
  2
ACAD
 70
     0
  0
ENDTAB
  0
TABLE
  2
DIMSTYLE
  5
A
330
0
100
AcDbSymbolTable
 70
     1
100
AcDbDimStyleTable
  0
DIMSTYLE
105
27
330
A
100
AcDbSymbolTableRecord
100
AcDbDimStyleTableRecord
  2
Standard
 70
     0
178
     0
340
11
  0
ENDTAB
  0
TABLE
  2
BLOCK_RECORD
  5
1
330
0
100
AcDbSymbolTable
 70
     5
  0
BLOCK_RECORD
  5
1F
330
1
100
AcDbSymbolTableRecord
100
AcDbBlockTableRecord
  2
*Model_Space
340
22
 70
     0
280
     1
281
     0
  0
BLOCK_RECORD
  5
1B
330
1
100
AcDbSymbolTableRecord
100
AcDbBlockTableRecord
  2
*Paper_Space
340
1E
 70
     0
280
     1
281
     0
  0
BLOCK_RECORD
  5
23
330
1
100
AcDbSymbolTableRecord
100
AcDbBlockTableRecord
  2
*Paper_Space0
340
26
 70
     0
280
     1
281
     0
  0
BLOCK_RECORD
  5
6E
330
1
100
AcDbSymbolTableRecord
100
AcDbBlockTableRecord
  2
1_127684_4
340
0
102
{BLKREFS
331
6F
102
}
 70
     0
280
     1
281
     0
  0
BLOCK_RECORD
  5
87
330
1
100
AcDbSymbolTableRecord
100
AcDbBlockTableRecord
  2
2_405020c_Inch_0_in_127684_4
340
0
102
{BLKREFS
331
88
102
}
 70
     0
280
     1
281
     0
  0
BLOCK_RECORD
  5
D3
330
1
100
AcDbSymbolTableRecord
100
AcDbBlockTableRecord
  2
3_045603_0_in_127684_4
340
0
102
{BLKREFS
331
D4
102
}
 70
     0
280
     1
281
     0
  0
BLOCK_RECORD
  5
130
330
1
100
AcDbSymbolTableRecord
100
AcDbBlockTableRecord
  2
4_127684H_0_in_127684_4
340
0
102
{BLKREFS
331
131
102
}
 70
     0
280
     1
281
     0
  0
ENDTAB
  0
ENDSEC
  0
SECTION
  2
BLOCKS
  0
BLOCK
  5
20
330
1F
100
AcDbEntity
  8
0
100
AcDbBlockBegin
  2
*Model_Space
 70
     0
 10
0.0
 20
0.0
 30
0.0
  3
*Model_Space
  1

  0
ENDBLK
  5
21
330
1F
100
AcDbEntity
  8
0
100
AcDbBlockEnd
  0
BLOCK
  5
1C
330
1B
100
AcDbEntity
 67
     1
  8
0
100
AcDbBlockBegin
  2
*Paper_Space
 70
     0
 10
0.0
 20
0.0
 30
0.0
  3
*Paper_Space
  1

  0
ENDBLK
  5
1D
330
1B
100
AcDbEntity
 67
     1
  8
0
100
AcDbBlockEnd
  0
BLOCK
  5
24
330
23
100
AcDbEntity
  8
0
100
AcDbBlockBegin
  2
*Paper_Space0
 70
     0
 10
0.0
 20
0.0
 30
0.0
  3
*Paper_Space0
  1

  0
ENDBLK
  5
25
330
23
100
AcDbEntity
  8
0
100
AcDbBlockEnd
  0
BLOCK
  5
70
330
6E
100
AcDbEntity
  8
0
100
AcDbBlockBegin
  2
1_127684_4
 70
     2
 10
0.0
 20
0.0
 30
0.0
  3
1_127684_4
  1

  0
ATTDEF
  5
73
330
6E
100
AcDbEntity
  8
AM_6
100
AcDbText
 10
6.565
 20
0.0795
 30
0.0
 40
0.5
  1
Set Screw Two-Bolt Flange Inch Bore - Stainless Housing, Corrosion Resistant Insert
100
AcDbAttributeDefinition
  3

  2
NN
 70
     8
280
     0
  0
ATTDEF
  5
74
330
6E
100
AcDbEntity
  8
AM_6
100
AcDbText
 10
6.565
 20
-0.4205
 30
0.0
 40
0.5
  1
SC 2 Bolt Flange Bearings -(Normal Duty) -Corrosion Resistant Insert -E-Z KLEEN
100
AcDbAttributeDefinition
  3

  2
NT
 70
     8
280
     0
  0
ATTDEF
  5
75
330
6E
100
AcDbEntity
  8
AM_6
100
AcDbText
 10
6.565
 20
-0.9205
 30
0.0
 40
0.5
  1
127684
100
AcDbAttributeDefinition
  3

  2
NB
 70
     8
280
     0
  0
ATTDEF
  5
76
330
6E
100
AcDbEntity
  8
AM_6
100
AcDbText
 10
6.565
 20
-1.4205
 30
0.0
 40
0.5
  1
$PN.
100
AcDbAttributeDefinition
  3

  2
NBSYN
 70
     8
280
     0
  0
ATTDEF
  5
77
330
6E
100
AcDbEntity
  8
AM_6
100
AcDbText
 10
6.565
 20
-1.9205
 30
0.0
 40
0.5
  1
127684
100
AcDbAttributeDefinition
  3

  2
LINA
 70
     8
280
     0
  0
ATTDEF
  5
78
330
6E
100
AcDbEntity
  8
AM_6
100
AcDbText
 10
6.565
 20
-2.4205
 30
0.0
 40
0.5
  1
206
100
AcDbAttributeDefinition
  3

  2
SERIES
 70
     8
280
     0
  0
ATTDEF
  5
79
330
6E
100
AcDbEntity
  8
AM_6
100
AcDbText
 10
6.565
 20
-2.9205
 30
0.0
 40
0.5
  1
1-1/4
100
AcDbAttributeDefinition
  3

  2
SS
 70
     8
280
     0
  0
ATTDEF
  5
7A
330
6E
100
AcDbEntity
  8
AM_6
100
AcDbText
 10
6.565
 20
-3.4205
 30
0.0
 40
0.5
  1
127684
100
AcDbAttributeDefinition
  3

  2
PN
 70
     8
280
     0
  0
ATTDEF
  5
7B
330
6E
100
AcDbEntity
  8
AM_6
100
AcDbText
 10
6.565
 20
-3.9205
 30
0.0
 40
0.5
  1
F2B-SCEZ-104S-SHCR
100
AcDbAttributeDefinition
  3

  2
DESCRIPTION
 70
     8
280
     0
  0
ATTDEF
  5
7C
330
6E
100
AcDbEntity
  8
AM_6
100
AcDbText
 10
6.565
 20
-4.420500000000001
 30
0.0
 40
0.5
  1
1.87
100
AcDbAttributeDefinition
  3

  2
W
 70
     8
280
     0
  0
ATTDEF
  5
7D
330
6E
100
AcDbEntity
  8
AM_6
100
AcDbText
 10
6.565
 20
-4.920500000000001
 30
0.0
 40
0.5
  1
1.52
100
AcDbAttributeDefinition
  3

  2
A
 70
     8
280
     0
  0
ATTDEF
  5
7E
330
6E
100
AcDbEntity
  8
AM_6
100
AcDbText
 10
6.565
 20
-5.420500000000001
 30
0.0
 40
0.5
  1
5.51
100
AcDbAttributeDefinition
  3

  2
B
 70
     8
280
     0
  0
ATTDEF
  5
7F
330
6E
100
AcDbEntity
  8
AM_6
100
AcDbText
 10
6.565
 20
-5.920500000000001
 30
0.0
 40
0.5
  1
1.59
100
AcDbAttributeDefinition
  3

  2
C
 70
     8
280
     0
  0
ATTDEF
  5
80
330
6E
100
AcDbEntity
  8
AM_6
100
AcDbText
 10
6.565
 20
-6.420500000000001
 30
0.0
 40
0.5
  1
4.59
100
AcDbAttributeDefinition
  3

  2
D
 70
     8
280
     0
  0
ATTDEF
  5
81
330
6E
100
AcDbEntity
  8
AM_6
100
AcDbText
 10
6.565
 20
-6.920500000000001
 30
0.0
 40
0.5
  1
3/8
100
AcDbAttributeDefinition
  3

  2
F
 70
     8
280
     0
  0
ATTDEF
  5
82
330
6E
100
AcDbEntity
  8
AM_6
100
AcDbText
 10
6.565
 20
-7.420500000000001
 30
0.0
 40
0.5
  1
0.35
100
AcDbAttributeDefinition
  3

  2
H
 70
     8
280
     0
  0
ATTDEF
  5
83
330
6E
100
AcDbEntity
  8
AM_6
100
AcDbText
 10
6.565
 20
-7.920500000000001
 30
0.0
 40
0.5
  1
0.46
100
AcDbAttributeDefinition
  3

  2
J
 70
     8
280
     0
  0
ATTDEF
  5
84
330
6E
100
AcDbEntity
  8
AM_6
100
AcDbText
 10
6.565
 20
-8.4205
 30
0.0
 40
0.5
  1
1.57
100
AcDbAttributeDefinition
  3

  2
L
 70
     8
280
     0
  0
ATTDEF
  5
85
330
6E
100
AcDbEntity
  8
AM_6
100
AcDbText
 10
6.565
 20
-8.9205
 30
0.0
 40
0.5
  1
3.13
100
AcDbAttributeDefinition
  3

  2
M
 70
     8
280
     0
  0
ATTDEF
  5
86
330
6E
100
AcDbEntity
  8
AM_6
100
AcDbText
 10
6.565
 20
-9.4205
 30
0.0
 40
0.5
  1
baldor
100
AcDbAttributeDefinition
  3

  2
COMPANY
 70
     8
280
     0
  0
INSERT
  5
88
330
6E
100
AcDbEntity
  8
0
100
AcDbBlockReference
  2
2_405020c_Inch_0_in_127684_4
 10
0.0
 20
0.0
 30
0.0
  0
INSERT
  5
D4
330
6E
100
AcDbEntity
  8
0
100
AcDbBlockReference
  2
3_045603_0_in_127684_4
 10
0.0
 20
0.0
 30
0.0
  0
INSERT
  5
131
330
6E
100
AcDbEntity
  8
0
100
AcDbBlockReference
  2
4_127684H_0_in_127684_4
 10
0.0
 20
0.0
 30
0.0
  0
ENDBLK
  5
71
330
6E
100
AcDbEntity
  8
0
100
AcDbBlockEnd
  0
BLOCK
  5
89
330
87
100
AcDbEntity
  8
0
100
AcDbBlockBegin
  2
2_405020c_Inch_0_in_127684_4
 70
     2
 10
0.0
 20
0.0
 30
0.0
  3
2_405020c_Inch_0_in_127684_4
  1

  0
ATTDEF
  5
8B
330
87
100
AcDbEntity
  8
AM_6
100
AcDbText
 10
6.362320432810819
 20
-0.5993499999999996
 30
0.0
 40
0.5
  1
405020C -Inch
100
AcDbAttributeDefinition
  3

  2
NN
 70
     8
280
     0
  0
ATTDEF
  5
8C
330
87
100
AcDbEntity
  8
AM_6
100
AcDbText
 10
6.362320432810819
 20
-1.09935
 30
0.0
 40
0.5
  1
Grease fitting
100
AcDbAttributeDefinition
  3

  2
NT
 70
     8
280
     0
  0
ATTDEF
  5
8D
330
87
100
AcDbEntity
  8
AM_6
100
AcDbText
 10
6.362320432810819
 20
-1.59935
 30
0.0
 40
0.5
  1
405020c-Inch
100
AcDbAttributeDefinition
  3

  2
NB
 70
     8
280
     0
  0
ATTDEF
  5
8E
330
87
100
AcDbEntity
  8
AM_6
100
AcDbText
 10
6.362320432810819
 20
-2.099349999999999
 30
0.0
 40
0.5
  1
$MN.-Inch
100
AcDbAttributeDefinition
  3

  2
NBSYN
 70
     8
280
     0
  0
ATTDEF
  5
8F
330
87
100
AcDbEntity
  8
AM_6
100
AcDbText
 10
6.362320432810819
 20
-2.599349999999999
 30
0.0
 40
0.5
  1
405020c
100
AcDbAttributeDefinition
  3

  2
LINA
 70
     8
280
     0
  0
ATTDEF
  5
90
330
87
100
AcDbEntity
  8
AM_6
100
AcDbText
 10
6.362320432810819
 20
-3.099349999999999
 30
0.0
 40
0.5
  1
405020c
100
AcDbAttributeDefinition
  3

  2
MN
 70
     8
280
     0
  0
ATTDEF
  5
91
330
87
100
AcDbEntity
  8
AM_6
100
AcDbText
 10
6.362320432810819
 20
-3.599349999999999
 30
0.0
 40
0.5
  1
0.230
100
AcDbAttributeDefinition
  3

  2
NDR
 70
     8
280
     0
  0
ATTDEF
  5
92
330
87
100
AcDbEntity
  8
AM_6
100
AcDbText
 10
6.362320432810819
 20
-4.099349999999999
 30
0.0
 40
0.5
  1
0.210
100
AcDbAttributeDefinition
  3

  2
KDR
 70
     8
280
     0
  0
ATTDEF
  5
93
330
87
100
AcDbEntity
  8
AM_6
100
AcDbText
 10
6.362320432810819
 20
-4.599349999999999
 30
0.0
 40
0.5
  1
0.157
100
AcDbAttributeDefinition
  3

  2
BZE
 70
     8
280
     0
  0
ATTDEF
  5
94
330
87
100
AcDbEntity
  8
AM_6
100
AcDbText
 10
6.362320432810819
 20
-5.099349999999999
 30
0.0
 40
0.5
  1
9/32
100
AcDbAttributeDefinition
  3

  2
WAF
 70
     8
280
     0
  0
ATTDEF
  5
95
330
87
100
AcDbEntity
  8
AM_6
100
AcDbText
 10
6.362320432810819
 20
-5.599349999999999
 30
0.0
 40
0.5
  1
0.2813
100
AcDbAttributeDefinition
  3

  2
WAF1
 70
     8
280
     0
  0
ATTDEF
  5
96
330
87
100
AcDbEntity
  8
AM_6
100
AcDbText
 10
6.362320432810819
 20
-6.099349999999999
 30
0.0
 40
0.5
  1
0.545
100
AcDbAttributeDefinition
  3

  2
BL
 70
     8
280
     0
  0
ATTDEF
  5
97
330
87
100
AcDbEntity
  8
AM_6
100
AcDbText
 10
6.362320432810819
 20
-6.599349999999999
 30
0.0
 40
0.5
  1
0.200
100
AcDbAttributeDefinition
  3

  2
TL
 70
     8
280
     0
  0
ATTDEF
  5
98
330
87
100
AcDbEntity
  8
AM_6
100
AcDbText
 10
6.362320432810819
 20
-7.099349999999999
 30
0.0
 40
0.5
  1
baldor
100
AcDbAttributeDefinition
  3

  2
COMPANY
 70
     8
280
     0
  0
LWPOLYLINE
  5
9B
330
87
100
AcDbEntity
  8
AM_9
100
AcDbPolyline
 90
        3
 70
     0
 43
0.0
 10
1.14005600456342
 20
-0.6696750000000001
 10
1.155499184351769
 20
-0.7048375
 10
1.172888644870936
 20
-0.74
  0
LWPOLYLINE
  5
9C
330
87
100
AcDbEntity
  8
AM_9
100
AcDbPolyline
 90
        3
 70
     0
 43
0.0
 10
1.172888644870936
 20
-0.74
 10
1.155573341617328
 20
-0.775004399931699
 10
1.14005600456342
 20
-0.8103250000000001
  0
ELLIPSE
  5
9D
330
87
100
AcDbEntity
  8
AM_9
100
AcDbEllipse
 10
0.9125044652454968
 20
-0.74
 30
0.0
 11
-1.838598171376523E-17
 21
-0.1000886227036577
 31
0.0
210
0.0
220
0.0
230
1.0
 40
0.7071067811865474
 41
0.0
 42
6.283185307179586
  0
LWPOLYLINE
  5
9E
330
87
100
AcDbEntity
  8
AM_9
100
AcDbPolyline
 90
        3
 70
     0
 43
0.0
 10
1.211783938388749
 20
-0.74
 10
1.200518268780698
 20
-0.7049956000683011
 10
1.187196456642523
 20
-0.669675
  0
LWPOLYLINE
  5
9F
330
87
100
AcDbEntity
  8
AM_9
100
AcDbPolyline
 90
        3
 70
     0
 43
0.0
 10
1.187196456642523
 20
-0.8103250000000001
 10
1.200463337881045
 20
-0.7751625000000001
 10
1.211783938388749
 20
-0.74
  0
LWPOLYLINE
  5
A0
330
87
100
AcDbEntity
  8
AM_9
100
AcDbPolyline
 90
        3
 70
     0
 43
0.0
 10
1.14005600456342
 20
-0.8103250000000001
 10
1.126789123324898
 20
-0.8454875000000001
 10
1.115468522817193
 20
-0.88065
  0
LINE
  5
A1
330
87
100
AcDbEntity
  8
AM_9
100
AcDbLine
 10
1.211783938388749
 20
-0.74
 30
0.0
 11
1.172888644870936
 21
-0.74
 31
0.0
  0
LWPOLYLINE
  5
A2
330
87
100
AcDbEntity
  8
AM_9
100
AcDbPolyline
 90
        3
 70
     0
 43
0.0
 10
1.115468522817193
 20
-0.59935
 10
1.126734192425244
 20
-0.634354399931699
 10
1.14005600456342
 20
-0.6696750000000001
  0
LWPOLYLINE
  5
A3
330
87
100
AcDbEntity
  8
AM_9
100
AcDbPolyline
 90
        3
 70
     0
 43
0.0
 10
1.167129805919506
 20
-0.8551907939395562
 10
1.171679119588615
 20
-0.8456456000683011
 10
1.187196456642523
 20
-0.8103250000000001
  0
LWPOLYLINE
  5
A4
330
87
100
AcDbEntity
  8
AM_9
100
AcDbPolyline
 90
        3
 70
     0
 43
0.0
 10
1.187196456642523
 20
-0.669675
 10
1.171753276854174
 20
-0.6345125
 10
1.167130420588387
 20
-0.6248104763908096
  0
LINE
  5
A5
330
87
100
AcDbEntity
  8
AM_9
100
AcDbLine
 10
0.9173672077077821
 20
-0.8503623268442186
 30
0.0
 11
1.05135483356599
 21
-0.8562869890918944
 31
0.0
  0
LINE
  5
A6
330
87
100
AcDbEntity
  8
AM_9
100
AcDbLine
 10
1.05135483356599
 20
-0.6237130109081057
 30
0.0
 11
0.9173672077077821
 21
-0.6296376731557815
 31
0.0
  0
ELLIPSE
  5
A7
330
87
100
AcDbEntity
  8
AM_9
100
AcDbEllipse
 10
1.101066273561903
 20
-0.7400000000000012
 30
0.0
 11
8.612328615003874E-18
 21
0.1406500000000018
 31
0.0
210
0.0
220
0.0
230
1.0
 40
0.7071067811865794
 41
3.798906696793658
 42
5.625871263975734
  0
ELLIPSE
  5
A8
330
87
100
AcDbEntity
  8
AM_9
100
AcDbEllipse
 10
1.123213246447441
 20
-0.7400000000000038
 30
0.0
 11
6.694498085253060E-18
 21
0.1093294505797758
 31
0.0
210
0.0
220
0.0
230
1.0
 40
0.7071067811865384
 41
5.386731878268022
 42
5.928986666165878
  0
ELLIPSE
  5
A9
330
87
100
AcDbEntity
  8
AM_9
100
AcDbEllipse
 10
1.123213246447444
 20
-0.7400000000000001
 30
0.0
 11
6.694498085252564E-18
 21
0.1093294505797677
 31
0.0
210
0.0
220
0.0
230
1.0
 40
0.7071067811865481
 41
4.388223585382068
 42
5.030159163499676
  0
ELLIPSE
  5
AA
330
87
100
AcDbEntity
  8
AM_9
100
AcDbEllipse
 10
1.12321324644744
 20
-0.7399999999999993
 30
0.0
 11
6.694498085252829E-18
 21
0.1093294505797721
 31
0.0
210
0.0
220
0.0
230
1.0
 40
0.7071067811865546
 41
3.495791294603517
 42
4.045382401459727
  0
LWPOLYLINE
  5
AB
330
87
100
AcDbEntity
  8
AM_9
100
AcDbPolyline
 90
       16
 70
     0
 43
0.0
 10
1.139930979631998
 20
-0.6468239455971474
 10
1.142835246605558
 20
-0.6459572059037335
 10
1.146825422801929
 20
-0.6453582879351234
 10
1.151347865972203
 20
-0.6455344553426836
 10
1.155444837326972
 20
-0.6464694875585163
 10
1.159468790152743
 20
-0.6480728393615445
 10
1.163564747639981
 20
-0.6503776373000925
 10
1.167749894435408
 20
-0.6534337248967298
 10
1.172371167694817
 20
-0.6576712461794844
 10
1.176905030969213
 20
-0.6628024415785896
 10
1.181271948200102
 20
-0.668815985070193
 10
1.185385504660346
 20
-0.6756819147017701
 10
1.189155917790869
 20
-0.6833455817464885
 10
1.192495416791933
 20
-0.6917246282535331
 10
1.195329549623802
 20
-0.7007280787515919
 10
1.196676588929654
 20
-0.706025582232221
  0
LWPOLYLINE
  5
AC
330
87
100
AcDbEntity
  8
AM_9
100
AcDbPolyline
 90
        3
 70
     0
 43
0.0
 10
1.130616994819293
 20
-0.6519274630097527
 10
1.130636799198598
 20
-0.6519128921273196
 10
1.132724742751773
 20
-0.6504663779660808
  0
LWPOLYLINE
  5
AD
330
87
100
AcDbEntity
  8
AM_9
100
AcDbPolyline
 90
        5
 70
     0
 43
0.0
 10
1.139557005770473
 20
-0.8330388479300702
 10
1.138791365912278
 20
-0.8327400028969831
 10
1.134735082376845
 20
-0.8307600579899915
 10
1.130588271847057
 20
-0.8280513757452856
 10
1.130374899101434
 20
-0.8278931156854513
  0
LWPOLYLINE
  5
AE
330
87
100
AcDbEntity
  8
AM_9
100
AcDbPolyline
 90
       16
 70
     0
 43
0.0
 10
1.196887386665603
 20
-0.7730569813091592
 10
1.194974319191177
 20
-0.7805361345410154
 10
1.192065791432059
 20
-0.7894635553926838
 10
1.18866817857886
 20
-0.797737295048446
 10
1.184866105310618
 20
-0.8052610093057305
 10
1.180755445044974
 20
-0.8119575130510751
 10
1.176440171735298
 20
-0.8177722524592445
 10
1.172033845172458
 20
-0.8226704051230865
 10
1.167642253305316
 20
-0.8266539454078776
 10
1.163355452112079
 20
-0.8297564694166862
 10
1.159230566648869
 20
-0.8320404603476702
 10
1.155263915201032
 20
-0.8335869018092396
 10
1.151339371398882
 20
-0.8344667279519834
 10
1.147124226733079
 20
-0.8346582586923615
 10
1.142815414361685
 20
-0.8340380860674712
 10
1.139557005770473
 20
-0.8330388479300702
  0
ELLIPSE
  5
AF
330
87
100
AcDbEntity
  8
AM_9
100
AcDbEllipse
 10
1.163155058383947
 20
-0.74
 30
0.0
 11
6.084620899749642E-18
 21
0.09936940028726637
 31
0.0
210
0.0
220
0.0
230
1.0
 40
0.7071067811865488
 41
2.656480407116016
 42
6.768297553653364
  0
ELLIPSE
  5
B0
330
87
100
AcDbEntity
  8
AM_9
100
AcDbEllipse
 10
1.211486387088472
 20
-0.7399999999999989
 30
0.0
 11
8.036249332247422E-18
 21
0.1312419113468891
 31
0.0
210
0.0
220
0.0
230
1.0
 40
0.7071067811866987
 41
2.652419211609201
 42
6.768297553653744
  0
ELLIPSE
  5
B1
330
87
100
AcDbEntity
  8
AM_9
100
AcDbEllipse
 10
1.240242630553701
 20
-0.74
 30
0.0
 11
8.079715312105969E-18
 21
0.1319517646676802
 31
0.0
210
0.0
220
0.0
230
1.0
 40
0.7071067811865477
 41
3.5799744285438
 42
5.844803532225579
  0
ELLIPSE
  5
B2
330
87
100
AcDbEntity
  8
AM_9
100
AcDbEllipse
 10
1.287107207226986
 20
-0.7399999999997133
 30
0.0
 11
6.357083428150715E-18
 21
0.1038190510533611
 31
0.0
210
0.0
220
0.0
230
1.0
 40
0.7071067811856792
 41
3.590545076491114
 42
3.637340401322697
  0
ELLIPSE
  5
B3
330
87
100
AcDbEntity
  8
AM_9
100
AcDbEllipse
 10
1.287107207226887
 20
-0.7400000000000002
 30
0.0
 11
6.357083428131014E-18
 21
0.1038190510530393
 31
0.0
210
0.0
220
0.0
230
1.0
 40
0.7071067811865509
 41
3.655277944010246
 42
5.844803532225577
  0
ELLIPSE
  5
B4
330
87
100
AcDbEntity
  8
AM_9
100
AcDbEllipse
 10
1.053925821482807
 20
-0.7400000000000005
 30
0.0
 11
7.124004163867316E-18
 21
0.1163438171532776
 31
0.0
210
0.0
220
0.0
230
1.0
 40
0.7071067811865482
 41
0.0
 42
6.283185307179586
  0
ELLIPSE
  5
B5
330
87
100
AcDbEntity
  8
AM_9
100
AcDbEllipse
 10
0.9198072073242824
 20
-0.7400000000000002
 30
0.0
 11
6.761045944280102E-18
 21
0.1104162595939892
 31
0.0
210
0.0
220
0.0
230
1.0
 40
0.707106781186548
 41
0.0
 42
6.283185307179586
  0
ELLIPSE
  5
B6
330
87
100
AcDbEntity
  8
AM_9
100
AcDbEllipse
 10
1.053925821482807
 20
-0.74
 30
0.0
 11
8.612328615003786E-18
 21
0.1406500000000004
 31
0.0
210
0.0
220
0.0
230
1.0
 40
0.7071067811865503
 41
0.0
 42
6.283185307179586
  0
LINE
  5
B8
330
87
100
AcDbEntity
  8
AM_4
100
AcDbLine
 10
1.154363816335007
 20
-0.88065
 30
0.0
 11
1.167129805919506
 21
-0.8551907939395562
 31
0.0
  0
LINE
  5
B9
330
87
100
AcDbEntity
  8
AM_4
100
AcDbLine
 10
1.167130420588387
 20
-0.6248104763908096
 30
0.0
 11
1.154363816335007
 21
-0.59935
 31
0.0
  0
LWPOLYLINE
  5
BA
330
87
100
AcDbEntity
  8
AM_4
100
AcDbPolyline
 90
        3
 70
     0
 43
0.0
 10
0.9677956384021927
 20
-0.8103250000000001
 10
0.9545287571636707
 20
-0.7751625000000001
 10
0.9432081566559662
 20
-0.74
  0
LWPOLYLINE
  5
BB
330
87
100
AcDbEntity
  8
AM_4
100
AcDbPolyline
 90
        3
 70
     0
 43
0.0
 10
1.000628278709709
 20
-0.88065
 10
0.9833129754561006
 20
-0.8456456000683011
 10
0.9677956384021927
 20
-0.8103250000000001
  0
LINE
  5
BC
330
87
100
AcDbEntity
  8
AM_4
100
AcDbLine
 10
1.154363816335007
 20
-0.88065
 30
0.0
 11
1.000628278709709
 21
-0.88065
 31
0.0
  0
LWPOLYLINE
  5
BD
330
87
100
AcDbEntity
  8
AM_4
100
AcDbPolyline
 90
        3
 70
     0
 43
0.0
 10
1.014936090481296
 20
-0.8103250000000001
 10
1.028202971719818
 20
-0.8454875000000001
 10
1.039523572227522
 20
-0.88065
  0
LWPOLYLINE
  5
BE
330
87
100
AcDbEntity
  8
AM_4
100
AcDbPolyline
 90
        3
 70
     0
 43
0.0
 10
0.98210345017378
 20
-0.74
 10
0.9994187534273878
 20
-0.775004399931699
 10
1.014936090481296
 20
-0.8103250000000001
  0
LINE
  5
BF
330
87
100
AcDbEntity
  8
AM_4
100
AcDbLine
 10
1.154363816335007
 20
-0.59935
 30
0.0
 11
1.000628278709709
 21
-0.59935
 31
0.0
  0
LWPOLYLINE
  5
C0
330
87
100
AcDbEntity
  8
AM_4
100
AcDbPolyline
 90
        3
 70
     0
 43
0.0
 10
0.9677956384021927
 20
-0.669675
 10
0.9832388181905418
 20
-0.6345125
 10
1.000628278709709
 20
-0.59935
  0
LWPOLYLINE
  5
C1
330
87
100
AcDbEntity
  8
AM_4
100
AcDbPolyline
 90
        3
 70
     0
 43
0.0
 10
0.9432081566559662
 20
-0.74
 10
0.9544738262640173
 20
-0.7049956000683011
 10
0.9677956384021927
 20
-0.669675
  0
LINE
  5
C2
330
87
100
AcDbEntity
  8
AM_4
100
AcDbLine
 10
0.98210345017378
 20
-0.74
 30
0.0
 11
0.9432081566559662
 21
-0.74
 31
0.0
  0
LWPOLYLINE
  5
C3
330
87
100
AcDbEntity
  8
AM_4
100
AcDbPolyline
 90
        3
 70
     0
 43
0.0
 10
1.014936090481296
 20
-0.669675
 10
0.9994929106929467
 20
-0.7048375
 10
0.98210345017378
 20
-0.74
  0
LWPOLYLINE
  5
C4
330
87
100
AcDbEntity
  8
AM_4
100
AcDbPolyline
 90
        3
 70
     0
 43
0.0
 10
1.039523572227522
 20
-0.59935
 10
1.028257902619471
 20
-0.634354399931699
 10
1.014936090481296
 20
-0.669675
  0
ELLIPSE
  5
C5
330
87
100
AcDbEntity
  8
AM_4
100
AcDbEllipse
 10
1.10106627356191
 20
-0.74
 30
0.0
 11
8.612328615003812E-18
 21
0.1406500000000008
 31
0.0
210
0.0
220
0.0
230
1.0
 40
0.7071067811865481
 41
5.625871263975763
 42
10.0820920039732
  0
ELLIPSE
  5
C6
330
87
100
AcDbEntity
  8
AM_4
100
AcDbEllipse
 10
1.123213246447442
 20
-0.7399999999999999
 30
0.0
 11
6.694498085252782E-18
 21
0.1093294505797713
 31
0.0
210
0.0
220
0.0
230
1.0
 40
0.7071067811865495
 41
5.928986666165881
 42
9.778976601783086
  0
ELLIPSE
  5
C7
330
87
100
AcDbEntity
  8
AM_4
100
AcDbEllipse
 10
1.163155058383948
 20
-0.7400000000000009
 30
0.0
 11
6.084620899749731E-18
 21
0.09936940028726782
 31
0.0
210
0.0
220
0.0
230
1.0
 40
0.707106781186543
 41
0.4851122464737863
 42
2.656480407116002
  0
LINE
  5
C8
330
87
100
AcDbEntity
  8
AM_4
100
AcDbLine
 10
1.130390054870286
 20
-0.8279044185632924
 30
0.0
 11
1.168212082584328
 21
-0.8560995625890071
 31
0.0
  0
LINE
  5
C9
330
87
100
AcDbEntity
  8
AM_4
100
AcDbLine
 10
1.168212082584328
 20
-0.623900437410993
 30
0.0
 11
1.130390054870286
 21
-0.6520955814367076
 31
0.0
  0
ELLIPSE
  5
CA
330
87
100
AcDbEntity
  8
AM_4
100
AcDbEllipse
 10
1.211486387088424
 20
-0.7400000000000004
 30
0.0
 11
8.036249332247545E-18
 21
0.1312419113468911
 31
0.0
210
0.0
220
0.0
230
1.0
 40
0.7071067811865526
 41
0.4916291637238448
 42
2.652419211609562
  0
LWPOLYLINE
  5
CB
330
87
100
AcDbEntity
  8
AM_4
100
AcDbPolyline
 90
       13
 70
     0
 43
0.0
 10
1.167795845563879
 20
-0.855787705823186
 10
1.17610376573465
 20
-0.8614491200514234
 10
1.185865037082252
 20
-0.8667299230552741
 10
1.195942741187182
 20
-0.8708206294945661
 10
1.206226549700466
 20
-0.8737112773128974
 10
1.216612895769634
 20
-0.8754072446869477
 10
1.227005787016166
 20
-0.8759247276821239
 10
1.237317166018915
 20
-0.8752871091790032
 10
1.247459923839704
 20
-0.8735236160747527
 10
1.257357258131647
 20
-0.8706675844132684
 10
1.266945710026261
 20
-0.8667514471496172
 10
1.276167039065043
 20
-0.8618056907494017
 10
1.280230181597452
 20
-0.8592196680144047
  0
LWPOLYLINE
  5
CC
330
87
100
AcDbEntity
  8
AM_4
100
AcDbPolyline
 90
       13
 70
     0
 43
0.0
 10
1.275483651966559
 20
-0.6177848846786885
 10
1.273063109124157
 20
-0.6163915956493236
 10
1.263167388087906
 20
-0.6115636935408985
 10
1.252998150425555
 20
-0.6079318359064115
 10
1.242663285906825
 20
-0.6054995241526312
 10
1.232263525768577
 20
-0.6042567593541656
 10
1.221891854826891
 20
-0.6041842090916761
 10
1.211633257732807
 20
-0.6052565551739146
 10
1.201576491995203
 20
-0.6074420513323854
 10
1.191790199298502
 20
-0.6107074877418418
 10
1.182335555110342
 20
-0.6150211163688257
 10
1.173269502323861
 20
-0.6203531939259617
 10
1.167542015941228
 20
-0.6244040141280746
  0
LINE
  5
CD
330
87
100
AcDbEntity
  8
AM_4
100
AcDbLine
 10
1.31826839376002
 20
-0.6459981049699096
 30
0.0
 11
1.277104537172973
 21
-0.6187677252111637
 31
0.0
  0
ELLIPSE
  5
CE
330
87
100
AcDbEntity
  8
AM_4
100
AcDbEllipse
 10
1.297877660992165
 20
-0.74
 30
0.0
 11
-1.484390032546748E-17
 21
-0.08080642971672802
 31
0.0
210
0.0
220
0.0
230
1.0
 40
0.707106781186549
 41
0.0
 42
6.283185307179586
  0
LWPOLYLINE
  5
CF
330
87
100
AcDbEntity
  8
AM_4
100
AcDbPolyline
 90
       23
 70
     0
 43
0.0
 10
1.319080281803975
 20
-0.8334561631640474
 10
1.320104779902761
 20
-0.832745930794903
 10
1.327328129108663
 20
-0.8269996957753025
 10
1.334060930174305
 20
-0.820289221792025
 10
1.340227302148147
 20
-0.8126713621756477
 10
1.345750837482981
 20
-0.8042239988193147
 10
1.350561199898519
 20
-0.7950449871974107
 10
1.354599611591107
 20
-0.7852464564204554
 10
1.357821190669106
 20
-0.7749476531338191
 10
1.360193646629378
 20
-0.7642727684185803
 10
1.361697361960091
 20
-0.7533385778048637
 10
1.362320432810818
 20
-0.7422596808713282
 10
1.362057002740646
 20
-0.7311488954600622
 10
1.360906354784951
 20
-0.7201185206412778
 10
1.358872722235223
 20
-0.7092809831291035
 10
1.355964693100344
 20
-0.6987465927224229
 10
1.352195643489473
 20
-0.6886263788281851
 10
1.347585253329945
 20
-0.6790335350954632
 10
1.342164780935135
 20
-0.6700880287956135
 10
1.335981700655804
 20
-0.6619132907395526
 10
1.329103519634562
 20
-0.6546302856076343
 10
1.321621315250347
 20
-0.6483508218320809
 10
1.318389734202905
 20
-0.6460787182549943
  0
ELLIPSE
  5
D0
330
87
100
AcDbEntity
  8
AM_4
100
AcDbEllipse
 10
1.240242630553701
 20
-0.7400000000000001
 30
0.0
 11
8.079715312105963E-18
 21
0.1319517646676801
 31
0.0
210
0.0
220
0.0
230
1.0
 40
0.7071067811865482
 41
5.844803532225582
 42
9.863159735723384
  0
ELLIPSE
  5
D1
330
87
100
AcDbEntity
  8
AM_4
100
AcDbEllipse
 10
1.287107207226887
 20
-0.7400000000000002
 30
0.0
 11
6.357083428131008E-18
 21
0.1038190510530392
 31
0.0
210
0.0
220
0.0
230
1.0
 40
0.7071067811865475
 41
5.844803532225581
 42
9.863159735723388
  0
LINE
  5
D2
330
87
100
AcDbEntity
  8
AM_4
100
AcDbLine
 10
1.279847823535912
 20
-0.8594743720494
 30
0.0
 11
1.31826839376002
 21
-0.8340018950300904
 31
0.0
  0
ENDBLK
  5
8A
330
87
100
AcDbEntity
  8
0
100
AcDbBlockEnd
  0
BLOCK
  5
D5
330
D3
100
AcDbEntity
  8
0
100
AcDbBlockBegin
  2
3_045603_0_in_127684_4
 70
     2
 10
0.0
 20
0.0
 30
0.0
  3
3_045603_0_in_127684_4
  1

  0
ATTDEF
  5
D7
330
D3
100
AcDbEntity
  8
AM_6
100
AcDbText
 10
6.219872827573649
 20
-0.0700000000000002
 30
0.0
 40
0.5
  1
Set Screw Insert Inch Bore - Corrosion Resistant
100
AcDbAttributeDefinition
  3

  2
NN
 70
     8
280
     0
  0
ATTDEF
  5
D8
330
D3
100
AcDbEntity
  8
AM_6
100
AcDbText
 10
6.219872827573649
 20
-0.5700000000000002
 30
0.0
 40
0.5
  1
SC Normal Duty Bearing Inserts
100
AcDbAttributeDefinition
  3

  2
NT
 70
     8
280
     0
  0
ATTDEF
  5
D9
330
D3
100
AcDbEntity
  8
AM_6
100
AcDbText
 10
6.219872827573649
 20
-1.07
 30
0.0
 40
0.5
  1
045603
100
AcDbAttributeDefinition
  3

  2
NB
 70
     8
280
     0
  0
ATTDEF
  5
DA
330
D3
100
AcDbEntity
  8
AM_6
100
AcDbText
 10
6.219872827573649
 20
-1.57
 30
0.0
 40
0.5
  1
$PN.
100
AcDbAttributeDefinition
  3

  2
NBSYN
 70
     8
280
     0
  0
ATTDEF
  5
DB
330
D3
100
AcDbEntity
  8
AM_6
100
AcDbText
 10
6.219872827573649
 20
-2.07
 30
0.0
 40
0.5
  1
045603
100
AcDbAttributeDefinition
  3

  2
LINA
 70
     8
280
     0
  0
ATTDEF
  5
DC
330
D3
100
AcDbEntity
  8
AM_6
100
AcDbText
 10
6.219872827573649
 20
-2.57
 30
0.0
 40
0.5
  1
206
100
AcDbAttributeDefinition
  3

  2
SERIES
 70
     8
280
     0
  0
ATTDEF
  5
DD
330
D3
100
AcDbEntity
  8
AM_6
100
AcDbText
 10
6.219872827573649
 20
-3.07
 30
0.0
 40
0.5
  1
1-1/4
100
AcDbAttributeDefinition
  3

  2
SS
 70
     8
280
     0
  0
ATTDEF
  5
DE
330
D3
100
AcDbEntity
  8
AM_6
100
AcDbText
 10
6.219872827573649
 20
-3.57
 30
0.0
 40
0.5
  1
045603
100
AcDbAttributeDefinition
  3

  2
PN
 70
     8
280
     0
  0
ATTDEF
  5
DF
330
D3
100
AcDbEntity
  8
AM_6
100
AcDbText
 10
6.219872827573649
 20
-4.07
 30
0.0
 40
0.5
  1
INS-SC-104S-CR
100
AcDbAttributeDefinition
  3

  2
DESCRIPTION
 70
     8
280
     0
  0
ATTDEF
  5
E0
330
D3
100
AcDbEntity
  8
AM_6
100
AcDbText
 10
6.219872827573649
 20
-4.57
 30
0.0
 40
0.5
  1
1.52
100
AcDbAttributeDefinition
  3

  2
A
 70
     8
280
     0
  0
ATTDEF
  5
E1
330
D3
100
AcDbEntity
  8
AM_6
100
AcDbText
 10
6.219872827573649
 20
-5.07
 30
0.0
 40
0.5
  1
0.69
100
AcDbAttributeDefinition
  3

  2
C
 70
     8
280
     0
  0
ATTDEF
  5
E2
330
D3
100
AcDbEntity
  8
AM_6
100
AcDbText
 10
6.219872827573649
 20
-5.57
 30
0.0
 40
0.5
  1
2.4409
100
AcDbAttributeDefinition
  3

  2
D
 70
     8
280
     0
  0
ATTDEF
  5
E3
330
D3
100
AcDbEntity
  8
AM_6
100
AcDbText
 10
6.219872827573649
 20
-6.07
 30
0.0
 40
0.5
  1
0.16
100
AcDbAttributeDefinition
  3

  2
J
 70
     8
280
     0
  0
ATTDEF
  5
E4
330
D3
100
AcDbEntity
  8
AM_6
100
AcDbText
 10
6.219872827573649
 20
-6.57
 30
0.0
 40
0.5
  1
1.57
100
AcDbAttributeDefinition
  3

  2
L
 70
     8
280
     0
  0
ATTDEF
  5
E5
330
D3
100
AcDbEntity
  8
AM_6
100
AcDbText
 10
6.219872827573649
 20
-7.07
 30
0.0
 40
0.5
  1
5/16 - 24
100
AcDbAttributeDefinition
  3

  2
N
 70
     8
280
     0
  0
ATTDEF
  5
E6
330
D3
100
AcDbEntity
  8
AM_6
100
AcDbText
 10
6.219872827573649
 20
-7.57
 30
0.0
 40
0.5
  1
0.58
100
AcDbAttributeDefinition
  3

  2
W
 70
     8
280
     0
  0
ATTDEF
  5
E7
330
D3
100
AcDbEntity
  8
AM_6
100
AcDbText
 10
6.219872827573649
 20
-8.07
 30
0.0
 40
0.5
  1
0.94
100
AcDbAttributeDefinition
  3

  2
Y
 70
     8
280
     0
  0
ATTDEF
  5
E8
330
D3
100
AcDbEntity
  8
AM_6
100
AcDbText
 10
6.219872827573649
 20
-8.57
 30
0.0
 40
0.5
  1
baldor
100
AcDbAttributeDefinition
  3

  2
COMPANY
 70
     8
280
     0
  0
ELLIPSE
  5
E9
330
D3
100
AcDbEntity
  8
AM_9
100
AcDbEllipse
 10
0.2589186197013122
 20
-1.2925
 30
0.0
 11
-2.318256390785912E-17
 21
-0.1261999999999985
 31
0.0
210
0.0
220
0.0
230
1.0
 40
0.9063077870366476
 41
4.509613981979733
 42
4.915163978789647
  0
ELLIPSE
  5
EA
330
D3
100
AcDbEntity
  8
AM_9
100
AcDbEllipse
 10
0.2589186197013124
 20
-1.2925
 30
0.0
 11
-2.318256390785986E-17
 21
-0.1262000000000025
 31
0.0
210
0.0
220
0.0
230
1.0
 40
0.9063077870366429
 41
1.368021328389967
 42
1.773571325199826
  0
LINE
  5
EB
330
D3
100
AcDbEntity
  8
AM_9
100
AcDbLine
 10
0.2641209732953436
 20
-1.4187
 30
0.0
 11
0.3219474185708133
 21
-1.4187
 31
0.0
  0
LINE
  5
EC
330
D3
100
AcDbEntity
  8
AM_9
100
AcDbLine
 10
0.3219474185708133
 20
-1.1663
 30
0.0
 11
0.2641209732953437
 21
-1.1663
 31
0.0
  0
LWPOLYLINE
  5
ED
330
D3
100
AcDbEntity
  8
AM_9
100
AcDbPolyline
 90
       10
 70
     0
 43
0.0
 10
0.2641469629730867
 20
-1.418699999463194
 10
0.247295351163739
 20
-1.417330752810568
 10
0.2284330242224974
 20
-1.41257735613593
 10
0.2103698096851491
 20
-1.404536636985253
 10
0.1935876898381911
 20
-1.393477643554194
 10
0.1783801095549595
 20
-1.379416647775197
 10
0.1654949583868576
 20
-1.362930131590425
 10
0.1553043728792679
 20
-1.344224357692737
 10
0.1482846977928259
 20
-1.324009693777457
 10
0.1468859707668954
 20
-1.317915196589311
  0
LWPOLYLINE
  5
EE
330
D3
100
AcDbEntity
  8
AM_9
100
AcDbPolyline
 90
       10
 70
     0
 43
0.0
 10
0.2641258641111708
 20
-1.166300000536806
 10
0.2807431973896239
 20
-1.167669247189433
 10
0.2988192126424182
 20
-1.172422643864072
 10
0.3156157180952634
 20
-1.180463363014749
 10
0.3307962894457889
 20
-1.191522356445808
 10
0.3442020787745562
 20
-1.205583352224805
 10
0.3553099683042202
 20
-1.222069868409577
 10
0.3639342306960676
 20
-1.240775642307266
 10
0.3697918032085701
 20
-1.260990306222546
 10
0.3709512686357327
 20
-1.267084803410692
  0
LINE
  5
EF
330
D3
100
AcDbEntity
  8
AM_9
100
AcDbLine
 10
0.6126536478449086
 20
-1.267084803410692
 30
0.0
 11
0.6126536478449086
 21
-1.317915196589309
 31
0.0
  0
LINE
  5
F0
330
D3
100
AcDbEntity
  8
AM_9
100
AcDbLine
 10
0.625
 20
-1.4187
 30
0.0
 11
0.7617924915141182
 21
-1.4187
 31
0.0
  0
LINE
  5
F1
330
D3
100
AcDbEntity
  8
AM_9
100
AcDbLine
 10
0.7617924915141182
 20
-1.1663
 30
0.0
 11
0.625
 21
-1.1663
 31
0.0
  0
LINE
  5
F2
330
D3
100
AcDbEntity
  8
AM_9
100
AcDbLine
 10
0.7617924915141182
 20
-1.4187
 30
0.0
 11
0.7850000000000003
 21
-1.441907508485882
 31
0.0
  0
LINE
  5
F3
330
D3
100
AcDbEntity
  8
AM_9
100
AcDbLine
 10
0.7850000000000003
 20
-1.143092491514118
 30
0.0
 11
0.7617924915141182
 21
-1.1663
 31
0.0
  0
LINE
  5
F4
330
D3
100
AcDbEntity
  8
AM_9
100
AcDbLine
 10
0.7617924915141182
 20
-1.1663
 30
0.0
 11
0.7617924915141182
 21
-1.4187
 31
0.0
  0
LWPOLYLINE
  5
F5
330
D3
100
AcDbEntity
  8
AM_9
100
AcDbPolyline
 90
        4
 70
     0
 43
0.0
 10
0.6126536478449086
 20
-1.267084803410692
 10
0.6120639405846134
 20
-1.283962012466838
 10
0.612074752157522
 20
-1.301631846494833
 10
0.6126536478449086
 20
-1.317915196589309
  0
LWPOLYLINE
  5
F6
330
D3
100
AcDbEntity
  8
AM_9
100
AcDbPolyline
 90
       10
 70
     0
 43
0.0
 10
0.6126536478449086
 20
-1.317915196589309
 10
0.6138126855339411
 20
-1.337969252494283
 10
0.6155439203402228
 20
-1.357274669955242
 10
0.6175558578633483
 20
-1.37421093917791
 10
0.6197321390210342
 20
-1.38929547580123
 10
0.621739185525598
 20
-1.401408469909526
 10
0.6234378360002384
 20
-1.410720875299839
 10
0.6245403941017222
 20
-1.416403768565506
 10
0.6249952085402465
 20
-1.418676268364009
 10
0.6249999999998398
 20
-1.418699999999207
  0
LWPOLYLINE
  5
F7
330
D3
100
AcDbEntity
  8
AM_9
100
AcDbPolyline
 90
        5
 70
     0
 43
0.0
 10
0.1468859707668962
 20
-1.317915196589312
 10
0.14505784946664
 20
-1.309284978834104
 10
0.1436609753757864
 20
-1.291878965044173
 10
0.1453743779094746
 20
-1.27392258290199
 10
0.1468859707668962
 20
-1.267084803410689
  0
LWPOLYLINE
  5
F8
330
D3
100
AcDbEntity
  8
AM_9
100
AcDbPolyline
 90
       10
 70
     0
 43
0.0
 10
0.1468859707668962
 20
-1.267084803410689
 10
0.1528359387983986
 20
-1.246749193443587
 10
0.1619794698667944
 20
-1.227725330044755
 10
0.1740206949779455
 20
-1.210571032162476
 10
0.1885211454186926
 20
-1.195704524198769
 10
0.2052313731711257
 20
-1.183445773203586
 10
0.2234520306665083
 20
-1.17427912470016
 10
0.2425107175218193
 20
-1.168549710461277
 10
0.2619163770562226
 20
-1.166323731635992
 10
0.2641258641111708
 20
-1.166300000536806
  0
LWPOLYLINE
  5
F9
330
D3
100
AcDbEntity
  8
AM_9
100
AcDbPolyline
 90
        4
 70
     0
 43
0.0
 10
0.370951268635732
 20
-1.267084803410691
 10
0.3735616244833174
 20
-1.288837750294389
 10
0.3731371533645922
 20
-1.303335710527354
 10
0.370951268635732
 20
-1.317915196589309
  0
LWPOLYLINE
  5
FA
330
D3
100
AcDbEntity
  8
AM_9
100
AcDbPolyline
 90
       10
 70
     0
 43
0.0
 10
0.370951268635732
 20
-1.317915196589309
 10
0.366002090600804
 20
-1.338250806556411
 10
0.358300733411688
 20
-1.357274669955243
 10
0.3479858443865219
 20
-1.374428967837522
 10
0.3352990932571393
 20
-1.38929547580123
 10
0.3203063233610318
 20
-1.401554226796413
 10
0.303500398441102
 20
-1.410720875299839
 10
0.2853795838314654
 20
-1.416450289538723
 10
0.2663524002028697
 20
-1.418676268364009
 10
0.2641469629730867
 20
-1.418699999463194
  0
LINE
  5
FB
330
D3
100
AcDbEntity
  8
AM_9
100
AcDbLine
 10
0.625
 20
-1.5586
 30
0.0
 11
0.625
 21
-1.4187
 31
0.0
  0
LINE
  5
FC
330
D3
100
AcDbEntity
  8
AM_9
100
AcDbLine
 10
0.625
 20
-1.1663
 30
0.0
 11
0.625
 21
-0.1014000000000003
 31
0.0
  0
LINE
  5
FD
330
D3
100
AcDbEntity
  8
AM_9
100
AcDbLine
 10
-0.625
 20
-0.1014000000000003
 30
0.0
 11
-0.625
 21
-1.5586
 31
0.0
  0
LWPOLYLINE
  5
FE
330
D3
100
AcDbEntity
  8
AM_9
100
AcDbPolyline
 90
       10
 70
     0
 43
0.0
 10
0.6249999999998398
 20
-1.166300000000794
 10
0.624736217349223
 20
-1.167612925937808
 10
0.623792538795227
 20
-1.172422643864071
 10
0.6223204699302303
 20
-1.180320646756266
 10
0.6203991009807781
 20
-1.191522356445807
 10
0.6182975701423632
 20
-1.205360311889757
 10
0.6161647210250232
 20
-1.222069868409575
 10
0.6143324459607759
 20
-1.24048275132084
 10
0.6129367184318044
 20
-1.260990306222544
 10
0.6126536478449084
 20
-1.267084803410692
  0
LINE
  5
FF
330
D3
100
AcDbEntity
  8
AM_9
100
AcDbLine
 10
-0.625
 20
-1.5586
 30
0.0
 11
-0.6564
 21
-1.59
 31
0.0
  0
LINE
  5
100
330
D3
100
AcDbEntity
  8
AM_9
100
AcDbLine
 10
0.6564
 20
-1.59
 30
0.0
 11
0.625
 21
-1.5586
 31
0.0
  0
LINE
  5
101
330
D3
100
AcDbEntity
  8
AM_9
100
AcDbLine
 10
0.625
 20
-0.1014000000000003
 30
0.0
 11
0.6564
 21
-0.0700000000000002
 31
0.0
  0
LINE
  5
102
330
D3
100
AcDbEntity
  8
AM_9
100
AcDbLine
 10
-0.6564
 20
-0.0700000000000002
 30
0.0
 11
-0.625
 21
-0.1014000000000003
 31
0.0
  0
LINE
  5
103
330
D3
100
AcDbEntity
  8
AM_9
100
AcDbLine
 10
-0.7535999999999999
 20
-0.0700000000000002
 30
0.0
 11
0.7535999999999999
 21
-0.0700000000000002
 31
0.0
  0
LINE
  5
104
330
D3
100
AcDbEntity
  8
AM_9
100
AcDbLine
 10
-0.7535999999999999
 20
-0.0700000000000002
 30
0.0
 11
-0.7849999999999999
 21
-0.1014000000000002
 31
0.0
  0
LINE
  5
105
330
D3
100
AcDbEntity
  8
AM_9
100
AcDbLine
 10
0.7849999999999999
 20
-0.1014000000000002
 30
0.0
 11
0.7535999999999999
 21
-0.0700000000000002
 31
0.0
  0
LWPOLYLINE
  5
106
330
D3
100
AcDbEntity
  8
AM_9
100
AcDbPolyline
 90
       40
 70
     0
 43
0.0
 10
0.3259524891853897
 20
-1.143255294071321
 10
0.305725960583553
 20
-1.1463759991159
 10
0.2860658271896632
 20
-1.15326325474735
 10
0.2684447178769288
 20
-1.16308633248339
 10
0.2523114151166441
 20
-1.175697929555566
 10
0.2370946264262543
 20
-1.191899915271872
 10
0.2243335702691511
 20
-1.210367113579667
 10
0.2135987568712764
 20
-1.232427631662575
 10
0.2063041050425357
 20
-1.255975968321238
 10
0.202555444457548
 20
-1.281887645858185
 10
0.2029385601421146
 20
-1.308086351652826
 10
0.2076471722673426
 20
-1.334422596366129
 10
0.2165401858989178
 20
-1.359559955762053
 10
0.2293322532864113
 20
-1.382551324455014
 10
0.2456758604201462
 20
-1.40284954149968
 10
0.2642075542938393
 20
-1.418959721387407
 10
0.2849874517590124
 20
-1.431240190868012
 10
0.3053678409135245
 20
-1.438530475254919
 10
0.3263700943589354
 20
-1.441767293686993
 10
0.3456284820412263
 20
-1.440946696171615
 10
0.3642520958862889
 20
-1.436580866676042
 10
0.381474930010625
 20
-1.428947702829434
 10
0.3972319138113131
 20
-1.418345625636964
 10
0.4119313763494578
 20
-1.404306033351307
 10
0.4244685749996153
 20
-1.387806848023355
 10
0.4354368361906046
 20
-1.367611154968721
 10
0.4435663998781962
 20
-1.345618501968656
 10
0.4490115679285949
 20
-1.32068569091338
 10
0.4510663036760306
 20
-1.295010337075126
 10
0.4495680782837959
 20
-1.26839454417829
 10
0.4444394463399229
 20
-1.242456809424354
 10
0.4356635513791897
 20
-1.217903938688698
 10
0.423388271710312
 20
-1.195549624771335
 10
0.4136494876225815
 20
-1.182673198709759
 10
0.4025440450133583
 20
-1.171211587376412
 10
0.3902488548782734
 20
-1.161464028779264
 10
0.3713351422956064
 20
-1.151127631703202
 10
0.350798217923498
 20
-1.144883959891523
 10
0.3384672463806815
 20
-1.143314918574031
 10
0.3259524624744007
 20
-1.143255264964604
  0
LINE
  5
107
330
D3
100
AcDbEntity
  8
AM_9
100
AcDbLine
 10
0.7850000000000003
 20
-1.13
 30
0.0
 11
0.7850000000000003
 21
-0.995
 31
0.0
  0
LINE
  5
108
330
D3
100
AcDbEntity
  8
AM_9
100
AcDbLine
 10
-0.7850000000000003
 20
-0.995
 30
0.0
 11
-0.7850000000000003
 21
-1.13
 31
0.0
  0
LINE
  5
109
330
D3
100
AcDbEntity
  8
AM_9
100
AcDbLine
 10
0.7790637620402769
 20
-1.186201595540012
 30
0.0
 11
0.7781025381147564
 21
-1.19489019924853
 31
0.0
  0
LINE
  5
10A
330
D3
100
AcDbEntity
  8
AM_9
100
AcDbLine
 10
-0.7850000000000003
 20
-0.1014000000000002
 30
0.0
 11
0.7850000000000003
 21
-0.1014000000000002
 31
0.0
  0
LINE
  5
10B
330
D3
100
AcDbEntity
  8
AM_9
100
AcDbLine
 10
0.7850000000000003
 20
-0.3050000000000002
 30
0.0
 11
0.7850000000000003
 21
-0.1014000000000002
 31
0.0
  0
LINE
  5
10C
330
D3
100
AcDbEntity
  8
AM_9
100
AcDbLine
 10
-0.7850000000000003
 20
-0.1014000000000002
 30
0.0
 11
-0.7850000000000003
 21
-0.3050000000000002
 31
0.0
  0
LINE
  5
10D
330
D3
100
AcDbEntity
  8
AM_9
100
AcDbLine
 10
1.167116666666667
 20
-0.8420000000000001
 30
0.0
 11
1.167116666666667
 21
-0.7780000000000001
 31
0.0
  0
LINE
  5
10E
330
D3
100
AcDbEntity
  8
AM_9
100
AcDbLine
 10
-1.167116666666667
 20
-0.7780000000000001
 30
0.0
 11
-1.167116666666667
 21
-0.8420000000000001
 31
0.0
  0
LINE
  5
10F
330
D3
100
AcDbEntity
  8
AM_9
100
AcDbLine
 10
-1.146492216502145
 20
-0.3050000000000002
 30
0.0
 11
1.146492216502145
 21
-0.3050000000000002
 31
0.0
  0
ARC
  5
110
330
D3
100
AcDbEntity
  8
AM_9
100
AcDbCircle
 10
1.146492216502145
 20
-0.3369999999999998
 30
0.0
 40
0.0319999999999997
100
AcDbArc
 50
15.27001663184316
 51
90.0
  0
ARC
  5
111
330
D3
100
AcDbEntity
  8
AM_9
100
AcDbCircle
 10
-1.146492216502145
 20
-0.3369999999999998
 30
0.0
 40
0.0319999999999996
100
AcDbArc
 50
90.0
 51
164.7299833681568
  0
LINE
  5
112
330
D3
100
AcDbEntity
  8
AM_9
100
AcDbLine
 10
-1.146492216502144
 20
-0.9950000000000002
 30
0.0
 11
1.146492216502144
 21
-0.9950000000000002
 31
0.0
  0
ARC
  5
113
330
D3
100
AcDbEntity
  8
AM_9
100
AcDbCircle
 10
1.146492216502144
 20
-0.9629999999999999
 30
0.0
 40
0.0320000000000004
100
AcDbArc
 50
270.0
 51
344.729983368156
  0
ARC
  5
114
330
D3
100
AcDbEntity
  8
AM_9
100
AcDbCircle
 10
-1.146492216502144
 20
-0.963
 30
0.0
 40
0.0320000000000003
100
AcDbArc
 50
195.2700166318438
 51
270.0
  0
LINE
  5
115
330
D3
100
AcDbEntity
  8
AM_9
100
AcDbLine
 10
-1.177362468450551
 20
-0.9714277840885187
 30
0.0
 11
1.177362468450538
 21
-0.9714277840885187
 31
0.0
  0
ARC
  5
116
330
D3
100
AcDbEntity
  8
AM_9
100
AcDbCircle
 10
0.000000000000012
 20
-0.6500000000000037
 30
0.0
 40
1.220449999999988
100
AcDbArc
 50
344.7299833681562
 51
350.9486832420235
  0
ARC
  5
117
330
D3
100
AcDbEntity
  8
AM_9
100
AcDbCircle
 10
-0.0000000000083968
 20
-0.6500000000018074
 30
0.0
 40
1.220449999991436
100
AcDbArc
 50
189.0513167579547
 51
195.2700166318656
  0
LINE
  5
118
330
D3
100
AcDbEntity
  8
AM_9
100
AcDbLine
 10
-1.20525275461209
 20
-0.8420000000000002
 30
0.0
 11
1.205252754612077
 21
-0.8420000000000002
 31
0.0
  0
LINE
  5
119
330
D3
100
AcDbEntity
  8
AM_9
100
AcDbLine
 10
-1.177362468450522
 20
-0.3285722159114815
 30
0.0
 11
1.177362468450538
 21
-0.3285722159114815
 31
0.0
  0
ARC
  5
11A
330
D3
100
AcDbEntity
  8
AM_9
100
AcDbCircle
 10
0.0000000000000253
 20
-0.6499999999999974
 30
0.0
 40
1.220449999999975
100
AcDbArc
 50
353.9797846834485
 51
15.27001663184399
  0
ARC
  5
11B
330
D3
100
AcDbEntity
  8
AM_9
100
AcDbCircle
 10
-0.0000000000092468
 20
-0.6499999999992512
 30
0.0
 40
1.220449999990867
100
AcDbArc
 50
164.7299833680756
 51
186.0202153166317
  0
LINE
  5
11C
330
D3
100
AcDbEntity
  8
AM_9
100
AcDbLine
 10
-1.213719161297193
 20
-0.7779999999999999
 30
0.0
 11
1.213719161297209
 21
-0.7779999999999999
 31
0.0
  0
CIRCLE
  5
11D
330
D3
100
AcDbEntity
  8
AM_9
100
AcDbCircle
 10
-0.0000000000000001
 20
-0.4900000000000001
 30
0.0
 40
0.0414393939393896
  0
LINE
  5
11F
330
D3
100
AcDbEntity
  8
AM_5
100
AcDbLine
 10
0.625
 20
-1.13625
 30
0.0
 11
0.7850000000000003
 21
-1.13625
 31
0.0
  0
LINE
  5
120
330
D3
100
AcDbEntity
  8
AM_5
100
AcDbLine
 10
0.625
 20
-1.44875
 30
0.0
 11
0.7850000000000003
 21
-1.44875
 31
0.0
  0
ELLIPSE
  5
121
330
D3
100
AcDbEntity
  8
AM_9
100
AcDbEllipse
 10
0.3219474185708134
 20
-1.292500000000014
 30
0.0
 11
-2.318256390786182E-17
 21
-0.1262000000000132
 31
0.0
210
0.0
220
0.0
230
1.0
 40
0.9063077870366484
 41
0.0
 42
6.283185307179586
  0
CIRCLE
  5
122
330
D3
100
AcDbEntity
  8
AM_9
100
AcDbCircle
 10
0.0
 20
-0.49
 30
0.0
 40
0.1041666666666621
  0
LINE
  5
125
330
D3
100
AcDbEntity
  8
AM_7
100
AcDbLine
 10
0.8023044336975789
 20
-1.2925
 30
0.0
 11
0.5721417056614481
 21
-1.2925
 31
0.0
  0
LINE
  5
126
330
D3
100
AcDbEntity
  8
AM_7
100
AcDbLine
 10
-0.1093749999999952
 20
-0.49
 30
0.0
 11
0.1093749999999952
 21
-0.49
 31
0.0
  0
LINE
  5
127
330
D3
100
AcDbEntity
  8
AM_4
100
AcDbLine
 10
-0.7535999999999999
 20
-1.59
 30
0.0
 11
0.7535999999999999
 21
-1.59
 31
0.0
  0
LINE
  5
128
330
D3
100
AcDbEntity
  8
AM_4
100
AcDbLine
 10
0.7535999999999999
 20
-1.59
 30
0.0
 11
0.7849999999999999
 21
-1.5586
 31
0.0
  0
LINE
  5
129
330
D3
100
AcDbEntity
  8
AM_4
100
AcDbLine
 10
-0.7849999999999999
 20
-1.5586
 30
0.0
 11
-0.7535999999999999
 21
-1.59
 31
0.0
  0
LINE
  5
12A
330
D3
100
AcDbEntity
  8
AM_4
100
AcDbLine
 10
-0.7850000000000003
 20
-1.5586
 30
0.0
 11
0.7850000000000003
 21
-1.5586
 31
0.0
  0
LWPOLYLINE
  5
12B
330
D3
100
AcDbEntity
  8
AM_4
100
AcDbPolyline
 90
        7
 70
     0
 43
0.0
 10
0.7786138104133803
 20
-1.190179115396086
 10
0.780371112774161
 20
-1.175389271087825
 10
0.7820602857319962
 20
-1.162707452978756
 10
0.7835928758922489
 20
-1.152154323453982
 10
0.7846415701954997
 20
-1.145350343069963
 10
0.784996710503888
 20
-1.143113065652087
 10
0.784999999999933
 20
-1.143092491514538
  0
LINE
  5
12C
330
D3
100
AcDbEntity
  8
AM_4
100
AcDbLine
 10
0.7850000000000003
 20
-1.5586
 30
0.0
 11
0.7850000000000003
 21
-1.441907508485882
 31
0.0
  0
LINE
  5
12D
330
D3
100
AcDbEntity
  8
AM_4
100
AcDbLine
 10
0.7850000000000003
 20
-1.143092491514118
 30
0.0
 11
0.7850000000000003
 21
-1.13
 31
0.0
  0
LINE
  5
12E
330
D3
100
AcDbEntity
  8
AM_4
100
AcDbLine
 10
-0.7850000000000003
 20
-1.13
 30
0.0
 11
-0.7850000000000003
 21
-1.5586
 31
0.0
  0
LWPOLYLINE
  5
12F
330
D3
100
AcDbEntity
  8
AM_4
100
AcDbPolyline
 90
       16
 70
     0
 43
0.0
 10
0.7849999999998611
 20
-1.441907508485013
 10
0.7849813170143549
 20
-1.4417906200869
 10
0.7845682524620718
 20
-1.439183741844184
 10
0.7836220724715955
 20
-1.433039351439818
 10
0.7822828312745126
 20
-1.423875354941052
 10
0.7806234734068151
 20
-1.411588172974819
 10
0.7787577990913429
 20
-1.396109917185921
 10
0.7768870904846138
 20
-1.377897394924442
 10
0.7751466455863546
 20
-1.356552198109002
 10
0.7738014185831578
 20
-1.333062826860096
 10
0.7730254571536487
 20
-1.307704520777829
 10
0.7729681866069915
 20
-1.281235049545133
 10
0.7736634943448161
 20
-1.255166311399683
 10
0.7750788608370761
 20
-1.229423160007814
 10
0.7767049953425684
 20
-1.209083044128707
 10
0.7786138104133803
 20
-1.190179115396086
  0
ENDBLK
  5
D6
330
D3
100
AcDbEntity
  8
0
100
AcDbBlockEnd
  0
BLOCK
  5
132
330
130
100
AcDbEntity
  8
0
100
AcDbBlockBegin
  2
4_127684H_0_in_127684_4
 70
     2
 10
0.0
 20
0.0
 30
0.0
  3
4_127684H_0_in_127684_4
  1

  0
ATTDEF
  5
134
330
130
100
AcDbEntity
  8
AM_6
100
AcDbText
 10
6.565
 20
0.0795
 30
0.0
 40
0.5
  1
F2B-SCEZ-SHCR -Inch - housing
100
AcDbAttributeDefinition
  3

  2
NN
 70
     8
280
     0
  0
ATTDEF
  5
135
330
130
100
AcDbEntity
  8
AM_6
100
AcDbText
 10
6.565
 20
-0.4205
 30
0.0
 40
0.5
  1
SC 2 Bolt Flange Bearings -(Normal Duty) -Corrosion Resistant Insert -E-Z KLEEN
100
AcDbAttributeDefinition
  3

  2
NT
 70
     8
280
     0
  0
ATTDEF
  5
136
330
130
100
AcDbEntity
  8
AM_6
100
AcDbText
 10
6.565
 20
-0.9205
 30
0.0
 40
0.5
  1
127684H
100
AcDbAttributeDefinition
  3

  2
NB
 70
     8
280
     0
  0
ATTDEF
  5
137
330
130
100
AcDbEntity
  8
AM_6
100
AcDbText
 10
6.565
 20
-1.4205
 30
0.0
 40
0.5
  1
$PN.H
100
AcDbAttributeDefinition
  3

  2
NBSYN
 70
     8
280
     0
  0
ATTDEF
  5
138
330
130
100
AcDbEntity
  8
AM_6
100
AcDbText
 10
6.565
 20
-1.9205
 30
0.0
 40
0.5
  1
127684
100
AcDbAttributeDefinition
  3

  2
LINA
 70
     8
280
     0
  0
ATTDEF
  5
139
330
130
100
AcDbEntity
  8
AM_6
100
AcDbText
 10
6.565
 20
-2.4205
 30
0.0
 40
0.5
  1
206
100
AcDbAttributeDefinition
  3

  2
SERIES
 70
     8
280
     0
  0
ATTDEF
  5
13A
330
130
100
AcDbEntity
  8
AM_6
100
AcDbText
 10
6.565
 20
-2.9205
 30
0.0
 40
0.5
  1
1-1/4
100
AcDbAttributeDefinition
  3

  2
SS
 70
     8
280
     0
  0
ATTDEF
  5
13B
330
130
100
AcDbEntity
  8
AM_6
100
AcDbText
 10
6.565
 20
-3.4205
 30
0.0
 40
0.5
  1
127684
100
AcDbAttributeDefinition
  3

  2
PN
 70
     8
280
     0
  0
ATTDEF
  5
13C
330
130
100
AcDbEntity
  8
AM_6
100
AcDbText
 10
6.565
 20
-3.9205
 30
0.0
 40
0.5
  1
F2B-SCEZ-104S-SHCR
100
AcDbAttributeDefinition
  3

  2
DESCRIPTION
 70
     8
280
     0
  0
ATTDEF
  5
13D
330
130
100
AcDbEntity
  8
AM_6
100
AcDbText
 10
6.565
 20
-4.420500000000001
 30
0.0
 40
0.5
  1
1.87
100
AcDbAttributeDefinition
  3

  2
W
 70
     8
280
     0
  0
ATTDEF
  5
13E
330
130
100
AcDbEntity
  8
AM_6
100
AcDbText
 10
6.565
 20
-4.920500000000001
 30
0.0
 40
0.5
  1
1.52
100
AcDbAttributeDefinition
  3

  2
A
 70
     8
280
     0
  0
ATTDEF
  5
13F
330
130
100
AcDbEntity
  8
AM_6
100
AcDbText
 10
6.565
 20
-5.420500000000001
 30
0.0
 40
0.5
  1
5.51
100
AcDbAttributeDefinition
  3

  2
B
 70
     8
280
     0
  0
ATTDEF
  5
140
330
130
100
AcDbEntity
  8
AM_6
100
AcDbText
 10
6.565
 20
-5.920500000000001
 30
0.0
 40
0.5
  1
1.59
100
AcDbAttributeDefinition
  3

  2
C
 70
     8
280
     0
  0
ATTDEF
  5
141
330
130
100
AcDbEntity
  8
AM_6
100
AcDbText
 10
6.565
 20
-6.420500000000001
 30
0.0
 40
0.5
  1
4.59
100
AcDbAttributeDefinition
  3

  2
D
 70
     8
280
     0
  0
ATTDEF
  5
142
330
130
100
AcDbEntity
  8
AM_6
100
AcDbText
 10
6.565
 20
-6.920500000000001
 30
0.0
 40
0.5
  1
3/8
100
AcDbAttributeDefinition
  3

  2
F
 70
     8
280
     0
  0
ATTDEF
  5
143
330
130
100
AcDbEntity
  8
AM_6
100
AcDbText
 10
6.565
 20
-7.420500000000001
 30
0.0
 40
0.5
  1
0.35
100
AcDbAttributeDefinition
  3

  2
H
 70
     8
280
     0
  0
ATTDEF
  5
144
330
130
100
AcDbEntity
  8
AM_6
100
AcDbText
 10
6.565
 20
-7.920500000000001
 30
0.0
 40
0.5
  1
0.46
100
AcDbAttributeDefinition
  3

  2
J
 70
     8
280
     0
  0
ATTDEF
  5
145
330
130
100
AcDbEntity
  8
AM_6
100
AcDbText
 10
6.565
 20
-8.4205
 30
0.0
 40
0.5
  1
1.57
100
AcDbAttributeDefinition
  3

  2
L
 70
     8
280
     0
  0
ATTDEF
  5
146
330
130
100
AcDbEntity
  8
AM_6
100
AcDbText
 10
6.565
 20
-8.9205
 30
0.0
 40
0.5
  1
3.13
100
AcDbAttributeDefinition
  3

  2
M
 70
     8
280
     0
  0
ATTDEF
  5
147
330
130
100
AcDbEntity
  8
AM_6
100
AcDbText
 10
6.565
 20
-9.4205
 30
0.0
 40
0.5
  1
2250
100
AcDbAttributeDefinition
  3

  2
CAPS
 70
     8
280
     0
  0
ATTDEF
  5
148
330
130
100
AcDbEntity
  8
AM_6
100
AcDbText
 10
6.565
 20
-9.9205
 30
0.0
 40
0.5
  1
4368
100
AcDbAttributeDefinition
  3

  2
CAPD
 70
     8
280
     0
  0
ATTDEF
  5
149
330
130
100
AcDbEntity
  8
AM_6
100
AcDbText
 10
6.565
 20
-10.4205
 30
0.0
 40
0.5
  1
baldor
100
AcDbAttributeDefinition
  3

  2
COMPANY
 70
     8
280
     0
  0
LINE
  5
14A
330
130
100
AcDbEntity
  8
AM_9
100
AcDbLine
 10
0.46
 20
-0.7345
 30
0.0
 11
0.46
 21
0.0000000000000001
 31
0.0
  0
LINE
  5
14B
330
130
100
AcDbEntity
  8
AM_9
100
AcDbLine
 10
-0.46
 20
-0.7345
 30
0.0
 11
-0.46
 21
0.0000000000000001
 31
0.0
  0
LINE
  5
14C
330
130
100
AcDbEntity
  8
AM_9
100
AcDbLine
 10
1.22045
 20
-1.13
 30
0.0
 11
1.22045
 21
0.0
 31
0.0
  0
LINE
  5
14D
330
130
100
AcDbEntity
  8
AM_9
100
AcDbLine
 10
-1.22045
 20
0.0
 30
0.0
 11
-1.22045
 21
-1.13
 31
0.0
  0
LINE
  5
14E
330
130
100
AcDbEntity
  8
AM_9
100
AcDbLine
 10
0.46
 20
-0.7345
 30
0.0
 11
-0.46
 21
-0.7345
 31
0.0
  0
LINE
  5
14F
330
130
100
AcDbEntity
  8
AM_9
100
AcDbLine
 10
1.391346720082451
 20
-1.079333333333333
 30
0.0
 11
0.7165049228831631
 21
-1.079333333333333
 31
0.0
  0
LINE
  5
150
330
130
100
AcDbEntity
  8
AM_9
100
AcDbLine
 10
0.1875
 20
-0.3499999999999998
 30
0.0
 11
0.1875
 21
0.0000000000000001
 31
0.0
  0
LINE
  5
151
330
130
100
AcDbEntity
  8
AM_9
100
AcDbLine
 10
-0.1875
 20
0.0000000000000001
 30
0.0
 11
-0.1875
 21
-0.3499999999999998
 31
0.0
  0
LINE
  5
152
330
130
100
AcDbEntity
  8
AM_7
100
AcDbLine
 10
0.0
 20
0.0795
 30
0.0
 11
0.0
 21
-1.6695
 31
0.0
  0
LWPOLYLINE
  5
153
330
130
100
AcDbEntity
  8
AM_4
100
AcDbPolyline
 90
        5
 70
     0
 43
0.0
 10
1.243248522271733
 20
-1.13
 10
1.280578967286061
 20
-1.119780096682858
 10
1.317700001990228
 20
-1.107885185499785
 10
1.35465355992261
 20
-1.094367649935583
 10
1.391346720082451
 20
-1.079333333333334
  0
LINE
  5
154
330
130
100
AcDbEntity
  8
AM_4
100
AcDbLine
 10
-1.514333333333333
 20
-1.13
 30
0.0
 11
1.514333333333333
 21
-1.13
 31
0.0
  0
LWPOLYLINE
  5
155
330
130
100
AcDbEntity
  8
AM_4
100
AcDbPolyline
 90
        5
 70
     0
 43
0.0
 10
0.7165049228831631
 20
-1.079333333333333
 10
0.7530328261514265
 20
-1.0943035066347
 10
0.7898801992361838
 20
-1.107791939282516
 10
0.8270986244441255
 20
-1.119728325795556
 10
0.8646031206938803
 20
-1.13
  0
LINE
  5
156
330
130
100
AcDbEntity
  8
AM_4
100
AcDbLine
 10
1.514333333333333
 20
-1.13
 30
0.0
 11
1.565
 21
-1.079333333333333
 31
0.0
  0
LINE
  5
157
330
130
100
AcDbEntity
  8
AM_4
100
AcDbLine
 10
-1.565
 20
-1.079333333333333
 30
0.0
 11
-1.514333333333333
 21
-1.13
 31
0.0
  0
LINE
  5
158
330
130
100
AcDbEntity
  8
AM_4
100
AcDbLine
 10
1.391346720082451
 20
-1.079333333333334
 30
0.0
 11
1.391346720082451
 21
0.0
 31
0.0
  0
LINE
  5
159
330
130
100
AcDbEntity
  8
AM_4
100
AcDbLine
 10
1.391346720082451
 20
-1.079333333333334
 30
0.0
 11
1.565
 21
-1.079333333333333
 31
0.0
  0
LINE
  5
15A
330
130
100
AcDbEntity
  8
AM_4
100
AcDbLine
 10
0.7165049228831625
 20
0.0000000000000001
 30
0.0
 11
0.7165049228831631
 21
-1.079333333333333
 31
0.0
  0
LINE
  5
15B
330
130
100
AcDbEntity
  8
AM_4
100
AcDbLine
 10
1.565
 20
-1.079333333333333
 30
0.0
 11
1.565
 21
0.0
 31
0.0
  0
LINE
  5
15C
330
130
100
AcDbEntity
  8
AM_4
100
AcDbLine
 10
-1.565
 20
0.0
 30
0.0
 11
-1.565
 21
-1.079333333333333
 31
0.0
  0
LINE
  5
15D
330
130
100
AcDbEntity
  8
AM_4
100
AcDbLine
 10
-1.565
 20
-1.079333333333333
 30
0.0
 11
0.7165049228831631
 21
-1.079333333333333
 31
0.0
  0
LINE
  5
15E
330
130
100
AcDbEntity
  8
AM_4
100
AcDbLine
 10
-0.6182615877504875
 20
0.0000000000000001
 30
0.0
 11
-0.6182615877504872
 21
-0.3499999999999999
 31
0.0
  0
LINE
  5
15F
330
130
100
AcDbEntity
  8
AM_4
100
AcDbLine
 10
1.565
 20
0.0
 30
0.0
 11
-1.565
 21
0.0
 31
0.0
  0
LINE
  5
160
330
130
100
AcDbEntity
  8
AM_4
100
AcDbLine
 10
0.6182615877504875
 20
-0.3499999999999999
 30
0.0
 11
-0.6182615877504872
 21
-0.3499999999999999
 31
0.0
  0
LINE
  5
161
330
130
100
AcDbEntity
  8
AM_4
100
AcDbLine
 10
0.6182615877504875
 20
-0.3499999999999999
 30
0.0
 11
0.6182615877504876
 21
0.0000000000000001
 31
0.0
  0
LINE
  5
162
330
130
100
AcDbEntity
  8
AM_4
100
AcDbLine
 10
-0.4530115663856151
 20
-0.3499999999999998
 30
0.0
 11
-0.4530115663856151
 21
0.0000000000000001
 31
0.0
  0
LINE
  5
163
330
130
100
AcDbEntity
  8
AM_4
100
AcDbLine
 10
0.4530115663856154
 20
-0.3499999999999998
 30
0.0
 11
0.4530115663856154
 21
0.0000000000000001
 31
0.0
  0
ENDBLK
  5
133
330
130
100
AcDbEntity
  8
0
100
AcDbBlockEnd
  0
ENDSEC
  0
SECTION
  2
ENTITIES
  0
INSERT
  5
6F
330
1F
100
AcDbEntity
  8
0
100
AcDbBlockReference
  2
1_127684_4
 10
0.0
 20
0.0
 30
0.0
  0
POINT
  5
165
330
1F
100
AcDbEntity
  8
ConnectionPoints
100
AcDbPoint
 10
0.0
 20
-0.0700000000000002
 30
0.0
  0
POINT
  5
166
330
1F
100
AcDbEntity
  8
ConnectionPoints
100
AcDbPoint
 10
0.0
 20
-1.59
 30
0.0000000000000001
  0
POINT
  5
167
330
1F
100
AcDbEntity
  8
ConnectionPoints
100
AcDbPoint
 10
1.053925821482806
 20
-0.7399999999999999
 30
1.053925821482807
  0
POINT
  5
168
330
1F
100
AcDbEntity
  8
ConnectionPoints
100
AcDbPoint
 10
0.0
 20
-1.59
 30
0.0000000000000001
  0
ENDSEC
  0
SECTION
  2
OBJECTS
  0
DICTIONARY
  5
C
330
0
100
AcDbDictionary
281
     1
  3
ACAD_DETAILVIEWSTYLE
350
170
  3
ACAD_GROUP
350
D
  3
ACAD_LAYOUT
350
1A
  3
ACAD_MATERIAL
350
43
  3
ACAD_MLEADERSTYLE
350
6B
  3
ACAD_MLINESTYLE
350
17
  3
ACAD_PLOTSETTINGS
350
19
  3
ACAD_PLOTSTYLENAME
350
E
  3
ACAD_SCALELIST
350
47
  3
ACAD_SECTIONVIEWSTYLE
350
171
  3
ACAD_TABLESTYLE
350
69
  3
ACAD_VISUALSTYLE
350
2A
  3
ACDB_RECOMPOSE_DATA
350
16D
  3
AcDbVariableDictionary
350
169
  0
SUN
  5
6D
330
29
100
AcDbSun
 90
        1
290
     0
 63
     7
421
 16777215
 40
1.0
291
     1
 91
  2455826
 92
 54000000
292
     0
 70
     2
 71
   256
280
     1
  0
DICTIONARY
  5
170
102
{ACAD_REACTORS
330
C
102
}
330
C
100
AcDbDictionary
281
     1
  0
DICTIONARY
  5
D
102
{ACAD_REACTORS
330
C
102
}
330
C
100
AcDbDictionary
281
     1
  0
DICTIONARY
  5
1A
102
{ACAD_REACTORS
330
C
102
}
330
C
100
AcDbDictionary
281
     1
  3
Layout1
350
1E
  3
Layout2
350
26
  3
Model
350
22
  0
DICTIONARY
  5
43
102
{ACAD_REACTORS
330
C
102
}
330
C
100
AcDbDictionary
281
     1
  3
ByBlock
350
45
  3
ByLayer
350
44
  3
Global
350
46
  0
DICTIONARY
  5
6B
102
{ACAD_REACTORS
330
C
102
}
330
C
100
AcDbDictionary
281
     1
  3
Standard
350
6C
  0
DICTIONARY
  5
17
102
{ACAD_REACTORS
330
C
102
}
330
C
100
AcDbDictionary
281
     1
  3
Standard
350
18
  0
DICTIONARY
  5
19
102
{ACAD_REACTORS
330
C
102
}
330
C
100
AcDbDictionary
281
     1
  0
ACDBDICTIONARYWDFLT
  5
E
102
{ACAD_REACTORS
330
C
102
}
330
C
100
AcDbDictionary
281
     1
  3
Normal
350
F
100
AcDbDictionaryWithDefault
340
F
  0
DICTIONARY
  5
47
102
{ACAD_REACTORS
330
C
102
}
330
C
100
AcDbDictionary
281
     1
  3
A0
350
48
  3
A1
350
49
  3
A2
350
4A
  3
A3
350
4B
  3
A4
350
4C
  3
A5
350
4D
  3
A6
350
4E
  3
A7
350
4F
  3
A8
350
50
  3
A9
350
51
  3
B0
350
52
  3
B1
350
53
  3
B2
350
54
  3
B3
350
55
  3
B4
350
56
  3
B5
350
57
  3
B6
350
58
  3
B7
350
59
  3
B8
350
5A
  3
B9
350
5B
  3
C0
350
5C
  3
C1
350
5D
  3
C2
350
5E
  3
C3
350
5F
  3
C4
350
60
  3
C5
350
61
  3
C6
350
62
  3
C7
350
63
  3
C8
350
64
  3
C9
350
65
  3
D0
350
66
  3
D1
350
67
  3
D2
350
68
  0
DICTIONARY
  5
171
102
{ACAD_REACTORS
330
C
102
}
330
C
100
AcDbDictionary
281
     1
  0
DICTIONARY
  5
69
102
{ACAD_REACTORS
330
C
102
}
330
C
100
AcDbDictionary
281
     1
  3
Standard
350
6A
  0
DICTIONARY
  5
2A
102
{ACAD_REACTORS
330
C
102
}
330
C
100
AcDbDictionary
281
     1
  3
2dWireframe
350
2F
  3
Basic
350
32
  3
Brighten
350
36
  3
ColorChange
350
3A
  3
Conceptual
350
34
  3
Dim
350
35
  3
EdgeColorOff
350
3D
  3
Facepattern
350
39
  3
Flat
350
2B
  3
FlatWithEdges
350
2C
  3
Gouraud
350
2D
  3
GouraudWithEdges
350
2E
  3
Hidden
350
31
  3
JitterOff
350
3B
  3
Linepattern
350
38
  3
OverhangOff
350
3C
  3
Realistic
350
33
  3
Shaded
350
42
  3
Shaded with edges
350
41
  3
Shades of Gray
350
3E
  3
Sketchy
350
3F
  3
Thicken
350
37
  3
Wireframe
350
30
  3
X-Ray
350
40
  0
XRECORD
  5
16D
102
{ACAD_REACTORS
330
C
102
}
330
C
100
AcDbXrecord
280
     1
 90
        1
330
6A
  0
DICTIONARY
  5
169
102
{ACAD_REACTORS
330
C
102
}
330
C
100
AcDbDictionary
281
     1
  3
CANNOSCALE
350
16A
  3
CMLEADERSTYLE
350
16F
  3
CTABLESTYLE
350
16E
  0
LAYOUT
  5
1E
102
{ACAD_REACTORS
330
1A
102
}
330
1A
100
AcDbPlotSettings
  1

  2
none_device
  4

  6

 40
0.0
 41
0.0
 42
0.0
 43
0.0
 44
0.0
 45
0.0
 46
0.0
 47
0.0
 48
0.0
 49
0.0
140
0.0
141
0.0
142
1.0
143
1.0
 70
   688
 72
     0
 73
     0
 74
     5
  7

 75
    16
 76
     0
 77
     2
 78
   300
147
1.0
148
0.0
149
0.0
100
AcDbLayout
  1
Layout1
 70
     1
 71
     1
 10
0.0
 20
0.0
 11
12.0
 21
9.0
 12
0.0
 22
0.0
 32
0.0
 14
1.000000000000000E+20
 24
1.000000000000000E+20
 34
1.000000000000000E+20
 15
-1.000000000000000E+20
 25
-1.000000000000000E+20
 35
-1.000000000000000E+20
146
0.0
 13
0.0
 23
0.0
 33
0.0
 16
1.0
 26
0.0
 36
0.0
 17
0.0
 27
1.0
 37
0.0
 76
     0
330
1B
  0
LAYOUT
  5
26
102
{ACAD_REACTORS
330
1A
102
}
330
1A
100
AcDbPlotSettings
  1

  2
none_device
  4

  6

 40
0.0
 41
0.0
 42
0.0
 43
0.0
 44
0.0
 45
0.0
 46
0.0
 47
0.0
 48
0.0
 49
0.0
140
0.0
141
0.0
142
1.0
143
1.0
 70
   688
 72
     0
 73
     0
 74
     5
  7

 75
    16
 76
     0
 77
     2
 78
   300
147
1.0
148
0.0
149
0.0
100
AcDbLayout
  1
Layout2
 70
     1
 71
     2
 10
0.0
 20
0.0
 11
0.0
 21
0.0
 12
0.0
 22
0.0
 32
0.0
 14
0.0
 24
0.0
 34
0.0
 15
0.0
 25
0.0
 35
0.0
146
0.0
 13
0.0
 23
0.0
 33
0.0
 16
1.0
 26
0.0
 36
0.0
 17
0.0
 27
1.0
 37
0.0
 76
     0
330
23
  0
LAYOUT
  5
22
102
{ACAD_REACTORS
330
1A
102
}
330
1A
100
AcDbPlotSettings
  1

  2
none_device
  4
Letter_(8.50_x_11.00_Inches)
  6

 40
6.35
 41
6.35
 42
6.35000508
 43
6.35000508
 44
215.9
 45
279.4
 46
0.0
 47
0.0
 48
0.0
 49
0.0
140
0.0
141
0.0
142
1.0
143
1.0
 70
  1712
 72
     0
 73
     0
 74
     0
  7

 75
     0
 76
     0
 77
     2
 78
   300
147
1.0
148
0.0
149
0.0
100
AcDbLayout
  1
Model
 70
     1
 71
     0
 10
0.0
 20
0.0
 11
12.0
 21
9.0
 12
0.0
 22
0.0
 32
0.0
 14
1.000000000000000E+20
 24
1.000000000000000E+20
 34
1.000000000000000E+20
 15
-1.000000000000000E+20
 25
-1.000000000000000E+20
 35
-1.000000000000000E+20
146
0.0
 13
0.0
 23
0.0
 33
0.0
 16
1.0
 26
0.0
 36
0.0
 17
0.0
 27
1.0
 37
0.0
 76
     0
330
1F
331
29
  0
MATERIAL
  5
45
102
{ACAD_REACTORS
330
43
102
}
330
43
100
AcDbMaterial
  1
ByBlock
 72
     1
 94
      127
  0
MATERIAL
  5
44
102
{ACAD_REACTORS
330
43
102
}
330
43
100
AcDbMaterial
  1
ByLayer
 72
     1
 94
      127
  0
MATERIAL
  5
46
102
{ACAD_REACTORS
330
43
102
}
330
43
100
AcDbMaterial
  1
Global
 72
     1
 94
      127
  0
MLEADERSTYLE
  5
6C
102
{ACAD_REACTORS
330
6B
102
}
330
6B
100
AcDbMLeaderStyle
179
     2
170
     2
171
     1
172
     0
 90
        2
 40
0.0
 41
0.0
173
     1
 91
-1056964608
340
14
 92
       -2
290
     1
 42
0.09
291
     1
 43
0.36
  3
Standard
341
0
 44
0.18
300

342
11
174
     1
178
     6
175
     1
176
     0
 93
-1056964608
 45
0.18
292
     0
297
     0
 46
0.18
343
0
 94
-1056964608
 47
1.0
 49
1.0
140
1.0
293
     1
141
0.0
294
     1
177
     0
142
1.0
295
     0
296
     0
143
0.125
271
     0
272
     9
273
     9
298
     0
  0
MLINESTYLE
  5
18
102
{ACAD_REACTORS
330
17
102
}
330
17
100
AcDbMlineStyle
  2
Standard
 70
     0
  3

 62
   256
 51
90.0
 52
90.0
 71
     2
 49
0.5
 62
   256
  6
BYLAYER
 49
-0.5
 62
   256
  6
BYLAYER
  0
ACDBPLACEHOLDER
  5
F
102
{ACAD_REACTORS
330
E
102
}
330
E
  0
SCALE
  5
48
102
{ACAD_REACTORS
330
47
102
}
330
47
100
AcDbScale
 70
     0
300
1:1
140
1.0
141
1.0
290
     1
  0
SCALE
  5
49
102
{ACAD_REACTORS
330
47
102
}
330
47
100
AcDbScale
 70
     0
300
1:2
140
1.0
141
2.0
290
     0
  0
SCALE
  5
4A
102
{ACAD_REACTORS
330
47
102
}
330
47
100
AcDbScale
 70
     0
300
1:4
140
1.0
141
4.0
290
     0
  0
SCALE
  5
4B
102
{ACAD_REACTORS
330
47
102
}
330
47
100
AcDbScale
 70
     0
300
1:5
140
1.0
141
5.0
290
     0
  0
SCALE
  5
4C
102
{ACAD_REACTORS
330
47
102
}
330
47
100
AcDbScale
 70
     0
300
1:8
140
1.0
141
8.0
290
     0
  0
SCALE
  5
4D
102
{ACAD_REACTORS
330
47
102
}
330
47
100
AcDbScale
 70
     0
300
1:10
140
1.0
141
10.0
290
     0
  0
SCALE
  5
4E
102
{ACAD_REACTORS
330
47
102
}
330
47
100
AcDbScale
 70
     0
300
1:16
140
1.0
141
16.0
290
     0
  0
SCALE
  5
4F
102
{ACAD_REACTORS
330
47
102
}
330
47
100
AcDbScale
 70
     0
300
1:20
140
1.0
141
20.0
290
     0
  0
SCALE
  5
50
102
{ACAD_REACTORS
330
47
102
}
330
47
100
AcDbScale
 70
     0
300
1:30
140
1.0
141
30.0
290
     0
  0
SCALE
  5
51
102
{ACAD_REACTORS
330
47
102
}
330
47
100
AcDbScale
 70
     0
300
1:40
140
1.0
141
40.0
290
     0
  0
SCALE
  5
52
102
{ACAD_REACTORS
330
47
102
}
330
47
100
AcDbScale
 70
     0
300
1:50
140
1.0
141
50.0
290
     0
  0
SCALE
  5
53
102
{ACAD_REACTORS
330
47
102
}
330
47
100
AcDbScale
 70
     0
300
1:100
140
1.0
141
100.0
290
     0
  0
SCALE
  5
54
102
{ACAD_REACTORS
330
47
102
}
330
47
100
AcDbScale
 70
     0
300
2:1
140
2.0
141
1.0
290
     0
  0
SCALE
  5
55
102
{ACAD_REACTORS
330
47
102
}
330
47
100
AcDbScale
 70
     0
300
4:1
140
4.0
141
1.0
290
     0
  0
SCALE
  5
56
102
{ACAD_REACTORS
330
47
102
}
330
47
100
AcDbScale
 70
     0
300
8:1
140
8.0
141
1.0
290
     0
  0
SCALE
  5
57
102
{ACAD_REACTORS
330
47
102
}
330
47
100
AcDbScale
 70
     0
300
10:1
140
10.0
141
1.0
290
     0
  0
SCALE
  5
58
102
{ACAD_REACTORS
330
47
102
}
330
47
100
AcDbScale
 70
     0
300
100:1
140
100.0
141
1.0
290
     0
  0
SCALE
  5
59
102
{ACAD_REACTORS
330
47
102
}
330
47
100
AcDbScale
 70
     0
300
1/128" = 1'-0"
140
0.0078125
141
12.0
290
     0
  0
SCALE
  5
5A
102
{ACAD_REACTORS
330
47
102
}
330
47
100
AcDbScale
 70
     0
300
1/64" = 1'-0"
140
0.015625
141
12.0
290
     0
  0
SCALE
  5
5B
102
{ACAD_REACTORS
330
47
102
}
330
47
100
AcDbScale
 70
     0
300
1/32" = 1'-0"
140
0.03125
141
12.0
290
     0
  0
SCALE
  5
5C
102
{ACAD_REACTORS
330
47
102
}
330
47
100
AcDbScale
 70
     0
300
1/16" = 1'-0"
140
0.0625
141
12.0
290
     0
  0
SCALE
  5
5D
102
{ACAD_REACTORS
330
47
102
}
330
47
100
AcDbScale
 70
     0
300
3/32" = 1'-0"
140
0.09375
141
12.0
290
     0
  0
SCALE
  5
5E
102
{ACAD_REACTORS
330
47
102
}
330
47
100
AcDbScale
 70
     0
300
1/8" = 1'-0"
140
0.125
141
12.0
290
     0
  0
SCALE
  5
5F
102
{ACAD_REACTORS
330
47
102
}
330
47
100
AcDbScale
 70
     0
300
3/16" = 1'-0"
140
0.1875
141
12.0
290
     0
  0
SCALE
  5
60
102
{ACAD_REACTORS
330
47
102
}
330
47
100
AcDbScale
 70
     0
300
1/4" = 1'-0"
140
0.25
141
12.0
290
     0
  0
SCALE
  5
61
102
{ACAD_REACTORS
330
47
102
}
330
47
100
AcDbScale
 70
     0
300
3/8" = 1'-0"
140
0.375
141
12.0
290
     0
  0
SCALE
  5
62
102
{ACAD_REACTORS
330
47
102
}
330
47
100
AcDbScale
 70
     0
300
1/2" = 1'-0"
140
0.5
141
12.0
290
     0
  0
SCALE
  5
63
102
{ACAD_REACTORS
330
47
102
}
330
47
100
AcDbScale
 70
     0
300
3/4" = 1'-0"
140
0.75
141
12.0
290
     0
  0
SCALE
  5
64
102
{ACAD_REACTORS
330
47
102
}
330
47
100
AcDbScale
 70
     0
300
1" = 1'-0"
140
1.0
141
12.0
290
     0
  0
SCALE
  5
65
102
{ACAD_REACTORS
330
47
102
}
330
47
100
AcDbScale
 70
     0
300
1-1/2" = 1'-0"
140
1.5
141
12.0
290
     0
  0
SCALE
  5
66
102
{ACAD_REACTORS
330
47
102
}
330
47
100
AcDbScale
 70
     0
300
3" = 1'-0"
140
3.0
141
12.0
290
     0
  0
SCALE
  5
67
102
{ACAD_REACTORS
330
47
102
}
330
47
100
AcDbScale
 70
     0
300
6" = 1'-0"
140
6.0
141
12.0
290
     0
  0
SCALE
  5
68
102
{ACAD_REACTORS
330
47
102
}
330
47
100
AcDbScale
 70
     0
300
1'-0" = 1'-0"
140
12.0
141
12.0
290
     0
  0
TABLESTYLE
  5
6A
102
{ACAD_REACTORS
330
69
102
}
102
{ACAD_XDICTIONARY
360
16B
102
}
330
69
100
AcDbTableStyle
  3
Standard
 70
     0
 71
     0
 40
0.06
 41
0.06
280
     0
281
     0
  7
Standard
140
0.18
170
     2
 62
     0
 63
   257
283
     0
 90
        4
 91
        0
  1

274
    -2
284
     1
 64
     0
275
    -2
285
     1
 65
     0
276
    -2
286
     1
 66
     0
277
    -2
287
     1
 67
     0
278
    -2
288
     1
 68
     0
279
    -2
289
     1
 69
     0
  7
Standard
140
0.25
170
     5
 62
     0
 63
   257
283
     0
 90
        4
 91
        0
  1

274
    -2
284
     1
 64
     0
275
    -2
285
     1
 65
     0
276
    -2
286
     1
 66
     0
277
    -2
287
     1
 67
     0
278
    -2
288
     1
 68
     0
279
    -2
289
     1
 69
     0
  7
Standard
140
0.18
170
     5
 62
     0
 63
   257
283
     0
 90
        4
 91
        0
  1

274
    -2
284
     1
 64
     0
275
    -2
285
     1
 65
     0
276
    -2
286
     1
 66
     0
277
    -2
287
     1
 67
     0
278
    -2
288
     1
 68
     0
279
    -2
289
     1
 69
     0
  0
VISUALSTYLE
  5
2F
102
{ACAD_REACTORS
330
2A
102
}
330
2A
100
AcDbVisualStyle
  2
2dWireframe
 70
     4
177
     3
291
     0
 70
    58
 90
        0
176
     1
 90
        2
176
     1
 90
        0
176
     1
 90
        0
176
     1
 40
0.6
176
     1
 40
30.0
176
     1
 62
     7
420
 16777215
176
     1
 90
        1
176
     1
 90
        4
176
     1
 62
     7
176
     1
 62
   257
176
     1
 90
        1
176
     1
 90
        1
176
     1
 40
1.0
176
     1
 90
        0
176
     1
 62
   257
176
     1
 40
1.0
176
     1
 90
        1
176
     1
 90
        6
176
     1
 90
        2
176
     1
 62
     7
176
     1
 90
        5
176
     1
 90
        0
176
     1
 90
        0
176
     1
290
     0
176
     1
 90
        1
176
     1
 40
0.0
176
     1
 90
        0
176
     1
290
     1
176
     1
290
     1
176
     1
290
     0
176
     1
290
     0
176
     1
290
     0
176
     1
290
     0
176
     1
290
     0
176
     1
290
     0
176
     1
290
     0
176
     1
 90
       50
176
     1
 40
0.0
176
     1
 40
1.0
176
     1
 90
        0
176
     1
 62
    18
420
        0
176
     1
 90
       50
176
     1
 90
        3
176
     1
 62
     5
420
      255
176
     1
290
     0
176
     1
 90
       50
176
     1
 90
       50
176
     1
 90
       50
176
     1
290
     0
176
     1
 90
       50
176
     1
 62
   256
176
     0
 40
1.0
176
     0
 90
        2
176
     1
  1
strokes_ogs.tif
176
     1
290
     0
176
     1
 40
1.0
176
     1
 40
1.0
176
     1
  0
VISUALSTYLE
  5
32
102
{ACAD_REACTORS
330
2A
102
}
330
2A
100
AcDbVisualStyle
  2
Basic
 70
     7
177
     3
291
     1
 70
    58
 90
        1
176
     1
 90
        0
176
     1
 90
        1
176
     1
 90
        0
176
     1
 40
0.6
176
     1
 40
30.0
176
     1
 62
     7
420
 16777215
176
     1
 90
        0
176
     1
 90
        4
176
     1
 62
     7
176
     1
 62
   257
176
     1
 90
        1
176
     1
 90
        1
176
     1
 40
1.0
176
     1
 90
        8
176
     1
 62
     7
176
     1
 40
1.0
176
     1
 90
        1
176
     1
 90
        6
176
     1
 90
        2
176
     1
 62
     7
176
     1
 90
        5
176
     1
 90
        0
176
     1
 90
        0
176
     1
290
     0
176
     1
 90
        1
176
     1
 40
0.0
176
     1
 90
        0
176
     1
290
     0
176
     1
290
     1
176
     1
290
     1
176
     1
290
     0
176
     1
290
     0
176
     1
290
     0
176
     1
290
     0
176
     1
290
     0
176
     1
290
     0
176
     1
 90
       50
176
     1
 40
0.0
176
     1
 40
1.0
176
     1
 90
        0
176
     1
 62
    18
420
        0
176
     1
 90
       50
176
     1
 90
        3
176
     1
 62
     5
420
      255
176
     1
290
     0
176
     1
 90
       50
176
     1
 90
       50
176
     1
 90
       50
176
     1
290
     0
176
     1
 90
       50
176
     1
 62
   256
176
     0
 40
1.0
176
     0
 90
        2
176
     1
  1
strokes_ogs.tif
176
     1
290
     0
176
     1
 40
1.0
176
     1
 40
1.0
176
     1
  0
VISUALSTYLE
  5
36
102
{ACAD_REACTORS
330
2A
102
}
330
2A
100
AcDbVisualStyle
  2
Brighten
 70
    12
177
     3
291
     1
 70
    58
 90
        2
176
     1
 90
        2
176
     1
 90
        0
176
     1
 90
        0
176
     1
 40
0.6
176
     1
 40
30.0
176
     1
 62
     7
420
 16777215
176
     1
 90
        1
176
     1
 90
        4
176
     1
 62
     7
176
     1
 62
   257
176
     1
 90
        1
176
     1
 90
        1
176
     1
 40
1.0
176
     1
 90
        8
176
     1
 62
     7
176
     1
 40
1.0
176
     1
 90
        1
176
     1
 90
        6
176
     1
 90
        2
176
     1
 62
     7
176
     1
 90
        5
176
     1
 90
        0
176
     1
 90
        0
176
     1
290
     0
176
     1
 90
        1
176
     1
 40
50.0
176
     1
 90
        0
176
     1
290
     0
176
     1
290
     1
176
     1
290
     1
176
     1
290
     0
176
     1
290
     0
176
     1
290
     0
176
     1
290
     0
176
     1
290
     0
176
     1
290
     0
176
     1
 90
       50
176
     1
 40
0.0
176
     1
 40
1.0
176
     1
 90
        0
176
     1
 62
    18
420
        0
176
     1
 90
       50
176
     1
 90
        3
176
     1
 62
     5
420
      255
176
     1
290
     0
176
     1
 90
       50
176
     1
 90
       50
176
     1
 90
       50
176
     1
290
     0
176
     1
 90
       50
176
     1
 62
   256
176
     0
 40
1.0
176
     0
 90
        2
176
     1
  1
strokes_ogs.tif
176
     1
290
     0
176
     1
 40
1.0
176
     1
 40
1.0
176
     1
  0
VISUALSTYLE
  5
3A
102
{ACAD_REACTORS
330
2A
102
}
330
2A
100
AcDbVisualStyle
  2
ColorChange
 70
    16
177
     3
291
     1
 70
    58
 90
        2
176
     1
 90
        2
176
     1
 90
        3
176
     1
 90
        0
176
     1
 40
0.6
176
     1
 40
30.0
176
     1
 62
     8
420
  8421504
176
     1
 90
        1
176
     1
 90
        4
176
     1
 62
     7
176
     1
 62
   257
176
     1
 90
        1
176
     1
 90
        1
176
     1
 40
1.0
176
     1
 90
        8
176
     1
 62
     8
420
  8421504
176
     1
 40
1.0
176
     1
 90
        1
176
     1
 90
        6
176
     1
 90
        2
176
     1
 62
     7
176
     1
 90
        5
176
     1
 90
        0
176
     1
 90
        0
176
     1
290
     0
176
     1
 90
        1
176
     1
 40
0.0
176
     1
 90
        0
176
     1
290
     0
176
     1
290
     1
176
     1
290
     1
176
     1
290
     0
176
     1
290
     0
176
     1
290
     0
176
     1
290
     0
176
     1
290
     0
176
     1
290
     0
176
     1
 90
       50
176
     1
 40
0.0
176
     1
 40
1.0
176
     1
 90
        0
176
     1
 62
    18
420
        0
176
     1
 90
       50
176
     1
 90
        3
176
     1
 62
     5
420
      255
176
     1
290
     0
176
     1
 90
       50
176
     1
 90
       50
176
     1
 90
       50
176
     1
290
     0
176
     1
 90
       50
176
     1
 62
   256
176
     0
 40
1.0
176
     0
 90
        2
176
     1
  1
strokes_ogs.tif
176
     1
290
     0
176
     1
 40
1.0
176
     1
 40
1.0
176
     1
  0
VISUALSTYLE
  5
34
102
{ACAD_REACTORS
330
2A
102
}
330
2A
100
AcDbVisualStyle
  2
Conceptual
 70
     9
177
     3
291
     0
 70
    58
 90
        3
176
     1
 90
        2
176
     1
 90
        0
176
     1
 90
        0
176
     1
 40
0.6
176
     1
 40
30.0
176
     1
 62
     7
420
 16777215
176
     1
 90
        2
176
     1
 90
        2
176
     1
 62
     7
176
     1
 62
   257
176
     1
 90
        1
176
     1
 90
        1
176
     1
 40
179.0
176
     1
 90
        8
176
     1
 62
     7
176
     1
 40
1.0
176
     1
 90
        1
176
     1
 90
        6
176
     1
 90
        2
176
     1
 62
     7
176
     1
 90
        3
176
     1
 90
        0
176
     1
 90
        0
176
     1
290
     0
176
     1
 90
        1
176
     1
 40
0.0
176
     1
 90
        0
176
     1
290
     0
176
     1
290
     1
176
     1
290
     1
176
     1
290
     0
176
     1
290
     0
176
     1
290
     0
176
     1
290
     0
176
     1
290
     0
176
     1
290
     0
176
     1
 90
       50
176
     1
 40
0.0
176
     1
 40
1.0
176
     1
 90
        0
176
     1
 62
    18
420
        0
176
     1
 90
       50
176
     1
 90
        3
176
     1
 62
     5
420
      255
176
     1
290
     0
176
     1
 90
       50
176
     1
 90
       50
176
     1
 90
       50
176
     1
290
     0
176
     1
 90
       50
176
     1
 62
   256
176
     0
 40
1.0
176
     0
 90
        2
176
     1
  1
strokes_ogs.tif
176
     1
290
     0
176
     1
 40
1.0
176
     1
 40
1.0
176
     1
  0
VISUALSTYLE
  5
35
102
{ACAD_REACTORS
330
2A
102
}
330
2A
100
AcDbVisualStyle
  2
Dim
 70
    11
177
     3
291
     1
 70
    58
 90
        2
176
     1
 90
        2
176
     1
 90
        0
176
     1
 90
        0
176
     1
 40
0.6
176
     1
 40
30.0
176
     1
 62
     7
420
 16777215
176
     1
 90
        1
176
     1
 90
        4
176
     1
 62
     7
176
     1
 62
   257
176
     1
 90
        1
176
     1
 90
        1
176
     1
 40
1.0
176
     1
 90
        8
176
     1
 62
     7
176
     1
 40
1.0
176
     1
 90
        1
176
     1
 90
        6
176
     1
 90
        2
176
     1
 62
     7
176
     1
 90
        5
176
     1
 90
        0
176
     1
 90
        0
176
     1
290
     0
176
     1
 90
        1
176
     1
 40
-50.0
176
     1
 90
        0
176
     1
290
     0
176
     1
290
     1
176
     1
290
     1
176
     1
290
     0
176
     1
290
     0
176
     1
290
     0
176
     1
290
     0
176
     1
290
     0
176
     1
290
     0
176
     1
 90
       50
176
     1
 40
0.0
176
     1
 40
1.0
176
     1
 90
        0
176
     1
 62
    18
420
        0
176
     1
 90
       50
176
     1
 90
        3
176
     1
 62
     5
420
      255
176
     1
290
     0
176
     1
 90
       50
176
     1
 90
       50
176
     1
 90
       50
176
     1
290
     0
176
     1
 90
       50
176
     1
 62
   256
176
     0
 40
1.0
176
     0
 90
        2
176
     1
  1
strokes_ogs.tif
176
     1
290
     0
176
     1
 40
1.0
176
     1
 40
1.0
176
     1
  0
VISUALSTYLE
  5
3D
102
{ACAD_REACTORS
330
2A
102
}
330
2A
100
AcDbVisualStyle
  2
EdgeColorOff
 70
    22
177
     3
291
     1
 70
    58
 90
        2
176
     0
 90
        2
176
     0
 90
        0
176
     0
 90
        0
176
     0
 40
0.6
176
     0
 40
30.0
176
     0
 62
     7
420
 16777215
176
     0
 90
        1
176
     0
 90
        4
176
     0
 62
     7
176
     0
 62
   257
176
     0
 90
        1
176
     0
 90
        1
176
     0
 40
1.0
176
     0
 90
        8
176
     2
 62
     7
176
     0
 40
1.0
176
     0
 90
        1
176
     0
 90
        6
176
     0
 90
        2
176
     0
 62
     7
176
     0
 90
        5
176
     0
 90
        0
176
     0
 90
        0
176
     0
290
     0
176
     0
 90
        1
176
     0
 40
0.0
176
     0
 90
        0
176
     0
290
     0
176
     0
290
     1
176
     0
290
     1
176
     0
290
     0
176
     0
290
     0
176
     0
290
     0
176
     0
290
     0
176
     0
290
     0
176
     0
290
     0
176
     0
 90
       50
176
     0
 40
0.0
176
     0
 40
1.0
176
     0
 90
        0
176
     0
 62
    18
420
        0
176
     0
 90
       50
176
     0
 90
        3
176
     0
 62
     5
420
      255
176
     0
290
     0
176
     0
 90
       50
176
     0
 90
       50
176
     0
 90
       50
176
     0
290
     0
176
     0
 90
       50
176
     0
 62
   256
176
     0
 40
1.0
176
     0
 90
        2
176
     0
  1
strokes_ogs.tif
176
     0
290
     0
176
     0
 40
1.0
176
     0
 40
1.0
176
     0
  0
VISUALSTYLE
  5
39
102
{ACAD_REACTORS
330
2A
102
}
330
2A
100
AcDbVisualStyle
  2
Facepattern
 70
    15
177
     3
291
     1
 70
    58
 90
        2
176
     1
 90
        2
176
     1
 90
        0
176
     1
 90
        0
176
     1
 40
0.6
176
     1
 40
30.0
176
     1
 62
     7
420
 16777215
176
     1
 90
        1
176
     1
 90
        4
176
     1
 62
     7
176
     1
 62
   257
176
     1
 90
        1
176
     1
 90
        1
176
     1
 40
1.0
176
     1
 90
        8
176
     1
 62
     7
176
     1
 40
1.0
176
     1
 90
        1
176
     1
 90
        6
176
     1
 90
        2
176
     1
 62
     7
176
     1
 90
        5
176
     1
 90
        0
176
     1
 90
        0
176
     1
290
     0
176
     1
 90
        1
176
     1
 40
0.0
176
     1
 90
        0
176
     1
290
     0
176
     1
290
     1
176
     1
290
     1
176
     1
290
     0
176
     1
290
     0
176
     1
290
     0
176
     1
290
     0
176
     1
290
     0
176
     1
290
     0
176
     1
 90
       50
176
     1
 40
0.0
176
     1
 40
1.0
176
     1
 90
        0
176
     1
 62
    18
420
        0
176
     1
 90
       50
176
     1
 90
        3
176
     1
 62
     5
420
      255
176
     1
290
     0
176
     1
 90
       50
176
     1
 90
       50
176
     1
 90
       50
176
     1
290
     0
176
     1
 90
       50
176
     1
 62
   256
176
     0
 40
1.0
176
     0
 90
        2
176
     1
  1
strokes_ogs.tif
176
     1
290
     0
176
     1
 40
1.0
176
     1
 40
1.0
176
     1
  0
VISUALSTYLE
  5
2B
102
{ACAD_REACTORS
330
2A
102
}
330
2A
100
AcDbVisualStyle
  2
Flat
 70
     0
177
     3
291
     1
 70
    58
 90
        2
176
     1
 90
        1
176
     1
 90
        1
176
     1
 90
        2
176
     1
 40
0.6
176
     1
 40
30.0
176
     1
 62
     7
420
 16777215
176
     1
 90
        0
176
     1
 90
        0
176
     1
 62
     7
176
     1
 62
   257
176
     1
 90
        1
176
     1
 90
        1
176
     1
 40
1.0
176
     1
 90
        8
176
     1
 62
     7
176
     1
 40
1.0
176
     1
 90
        1
176
     1
 90
        6
176
     1
 90
        2
176
     1
 62
     7
176
     1
 90
        5
176
     1
 90
        0
176
     1
 90
        0
176
     1
290
     0
176
     1
 90
       13
176
     1
 40
0.0
176
     1
 90
        0
176
     1
290
     0
176
     1
290
     1
176
     1
290
     1
176
     1
290
     0
176
     1
290
     0
176
     1
290
     0
176
     1
290
     0
176
     1
290
     0
176
     1
290
     0
176
     1
 90
       50
176
     1
 40
0.0
176
     1
 40
1.0
176
     1
 90
        0
176
     1
 62
    18
420
        0
176
     1
 90
       50
176
     1
 90
        3
176
     1
 62
     5
420
      255
176
     1
290
     0
176
     1
 90
       50
176
     1
 90
       50
176
     1
 90
       50
176
     1
290
     0
176
     1
 90
       50
176
     1
 62
   256
176
     0
 40
1.0
176
     0
 90
        2
176
     1
  1
strokes_ogs.tif
176
     1
290
     0
176
     1
 40
1.0
176
     1
 40
1.0
176
     1
  0
VISUALSTYLE
  5
2C
102
{ACAD_REACTORS
330
2A
102
}
330
2A
100
AcDbVisualStyle
  2
FlatWithEdges
 70
     1
177
     3
291
     1
 70
    58
 90
        2
176
     1
 90
        1
176
     1
 90
        1
176
     1
 90
        2
176
     1
 40
0.6
176
     1
 40
30.0
176
     1
 62
     7
420
 16777215
176
     1
 90
        1
176
     1
 90
        0
176
     1
 62
     7
176
     1
 62
   257
176
     1
 90
        1
176
     1
 90
        1
176
     1
 40
1.0
176
     1
 90
        0
176
     1
 62
   257
176
     1
 40
1.0
176
     1
 90
        1
176
     1
 90
        6
176
     1
 90
        2
176
     1
 62
     7
176
     1
 90
        5
176
     1
 90
        0
176
     1
 90
        0
176
     1
290
     0
176
     1
 90
       13
176
     1
 40
0.0
176
     1
 90
        0
176
     1
290
     0
176
     1
290
     1
176
     1
290
     1
176
     1
290
     0
176
     1
290
     0
176
     1
290
     0
176
     1
290
     0
176
     1
290
     0
176
     1
290
     0
176
     1
 90
       50
176
     1
 40
0.0
176
     1
 40
1.0
176
     1
 90
        0
176
     1
 62
    18
420
        0
176
     1
 90
       50
176
     1
 90
        3
176
     1
 62
     5
420
      255
176
     1
290
     0
176
     1
 90
       50
176
     1
 90
       50
176
     1
 90
       50
176
     1
290
     0
176
     1
 90
       50
176
     1
 62
   256
176
     0
 40
1.0
176
     0
 90
        2
176
     1
  1
strokes_ogs.tif
176
     1
290
     0
176
     1
 40
1.0
176
     1
 40
1.0
176
     1
  0
VISUALSTYLE
  5
2D
102
{ACAD_REACTORS
330
2A
102
}
330
2A
100
AcDbVisualStyle
  2
Gouraud
 70
     2
177
     3
291
     1
 70
    58
 90
        2
176
     1
 90
        2
176
     1
 90
        1
176
     1
 90
        2
176
     1
 40
0.6
176
     1
 40
30.0
176
     1
 62
     7
420
 16777215
176
     1
 90
        0
176
     1
 90
        0
176
     1
 62
     7
176
     1
 62
   257
176
     1
 90
        1
176
     1
 90
        1
176
     1
 40
1.0
176
     1
 90
        0
176
     1
 62
     7
176
     1
 40
1.0
176
     1
 90
        1
176
     1
 90
        6
176
     1
 90
        2
176
     1
 62
     7
176
     1
 90
        5
176
     1
 90
        0
176
     1
 90
        0
176
     1
290
     0
176
     1
 90
       13
176
     1
 40
0.0
176
     1
 90
        0
176
     1
290
     0
176
     1
290
     1
176
     1
290
     1
176
     1
290
     0
176
     1
290
     0
176
     1
290
     0
176
     1
290
     0
176
     1
290
     0
176
     1
290
     0
176
     1
 90
       50
176
     1
 40
0.0
176
     1
 40
1.0
176
     1
 90
        0
176
     1
 62
    18
420
        0
176
     1
 90
       50
176
     1
 90
        3
176
     1
 62
     5
420
      255
176
     1
290
     0
176
     1
 90
       50
176
     1
 90
       50
176
     1
 90
       50
176
     1
290
     0
176
     1
 90
       50
176
     1
 62
   256
176
     0
 40
1.0
176
     0
 90
        2
176
     1
  1
strokes_ogs.tif
176
     1
290
     0
176
     1
 40
1.0
176
     1
 40
1.0
176
     1
  0
VISUALSTYLE
  5
2E
102
{ACAD_REACTORS
330
2A
102
}
330
2A
100
AcDbVisualStyle
  2
GouraudWithEdges
 70
     3
177
     3
291
     1
 70
    58
 90
        2
176
     1
 90
        2
176
     1
 90
        1
176
     1
 90
        2
176
     1
 40
0.6
176
     1
 40
30.0
176
     1
 62
     7
420
 16777215
176
     1
 90
        1
176
     1
 90
        0
176
     1
 62
     7
176
     1
 62
   257
176
     1
 90
        1
176
     1
 90
        1
176
     1
 40
1.0
176
     1
 90
        0
176
     1
 62
   257
176
     1
 40
1.0
176
     1
 90
        1
176
     1
 90
        6
176
     1
 90
        2
176
     1
 62
     7
176
     1
 90
        5
176
     1
 90
        0
176
     1
 90
        0
176
     1
290
     0
176
     1
 90
       13
176
     1
 40
0.0
176
     1
 90
        0
176
     1
290
     0
176
     1
290
     1
176
     1
290
     1
176
     1
290
     0
176
     1
290
     0
176
     1
290
     0
176
     1
290
     0
176
     1
290
     0
176
     1
290
     0
176
     1
 90
       50
176
     1
 40
0.0
176
     1
 40
1.0
176
     1
 90
        0
176
     1
 62
    18
420
        0
176
     1
 90
       50
176
     1
 90
        3
176
     1
 62
     5
420
      255
176
     1
290
     0
176
     1
 90
       50
176
     1
 90
       50
176
     1
 90
       50
176
     1
290
     0
176
     1
 90
       50
176
     1
 62
   256
176
     0
 40
1.0
176
     0
 90
        2
176
     1
  1
strokes_ogs.tif
176
     1
290
     0
176
     1
 40
1.0
176
     1
 40
1.0
176
     1
  0
VISUALSTYLE
  5
31
102
{ACAD_REACTORS
330
2A
102
}
330
2A
100
AcDbVisualStyle
  2
Hidden
 70
     6
177
     3
291
     0
 70
    58
 90
        1
176
     1
 90
        2
176
     1
 90
        2
176
     1
 90
        0
176
     1
 40
0.6
176
     1
 40
30.0
176
     1
 62
     7
420
 16777215
176
     1
 90
        2
176
     1
 90
        2
176
     1
 62
     7
176
     1
 62
   257
176
     1
 90
        2
176
     1
 90
        1
176
     1
 40
40.0
176
     1
 90
        0
176
     1
 62
   257
176
     1
 40
1.0
176
     1
 90
        1
176
     1
 90
        6
176
     1
 90
        2
176
     1
 62
     7
176
     1
 90
        3
176
     1
 90
        0
176
     1
 90
        0
176
     1
290
     0
176
     1
 90
        1
176
     1
 40
0.0
176
     1
 90
        0
176
     1
290
     0
176
     1
290
     1
176
     1
290
     1
176
     1
290
     0
176
     1
290
     0
176
     1
290
     0
176
     1
290
     0
176
     1
290
     0
176
     1
290
     0
176
     1
 90
       50
176
     1
 40
0.0
176
     1
 40
1.0
176
     1
 90
        0
176
     1
 62
    18
420
        0
176
     1
 90
       50
176
     1
 90
        3
176
     1
 62
     5
420
      255
176
     1
290
     0
176
     1
 90
       50
176
     1
 90
       50
176
     1
 90
       50
176
     1
290
     0
176
     1
 90
       50
176
     1
 62
   256
176
     0
 40
1.0
176
     0
 90
        2
176
     1
  1
strokes_ogs.tif
176
     1
290
     0
176
     1
 40
1.0
176
     1
 40
1.0
176
     1
  0
VISUALSTYLE
  5
3B
102
{ACAD_REACTORS
330
2A
102
}
330
2A
100
AcDbVisualStyle
  2
JitterOff
 70
    20
177
     3
291
     1
 70
    58
 90
        2
176
     0
 90
        2
176
     0
 90
        0
176
     0
 90
        0
176
     0
 40
0.6
176
     0
 40
30.0
176
     0
 62
     7
420
 16777215
176
     0
 90
        1
176
     0
 90
        4
176
     0
 62
     7
176
     0
 62
   257
176
     0
 90
        1
176
     0
 90
        1
176
     0
 40
1.0
176
     0
 90
       10
176
     2
 62
     7
176
     0
 40
1.0
176
     0
 90
        1
176
     0
 90
        6
176
     0
 90
        2
176
     0
 62
     7
176
     0
 90
        5
176
     0
 90
        0
176
     0
 90
        0
176
     0
290
     0
176
     0
 90
        1
176
     0
 40
0.0
176
     0
 90
        0
176
     0
290
     0
176
     0
290
     1
176
     0
290
     1
176
     0
290
     0
176
     0
290
     0
176
     0
290
     0
176
     0
290
     0
176
     0
290
     0
176
     0
290
     0
176
     0
 90
       50
176
     0
 40
0.0
176
     0
 40
1.0
176
     0
 90
        0
176
     0
 62
    18
420
        0
176
     0
 90
       50
176
     0
 90
        3
176
     0
 62
     5
420
      255
176
     0
290
     0
176
     0
 90
       50
176
     0
 90
       50
176
     0
 90
       50
176
     0
290
     0
176
     0
 90
       50
176
     0
 62
   256
176
     0
 40
1.0
176
     0
 90
        2
176
     0
  1
strokes_ogs.tif
176
     0
290
     0
176
     0
 40
1.0
176
     0
 40
1.0
176
     0
  0
VISUALSTYLE
  5
38
102
{ACAD_REACTORS
330
2A
102
}
330
2A
100
AcDbVisualStyle
  2
Linepattern
 70
    14
177
     3
291
     1
 70
    58
 90
        2
176
     1
 90
        2
176
     1
 90
        0
176
     1
 90
        0
176
     1
 40
0.6
176
     1
 40
30.0
176
     1
 62
     7
420
 16777215
176
     1
 90
        1
176
     1
 90
        4
176
     1
 62
     7
176
     1
 62
   257
176
     1
 90
        7
176
     1
 90
        7
176
     1
 40
1.0
176
     1
 90
        8
176
     1
 62
     7
176
     1
 40
1.0
176
     1
 90
        1
176
     1
 90
        6
176
     1
 90
        2
176
     1
 62
     7
176
     1
 90
        5
176
     1
 90
        0
176
     1
 90
        0
176
     1
290
     0
176
     1
 90
        1
176
     1
 40
0.0
176
     1
 90
        0
176
     1
290
     0
176
     1
290
     1
176
     1
290
     1
176
     1
290
     0
176
     1
290
     0
176
     1
290
     0
176
     1
290
     0
176
     1
290
     0
176
     1
290
     0
176
     1
 90
       50
176
     1
 40
0.0
176
     1
 40
1.0
176
     1
 90
        0
176
     1
 62
    18
420
        0
176
     1
 90
       50
176
     1
 90
        3
176
     1
 62
     5
420
      255
176
     1
290
     0
176
     1
 90
       50
176
     1
 90
       50
176
     1
 90
       50
176
     1
290
     0
176
     1
 90
       50
176
     1
 62
   256
176
     0
 40
1.0
176
     0
 90
        2
176
     1
  1
strokes_ogs.tif
176
     1
290
     0
176
     1
 40
1.0
176
     1
 40
1.0
176
     1
  0
VISUALSTYLE
  5
3C
102
{ACAD_REACTORS
330
2A
102
}
330
2A
100
AcDbVisualStyle
  2
OverhangOff
 70
    21
177
     3
291
     1
 70
    58
 90
        2
176
     0
 90
        2
176
     0
 90
        0
176
     0
 90
        0
176
     0
 40
0.6
176
     0
 40
30.0
176
     0
 62
     7
420
 16777215
176
     0
 90
        1
176
     0
 90
        4
176
     0
 62
     7
176
     0
 62
   257
176
     0
 90
        1
176
     0
 90
        1
176
     0
 40
1.0
176
     0
 90
        9
176
     2
 62
     7
176
     0
 40
1.0
176
     0
 90
        1
176
     0
 90
        6
176
     0
 90
        2
176
     0
 62
     7
176
     0
 90
        5
176
     0
 90
        0
176
     0
 90
        0
176
     0
290
     0
176
     0
 90
        1
176
     0
 40
0.0
176
     0
 90
        0
176
     0
290
     0
176
     0
290
     1
176
     0
290
     1
176
     0
290
     0
176
     0
290
     0
176
     0
290
     0
176
     0
290
     0
176
     0
290
     0
176
     0
290
     0
176
     0
 90
       50
176
     0
 40
0.0
176
     0
 40
1.0
176
     0
 90
        0
176
     0
 62
    18
420
        0
176
     0
 90
       50
176
     0
 90
        3
176
     0
 62
     5
420
      255
176
     0
290
     0
176
     0
 90
       50
176
     0
 90
       50
176
     0
 90
       50
176
     0
290
     0
176
     0
 90
       50
176
     0
 62
   256
176
     0
 40
1.0
176
     0
 90
        2
176
     0
  1
strokes_ogs.tif
176
     0
290
     0
176
     0
 40
1.0
176
     0
 40
1.0
176
     0
  0
VISUALSTYLE
  5
33
102
{ACAD_REACTORS
330
2A
102
}
330
2A
100
AcDbVisualStyle
  2
Realistic
 70
     8
177
     3
291
     0
 70
    58
 90
        2
176
     1
 90
        3
176
     1
 90
        0
176
     1
 90
        2
176
     1
 40
0.6
176
     1
 40
30.0
176
     1
 62
     7
420
 16777215
176
     1
 90
        0
176
     1
 90
        0
176
     1
 62
     7
176
     1
 62
   257
176
     1
 90
        1
176
     1
 90
        1
176
     1
 40
1.0
176
     1
 90
        8
176
     1
 62
   257
176
     1
 40
1.0
176
     1
 90
        1
176
     1
 90
        6
176
     1
 90
        2
176
     1
 62
     7
176
     1
 90
        3
176
     1
 90
        0
176
     1
 90
        0
176
     1
290
     0
176
     1
 90
       13
176
     1
 40
0.0
176
     1
 90
        0
176
     1
290
     0
176
     1
290
     1
176
     1
290
     1
176
     1
290
     0
176
     1
290
     0
176
     1
290
     0
176
     1
290
     0
176
     1
290
     0
176
     1
290
     0
176
     1
 90
       50
176
     1
 40
0.0
176
     1
 40
1.0
176
     1
 90
        0
176
     1
 62
    18
420
        0
176
     1
 90
       50
176
     1
 90
        3
176
     1
 62
     5
420
      255
176
     1
290
     0
176
     1
 90
       50
176
     1
 90
       50
176
     1
 90
       50
176
     1
290
     0
176
     1
 90
       50
176
     1
 62
   256
176
     0
 40
1.0
176
     0
 90
        2
176
     1
  1
strokes_ogs.tif
176
     1
290
     0
176
     1
 40
1.0
176
     1
 40
1.0
176
     1
  0
VISUALSTYLE
  5
42
102
{ACAD_REACTORS
330
2A
102
}
330
2A
100
AcDbVisualStyle
  2
Shaded
 70
    27
177
     3
291
     0
 70
    58
 90
        2
176
     1
 90
        2
176
     1
 90
        1
176
     1
 90
        2
176
     1
 40
0.6
176
     1
 40
30.0
176
     1
 62
     7
420
 16777215
176
     1
 90
        0
176
     1
 90
        4
176
     1
 62
     7
176
     1
 62
   257
176
     1
 90
        1
176
     1
 90
        1
176
     1
 40
1.0
176
     1
 90
        8
176
     1
 62
   257
176
     1
 40
1.0
176
     1
 90
        1
176
     1
 90
        6
176
     1
 90
        2
176
     1
 62
     8
420
  7895160
176
     1
 90
        3
176
     1
 90
        0
176
     1
 90
        0
176
     1
290
     0
176
     1
 90
        5
176
     1
 40
0.0
176
     1
 90
        0
176
     1
290
     0
176
     1
290
     1
176
     1
290
     1
176
     1
290
     0
176
     1
290
     0
176
     1
290
     0
176
     1
290
     0
176
     1
290
     0
176
     1
290
     0
176
     1
 90
       50
176
     1
 40
0.0
176
     1
 40
1.0
176
     1
 90
        0
176
     1
 62
    18
420
        0
176
     1
 90
       50
176
     1
 90
        3
176
     1
 62
     5
420
      255
176
     1
290
     0
176
     1
 90
       50
176
     1
 90
       50
176
     1
 90
       50
176
     1
290
     0
176
     1
 90
       50
176
     1
 62
   256
176
     0
 40
1.0
176
     0
 90
        2
176
     1
  1
strokes_ogs.tif
176
     1
290
     0
176
     1
 40
1.0
176
     1
 40
1.0
176
     1
  0
VISUALSTYLE
  5
41
102
{ACAD_REACTORS
330
2A
102
}
330
2A
100
AcDbVisualStyle
  2
Shaded with edges
 70
    26
177
     3
291
     0
 70
    58
 90
        2
176
     1
 90
        2
176
     1
 90
        1
176
     1
 90
        2
176
     1
 40
0.6
176
     1
 40
30.0
176
     1
 62
     7
420
 16777215
176
     1
 90
        1
176
     1
 90
       10
176
     1
 62
     7
176
     1
 62
   257
176
     1
 90
        2
176
     1
 90
        1
176
     1
 40
1.0
176
     1
 90
        8
176
     1
 62
   257
176
     1
 40
1.0
176
     1
 90
        1
176
     1
 90
        6
176
     1
 90
        2
176
     1
 62
     7
176
     1
 90
        3
176
     1
 90
        0
176
     1
 90
        0
176
     1
290
     0
176
     1
 90
        5
176
     1
 40
0.0
176
     1
 90
        0
176
     1
290
     0
176
     1
290
     1
176
     1
290
     1
176
     1
290
     0
176
     1
290
     0
176
     1
290
     0
176
     1
290
     0
176
     1
290
     0
176
     1
290
     0
176
     1
 90
       50
176
     1
 40
0.0
176
     1
 40
1.0
176
     1
 90
        0
176
     1
 62
    18
420
        0
176
     1
 90
       50
176
     1
 90
        3
176
     1
 62
     5
420
      255
176
     1
290
     0
176
     1
 90
       50
176
     1
 90
       50
176
     1
 90
       50
176
     1
290
     0
176
     1
 90
       50
176
     1
 62
   256
176
     0
 40
1.0
176
     0
 90
        2
176
     1
  1
strokes_ogs.tif
176
     1
290
     0
176
     1
 40
1.0
176
     1
 40
1.0
176
     1
  0
VISUALSTYLE
  5
3E
102
{ACAD_REACTORS
330
2A
102
}
330
2A
100
AcDbVisualStyle
  2
Shades of Gray
 70
    23
177
     3
291
     0
 70
    58
 90
        2
176
     1
 90
        2
176
     1
 90
        3
176
     1
 90
        0
176
     1
 40
0.6
176
     1
 40
30.0
176
     1
 62
     7
420
 16777215
176
     1
 90
        2
176
     1
 90
        2
176
     1
 62
     7
176
     1
 62
     7
176
     1
 90
        1
176
     1
 90
        1
176
     1
 40
40.0
176
     1
 90
        8
176
     1
 62
     7
176
     1
 40
1.0
176
     1
 90
        1
176
     1
 90
        6
176
     1
 90
        2
176
     1
 62
     7
176
     1
 90
        3
176
     1
 90
        0
176
     1
 90
        0
176
     1
290
     0
176
     1
 90
        1
176
     1
 40
0.0
176
     1
 90
        0
176
     1
290
     0
176
     1
290
     1
176
     1
290
     1
176
     1
290
     0
176
     1
290
     0
176
     1
290
     0
176
     1
290
     0
176
     1
290
     0
176
     1
290
     0
176
     1
 90
       50
176
     1
 40
0.0
176
     1
 40
1.0
176
     1
 90
        0
176
     1
 62
    18
420
        0
176
     1
 90
       50
176
     1
 90
        3
176
     1
 62
     5
420
      255
176
     1
290
     0
176
     1
 90
       50
176
     1
 90
       50
176
     1
 90
       50
176
     1
290
     0
176
     1
 90
       50
176
     1
 62
   256
176
     0
 40
1.0
176
     0
 90
        2
176
     1
  1
strokes_ogs.tif
176
     1
290
     0
176
     1
 40
1.0
176
     1
 40
1.0
176
     1
  0
VISUALSTYLE
  5
3F
102
{ACAD_REACTORS
330
2A
102
}
330
2A
100
AcDbVisualStyle
  2
Sketchy
 70
    24
177
     3
291
     0
 70
    58
 90
        1
176
     1
 90
        2
176
     1
 90
        2
176
     1
 90
        0
176
     1
 40
0.6
176
     1
 40
30.0
176
     1
 62
     7
420
 16777215
176
     1
 90
        2
176
     1
 90
        2
176
     1
 62
     7
176
     1
 62
     7
176
     1
 90
        1
176
     1
 90
        1
176
     1
 40
40.0
176
     1
 90
       11
176
     1
 62
     7
176
     1
 40
1.0
176
     1
 90
        1
176
     1
 90
        6
176
     1
 90
        2
176
     1
 62
     7
176
     1
 90
        6
176
     1
 90
        0
176
     1
 90
        0
176
     1
290
     0
176
     1
 90
        1
176
     1
 40
0.0
176
     1
 90
        0
176
     1
290
     0
176
     1
290
     1
176
     1
290
     1
176
     1
290
     0
176
     1
290
     0
176
     1
290
     0
176
     1
290
     0
176
     1
290
     0
176
     1
290
     0
176
     1
 90
       50
176
     1
 40
0.0
176
     1
 40
1.0
176
     1
 90
        0
176
     1
 62
    18
420
        0
176
     1
 90
       50
176
     1
 90
        3
176
     1
 62
     5
420
      255
176
     1
290
     0
176
     1
 90
       50
176
     1
 90
       50
176
     1
 90
       50
176
     1
290
     0
176
     1
 90
       50
176
     1
 62
   256
176
     0
 40
1.0
176
     0
 90
        2
176
     1
  1
strokes_ogs.tif
176
     1
290
     0
176
     1
 40
1.0
176
     1
 40
1.0
176
     1
  0
VISUALSTYLE
  5
37
102
{ACAD_REACTORS
330
2A
102
}
330
2A
100
AcDbVisualStyle
  2
Thicken
 70
    13
177
     3
291
     1
 70
    58
 90
        2
176
     1
 90
        2
176
     1
 90
        0
176
     1
 90
        0
176
     1
 40
0.6
176
     1
 40
30.0
176
     1
 62
     7
420
 16777215
176
     1
 90
        1
176
     1
 90
        4
176
     1
 62
     7
176
     1
 62
   257
176
     1
 90
        1
176
     1
 90
        1
176
     1
 40
1.0
176
     1
 90
       12
176
     1
 62
     7
176
     1
 40
1.0
176
     1
 90
        1
176
     1
 90
        6
176
     1
 90
        2
176
     1
 62
     7
176
     1
 90
        5
176
     1
 90
        0
176
     1
 90
        0
176
     1
290
     0
176
     1
 90
        1
176
     1
 40
0.0
176
     1
 90
        0
176
     1
290
     0
176
     1
290
     1
176
     1
290
     1
176
     1
290
     0
176
     1
290
     0
176
     1
290
     0
176
     1
290
     0
176
     1
290
     0
176
     1
290
     0
176
     1
 90
       50
176
     1
 40
0.0
176
     1
 40
1.0
176
     1
 90
        0
176
     1
 62
    18
420
        0
176
     1
 90
       50
176
     1
 90
        3
176
     1
 62
     5
420
      255
176
     1
290
     0
176
     1
 90
       50
176
     1
 90
       50
176
     1
 90
       50
176
     1
290
     0
176
     1
 90
       50
176
     1
 62
   256
176
     0
 40
1.0
176
     0
 90
        2
176
     1
  1
strokes_ogs.tif
176
     1
290
     0
176
     1
 40
1.0
176
     1
 40
1.0
176
     1
  0
VISUALSTYLE
  5
30
102
{ACAD_REACTORS
330
2A
102
}
330
2A
100
AcDbVisualStyle
  2
Wireframe
 70
     5
177
     3
291
     0
 70
    58
 90
        0
176
     1
 90
        2
176
     1
 90
        0
176
     1
 90
        0
176
     1
 40
0.6
176
     1
 40
30.0
176
     1
 62
     7
420
 16777215
176
     1
 90
        1
176
     1
 90
        4
176
     1
 62
     7
176
     1
 62
   257
176
     1
 90
        1
176
     1
 90
        1
176
     1
 40
1.0
176
     1
 90
        0
176
     1
 62
   257
176
     1
 40
1.0
176
     1
 90
        1
176
     1
 90
        6
176
     1
 90
        2
176
     1
 62
     7
176
     1
 90
        3
176
     1
 90
        0
176
     1
 90
        0
176
     1
290
     0
176
     1
 90
        1
176
     1
 40
0.0
176
     1
 90
        0
176
     1
290
     0
176
     1
290
     1
176
     1
290
     1
176
     1
290
     0
176
     1
290
     0
176
     1
290
     0
176
     1
290
     0
176
     1
290
     0
176
     1
290
     0
176
     1
 90
       50
176
     1
 40
0.0
176
     1
 40
1.0
176
     1
 90
        0
176
     1
 62
    18
420
        0
176
     1
 90
       50
176
     1
 90
        3
176
     1
 62
     5
420
      255
176
     1
290
     0
176
     1
 90
       50
176
     1
 90
       50
176
     1
 90
       50
176
     1
290
     0
176
     1
 90
       50
176
     1
 62
   256
176
     0
 40
1.0
176
     0
 90
        2
176
     1
  1
strokes_ogs.tif
176
     1
290
     0
176
     1
 40
1.0
176
     1
 40
1.0
176
     1
  0
VISUALSTYLE
  5
40
102
{ACAD_REACTORS
330
2A
102
}
330
2A
100
AcDbVisualStyle
  2
X-Ray
 70
    25
177
     3
291
     0
 70
    58
 90
        2
176
     1
 90
        2
176
     1
 90
        1
176
     1
 90
        1
176
     1
 40
0.5
176
     1
 40
30.0
176
     1
 62
     7
420
 16777215
176
     1
 90
        1
176
     1
 90
        0
176
     1
 62
     7
176
     1
 62
   257
176
     1
 90
        1
176
     1
 90
        1
176
     1
 40
1.0
176
     1
 90
        8
176
     1
 62
     7
176
     1
 40
1.0
176
     1
 90
        1
176
     1
 90
        6
176
     1
 90
        2
176
     1
 62
     7
176
     1
 90
        3
176
     1
 90
        0
176
     1
 90
        0
176
     1
290
     0
176
     1
 90
       13
176
     1
 40
0.0
176
     1
 90
        0
176
     1
290
     0
176
     1
290
     1
176
     1
290
     1
176
     1
290
     0
176
     1
290
     0
176
     1
290
     0
176
     1
290
     0
176
     1
290
     0
176
     1
290
     0
176
     1
 90
       50
176
     1
 40
0.0
176
     1
 40
1.0
176
     1
 90
        0
176
     1
 62
    18
420
        0
176
     1
 90
       50
176
     1
 90
        3
176
     1
 62
     5
420
      255
176
     1
290
     0
176
     1
 90
       50
176
     1
 90
       50
176
     1
 90
       50
176
     1
290
     0
176
     1
 90
       50
176
     1
 62
   256
176
     0
 40
1.0
176
     0
 90
        2
176
     1
  1
strokes_ogs.tif
176
     1
290
     0
176
     1
 40
1.0
176
     1
 40
1.0
176
     1
  0
DICTIONARYVAR
  5
16A
102
{ACAD_REACTORS
330
169
102
}
330
169
100
DictionaryVariables
280
     0
  1
1:1
  0
DICTIONARYVAR
  5
16F
102
{ACAD_REACTORS
330
169
102
}
330
169
100
DictionaryVariables
280
     0
  1
Standard
  0
DICTIONARYVAR
  5
16E
102
{ACAD_REACTORS
330
169
102
}
330
169
100
DictionaryVariables
280
     0
  1
Standard
  0
DICTIONARY
  5
16B
330
6A
100
AcDbDictionary
280
     1
281
     1
  3
ACAD_ROUNDTRIP_2008_TABLESTYLE_CELLSTYLEMAP
360
16C
  0
CELLSTYLEMAP
  5
16C
102
{ACAD_REACTORS
330
16B
102
}
330
16B
100
AcDbCellStyleMap
 90
        3
300
CELLSTYLE
  1
TABLEFORMAT_BEGIN
 90
        5
170
     1
 91
        0
 92
    32768
 62
   257
 93
        1
300
CONTENTFORMAT
  1
CONTENTFORMAT_BEGIN
 90
        0
 91
        0
 92
        4
 93
        0
300

 40
0.0
140
1.0
 94
        5
 62
     0
340
11
144
0.25
309
CONTENTFORMAT_END
171
     1
301
MARGIN
  1
CELLMARGIN_BEGIN
 40
0.06
 40
0.06
 40
0.06
 40
0.06
 40
0.06
 40
0.06
309
CELLMARGIN_END
 94
        6
 95
        1
302
GRIDFORMAT
  1
GRIDFORMAT_BEGIN
 90
        0
 91
        1
 62
     0
 92
       -2
340
14
 93
        0
 40
0.045
309
GRIDFORMAT_END
 95
        2
302
GRIDFORMAT
  1
GRIDFORMAT_BEGIN
 90
        0
 91
        1
 62
     0
 92
       -2
340
14
 93
        0
 40
0.045
309
GRIDFORMAT_END
 95
        4
302
GRIDFORMAT
  1
GRIDFORMAT_BEGIN
 90
        0
 91
        1
 62
     0
 92
       -2
340
14
 93
        0
 40
0.045
309
GRIDFORMAT_END
 95
        8
302
GRIDFORMAT
  1
GRIDFORMAT_BEGIN
 90
        0
 91
        1
 62
     0
 92
       -2
340
14
 93
        0
 40
0.045
309
GRIDFORMAT_END
 95
       16
302
GRIDFORMAT
  1
GRIDFORMAT_BEGIN
 90
        0
 91
        1
 62
     0
 92
       -2
340
14
 93
        0
 40
0.045
309
GRIDFORMAT_END
 95
       32
302
GRIDFORMAT
  1
GRIDFORMAT_BEGIN
 90
        0
 91
        1
 62
     0
 92
       -2
340
14
 93
        0
 40
0.045
309
GRIDFORMAT_END
309
TABLEFORMAT_END
  1
CELLSTYLE_BEGIN
 90
        1
 91
        1
300
_TITLE
309
CELLSTYLE_END
300
CELLSTYLE
  1
TABLEFORMAT_BEGIN
 90
        5
170
     1
 91
        0
 92
        0
 62
   257
 93
        1
300
CONTENTFORMAT
  1
CONTENTFORMAT_BEGIN
 90
        0
 91
        0
 92
        4
 93
        0
300

 40
0.0
140
1.0
 94
        5
 62
     0
340
11
144
0.18
309
CONTENTFORMAT_END
171
     1
301
MARGIN
  1
CELLMARGIN_BEGIN
 40
0.06
 40
0.06
 40
0.06
 40
0.06
 40
0.06
 40
0.06
309
CELLMARGIN_END
 94
        6
 95
        1
302
GRIDFORMAT
  1
GRIDFORMAT_BEGIN
 90
        0
 91
        1
 62
     0
 92
       -2
340
14
 93
        0
 40
0.045
309
GRIDFORMAT_END
 95
        2
302
GRIDFORMAT
  1
GRIDFORMAT_BEGIN
 90
        0
 91
        1
 62
     0
 92
       -2
340
14
 93
        0
 40
0.045
309
GRIDFORMAT_END
 95
        4
302
GRIDFORMAT
  1
GRIDFORMAT_BEGIN
 90
        0
 91
        1
 62
     0
 92
       -2
340
14
 93
        0
 40
0.045
309
GRIDFORMAT_END
 95
        8
302
GRIDFORMAT
  1
GRIDFORMAT_BEGIN
 90
        0
 91
        1
 62
     0
 92
       -2
340
14
 93
        0
 40
0.045
309
GRIDFORMAT_END
 95
       16
302
GRIDFORMAT
  1
GRIDFORMAT_BEGIN
 90
        0
 91
        1
 62
     0
 92
       -2
340
14
 93
        0
 40
0.045
309
GRIDFORMAT_END
 95
       32
302
GRIDFORMAT
  1
GRIDFORMAT_BEGIN
 90
        0
 91
        1
 62
     0
 92
       -2
340
14
 93
        0
 40
0.045
309
GRIDFORMAT_END
309
TABLEFORMAT_END
  1
CELLSTYLE_BEGIN
 90
        2
 91
        1
300
_HEADER
309
CELLSTYLE_END
300
CELLSTYLE
  1
TABLEFORMAT_BEGIN
 90
        5
170
     1
 91
        0
 92
        0
 62
   257
 93
        1
300
CONTENTFORMAT
  1
CONTENTFORMAT_BEGIN
 90
        0
 91
        0
 92
        4
 93
        0
300

 40
0.0
140
1.0
 94
        2
 62
     0
340
11
144
0.18
309
CONTENTFORMAT_END
171
     1
301
MARGIN
  1
CELLMARGIN_BEGIN
 40
0.06
 40
0.06
 40
0.06
 40
0.06
 40
0.06
 40
0.06
309
CELLMARGIN_END
 94
        6
 95
        1
302
GRIDFORMAT
  1
GRIDFORMAT_BEGIN
 90
        0
 91
        1
 62
     0
 92
       -2
340
14
 93
        0
 40
0.045
309
GRIDFORMAT_END
 95
        2
302
GRIDFORMAT
  1
GRIDFORMAT_BEGIN
 90
        0
 91
        1
 62
     0
 92
       -2
340
14
 93
        0
 40
0.045
309
GRIDFORMAT_END
 95
        4
302
GRIDFORMAT
  1
GRIDFORMAT_BEGIN
 90
        0
 91
        1
 62
     0
 92
       -2
340
14
 93
        0
 40
0.045
309
GRIDFORMAT_END
 95
        8
302
GRIDFORMAT
  1
GRIDFORMAT_BEGIN
 90
        0
 91
        1
 62
     0
 92
       -2
340
14
 93
        0
 40
0.045
309
GRIDFORMAT_END
 95
       16
302
GRIDFORMAT
  1
GRIDFORMAT_BEGIN
 90
        0
 91
        1
 62
     0
 92
       -2
340
14
 93
        0
 40
0.045
309
GRIDFORMAT_END
 95
       32
302
GRIDFORMAT
  1
GRIDFORMAT_BEGIN
 90
        0
 91
        1
 62
     0
 92
       -2
340
14
 93
        0
 40
0.045
309
GRIDFORMAT_END
309
TABLEFORMAT_END
  1
CELLSTYLE_BEGIN
 90
        3
 91
        2
300
_DATA
309
CELLSTYLE_END
  0
ENDSEC
  0
EOF