0
SECTION
  2
HEADER
  9
$ACADVER
  1
AC1027
  9
$ACADMAINTVER
 70
     8
  9
$DWGCODEPAGE
  3
ANSI_1252
  9
$REQUIREDVERSIONS
160
                 0
  9
$COMMENTS
  1
File was created by Cadenas
  9
$CUSTOMPROPERTYTAG
  1
NN
  9
$CUSTOMPROPERTY
  1
Set Screw Two-Bolt Pillow Block Inch Bore - Stainless Housing, Corrosion Resistant Insert
  9
$CUSTOMPROPERTYTAG
  1
NT
  9
$CUSTOMPROPERTY
  1
SC Pillow Block Bearings -(Normal Duty) -Corrosion Resistant Insert -E-Z KLEEN
  9
$CUSTOMPROPERTYTAG
  1
NB
  9
$CUSTOMPROPERTY
  1
127674
  9
$CUSTOMPROPERTYTAG
  1
NBSYN
  9
$CUSTOMPROPERTY
  1
$PN.
  9
$CUSTOMPROPERTYTAG
  1
LINA
  9
$CUSTOMPROPERTY
  1
127674
  9
$CUSTOMPROPERTYTAG
  1
SERIES
  9
$CUSTOMPROPERTY
  1
206
  9
$CUSTOMPROPERTYTAG
  1
SS
  9
$CUSTOMPROPERTY
  1
1-1/4
  9
$CUSTOMPROPERTYTAG
  1
PN
  9
$CUSTOMPROPERTY
  1
127674
  9
$CUSTOMPROPERTYTAG
  1
DESCRIPTION
  9
$CUSTOMPROPERTY
  1
P2B-SCEZ-104S-SHCR
  9
$CUSTOMPROPERTYTAG
  1
WEIGHT
  9
$CUSTOMPROPERTY
  1
2.29
  9
$CUSTOMPROPERTYTAG
  1
A
  9
$CUSTOMPROPERTY
  1
1.52
  9
$CUSTOMPROPERTYTAG
  1
B
  9
$CUSTOMPROPERTY
  1
6.25
  9
$CUSTOMPROPERTYTAG
  1
C
  9
$CUSTOMPROPERTY
  1
1.25
  9
$CUSTOMPROPERTYTAG
  1
DMIN
  9
$CUSTOMPROPERTY
  1
4.26
  9
$CUSTOMPROPERTYTAG
  1
DMAX
  9
$CUSTOMPROPERTY
  1
5.00
  9
$CUSTOMPROPERTYTAG
  1
F
  9
$CUSTOMPROPERTY
  1
1/2
  9
$CUSTOMPROPERTYTAG
  1
G
  9
$CUSTOMPROPERTY
  1
0.93
  9
$CUSTOMPROPERTYTAG
  1
H
  9
$CUSTOMPROPERTY
  1
0.53
  9
$CUSTOMPROPERTYTAG
  1
J
  9
$CUSTOMPROPERTY
  1
3.13
  9
$CUSTOMPROPERTYTAG
  1
L
  9
$CUSTOMPROPERTY
  1
1.57
  9
$CUSTOMPROPERTYTAG
  1
M
  9
$CUSTOMPROPERTY
  1
1.63
  9
$CUSTOMPROPERTYTAG
  1
R
  9
$CUSTOMPROPERTY
  1
0.58
  9
$CUSTOMPROPERTYTAG
  1
S
  9
$CUSTOMPROPERTY
  1
0.94
  9
$CUSTOMPROPERTYTAG
  1
COMPANY
  9
$CUSTOMPROPERTY
  1
baldor
  9
$INSBASE
 10
0.0
 20
0.0
 30
0.0
  9
$EXTMIN
 10
1.000000000000000E+20
 20
1.000000000000000E+20
 30
1.000000000000000E+20
  9
$EXTMAX
 10
-1.000000000000000E+20
 20
-1.000000000000000E+20
 30
-1.000000000000000E+20
  9
$LIMMIN
 10
0.0
 20
0.0
  9
$LIMMAX
 10
12.0
 20
9.0
  9
$ORTHOMODE
 70
     0
  9
$REGENMODE
 70
     1
  9
$FILLMODE
 70
     1
  9
$QTEXTMODE
 70
     0
  9
$MIRRTEXT
 70
     1
  9
$LTSCALE
 40
1.0
  9
$ATTMODE
 70
     1
  9
$TEXTSIZE
 40
0.2
  9
$TRACEWID
 40
0.05
  9
$TEXTSTYLE
  7
Standard
  9
$CLAYER
  8
0
  9
$CELTYPE
  6
ByLayer
  9
$CECOLOR
 62
   256
  9
$CELTSCALE
 40
1.0
  9
$DISPSILH
 70
     0
  9
$DIMSCALE
 40
1.0
  9
$DIMASZ
 40
0.18
  9
$DIMEXO
 40
0.0625
  9
$DIMDLI
 40
0.38
  9
$DIMRND
 40
0.0
  9
$DIMDLE
 40
0.0
  9
$DIMEXE
 40
0.18
  9
$DIMTP
 40
0.0
  9
$DIMTM
 40
0.0
  9
$DIMTXT
 40
0.18
  9
$DIMCEN
 40
0.09
  9
$DIMTSZ
 40
0.0
  9
$DIMTOL
 70
     0
  9
$DIMLIM
 70
     0
  9
$DIMTIH
 70
     1
  9
$DIMTOH
 70
     1
  9
$DIMSE1
 70
     0
  9
$DIMSE2
 70
     0
  9
$DIMTAD
 70
     0
  9
$DIMZIN
 70
     0
  9
$DIMBLK
  1

  9
$DIMASO
 70
     1
  9
$DIMSHO
 70
     1
  9
$DIMPOST
  1

  9
$DIMAPOST
  1

  9
$DIMALT
 70
     0
  9
$DIMALTD
 70
     2
  9
$DIMALTF
 40
25.4
  9
$DIMLFAC
 40
1.0
  9
$DIMTOFL
 70
     0
  9
$DIMTVP
 40
0.0
  9
$DIMTIX
 70
     0
  9
$DIMSOXD
 70
     0
  9
$DIMSAH
 70
     0
  9
$DIMBLK1
  1

  9
$DIMBLK2
  1

  9
$DIMSTYLE
  2
Standard
  9
$DIMCLRD
 70
     0
  9
$DIMCLRE
 70
     0
  9
$DIMCLRT
 70
     0
  9
$DIMTFAC
 40
1.0
  9
$DIMGAP
 40
0.09
  9
$DIMJUST
 70
     0
  9
$DIMSD1
 70
     0
  9
$DIMSD2
 70
     0
  9
$DIMTOLJ
 70
     1
  9
$DIMTZIN
 70
     0
  9
$DIMALTZ
 70
     0
  9
$DIMALTTZ
 70
     0
  9
$DIMUPT
 70
     0
  9
$DIMDEC
 70
     4
  9
$DIMTDEC
 70
     4
  9
$DIMALTU
 70
     2
  9
$DIMALTTD
 70
     2
  9
$DIMTXSTY
  7
Standard
  9
$DIMAUNIT
 70
     0
  9
$DIMADEC
 70
     0
  9
$DIMALTRND
 40
0.0
  9
$DIMAZIN
 70
     0
  9
$DIMDSEP
 70
    46
  9
$DIMATFIT
 70
     3
  9
$DIMFRAC
 70
     0
  9
$DIMLDRBLK
  1

  9
$DIMLUNIT
 70
     2
  9
$DIMLWD
 70
    -2
  9
$DIMLWE
 70
    -2
  9
$DIMTMOVE
 70
     0
  9
$DIMFXL
 40
1.0
  9
$DIMFXLON
 70
     0
  9
$DIMJOGANG
 40
0.7853981633974483
  9
$DIMTFILL
 70
     0
  9
$DIMTFILLCLR
 70
     0
  9
$DIMARCSYM
 70
     0
  9
$DIMLTYPE
  6

  9
$DIMLTEX1
  6

  9
$DIMLTEX2
  6

  9
$DIMTXTDIRECTION
 70
     0
  9
$LUNITS
 70
     2
  9
$LUPREC
 70
     4
  9
$SKETCHINC
 40
0.1
  9
$FILLETRAD
 40
0.5
  9
$AUNITS
 70
     0
  9
$AUPREC
 70
     0
  9
$MENU
  1
.
  9
$ELEVATION
 40
0.0
  9
$PELEVATION
 40
0.0
  9
$THICKNESS
 40
0.0
  9
$LIMCHECK
 70
     0
  9
$CHAMFERA
 40
0.0
  9
$CHAMFERB
 40
0.0
  9
$CHAMFERC
 40
0.0
  9
$CHAMFERD
 40
0.0
  9
$SKPOLY
 70
     0
  9
$TDCREATE
 40
2458168.99622287
  9
$TDUCREATE
 40
2458168.954556204
  9
$TDUPDATE
 40
2458168.996223056
  9
$TDUUPDATE
 40
2458168.954556389
  9
$TDINDWG
 40
0.0000000116
  9
$TDUSRTIMER
 40
0.0000000116
  9
$USRTIMER
 70
     1
  9
$ANGBASE
 50
0.0
  9
$ANGDIR
 70
     0
  9
$PDMODE
 70
     0
  9
$PDSIZE
 40
0.0
  9
$PLINEWID
 40
0.0
  9
$SPLFRAME
 70
     0
  9
$SPLINETYPE
 70
     6
  9
$SPLINESEGS
 70
     8
  9
$HANDSEED
  5
188
  9
$SURFTAB1
 70
     6
  9
$SURFTAB2
 70
     6
  9
$SURFTYPE
 70
     6
  9
$SURFU
 70
     6
  9
$SURFV
 70
     6
  9
$UCSBASE
  2

  9
$UCSNAME
  2

  9
$UCSORG
 10
0.0
 20
0.0
 30
0.0
  9
$UCSXDIR
 10
1.0
 20
0.0
 30
0.0
  9
$UCSYDIR
 10
0.0
 20
1.0
 30
0.0
  9
$UCSORTHOREF
  2

  9
$UCSORTHOVIEW
 70
     0
  9
$UCSORGTOP
 10
0.0
 20
0.0
 30
0.0
  9
$UCSORGBOTTOM
 10
0.0
 20
0.0
 30
0.0
  9
$UCSORGLEFT
 10
0.0
 20
0.0
 30
0.0
  9
$UCSORGRIGHT
 10
0.0
 20
0.0
 30
0.0
  9
$UCSORGFRONT
 10
0.0
 20
0.0
 30
0.0
  9
$UCSORGBACK
 10
0.0
 20
0.0
 30
0.0
  9
$PUCSBASE
  2

  9
$PUCSNAME
  2

  9
$PUCSORG
 10
0.0
 20
0.0
 30
0.0
  9
$PUCSXDIR
 10
1.0
 20
0.0
 30
0.0
  9
$PUCSYDIR
 10
0.0
 20
1.0
 30
0.0
  9
$PUCSORTHOREF
  2

  9
$PUCSORTHOVIEW
 70
     0
  9
$PUCSORGTOP
 10
0.0
 20
0.0
 30
0.0
  9
$PUCSORGBOTTOM
 10
0.0
 20
0.0
 30
0.0
  9
$PUCSORGLEFT
 10
0.0
 20
0.0
 30
0.0
  9
$PUCSORGRIGHT
 10
0.0
 20
0.0
 30
0.0
  9
$PUCSORGFRONT
 10
0.0
 20
0.0
 30
0.0
  9
$PUCSORGBACK
 10
0.0
 20
0.0
 30
0.0
  9
$USERI1
 70
     0
  9
$USERI2
 70
     0
  9
$USERI3
 70
     0
  9
$USERI4
 70
     0
  9
$USERI5
 70
     0
  9
$USERR1
 40
0.0
  9
$USERR2
 40
0.0
  9
$USERR3
 40
0.0
  9
$USERR4
 40
0.0
  9
$USERR5
 40
0.0
  9
$WORLDVIEW
 70
     1
  9
$SHADEDGE
 70
     3
  9
$SHADEDIF
 70
    70
  9
$TILEMODE
 70
     1
  9
$MAXACTVP
 70
    64
  9
$PINSBASE
 10
0.0
 20
0.0
 30
0.0
  9
$PLIMCHECK
 70
     0
  9
$PEXTMIN
 10
1.000000000000000E+20
 20
1.000000000000000E+20
 30
1.000000000000000E+20
  9
$PEXTMAX
 10
-1.000000000000000E+20
 20
-1.000000000000000E+20
 30
-1.000000000000000E+20
  9
$PLIMMIN
 10
0.0
 20
0.0
  9
$PLIMMAX
 10
12.0
 20
9.0
  9
$UNITMODE
 70
     0
  9
$VISRETAIN
 70
     1
  9
$PLINEGEN
 70
     0
  9
$PSLTSCALE
 70
     1
  9
$TREEDEPTH
 70
  3020
  9
$CMLSTYLE
  2
Standard
  9
$CMLJUST
 70
     0
  9
$CMLSCALE
 40
1.0
  9
$PROXYGRAPHICS
 70
     1
  9
$MEASUREMENT
 70
     0
  9
$CELWEIGHT
370
    -1
  9
$ENDCAPS
280
     0
  9
$JOINSTYLE
280
     0
  9
$LWDISPLAY
290
     0
  9
$INSUNITS
 70
     1
  9
$HYPERLINKBASE
  1

  9
$STYLESHEET
  1

  9
$XEDIT
290
     1
  9
$CEPSNTYPE
380
     0
  9
$PSTYLEMODE
290
     1
  9
$FINGERPRINTGUID
  2
{05A13CFB-D15C-4AE4-8F6D-5029CB152002}
  9
$VERSIONGUID
  2
{FAEB1C32-E019-11D5-929B-00C0DF256EC4}
  9
$EXTNAMES
290
     1
  9
$PSVPSCALE
 40
0.0
  9
$OLESTARTUP
290
     0
  9
$SORTENTS
280
   127
  9
$INDEXCTL
280
     0
  9
$HIDETEXT
280
     1
  9
$XCLIPFRAME
280
     2
  9
$HALOGAP
280
     0
  9
$OBSCOLOR
 70
   257
  9
$OBSLTYPE
280
     0
  9
$INTERSECTIONDISPLAY
280
     0
  9
$INTERSECTIONCOLOR
 70
   257
  9
$DIMASSOC
280
     2
  9
$PROJECTNAME
  1

  9
$CAMERADISPLAY
290
     0
  9
$LENSLENGTH
 40
50.0
  9
$CAMERAHEIGHT
 40
0.0
  9
$STEPSPERSEC
 40
2.0
  9
$STEPSIZE
 40
6.0
  9
$3DDWFPREC
 40
2.0
  9
$PSOLWIDTH
 40
0.25
  9
$PSOLHEIGHT
 40
4.0
  9
$LOFTANG1
 40
1.570796326794897
  9
$LOFTANG2
 40
1.570796326794897
  9
$LOFTMAG1
 40
0.0
  9
$LOFTMAG2
 40
0.0
  9
$LOFTPARAM
 70
     7
  9
$LOFTNORMALS
280
     1
  9
$LATITUDE
 40
37.795
  9
$LONGITUDE
 40
-122.394
  9
$NORTHDIRECTION
 40
0.0
  9
$TIMEZONE
 70
 -8000
  9
$LIGHTGLYPHDISPLAY
280
     1
  9
$TILEMODELIGHTSYNCH
280
     1
  9
$CMATERIAL
347
44
  9
$SOLIDHIST
280
     0
  9
$SHOWHIST
280
     1
  9
$DWFFRAME
280
     2
  9
$DGNFRAME
280
     2
  9
$REALWORLDSCALE
290
     1
  9
$INTERFERECOLOR
 62
   256
  9
$CSHADOW
280
     0
  9
$SHADOWPLANELOCATION
 40
0.0
  0
ENDSEC
  0
SECTION
  2
CLASSES
  0
CLASS
  1
ACDBDICTIONARYWDFLT
  2
AcDbDictionaryWithDefault
  3
ObjectDBX Classes
 90
        0
 91
        4
280
     0
281
     0
  0
CLASS
  1
VISUALSTYLE
  2
AcDbVisualStyle
  3
ObjectDBX Classes
 90
     4095
 91
        4
280
     0
281
     0
  0
CLASS
  1
MATERIAL
  2
AcDbMaterial
  3
ObjectDBX Classes
 90
     1153
 91
        4
280
     0
281
     0
  0
CLASS
  1
SCALE
  2
AcDbScale
  3
ObjectDBX Classes
 90
     1153
 91
        4
280
     0
281
     0
  0
CLASS
  1
TABLESTYLE
  2
AcDbTableStyle
  3
ObjectDBX Classes
 90
     4095
 91
        4
280
     0
281
     0
  0
CLASS
  1
MLEADERSTYLE
  2
AcDbMLeaderStyle
  3
ACDB_MLEADERSTYLE_CLASS
 90
     4095
 91
        4
280
     0
281
     0
  0
CLASS
  1
SUN
  2
AcDbSun
  3
SCENEOE
 90
     1153
 91
        4
280
     0
281
     0
  0
CLASS
  1
DICTIONARYVAR
  2
AcDbDictionaryVar
  3
ObjectDBX Classes
 90
        0
 91
        4
280
     0
281
     0
  0
CLASS
  1
CELLSTYLEMAP
  2
AcDbCellStyleMap
  3
ObjectDBX Classes
 90
     1152
 91
        4
280
     0
281
     0
  0
ENDSEC
  0
SECTION
  2
TABLES
  0
TABLE
  2
VPORT
  5
8
330
0
100
AcDbSymbolTable
 70
     1
  0
VPORT
  5
29
330
8
100
AcDbSymbolTableRecord
100
AcDbViewportTableRecord
  2
*Active
 70
     0
 10
0.0
 20
0.0
 11
1.0
 21
1.0
 12
-0.1642499999999991
 22
-0.0649999999999995
 13
0.0
 23
0.0
 14
0.5
 24
0.5
 15
0.5
 25
0.5
 16
0.0
 26
0.0
 36
1.0
 17
0.0
 27
0.0
 37
0.0
 40
3.1926
 41
0.5442492012779548
 42
50.0
 43
0.0
 44
0.0
 50
0.0
 51
0.0
 71
     0
 72
   100
 73
     1
 74
     3
 75
     0
 76
     0
 77
     0
 78
     0
281
     0
 65
     1
110
0.0
120
0.0
130
0.0
111
1.0
121
0.0
131
0.0
112
0.0
122
1.0
132
0.0
 79
     0
146
0.0
348
2F
 60
     3
 61
     5
292
     1
282
     1
141
0.0
142
0.0
 63
   250
361
6D
  0
ENDTAB
  0
TABLE
  2
LTYPE
  5
5
330
0
100
AcDbSymbolTable
 70
     3
  0
LTYPE
  5
14
330
5
100
AcDbSymbolTableRecord
100
AcDbLinetypeTableRecord
  2
ByBlock
 70
     0
  3

 72
    65
 73
     0
 40
0.0
  0
LTYPE
  5
15
330
5
100
AcDbSymbolTableRecord
100
AcDbLinetypeTableRecord
  2
ByLayer
 70
     0
  3

 72
    65
 73
     0
 40
0.0
  0
LTYPE
  5
16
330
5
100
AcDbSymbolTableRecord
100
AcDbLinetypeTableRecord
  2
Continuous
 70
     0
  3
Solid line
 72
    65
 73
     0
 40
0.0
  0
LTYPE
  5
9D
330
5
100
AcDbSymbolTableRecord
100
AcDbLinetypeTableRecord
  2
Dashed
 70
     0
  3

 72
    65
 73
     2
 40
2.0
 49
1.0
 74
     0
 49
-1.0
 74
     0
  0
LTYPE
  5
12A
330
5
100
AcDbSymbolTableRecord
100
AcDbLinetypeTableRecord
  2
Center
 70
     0
  3

 72
    65
 73
     4
 40
1.5
 49
0.45
 74
     0
 49
-0.5
 74
     0
 49
0.05
 74
     0
 49
-0.5
 74
     0
  0
ENDTAB
  0
TABLE
  2
LAYER
  5
2
330
0
100
AcDbSymbolTable
 70
     7
  0
LAYER
  5
10
330
2
100
AcDbSymbolTableRecord
100
AcDbLayerTableRecord
  2
0
 70
     0
 62
     7
  6
Continuous
370
    -3
390
F
347
46
348
0
  0
LAYER
  5
72
330
2
100
AcDbSymbolTableRecord
100
AcDbLayerTableRecord
  2
AM_6
 70
     0
 62
    -2
  6
Continuous
370
    35
390
F
347
46
348
0
  0
LAYER
  5
9E
330
2
100
AcDbSymbolTableRecord
100
AcDbLayerTableRecord
  2
AM_9
 70
     0
 62
     6
  6
Dashed
370
    25
390
F
347
46
348
0
  0
LAYER
  5
BC
330
2
100
AcDbSymbolTableRecord
100
AcDbLayerTableRecord
  2
AM_4
 70
     0
 62
     7
  6
Continuous
370
    50
390
F
347
46
348
0
  0
LAYER
  5
127
330
2
100
AcDbSymbolTableRecord
100
AcDbLayerTableRecord
  2
AM_5
 70
     0
 62
     3
  6
Continuous
370
    25
390
F
347
46
348
0
  0
LAYER
  5
12B
330
2
100
AcDbSymbolTableRecord
100
AcDbLayerTableRecord
  2
AM_7
 70
     0
 62
     7
  6
Center
370
    25
390
F
347
46
348
0
  0
LAYER
  5
17A
330
2
100
AcDbSymbolTableRecord
100
AcDbLayerTableRecord
  2
ConnectionPoints
 70
     0
 62
     7
  6
Continuous
370
    50
390
F
347
46
348
0
  0
ENDTAB
  0
TABLE
  2
STYLE
  5
3
330
0
100
AcDbSymbolTable
 70
     1
  0
STYLE
  5
11
330
3
100
AcDbSymbolTableRecord
100
AcDbTextStyleTableRecord
  2
Standard
 70
     0
 40
0.0
 41
1.0
 50
0.0
 71
     0
 42
0.2
  3
txt
  4

  0
ENDTAB
  0
TABLE
  2
VIEW
  5
6
330
0
100
AcDbSymbolTable
 70
     0
  0
ENDTAB
  0
TABLE
  2
UCS
  5
7
330
0
100
AcDbSymbolTable
 70
     0
  0
ENDTAB
  0
TABLE
  2
APPID
  5
9
330
0
100
AcDbSymbolTable
 70
     1
  0
APPID
  5
12
330
9
100
AcDbSymbolTableRecord
100
AcDbRegAppTableRecord
  2
ACAD
 70
     0
  0
ENDTAB
  0
TABLE
  2
DIMSTYLE
  5
A
330
0
100
AcDbSymbolTable
 70
     1
100
AcDbDimStyleTable
  0
DIMSTYLE
105
27
330
A
100
AcDbSymbolTableRecord
100
AcDbDimStyleTableRecord
  2
Standard
 70
     0
178
     0
340
11
  0
ENDTAB
  0
TABLE
  2
BLOCK_RECORD
  5
1
330
0
100
AcDbSymbolTable
 70
     5
  0
BLOCK_RECORD
  5
1F
330
1
100
AcDbSymbolTableRecord
100
AcDbBlockTableRecord
  2
*Model_Space
340
22
 70
     0
280
     1
281
     0
  0
BLOCK_RECORD
  5
1B
330
1
100
AcDbSymbolTableRecord
100
AcDbBlockTableRecord
  2
*Paper_Space
340
1E
 70
     0
280
     1
281
     0
  0
BLOCK_RECORD
  5
23
330
1
100
AcDbSymbolTableRecord
100
AcDbBlockTableRecord
  2
*Paper_Space0
340
26
 70
     0
280
     1
281
     0
  0
BLOCK_RECORD
  5
6E
330
1
100
AcDbSymbolTableRecord
100
AcDbBlockTableRecord
  2
1_127674_2
340
0
102
{BLKREFS
331
6F
102
}
 70
     0
280
     1
281
     0
  0
BLOCK_RECORD
  5
8B
330
1
100
AcDbSymbolTableRecord
100
AcDbBlockTableRecord
  2
2_405020c_Inch_0_in_127674_2
340
0
102
{BLKREFS
331
8C
102
}
 70
     0
280
     1
281
     0
  0
BLOCK_RECORD
  5
DA
330
1
100
AcDbSymbolTableRecord
100
AcDbBlockTableRecord
  2
3_045603_0_in_127674_2
340
0
102
{BLKREFS
331
DB
102
}
 70
     0
280
     1
281
     0
  0
BLOCK_RECORD
  5
13F
330
1
100
AcDbSymbolTableRecord
100
AcDbBlockTableRecord
  2
4_127674H_0_in_127674_2
340
0
102
{BLKREFS
331
140
102
}
 70
     0
280
     1
281
     0
  0
ENDTAB
  0
ENDSEC
  0
SECTION
  2
BLOCKS
  0
BLOCK
  5
20
330
1F
100
AcDbEntity
  8
0
100
AcDbBlockBegin
  2
*Model_Space
 70
     0
 10
0.0
 20
0.0
 30
0.0
  3
*Model_Space
  1

  0
ENDBLK
  5
21
330
1F
100
AcDbEntity
  8
0
100
AcDbBlockEnd
  0
BLOCK
  5
1C
330
1B
100
AcDbEntity
 67
     1
  8
0
100
AcDbBlockBegin
  2
*Paper_Space
 70
     0
 10
0.0
 20
0.0
 30
0.0
  3
*Paper_Space
  1

  0
ENDBLK
  5
1D
330
1B
100
AcDbEntity
 67
     1
  8
0
100
AcDbBlockEnd
  0
BLOCK
  5
24
330
23
100
AcDbEntity
  8
0
100
AcDbBlockBegin
  2
*Paper_Space0
 70
     0
 10
0.0
 20
0.0
 30
0.0
  3
*Paper_Space0
  1

  0
ENDBLK
  5
25
330
23
100
AcDbEntity
  8
0
100
AcDbBlockEnd
  0
BLOCK
  5
70
330
6E
100
AcDbEntity
  8
0
100
AcDbBlockBegin
  2
1_127674_2
 70
     2
 10
0.0
 20
0.0
 30
0.0
  3
1_127674_2
  1

  0
ATTDEF
  5
73
330
6E
100
AcDbEntity
  8
AM_6
100
AcDbText
 10
5.6875
 20
1.5
 30
0.0
 40
0.5
  1
Set Screw Two-Bolt Pillow Block Inch Bore - Stainless Housing, Corrosion Resistant Insert
100
AcDbAttributeDefinition
  3

  2
NN
 70
     8
280
     0
  0
ATTDEF
  5
74
330
6E
100
AcDbEntity
  8
AM_6
100
AcDbText
 10
5.6875
 20
1.0
 30
0.0
 40
0.5
  1
SC Pillow Block Bearings -(Normal Duty) -Corrosion Resistant Insert -E-Z KLEEN
100
AcDbAttributeDefinition
  3

  2
NT
 70
     8
280
     0
  0
ATTDEF
  5
75
330
6E
100
AcDbEntity
  8
AM_6
100
AcDbText
 10
5.6875
 20
0.5000000000000002
 30
0.0
 40
0.5
  1
127674
100
AcDbAttributeDefinition
  3

  2
NB
 70
     8
280
     0
  0
ATTDEF
  5
76
330
6E
100
AcDbEntity
  8
AM_6
100
AcDbText
 10
5.6875
 20
0.0000000000000002
 30
0.0
 40
0.5
  1
$PN.
100
AcDbAttributeDefinition
  3

  2
NBSYN
 70
     8
280
     0
  0
ATTDEF
  5
77
330
6E
100
AcDbEntity
  8
AM_6
100
AcDbText
 10
5.6875
 20
-0.4999999999999998
 30
0.0
 40
0.5
  1
127674
100
AcDbAttributeDefinition
  3

  2
LINA
 70
     8
280
     0
  0
ATTDEF
  5
78
330
6E
100
AcDbEntity
  8
AM_6
100
AcDbText
 10
5.6875
 20
-0.9999999999999998
 30
0.0
 40
0.5
  1
206
100
AcDbAttributeDefinition
  3

  2
SERIES
 70
     8
280
     0
  0
ATTDEF
  5
79
330
6E
100
AcDbEntity
  8
AM_6
100
AcDbText
 10
5.6875
 20
-1.5
 30
0.0
 40
0.5
  1
1-1/4
100
AcDbAttributeDefinition
  3

  2
SS
 70
     8
280
     0
  0
ATTDEF
  5
7A
330
6E
100
AcDbEntity
  8
AM_6
100
AcDbText
 10
5.6875
 20
-2.0
 30
0.0
 40
0.5
  1
127674
100
AcDbAttributeDefinition
  3

  2
PN
 70
     8
280
     0
  0
ATTDEF
  5
7B
330
6E
100
AcDbEntity
  8
AM_6
100
AcDbText
 10
5.6875
 20
-2.5
 30
0.0
 40
0.5
  1
P2B-SCEZ-104S-SHCR
100
AcDbAttributeDefinition
  3

  2
DESCRIPTION
 70
     8
280
     0
  0
ATTDEF
  5
7C
330
6E
100
AcDbEntity
  8
AM_6
100
AcDbText
 10
5.6875
 20
-3.0
 30
0.0
 40
0.5
  1
2.29
100
AcDbAttributeDefinition
  3

  2
WEIGHT
 70
     8
280
     0
  0
ATTDEF
  5
7D
330
6E
100
AcDbEntity
  8
AM_6
100
AcDbText
 10
5.6875
 20
-3.5
 30
0.0
 40
0.5
  1
1.52
100
AcDbAttributeDefinition
  3

  2
A
 70
     8
280
     0
  0
ATTDEF
  5
7E
330
6E
100
AcDbEntity
  8
AM_6
100
AcDbText
 10
5.6875
 20
-4.0
 30
0.0
 40
0.5
  1
6.25
100
AcDbAttributeDefinition
  3

  2
B
 70
     8
280
     0
  0
ATTDEF
  5
7F
330
6E
100
AcDbEntity
  8
AM_6
100
AcDbText
 10
5.6875
 20
-4.5
 30
0.0
 40
0.5
  1
1.25
100
AcDbAttributeDefinition
  3

  2
C
 70
     8
280
     0
  0
ATTDEF
  5
80
330
6E
100
AcDbEntity
  8
AM_6
100
AcDbText
 10
5.6875
 20
-5.0
 30
0.0
 40
0.5
  1
4.26
100
AcDbAttributeDefinition
  3

  2
DMIN
 70
     8
280
     0
  0
ATTDEF
  5
81
330
6E
100
AcDbEntity
  8
AM_6
100
AcDbText
 10
5.6875
 20
-5.5
 30
0.0
 40
0.5
  1
5.00
100
AcDbAttributeDefinition
  3

  2
DMAX
 70
     8
280
     0
  0
ATTDEF
  5
82
330
6E
100
AcDbEntity
  8
AM_6
100
AcDbText
 10
5.6875
 20
-6.0
 30
0.0
 40
0.5
  1
1/2
100
AcDbAttributeDefinition
  3

  2
F
 70
     8
280
     0
  0
ATTDEF
  5
83
330
6E
100
AcDbEntity
  8
AM_6
100
AcDbText
 10
5.6875
 20
-6.5
 30
0.0
 40
0.5
  1
0.93
100
AcDbAttributeDefinition
  3

  2
G
 70
     8
280
     0
  0
ATTDEF
  5
84
330
6E
100
AcDbEntity
  8
AM_6
100
AcDbText
 10
5.6875
 20
-7.0
 30
0.0
 40
0.5
  1
0.53
100
AcDbAttributeDefinition
  3

  2
H
 70
     8
280
     0
  0
ATTDEF
  5
85
330
6E
100
AcDbEntity
  8
AM_6
100
AcDbText
 10
5.6875
 20
-7.5
 30
0.0
 40
0.5
  1
3.13
100
AcDbAttributeDefinition
  3

  2
J
 70
     8
280
     0
  0
ATTDEF
  5
86
330
6E
100
AcDbEntity
  8
AM_6
100
AcDbText
 10
5.6875
 20
-8.0
 30
0.0
 40
0.5
  1
1.57
100
AcDbAttributeDefinition
  3

  2
L
 70
     8
280
     0
  0
ATTDEF
  5
87
330
6E
100
AcDbEntity
  8
AM_6
100
AcDbText
 10
5.6875
 20
-8.5
 30
0.0
 40
0.5
  1
1.63
100
AcDbAttributeDefinition
  3

  2
M
 70
     8
280
     0
  0
ATTDEF
  5
88
330
6E
100
AcDbEntity
  8
AM_6
100
AcDbText
 10
5.6875
 20
-9.0
 30
0.0
 40
0.5
  1
0.58
100
AcDbAttributeDefinition
  3

  2
R
 70
     8
280
     0
  0
ATTDEF
  5
89
330
6E
100
AcDbEntity
  8
AM_6
100
AcDbText
 10
5.6875
 20
-9.5
 30
0.0
 40
0.5
  1
0.94
100
AcDbAttributeDefinition
  3

  2
S
 70
     8
280
     0
  0
ATTDEF
  5
8A
330
6E
100
AcDbEntity
  8
AM_6
100
AcDbText
 10
5.6875
 20
-10.0
 30
0.0
 40
0.5
  1
baldor
100
AcDbAttributeDefinition
  3

  2
COMPANY
 70
     8
280
     0
  0
INSERT
  5
8C
330
6E
100
AcDbEntity
  8
0
100
AcDbBlockReference
  2
2_405020c_Inch_0_in_127674_2
 10
0.0
 20
0.0
 30
0.0
  0
INSERT
  5
DB
330
6E
100
AcDbEntity
  8
0
100
AcDbBlockReference
  2
3_045603_0_in_127674_2
 10
0.0
 20
0.0
 30
0.0
  0
INSERT
  5
140
330
6E
100
AcDbEntity
  8
0
100
AcDbBlockReference
  2
4_127674H_0_in_127674_2
 10
0.0
 20
0.0
 30
0.0
  0
ENDBLK
  5
71
330
6E
100
AcDbEntity
  8
0
100
AcDbBlockEnd
  0
BLOCK
  5
8D
330
8B
100
AcDbEntity
  8
0
100
AcDbBlockBegin
  2
2_405020c_Inch_0_in_127674_2
 70
     2
 10
0.0
 20
0.0
 30
0.0
  3
2_405020c_Inch_0_in_127674_2
  1

  0
ATTDEF
  5
8F
330
8B
100
AcDbEntity
  8
AM_6
100
AcDbText
 10
5.0544
 20
1.369073116175689
 30
0.0
 40
0.5
  1
405020C -Inch
100
AcDbAttributeDefinition
  3

  2
NN
 70
     8
280
     0
  0
ATTDEF
  5
90
330
8B
100
AcDbEntity
  8
AM_6
100
AcDbText
 10
5.0544
 20
0.8690731161756888
 30
0.0
 40
0.5
  1
Grease fitting
100
AcDbAttributeDefinition
  3

  2
NT
 70
     8
280
     0
  0
ATTDEF
  5
91
330
8B
100
AcDbEntity
  8
AM_6
100
AcDbText
 10
5.0544
 20
0.3690731161756888
 30
0.0
 40
0.5
  1
405020c-Inch
100
AcDbAttributeDefinition
  3

  2
NB
 70
     8
280
     0
  0
ATTDEF
  5
92
330
8B
100
AcDbEntity
  8
AM_6
100
AcDbText
 10
5.0544
 20
-0.1309268838243112
 30
0.0
 40
0.5
  1
$MN.-Inch
100
AcDbAttributeDefinition
  3

  2
NBSYN
 70
     8
280
     0
  0
ATTDEF
  5
93
330
8B
100
AcDbEntity
  8
AM_6
100
AcDbText
 10
5.0544
 20
-0.6309268838243112
 30
0.0
 40
0.5
  1
405020c
100
AcDbAttributeDefinition
  3

  2
LINA
 70
     8
280
     0
  0
ATTDEF
  5
94
330
8B
100
AcDbEntity
  8
AM_6
100
AcDbText
 10
5.0544
 20
-1.130926883824311
 30
0.0
 40
0.5
  1
405020c
100
AcDbAttributeDefinition
  3

  2
MN
 70
     8
280
     0
  0
ATTDEF
  5
95
330
8B
100
AcDbEntity
  8
AM_6
100
AcDbText
 10
5.0544
 20
-1.630926883824311
 30
0.0
 40
0.5
  1
0.230
100
AcDbAttributeDefinition
  3

  2
NDR
 70
     8
280
     0
  0
ATTDEF
  5
96
330
8B
100
AcDbEntity
  8
AM_6
100
AcDbText
 10
5.0544
 20
-2.130926883824311
 30
0.0
 40
0.5
  1
0.210
100
AcDbAttributeDefinition
  3

  2
KDR
 70
     8
280
     0
  0
ATTDEF
  5
97
330
8B
100
AcDbEntity
  8
AM_6
100
AcDbText
 10
5.0544
 20
-2.630926883824311
 30
0.0
 40
0.5
  1
0.157
100
AcDbAttributeDefinition
  3

  2
BZE
 70
     8
280
     0
  0
ATTDEF
  5
98
330
8B
100
AcDbEntity
  8
AM_6
100
AcDbText
 10
5.0544
 20
-3.130926883824311
 30
0.0
 40
0.5
  1
9/32
100
AcDbAttributeDefinition
  3

  2
WAF
 70
     8
280
     0
  0
ATTDEF
  5
99
330
8B
100
AcDbEntity
  8
AM_6
100
AcDbText
 10
5.0544
 20
-3.630926883824311
 30
0.0
 40
0.5
  1
0.2813
100
AcDbAttributeDefinition
  3

  2
WAF1
 70
     8
280
     0
  0
ATTDEF
  5
9A
330
8B
100
AcDbEntity
  8
AM_6
100
AcDbText
 10
5.0544
 20
-4.130926883824311
 30
0.0
 40
0.5
  1
0.545
100
AcDbAttributeDefinition
  3

  2
BL
 70
     8
280
     0
  0
ATTDEF
  5
9B
330
8B
100
AcDbEntity
  8
AM_6
100
AcDbText
 10
5.0544
 20
-4.630926883824311
 30
0.0
 40
0.5
  1
0.200
100
AcDbAttributeDefinition
  3

  2
TL
 70
     8
280
     0
  0
ATTDEF
  5
9C
330
8B
100
AcDbEntity
  8
AM_6
100
AcDbText
 10
5.0544
 20
-5.130926883824311
 30
0.0
 40
0.5
  1
baldor
100
AcDbAttributeDefinition
  3

  2
COMPANY
 70
     8
280
     0
  0
LWPOLYLINE
  5
9F
330
8B
100
AcDbEntity
  8
AM_9
100
AcDbPolyline
 90
        3
 70
     0
 43
0.0
 10
-0.156575
 20
1.146790354860435
 10
-0.1214124999999999
 20
1.162233534648784
 10
-0.0862499999999999
 20
1.179622995167951
  0
LWPOLYLINE
  5
A0
330
8B
100
AcDbEntity
  8
AM_9
100
AcDbPolyline
 90
        3
 70
     0
 43
0.0
 10
-0.0862499999999999
 20
1.179622995167951
 10
-0.051245600068301
 20
1.162307691914343
 10
-0.015925
 20
1.146790354860435
  0
ELLIPSE
  5
A1
330
8B
100
AcDbEntity
  8
AM_9
100
AcDbEllipse
 10
-0.0862499999999999
 20
0.9192388155425117
 30
0.0
 11
0.1000886227036577
 21
0.0
 31
0.0
210
0.0
220
0.0
230
1.0
 40
0.7071067811865474
 41
0.0
 42
6.283185307179586
  0
LWPOLYLINE
  5
A2
330
8B
100
AcDbEntity
  8
AM_9
100
AcDbPolyline
 90
        3
 70
     0
 43
0.0
 10
-0.0862499999999999
 20
1.218518288685764
 10
-0.1212543999316988
 20
1.207252619077713
 10
-0.1565749999999999
 20
1.193930806939538
  0
LWPOLYLINE
  5
A3
330
8B
100
AcDbEntity
  8
AM_9
100
AcDbPolyline
 90
        3
 70
     0
 43
0.0
 10
-0.0159249999999999
 20
1.193930806939538
 10
-0.0510874999999999
 20
1.20719768817806
 10
-0.0862499999999999
 20
1.218518288685764
  0
LWPOLYLINE
  5
A4
330
8B
100
AcDbEntity
  8
AM_9
100
AcDbPolyline
 90
        3
 70
     0
 43
0.0
 10
-0.015925
 20
1.146790354860435
 10
0.0192375000000001
 20
1.133523473621913
 10
0.0544000000000001
 20
1.122202873114208
  0
LINE
  5
A5
330
8B
100
AcDbEntity
  8
AM_9
100
AcDbLine
 10
-0.0862499999999999
 20
1.218518288685764
 30
0.0
 11
-0.0862499999999999
 21
1.179622995167951
 31
0.0
  0
LWPOLYLINE
  5
A6
330
8B
100
AcDbEntity
  8
AM_9
100
AcDbPolyline
 90
        3
 70
     0
 43
0.0
 10
-0.2268999999999999
 20
1.122202873114208
 10
-0.191895600068301
 20
1.133468542722259
 10
-0.156575
 20
1.146790354860435
  0
LWPOLYLINE
  5
A7
330
8B
100
AcDbEntity
  8
AM_9
100
AcDbPolyline
 90
        3
 70
     0
 43
0.0
 10
-0.1565749999999999
 20
1.193930806939538
 10
-0.1917374999999999
 20
1.178487627151189
 10
-0.2014395236091903
 20
1.173864770885402
  0
LWPOLYLINE
  5
A8
330
8B
100
AcDbEntity
  8
AM_9
100
AcDbPolyline
 90
        3
 70
     0
 43
0.0
 10
0.0293384476821172
 20
1.173671627749407
 10
0.0193956000683011
 20
1.17841346988563
 10
-0.0159249999999999
 20
1.193930806939538
  0
LINE
  5
A9
330
8B
100
AcDbEntity
  8
AM_9
100
AcDbLine
 10
0.0241123268442187
 20
0.9241015580047972
 30
0.0
 11
0.0300368514445098
 21
1.058086070935129
 31
0.0
  0
LINE
  5
AA
330
8B
100
AcDbEntity
  8
AM_9
100
AcDbLine
 10
-0.2025368514445097
 20
1.058086070935129
 30
0.0
 11
-0.1966123268442186
 21
0.9241015580047972
 31
0.0
  0
ELLIPSE
  5
AB
330
8B
100
AcDbEntity
  8
AM_9
100
AcDbEllipse
 10
-0.0862499999999976
 20
1.107800623858923
 30
0.0
 11
-0.1406499999999966
 21
1.722465723000711E-17
 31
0.0
210
0.0
220
0.0
230
1.0
 40
0.7071067811865647
 41
3.798906696793628
 42
4.556471891016677
  0
ELLIPSE
  5
AC
330
8B
100
AcDbEntity
  8
AM_9
100
AcDbEllipse
 10
-0.0862499999999983
 20
1.107800623858907
 30
0.0
 11
-0.140650000000025
 21
1.722465723001058E-17
 31
0.0
210
0.0
220
0.0
230
1.0
 40
0.7071067811865483
 41
4.673444456964978
 42
5.625871263975624
  0
ELLIPSE
  5
AD
330
8B
100
AcDbEntity
  8
AM_9
100
AcDbEllipse
 10
-0.0862499999999983
 20
1.129947596744457
 30
0.0
 11
-0.1093294505797733
 21
1.338899617050581E-17
 31
0.0
210
0.0
220
0.0
230
1.0
 40
0.7071067811865386
 41
5.360362145148907
 42
5.928986666165883
  0
ELLIPSE
  5
AE
330
8B
100
AcDbEntity
  8
AM_9
100
AcDbEllipse
 10
-0.0862499999999984
 20
1.129947596744458
 30
0.0
 11
-0.1093294505797697
 21
1.338899617050537E-17
 31
0.0
210
0.0
220
0.0
230
1.0
 40
0.7071067811865391
 41
3.495791294603492
 42
4.109601409597891
  0
LINE
  5
AF
330
8B
100
AcDbEntity
  8
AM_9
100
AcDbLine
 10
0.0028644505979353
 20
1.138827098792374
 30
0.0
 11
0.0017438027584332
 21
1.13724470756682
 31
0.0
  0
LWPOLYLINE
  5
B0
330
8B
100
AcDbEntity
  8
AM_9
100
AcDbPolyline
 90
       20
 70
     0
 43
0.0
 10
-0.0862499999999999
 20
1.207255192632812
 10
-0.0811731343389809
 20
1.207171789676642
 10
-0.0709814219103949
 20
1.2064969669465
 10
-0.060988686523057
 20
1.205158457256268
 10
-0.0513316100944517
 20
1.203187235853444
 10
-0.042136219018445
 20
1.20062944173348
 10
-0.0335190088425827
 20
1.197546010273986
 10
-0.0255836711518714
 20
1.194011746551439
 10
-0.0184175895671841
 20
1.190113761607599
 10
-0.0120881988394828
 20
1.185948978878874
 10
-0.0066422206644001
 20
1.181622766837549
 10
-0.0021011985805861
 20
1.17724450099294
 10
0.0015475731001171
 20
1.172913552273479
 10
0.0043470398319384
 20
1.16870907726778
 10
0.0063658360702877
 20
1.164670739618863
 10
0.0076842206292176
 20
1.160766249287141
 10
0.0083556924053813
 20
1.156828627302111
 10
0.0082940379731324
 20
1.152437318065138
 10
0.0074650455029399
 20
1.148325678457264
 10
0.0068716132133363
 20
1.146515053015033
  0
LWPOLYLINE
  5
B1
330
8B
100
AcDbEntity
  8
AM_9
100
AcDbPolyline
 90
       19
 70
     0
 43
0.0
 10
-0.1795011592701448
 20
1.146877019136458
 10
-0.1804727569222762
 20
1.150390134296238
 10
-0.1809283864129022
 20
1.154412664812291
 10
-0.1805526491699499
 20
1.159090296765598
 10
-0.1794688082556528
 20
1.163110000409005
 10
-0.1777230422933906
 20
1.167113662997808
 10
-0.175276047825277
 20
1.171198354281675
 10
-0.171687943570643
 20
1.175819456330369
 10
-0.1672287562871183
 20
1.180389975269555
 10
-0.1618951715087636
 20
1.184849666174282
 10
-0.155698590198778
 20
1.189122972393724
 10
-0.14867469357501
 20
1.19312375493381
 10
-0.1408849567610418
 20
1.196763755760038
 10
-0.1324115963373097
 20
1.199960714230707
 10
-0.123347482238601
 20
1.202644039588799
 10
-0.1137998668103241
 20
1.204753563833527
 10
-0.1038875023507714
 20
1.206241476078077
 10
-0.0937377579931169
 20
1.207073635045332
 10
-0.0862499999999999
 20
1.207255192632812
  0
LWPOLYLINE
  5
B2
330
8B
100
AcDbEntity
  8
AM_9
100
AcDbPolyline
 90
        3
 70
     0
 43
0.0
 10
-0.1742481340671721
 20
1.137250557492906
 10
-0.1750468414372299
 20
1.138363719681348
 10
-0.1756543386923558
 20
1.139261556181405
  0
ELLIPSE
  5
B3
330
8B
100
AcDbEntity
  8
AM_9
100
AcDbEllipse
 10
-0.0862499999999999
 20
1.169889408680963
 30
0.0
 11
-0.09936940028726622
 21
1.216924179949927E-17
 31
0.0
210
0.0
220
0.0
230
1.0
 40
0.7071067811865476
 41
2.656480407116011
 42
4.71238898038469
  0
ELLIPSE
  5
B4
330
8B
100
AcDbEntity
  8
AM_9
100
AcDbEllipse
 10
-0.0862499999999999
 20
1.218220737385438
 30
0.0
 11
-0.1312419113468904
 21
1.607249866449501E-17
 31
0.0
210
0.0
220
0.0
230
1.0
 40
0.707106781186546
 41
2.656480407116015
 42
6.691212784674184
  0
ELLIPSE
  5
B5
330
8B
100
AcDbEntity
  8
AM_9
100
AcDbEllipse
 10
-0.0862500000000214
 20
1.218220737385537
 30
0.0
 11
-0.1312419113468664
 21
1.955656892440820E-9
 31
0.0
210
0.0
220
0.0
230
1.0
 40
0.7071067811868917
 41
0.4205588022273776
 42
0.4851122652568891
  0
ELLIPSE
  5
B6
330
8B
100
AcDbEntity
  8
AM_9
100
AcDbEllipse
 10
-0.0862499999999999
 20
1.246976980850716
 30
0.0
 11
-0.1319517646676801
 21
1.615943062421193E-17
 31
0.0
210
0.0
220
0.0
230
1.0
 40
0.7071067811865449
 41
3.579974428543796
 42
5.838245225813362
  0
ELLIPSE
  5
B7
330
8B
100
AcDbEntity
  8
AM_9
100
AcDbEllipse
 10
-0.0862500000000002
 20
1.293841557523902
 30
0.0
 11
-0.1038190510530386
 21
1.271416685626193E-17
 31
0.0
210
0.0
220
0.0
230
1.0
 40
0.7071067811865519
 41
3.623426897866773
 42
5.8314593121114
  0
ELLIPSE
  5
B8
330
8B
100
AcDbEntity
  8
AM_9
100
AcDbEllipse
 10
-0.0862499999989946
 20
1.29384155752425
 30
0.0
 11
-0.1038190510519197
 21
1.271416685612491E-17
 31
0.0
210
0.0
220
0.0
230
1.0
 40
0.7071067811865479
 41
3.590895937333459
 42
3.607514482775589
  0
ELLIPSE
  5
B9
330
8B
100
AcDbEntity
  8
AM_9
100
AcDbEllipse
 10
-0.0862499999999999
 20
1.060660171779821
 30
0.0
 11
-0.1163438171532771
 21
1.424800832773457E-17
 31
0.0
210
0.0
220
0.0
230
1.0
 40
0.7071067811865475
 41
0.0
 42
6.283185307179586
  0
ELLIPSE
  5
BA
330
8B
100
AcDbEntity
  8
AM_9
100
AcDbEllipse
 10
-0.08625
 20
0.9265415576212974
 30
0.0
 11
-0.1104162595939891
 21
1.352209188856020E-17
 31
0.0
210
0.0
220
0.0
230
1.0
 40
0.7071067811865471
 41
0.0
 42
6.283185307179586
  0
ELLIPSE
  5
BB
330
8B
100
AcDbEntity
  8
AM_9
100
AcDbEllipse
 10
-0.0862500000000014
 20
1.060660171779822
 30
0.0
 11
-0.1406500000000015
 21
1.722465723000771E-17
 31
0.0
210
0.0
220
0.0
230
1.0
 40
0.7071067811865479
 41
0.0
 42
6.283185307179586
  0
LINE
  5
BD
330
8B
100
AcDbEntity
  8
AM_4
100
AcDbLine
 10
-0.2014395236091903
 20
1.173864770885402
 30
0.0
 11
-0.2268999999999999
 21
1.161098166632022
 31
0.0
  0
LINE
  5
BE
330
8B
100
AcDbEntity
  8
AM_4
100
AcDbLine
 10
0.0544000000000001
 20
1.161098166632022
 30
0.0
 11
0.0293384476821172
 21
1.173671627749407
 31
0.0
  0
LWPOLYLINE
  5
BF
330
8B
100
AcDbEntity
  8
AM_4
100
AcDbPolyline
 90
        3
 70
     0
 43
0.0
 10
-0.015925
 20
0.9745299886992077
 10
-0.0510874999999999
 20
0.9612631074606857
 10
-0.0862499999999999
 20
0.9499425069529813
  0
LWPOLYLINE
  5
C0
330
8B
100
AcDbEntity
  8
AM_4
100
AcDbPolyline
 90
        3
 70
     0
 43
0.0
 10
0.0544000000000001
 20
1.007362629006724
 10
0.0193956000683011
 20
0.9900473257531157
 10
-0.015925
 20
0.9745299886992077
  0
LINE
  5
C1
330
8B
100
AcDbEntity
  8
AM_4
100
AcDbLine
 10
0.0544000000000001
 20
1.161098166632022
 30
0.0
 11
0.0544000000000001
 21
1.007362629006724
 31
0.0
  0
LWPOLYLINE
  5
C2
330
8B
100
AcDbEntity
  8
AM_4
100
AcDbPolyline
 90
        3
 70
     0
 43
0.0
 10
-0.0159249999999999
 20
1.021670440778311
 10
0.0192375000000001
 20
1.034937322016833
 10
0.0544000000000001
 20
1.046257922524537
  0
LWPOLYLINE
  5
C3
330
8B
100
AcDbEntity
  8
AM_4
100
AcDbPolyline
 90
        3
 70
     0
 43
0.0
 10
-0.0862499999999999
 20
0.988837800470795
 10
-0.051245600068301
 20
1.006153103724403
 10
-0.0159249999999999
 20
1.021670440778311
  0
LINE
  5
C4
330
8B
100
AcDbEntity
  8
AM_4
100
AcDbLine
 10
-0.2268999999999999
 20
1.161098166632022
 30
0.0
 11
-0.2268999999999999
 21
1.007362629006724
 31
0.0
  0
LWPOLYLINE
  5
C5
330
8B
100
AcDbEntity
  8
AM_4
100
AcDbPolyline
 90
        3
 70
     0
 43
0.0
 10
-0.156575
 20
0.9745299886992077
 10
-0.1917375
 20
0.9899731684875568
 10
-0.2268999999999999
 20
1.007362629006724
  0
LWPOLYLINE
  5
C6
330
8B
100
AcDbEntity
  8
AM_4
100
AcDbPolyline
 90
        3
 70
     0
 43
0.0
 10
-0.0862499999999999
 20
0.9499425069529813
 10
-0.1212543999316989
 20
0.9612081765610323
 10
-0.156575
 20
0.9745299886992077
  0
LINE
  5
C7
330
8B
100
AcDbEntity
  8
AM_4
100
AcDbLine
 10
-0.0862499999999999
 20
0.988837800470795
 30
0.0
 11
-0.0862499999999999
 21
0.9499425069529813
 31
0.0
  0
LWPOLYLINE
  5
C8
330
8B
100
AcDbEntity
  8
AM_4
100
AcDbPolyline
 90
        3
 70
     0
 43
0.0
 10
-0.1565749999999999
 20
1.021670440778311
 10
-0.1214124999999999
 20
1.006227260989962
 10
-0.0862499999999999
 20
0.988837800470795
  0
LWPOLYLINE
  5
C9
330
8B
100
AcDbEntity
  8
AM_4
100
AcDbPolyline
 90
        3
 70
     0
 43
0.0
 10
-0.2268999999999999
 20
1.046257922524537
 10
-0.191895600068301
 20
1.034992252916486
 10
-0.1565749999999999
 20
1.021670440778311
  0
ELLIPSE
  5
CA
330
8B
100
AcDbEntity
  8
AM_4
100
AcDbEllipse
 10
-0.0862499999999989
 20
1.107800623858926
 30
0.0
 11
-0.1406500000000011
 21
1.722465723000765E-17
 31
0.0
210
0.0
220
0.0
230
1.0
 40
0.7071067811865421
 41
5.625871263975775
 42
10.0820920039732
  0
ELLIPSE
  5
CB
330
8B
100
AcDbEntity
  8
AM_4
100
AcDbEllipse
 10
-0.0862499999999999
 20
1.129947596744457
 30
0.0
 11
-0.1093294505797716
 21
1.629135779712974E-9
 31
0.0
210
0.0
220
0.0
230
1.0
 40
0.7071067811865475
 41
5.928986685971765
 42
9.778976621588976
  0
LINE
  5
CC
330
8B
100
AcDbEntity
  8
AM_4
100
AcDbLine
 10
0.0016544185632924
 20
1.137124405167301
 30
0.0
 11
0.0298495625890071
 21
1.174946432881343
 31
0.0
  0
LINE
  5
CD
330
8B
100
AcDbEntity
  8
AM_4
100
AcDbLine
 10
-0.2023495625890069
 20
1.174946432881343
 30
0.0
 11
-0.1741544185632923
 21
1.137124405167301
 31
0.0
  0
ELLIPSE
  5
CE
330
8B
100
AcDbEntity
  8
AM_4
100
AcDbEllipse
 10
-0.0862499999999999
 20
1.169889408680963
 30
0.0
 11
-0.09936940028726657
 21
1.216924179949931E-17
 31
0.0
210
0.0
220
0.0
230
1.0
 40
0.7071067811865474
 41
0.4851122464737809
 42
2.656480407116012
  0
LWPOLYLINE
  5
CF
330
8B
100
AcDbEntity
  8
AM_4
100
AcDbPolyline
 90
       13
 70
     0
 43
0.0
 10
-0.2102460524529824
 20
1.279095734257921
 10
-0.2125011368968584
 20
1.274726056512166
 10
-0.2166831836804427
 20
1.26475785735921
 10
-0.2196849124059607
 20
1.254574999819403
 10
-0.2215100130082111
 20
1.244279217591022
 10
-0.2221730582555624
 20
1.233965040326488
 10
-0.2216959541605823
 20
1.223719414206182
 10
-0.2201061690137809
 20
1.213626849745326
 10
-0.2174359142842989
 20
1.203765354196318
 10
-0.2137169184147695
 20
1.194198003989707
 10
-0.2089791566234209
 20
1.184982484625326
 10
-0.203250953815135
 20
1.17617364030381
 10
-0.2017987552257621
 20
1.174214072535253
  0
LWPOLYLINE
  5
D0
330
8B
100
AcDbEntity
  8
AM_4
100
AcDbPolyline
 90
        3
 70
     0
 43
0.0
 10
-0.205250998848541
 20
1.287289934997092
 10
-0.2071503770430766
 20
1.284371503432796
 10
-0.2097393588453144
 20
1.280010367568195
  0
LINE
  5
D1
330
8B
100
AcDbEntity
  8
AM_4
100
AcDbLine
 10
0.0349253070307357
 20
1.283930818509314
 30
0.0
 11
0.0077518950300905
 21
1.325002744057035
 31
0.0
  0
LWPOLYLINE
  5
D2
330
8B
100
AcDbEntity
  8
AM_4
100
AcDbPolyline
 90
       13
 70
     0
 43
0.0
 10
0.0294462806786589
 20
1.174408958733144
 10
0.035324623108743
 20
1.183043233834618
 10
0.0405421261451664
 20
1.192731479593844
 10
0.0445886430835155
 20
1.202729767618178
 10
0.0474545792317543
 20
1.212930663614827
 10
0.0491450841635725
 20
1.223233232940147
 10
0.0496757402043269
 20
1.233543804042054
 10
0.0490691013977811
 20
1.243776316178376
 10
0.0473533698489401
 20
1.253845731899328
 10
0.044560879172104
 20
1.263676478186605
 10
0.0407231964313791
 20
1.273206211365447
 10
0.035870072317056
 20
1.282377713514914
 10
0.0349253070307357
 20
1.283930818509314
  0
ELLIPSE
  5
D3
330
8B
100
AcDbEntity
  8
AM_4
100
AcDbEllipse
 10
-0.0862499999999999
 20
1.218220737385438
 30
0.0
 11
-0.1312419113468904
 21
1.607249866449501E-17
 31
0.0
210
0.0
220
0.0
230
1.0
 40
0.7071067811865477
 41
0.4922768727765341
 42
2.651155828542786
  0
ELLIPSE
  5
D4
330
8B
100
AcDbEntity
  8
AM_4
100
AcDbEllipse
 10
-0.0862499999999999
 20
1.30461201128918
 30
0.0
 11
0.08080642971672804
 21
0.0
 31
0.0
210
0.0
220
0.0
230
1.0
 40
0.7071067811865461
 41
0.0
 42
6.283185307179586
  0
LWPOLYLINE
  5
D5
330
8B
100
AcDbEntity
  8
AM_4
100
AcDbPolyline
 90
       12
 70
     0
 43
0.0
 10
-0.0862499999999999
 20
1.369073116175689
 10
-0.0923646073506805
 20
1.368938775515047
 10
-0.1033351783190918
 20
1.368017924306251
 10
-0.1141470989889145
 20
1.36622636555018
 10
-0.1246891215246334
 20
1.363571550265543
 10
-0.1348531198387904
 20
1.360065226501586
 10
-0.1445292611068504
 20
1.355724739723504
 10
-0.1536029349981708
 20
1.350576601151958
 10
-0.1619533210686491
 20
1.344662634915559
 10
-0.1694614137258274
 20
1.338042352521065
 10
-0.176014330604696
 20
1.330797648102461
 10
-0.1795549762158644
 20
1.326035680085172
  0
LWPOLYLINE
  5
D6
330
8B
100
AcDbEntity
  8
AM_4
100
AcDbPolyline
 90
       12
 70
     0
 43
0.0
 10
0.007189753433603
 20
1.325838704066645
 10
0.0017186779935903
 20
1.33295687427311
 10
-0.0047893669050599
 20
1.339721405364928
 10
-0.0122013854962355
 20
1.345940594377518
 10
-0.0204446657984303
 20
1.3515393863068
 10
-0.0294266048250584
 20
1.356447587752004
 10
-0.0390396330968162
 20
1.360605510408336
 10
-0.0491681032931426
 20
1.36396678933339
 10
-0.0596911892413174
 20
1.366497581433606
 10
-0.0704935261049654
 20
1.368176600843174
 10
-0.0814628026631356
 20
1.368990799989106
 10
-0.0862499999999999
 20
1.369073116175689
  0
LINE
  5
D7
330
8B
100
AcDbEntity
  8
AM_4
100
AcDbLine
 10
-0.1802518950300903
 20
1.325002744057035
 30
0.0
 11
-0.2057243720493999
 21
1.286582173832927
 31
0.0
  0
ELLIPSE
  5
D8
330
8B
100
AcDbEntity
  8
AM_4
100
AcDbEllipse
 10
-0.0862499999999999
 20
1.246976980850716
 30
0.0
 11
-0.1319517646676799
 21
1.615943062421190E-17
 31
0.0
210
0.0
220
0.0
230
1.0
 40
0.7071067811865458
 41
5.844803532225579
 42
9.863159735723386
  0
ELLIPSE
  5
D9
330
8B
100
AcDbEntity
  8
AM_4
100
AcDbEllipse
 10
-0.0862499999999999
 20
1.293841557523902
 30
0.0
 11
-0.1038190510530392
 21
1.271416685626201E-17
 31
0.0
210
0.0
220
0.0
230
1.0
 40
0.7071067811865455
 41
5.844803532225583
 42
9.863159735723384
  0
ENDBLK
  5
8E
330
8B
100
AcDbEntity
  8
0
100
AcDbBlockEnd
  0
BLOCK
  5
DC
330
DA
100
AcDbEntity
  8
0
100
AcDbBlockBegin
  2
3_045603_0_in_127674_2
 70
     2
 10
0.0
 20
0.0
 30
0.0
  3
3_045603_0_in_127674_2
  1

  0
ATTDEF
  5
DE
330
DA
100
AcDbEntity
  8
AM_6
100
AcDbText
 10
5.58
 20
1.219872827573649
 30
0.0
 40
0.5
  1
Set Screw Insert Inch Bore - Corrosion Resistant
100
AcDbAttributeDefinition
  3

  2
NN
 70
     8
280
     0
  0
ATTDEF
  5
DF
330
DA
100
AcDbEntity
  8
AM_6
100
AcDbText
 10
5.58
 20
0.719872827573649
 30
0.0
 40
0.5
  1
SC Normal Duty Bearing Inserts
100
AcDbAttributeDefinition
  3

  2
NT
 70
     8
280
     0
  0
ATTDEF
  5
E0
330
DA
100
AcDbEntity
  8
AM_6
100
AcDbText
 10
5.58
 20
0.219872827573649
 30
0.0
 40
0.5
  1
045603
100
AcDbAttributeDefinition
  3

  2
NB
 70
     8
280
     0
  0
ATTDEF
  5
E1
330
DA
100
AcDbEntity
  8
AM_6
100
AcDbText
 10
5.58
 20
-0.280127172426351
 30
0.0
 40
0.5
  1
$PN.
100
AcDbAttributeDefinition
  3

  2
NBSYN
 70
     8
280
     0
  0
ATTDEF
  5
E2
330
DA
100
AcDbEntity
  8
AM_6
100
AcDbText
 10
5.58
 20
-0.780127172426351
 30
0.0
 40
0.5
  1
045603
100
AcDbAttributeDefinition
  3

  2
LINA
 70
     8
280
     0
  0
ATTDEF
  5
E3
330
DA
100
AcDbEntity
  8
AM_6
100
AcDbText
 10
5.58
 20
-1.280127172426351
 30
0.0
 40
0.5
  1
206
100
AcDbAttributeDefinition
  3

  2
SERIES
 70
     8
280
     0
  0
ATTDEF
  5
E4
330
DA
100
AcDbEntity
  8
AM_6
100
AcDbText
 10
5.58
 20
-1.780127172426351
 30
0.0
 40
0.5
  1
1-1/4
100
AcDbAttributeDefinition
  3

  2
SS
 70
     8
280
     0
  0
ATTDEF
  5
E5
330
DA
100
AcDbEntity
  8
AM_6
100
AcDbText
 10
5.58
 20
-2.280127172426351
 30
0.0
 40
0.5
  1
045603
100
AcDbAttributeDefinition
  3

  2
PN
 70
     8
280
     0
  0
ATTDEF
  5
E6
330
DA
100
AcDbEntity
  8
AM_6
100
AcDbText
 10
5.58
 20
-2.780127172426351
 30
0.0
 40
0.5
  1
INS-SC-104S-CR
100
AcDbAttributeDefinition
  3

  2
DESCRIPTION
 70
     8
280
     0
  0
ATTDEF
  5
E7
330
DA
100
AcDbEntity
  8
AM_6
100
AcDbText
 10
5.58
 20
-3.280127172426351
 30
0.0
 40
0.5
  1
1.52
100
AcDbAttributeDefinition
  3

  2
A
 70
     8
280
     0
  0
ATTDEF
  5
E8
330
DA
100
AcDbEntity
  8
AM_6
100
AcDbText
 10
5.58
 20
-3.780127172426351
 30
0.0
 40
0.5
  1
0.69
100
AcDbAttributeDefinition
  3

  2
C
 70
     8
280
     0
  0
ATTDEF
  5
E9
330
DA
100
AcDbEntity
  8
AM_6
100
AcDbText
 10
5.58
 20
-4.280127172426351
 30
0.0
 40
0.5
  1
2.4409
100
AcDbAttributeDefinition
  3

  2
D
 70
     8
280
     0
  0
ATTDEF
  5
EA
330
DA
100
AcDbEntity
  8
AM_6
100
AcDbText
 10
5.58
 20
-4.780127172426351
 30
0.0
 40
0.5
  1
0.16
100
AcDbAttributeDefinition
  3

  2
J
 70
     8
280
     0
  0
ATTDEF
  5
EB
330
DA
100
AcDbEntity
  8
AM_6
100
AcDbText
 10
5.58
 20
-5.280127172426351
 30
0.0
 40
0.5
  1
1.57
100
AcDbAttributeDefinition
  3

  2
L
 70
     8
280
     0
  0
ATTDEF
  5
EC
330
DA
100
AcDbEntity
  8
AM_6
100
AcDbText
 10
5.58
 20
-5.780127172426351
 30
0.0
 40
0.5
  1
5/16 - 24
100
AcDbAttributeDefinition
  3

  2
N
 70
     8
280
     0
  0
ATTDEF
  5
ED
330
DA
100
AcDbEntity
  8
AM_6
100
AcDbText
 10
5.58
 20
-6.280127172426351
 30
0.0
 40
0.5
  1
0.58
100
AcDbAttributeDefinition
  3

  2
W
 70
     8
280
     0
  0
ATTDEF
  5
EE
330
DA
100
AcDbEntity
  8
AM_6
100
AcDbText
 10
5.58
 20
-6.780127172426351
 30
0.0
 40
0.5
  1
0.94
100
AcDbAttributeDefinition
  3

  2
Y
 70
     8
280
     0
  0
ATTDEF
  5
EF
330
DA
100
AcDbEntity
  8
AM_6
100
AcDbText
 10
5.58
 20
-7.280127172426351
 30
0.0
 40
0.5
  1
baldor
100
AcDbAttributeDefinition
  3

  2
COMPANY
 70
     8
280
     0
  0
ARC
  5
F0
330
DA
100
AcDbEntity
  8
AM_9
100
AcDbCircle
 10
0.159999999999977
 20
0.000000000000001
 30
0.0
 40
0.104166666666685
100
AcDbArc
 50
354.7568228417413
 51
0.0
  0
ARC
  5
F1
330
DA
100
AcDbEntity
  8
AM_9
100
AcDbCircle
 10
0.1600000000000001
 20
-0.0000000000000004
 30
0.0
 40
0.1041666666666618
100
AcDbArc
 50
309.0205964126073
 51
318.1117982106085
  0
LINE
  5
F2
330
DA
100
AcDbEntity
  8
AM_9
100
AcDbLine
 10
0.1599999999999999
 20
0.1041666666666621
 30
0.0
 11
0.1588054337356752
 21
0.1041598168963618
 31
0.0
  0
CIRCLE
  5
F3
330
DA
100
AcDbEntity
  8
AM_9
100
AcDbCircle
 10
0.1599999999999999
 20
-0.0000000000000001
 30
0.0
 40
0.0414393939393896
  0
LINE
  5
F4
330
DA
100
AcDbEntity
  8
AM_9
100
AcDbLine
 10
-0.6679151965893085
 20
0.6126536478449086
 30
0.0
 11
-0.6170848034106915
 21
0.6126536478449086
 31
0.0
  0
LINE
  5
F5
330
DA
100
AcDbEntity
  8
AM_9
100
AcDbLine
 10
-0.5163
 20
0.625
 30
0.0
 11
-0.5163
 21
0.7617924915141182
 31
0.0
  0
LINE
  5
F6
330
DA
100
AcDbEntity
  8
AM_9
100
AcDbLine
 10
-0.7687
 20
0.7617924915141182
 30
0.0
 11
-0.7687
 21
0.625
 31
0.0
  0
LINE
  5
F7
330
DA
100
AcDbEntity
  8
AM_9
100
AcDbLine
 10
-0.7687
 20
0.7617924915141182
 30
0.0
 11
-0.5163
 21
0.7617924915141182
 31
0.0
  0
LINE
  5
F8
330
DA
100
AcDbEntity
  8
AM_9
100
AcDbLine
 10
-0.5163
 20
0.7617924915141182
 30
0.0
 11
-0.493092491514118
 21
0.7850000000000003
 31
0.0
  0
LINE
  5
F9
330
DA
100
AcDbEntity
  8
AM_9
100
AcDbLine
 10
-0.791907508485882
 20
0.7850000000000003
 30
0.0
 11
-0.7687
 21
0.7617924915141182
 31
0.0
  0
LWPOLYLINE
  5
FA
330
DA
100
AcDbEntity
  8
AM_9
100
AcDbPolyline
 90
        4
 70
     0
 43
0.0
 10
-0.6679151965893085
 20
0.6126536478449086
 10
-0.6510379875331828
 20
0.6120639405846138
 10
-0.6333681535052116
 20
0.6120747521575212
 10
-0.6170848034106915
 20
0.6126536478449086
  0
LWPOLYLINE
  5
FB
330
DA
100
AcDbEntity
  8
AM_9
100
AcDbPolyline
 90
       10
 70
     0
 43
0.0
 10
-0.6170848034106915
 20
0.6126536478449086
 10
-0.5970307475057176
 20
0.6138126855339411
 10
-0.5777253300447578
 20
0.6155439203402229
 10
-0.5607890608220901
 20
0.6175558578633484
 10
-0.5457045241987702
 20
0.6197321390210342
 10
-0.5335915300904748
 20
0.6217391855255981
 10
-0.5242791247001609
 20
0.6234378360002384
 10
-0.5185962314344943
 20
0.6245403941017222
 10
-0.5163237316359915
 20
0.6249952085402465
 10
-0.5163000000007935
 20
0.6249999999998398
  0
LWPOLYLINE
  5
FC
330
DA
100
AcDbEntity
  8
AM_9
100
AcDbPolyline
 90
        5
 70
     0
 43
0.0
 10
-0.6679151965893114
 20
0.1468859707668962
 10
-0.6592849788341041
 20
0.14505784946664
 10
-0.6418789650441733
 20
0.1436609753757864
 10
-0.6239225829019895
 20
0.1453743779094746
 10
-0.6170848034106885
 20
0.1468859707668962
  0
LWPOLYLINE
  5
FD
330
DA
100
AcDbEntity
  8
AM_9
100
AcDbPolyline
 90
        4
 70
     0
 43
0.0
 10
-0.6170848034106913
 20
0.370951268635732
 10
-0.638837750294389
 20
0.3735616244833174
 10
-0.6533357105273544
 20
0.3731371533645922
 10
-0.6679151965893089
 20
0.370951268635732
  0
LINE
  5
FE
330
DA
100
AcDbEntity
  8
AM_9
100
AcDbLine
 10
-0.9086000000000001
 20
-0.625
 30
0.0
 11
-0.1875
 21
-0.625
 31
0.0
  0
LINE
  5
FF
330
DA
100
AcDbEntity
  8
AM_9
100
AcDbLine
 10
-0.1874999999999999
 20
0.625
 30
0.0
 11
-0.5163000000000001
 21
0.625
 31
0.0
  0
LINE
  5
100
330
DA
100
AcDbEntity
  8
AM_9
100
AcDbLine
 10
0.5485999999999999
 20
0.625
 30
0.0
 11
0.474082055417781
 21
0.625
 31
0.0
  0
LINE
  5
101
330
DA
100
AcDbEntity
  8
AM_9
100
AcDbLine
 10
-0.7687
 20
0.625
 30
0.0
 11
-0.9086000000000001
 21
0.625
 31
0.0
  0
LWPOLYLINE
  5
102
330
DA
100
AcDbEntity
  8
AM_9
100
AcDbPolyline
 90
       10
 70
     0
 43
0.0
 10
-0.7686999999992066
 20
0.6249999999998398
 10
-0.7673870740621926
 20
0.624736217349223
 10
-0.7625773561359294
 20
0.623792538795227
 10
-0.7546793532437345
 20
0.6223204699302303
 10
-0.7434776435541937
 20
0.6203991009807782
 10
-0.7296396881102436
 20
0.6182975701423632
 10
-0.7129301315904256
 20
0.6161647210250232
 10
-0.6945172486791603
 20
0.6143324459607759
 10
-0.6740096937774568
 20
0.6129367184318044
 10
-0.6679151965893084
 20
0.6126536478449084
  0
LINE
  5
103
330
DA
100
AcDbEntity
  8
AM_9
100
AcDbLine
 10
-0.9086000000000001
 20
0.625
 30
0.0
 11
-0.9400000000000002
 21
0.6564
 31
0.0
  0
LINE
  5
104
330
DA
100
AcDbEntity
  8
AM_9
100
AcDbLine
 10
-0.9400000000000002
 20
-0.6564
 30
0.0
 11
-0.9086000000000001
 21
-0.625
 31
0.0
  0
LINE
  5
105
330
DA
100
AcDbEntity
  8
AM_9
100
AcDbLine
 10
0.5485999999999999
 20
-0.625
 30
0.0
 11
0.58
 21
-0.6564
 31
0.0
  0
LINE
  5
106
330
DA
100
AcDbEntity
  8
AM_9
100
AcDbLine
 10
0.58
 20
0.6564
 30
0.0
 11
0.5485999999999999
 21
0.625
 31
0.0
  0
ELLIPSE
  5
107
330
DA
100
AcDbEntity
  8
AM_9
100
AcDbEllipse
 10
-0.6424999999999998
 20
0.2589186197013118
 30
0.0
 11
0.1261999999999979
 21
0.0
 31
0.0
210
0.0
220
0.0
230
1.0
 40
0.9063077870366482
 41
4.509613981979733
 42
4.915163978789645
  0
LWPOLYLINE
  5
108
330
DA
100
AcDbEntity
  8
AM_9
100
AcDbPolyline
 90
        4
 70
     0
 43
0.0
 10
-0.7645441270454907
 20
0.2928976573024199
 10
-0.7664037685655057
 20
0.2856613674317902
 10
-0.7686762683640086
 20
0.2663524002028697
 10
-0.7686999995171794
 20
0.2641464184595732
  0
LWPOLYLINE
  5
109
330
DA
100
AcDbEntity
  8
AM_9
100
AcDbPolyline
 90
       10
 70
     0
 43
0.0
 10
-0.6170848034106885
 20
0.1468859707668962
 10
-0.5970307475057148
 20
0.1527140917358621
 10
-0.5777253300447552
 20
0.1619794698667944
 10
-0.5607890608220879
 20
0.1738256107813302
 10
-0.5457045241987684
 20
0.1885211454186926
 10
-0.5335915300904733
 20
0.204971811168772
 10
-0.5242791247001599
 20
0.2234520306665083
 10
-0.5185962314344937
 20
0.2422229840524547
 10
-0.5163237316359914
 20
0.2619163770562226
 10
-0.5163000004828207
 20
0.2641264086338982
  0
LINE
  5
10A
330
DA
100
AcDbEntity
  8
AM_9
100
AcDbLine
 10
-0.5163
 20
0.2641214462775162
 30
0.0
 11
-0.5163
 21
0.3219474185708133
 31
0.0
  0
LINE
  5
10B
330
DA
100
AcDbEntity
  8
AM_9
100
AcDbLine
 10
-0.7687
 20
0.3219474185708133
 30
0.0
 11
-0.7687
 21
0.2641214462775162
 31
0.0
  0
LWPOLYLINE
  5
10C
330
DA
100
AcDbEntity
  8
AM_9
100
AcDbPolyline
 90
       10
 70
     0
 43
0.0
 10
-0.7686999995171794
 20
0.2641464184595732
 10
-0.7673870740621924
 20
0.2475695508989219
 10
-0.7625773561359294
 20
0.2284330242224974
 10
-0.7546793532437344
 20
0.210608487435324
 10
-0.7434776435541934
 20
0.1935876898381911
 10
-0.7296396881102434
 20
0.1785707262011295
 10
-0.7129301315904253
 20
0.1654949583868576
 10
-0.6945172486791602
 20
0.1554198737776085
 10
-0.6740096937774567
 20
0.1482846977928259
 10
-0.6679151965893113
 20
0.1468859707668954
  0
LWPOLYLINE
  5
10D
330
DA
100
AcDbEntity
  8
AM_9
100
AcDbPolyline
 90
        3
 70
     0
 43
0.0
 10
-0.5163000004828207
 20
0.2641264086338982
 10
-0.5176129259378079
 20
0.2804803175462572
 10
-0.5205840497709722
 20
0.2933249449652955
  0
LINE
  5
10E
330
DA
100
AcDbEntity
  8
AM_9
100
AcDbLine
 10
0.5486
 20
-0.7849999999999999
 30
0.0
 11
0.58
 21
-0.7535999999999999
 31
0.0
  0
LINE
  5
10F
330
DA
100
AcDbEntity
  8
AM_9
100
AcDbLine
 10
0.58
 20
-0.5856476463757364
 30
0.0
 11
0.58
 21
-0.7535999999999999
 31
0.0
  0
LWPOLYLINE
  5
110
330
DA
100
AcDbEntity
  8
AM_9
100
AcDbPolyline
 90
        4
 70
     0
 43
0.0
 10
-0.4968297690401346
 20
0.3590952926141721
 10
-0.4948839598915225
 20
0.350798217923498
 10
-0.4933149185740309
 20
0.3384672463806815
 10
-0.4932552940713205
 20
0.3259524891853897
  0
LWPOLYLINE
  5
111
330
DA
100
AcDbEntity
  8
AM_9
100
AcDbPolyline
 90
        4
 70
     0
 43
0.0
 10
-0.4932552940713205
 20
0.3259524891853897
 10
-0.4963759991158999
 20
0.305725960583553
 10
-0.5032632547473495
 20
0.2860658271896632
 10
-0.5037387545485695
 20
0.2850326168178666
  0
LINE
  5
112
330
DA
100
AcDbEntity
  8
AM_9
100
AcDbLine
 10
-0.5974410709893341
 20
-0.7850000000000003
 30
0.0
 11
-0.3449999999999999
 21
-0.7850000000000003
 31
0.0
  0
LINE
  5
113
330
DA
100
AcDbEntity
  8
AM_9
100
AcDbLine
 10
-0.3449999999999999
 20
0.7850000000000003
 30
0.0
 11
-0.4600838692536331
 21
0.7850000000000003
 31
0.0
  0
LINE
  5
114
330
DA
100
AcDbEntity
  8
AM_9
100
AcDbLine
 10
0.3449999999999999
 20
-0.7850000000000003
 30
0.0
 11
0.5486
 21
-0.7850000000000003
 31
0.0
  0
LINE
  5
115
330
DA
100
AcDbEntity
  8
AM_9
100
AcDbLine
 10
0.4600838692536333
 20
0.7850000000000003
 30
0.0
 11
0.3449999999999999
 21
0.7850000000000003
 31
0.0
  0
LINE
  5
116
330
DA
100
AcDbEntity
  8
AM_9
100
AcDbLine
 10
0.5486000000000001
 20
-0.2267440040690312
 30
0.0
 11
0.5486
 21
-0.7850000000000003
 31
0.0
  0
LINE
  5
117
330
DA
100
AcDbEntity
  8
AM_9
100
AcDbLine
 10
-0.1919999999999999
 20
-1.167116666666667
 30
0.0
 11
-0.128
 21
-1.167116666666667
 31
0.0
  0
LINE
  5
118
330
DA
100
AcDbEntity
  8
AM_9
100
AcDbLine
 10
-0.128
 20
1.167116666666667
 30
0.0
 11
-0.1919999999999999
 21
1.167116666666667
 31
0.0
  0
LINE
  5
119
330
DA
100
AcDbEntity
  8
AM_9
100
AcDbLine
 10
0.3449999999999999
 20
1.146492216502145
 30
0.0
 11
0.3449999999999999
 21
-1.146492216502145
 31
0.0
  0
ARC
  5
11A
330
DA
100
AcDbEntity
  8
AM_9
100
AcDbCircle
 10
0.3130000000000001
 20
-1.146492216502145
 30
0.0
 40
0.0319999999999998
100
AcDbArc
 50
285.2700166318438
 51
0.0
  0
ARC
  5
11B
330
DA
100
AcDbEntity
  8
AM_9
100
AcDbCircle
 10
0.3130000000000001
 20
1.146492216502145
 30
0.0
 40
0.0319999999999999
100
AcDbArc
 50
0.0
 51
74.72998336815627
  0
ARC
  5
11C
330
DA
100
AcDbEntity
  8
AM_9
100
AcDbCircle
 10
-0.3129999999999998
 20
-1.146492216502144
 30
0.0
 40
0.0320000000000003
100
AcDbArc
 50
180.0
 51
254.7299833681562
  0
ARC
  5
11D
330
DA
100
AcDbEntity
  8
AM_9
100
AcDbCircle
 10
-0.3129999999999998
 20
1.146492216502144
 30
0.0
 40
0.0320000000000003
100
AcDbArc
 50
105.2700166318438
 51
180.0
  0
ARC
  5
11E
330
DA
100
AcDbEntity
  8
AM_9
100
AcDbCircle
 10
-0.0000000000000387
 20
0.000000000000177
 30
0.0
 40
1.220449999999819
100
AcDbArc
 50
99.05131675797602
 51
105.2700166318442
  0
ARC
  5
11F
330
DA
100
AcDbEntity
  8
AM_9
100
AcDbCircle
 10
-0.000000000001782
 20
-0.0000000000082818
 30
0.0
 40
1.220449999991554
100
AcDbArc
 50
254.7299833681346
 51
260.948683242045
  0
LINE
  5
120
330
DA
100
AcDbEntity
  8
AM_9
100
AcDbLine
 10
-0.3214277840885185
 20
1.177362468450538
 30
0.0
 11
-0.3214277840885185
 21
-1.177362468450551
 31
0.0
  0
LINE
  5
121
330
DA
100
AcDbEntity
  8
AM_9
100
AcDbLine
 10
-0.192
 20
1.205252754612077
 30
0.0
 11
-0.192
 21
-1.20525275461209
 31
0.0
  0
LWPOLYLINE
  5
122
330
DA
100
AcDbEntity
  8
AM_9
100
AcDbPolyline
 90
       38
 70
     0
 43
0.0
 10
0.2338284449763862
 20
-0.0734850675771208
 10
0.2450530383872534
 20
-0.0601207797305242
 10
0.2539168067054337
 20
-0.0450591595871213
 10
0.2601251682273951
 20
-0.028695208803837
 10
0.2635284217928063
 20
-0.0115134845087947
 10
0.2639879763336794
 20
0.0059153658406447
 10
0.2615555382993444
 20
0.0231768653008525
 10
0.2562775224257323
 20
0.0397389211320491
 10
0.2483463877664019
 20
0.0551870475118211
 10
0.2379164578226731
 20
0.0691202208464454
 10
0.2253452590021004
 20
0.0811214618358907
 10
0.2108463455476703
 20
0.0909023305266298
 10
0.1949432969976822
 20
0.0981308332756593
 10
0.1779207348779524
 20
0.1026031405474701
 10
0.1603979143816752
 20
0.1041659066517847
 10
0.1427685476271476
 20
0.1027209112852147
 10
0.125624459459636
 20
0.0983311581188855
 10
0.1094634314300262
 20
0.0910742268351295
 10
0.0947371480520144
 20
0.0811877737104472
 10
0.0819613757752126
 20
0.0689811969606759
 10
0.0714022246607919
 20
0.0547825578937922
 10
0.0634640716877336
 20
0.0391056784015032
 10
0.0582498733009831
 20
0.022307087689286
 10
0.055963626365209
 20
0.0049909551454204
 10
0.0565820482389148
 20
-0.0124668238932519
 10
0.0601098053424869
 20
-0.0295038154999946
 10
0.0663990521813178
 20
-0.0457116725999807
 10
0.075320280763482
 20
-0.0606457909754103
 10
0.0865707505025483
 20
-0.0738839614712455
 10
0.0999485078155235
 20
-0.0851022991907548
 10
0.1149809757240865
 20
-0.0939360521721464
 10
0.131404816348376
 20
-0.1001543013575397
 10
0.1486225629441448
 20
-0.1035434612637783
 10
0.1662785895074865
 20
-0.103966857860306
 10
0.183757736734802
 20
-0.1014212225803028
 10
0.2005956475844868
 20
-0.0959190841921766
 10
0.2162826473625917
 20
-0.0876524845643387
 10
0.2338284449763815
 20
-0.0734850675771132
  0
ARC
  5
123
330
DA
100
AcDbEntity
  8
AM_9
100
AcDbCircle
 10
0.0000000000000014
 20
0.0000000000000064
 30
0.0
 40
1.220449999999994
100
AcDbArc
 50
74.72998336815617
 51
96.02021531655132
  0
ARC
  5
124
330
DA
100
AcDbEntity
  8
AM_9
100
AcDbCircle
 10
-0.0000000000000748
 20
0.0000000000009357
 30
0.0
 40
1.220450000000907
100
AcDbArc
 50
263.9797846834568
 51
285.2700166318358
  0
LINE
  5
125
330
DA
100
AcDbEntity
  8
AM_9
100
AcDbLine
 10
-0.1279999999999997
 20
1.213719161297209
 30
0.0
 11
-0.1279999999999997
 21
-1.213719161297193
 31
0.0
  0
LINE
  5
126
330
DA
100
AcDbEntity
  8
AM_9
100
AcDbLine
 10
0.3214277840885187
 20
1.177362468450538
 30
0.0
 11
0.3214277840885187
 21
-1.177362468450522
 31
0.0
  0
LINE
  5
128
330
DA
100
AcDbEntity
  8
AM_5
100
AcDbLine
 10
-0.48625
 20
0.625
 30
0.0
 11
-0.48625
 21
0.7850000000000003
 31
0.0
  0
LINE
  5
129
330
DA
100
AcDbEntity
  8
AM_5
100
AcDbLine
 10
-0.7987500000000001
 20
0.625
 30
0.0
 11
-0.7987500000000001
 21
0.7850000000000003
 31
0.0
  0
LINE
  5
12C
330
DA
100
AcDbEntity
  8
AM_7
100
AcDbLine
 10
0.1599999999999999
 20
-0.0435113636363592
 30
0.0
 11
0.1599999999999999
 21
0.043511363636359
 31
0.0
  0
LINE
  5
12D
330
DA
100
AcDbEntity
  8
AM_7
100
AcDbLine
 10
-0.6425000000000001
 20
0.8023044336975789
 30
0.0
 11
-0.6425000000000001
 21
0.5721417056614481
 31
0.0
  0
LWPOLYLINE
  5
12E
330
DA
100
AcDbEntity
  8
AM_4
100
AcDbPolyline
 90
        8
 70
     0
 43
0.0
 10
-0.6679151965893089
 20
0.370951268635732
 10
-0.6879692524942829
 20
0.3661028086536283
 10
-0.7072746699552426
 20
0.358300733411688
 10
-0.7242109391779101
 20
0.3481551555746609
 10
-0.7392954758012299
 20
0.3352990932571393
 10
-0.7514084699095255
 20
0.3205448565170431
 10
-0.7607208752998392
 20
0.303500398441102
 10
-0.7645441270454907
 20
0.2928976573024199
  0
ELLIPSE
  5
12F
330
DA
100
AcDbEntity
  8
AM_4
100
AcDbEllipse
 10
-0.6425000000000001
 20
0.2589186197013144
 30
0.0
 11
0.1262000000000003
 21
0.0
 31
0.0
210
0.0
220
0.0
230
1.0
 40
0.906307787036643
 41
1.368021328389966
 42
1.773571325199828
  0
LWPOLYLINE
  5
130
330
DA
100
AcDbEntity
  8
AM_4
100
AcDbPolyline
 90
        9
 70
     0
 43
0.0
 10
-0.5205840497709722
 20
0.2933249449652955
 10
-0.5224226438640716
 20
0.2988192126424182
 10
-0.5303206467562669
 20
0.3153995030598162
 10
-0.5415223564458082
 20
0.3307962894457889
 10
-0.5553603118897587
 20
0.3440369624629995
 10
-0.572069868409577
 20
0.3553099683042202
 10
-0.5904827513208425
 20
0.363836347108103
 10
-0.6109903062225461
 20
0.3697918032085701
 10
-0.6170848034106915
 20
0.3709512686357328
  0
LINE
  5
131
330
DA
100
AcDbEntity
  8
AM_4
100
AcDbLine
 10
0.58
 20
0.7535999999999999
 30
0.0
 11
0.5486
 21
0.7849999999999999
 31
0.0
  0
LINE
  5
132
330
DA
100
AcDbEntity
  8
AM_4
100
AcDbLine
 10
0.58
 20
0.7535999999999999
 30
0.0
 11
0.58
 21
-0.5856476463757364
 31
0.0
  0
LINE
  5
133
330
DA
100
AcDbEntity
  8
AM_4
100
AcDbLine
 10
-0.9400000000000002
 20
-0.7535999999999999
 30
0.0
 11
-0.9086000000000001
 21
-0.7849999999999999
 31
0.0
  0
LINE
  5
134
330
DA
100
AcDbEntity
  8
AM_4
100
AcDbLine
 10
-0.9086000000000001
 20
0.7849999999999999
 30
0.0
 11
-0.9400000000000002
 21
0.7535999999999999
 31
0.0
  0
LINE
  5
135
330
DA
100
AcDbEntity
  8
AM_4
100
AcDbLine
 10
-0.9400000000000002
 20
0.7535999999999999
 30
0.0
 11
-0.9400000000000002
 21
-0.7535999999999999
 31
0.0
  0
LWPOLYLINE
  5
136
330
DA
100
AcDbEntity
  8
AM_4
100
AcDbPolyline
 90
       37
 70
     0
 43
0.0
 10
-0.5037387545485695
 20
0.2850326168178666
 10
-0.5130863324833893
 20
0.2684447178769288
 10
-0.5256979295555658
 20
0.2523114151166441
 10
-0.5418999152718716
 20
0.2370946264262543
 10
-0.5603671135796668
 20
0.2243335702691511
 10
-0.5824276316625745
 20
0.2135987568712764
 10
-0.6059759683212381
 20
0.2063041050425357
 10
-0.6318876458581847
 20
0.202555444457548
 10
-0.6580863516528261
 20
0.2029385601421146
 10
-0.6844225963661292
 20
0.2076471722673426
 10
-0.7095599557620527
 20
0.2165401858989178
 10
-0.7325513244550143
 20
0.2293322532864113
 10
-0.7528495414996794
 20
0.2456758604201462
 10
-0.7639707298444279
 20
0.2577325872774042
 10
-0.7735231895518169
 20
0.2709323217093276
 10
-0.7812401908680116
 20
0.2849874517590124
 10
-0.7885304752549189
 20
0.3053678409135245
 10
-0.7917672936869923
 20
0.3263700943589354
 10
-0.7909466961716145
 20
0.3456284820412263
 10
-0.7865808666760421
 20
0.3642520958862889
 10
-0.7789477028294344
 20
0.381474930010625
 10
-0.7683456256369642
 20
0.3972319138113131
 10
-0.7543060333513064
 20
0.4119313763494578
 10
-0.7378068480233552
 20
0.4244685749996153
 10
-0.7176111549687214
 20
0.4354368361906046
 10
-0.6956185019686556
 20
0.4435663998781962
 10
-0.6706856909133797
 20
0.4490115679285949
 10
-0.6450103370751255
 20
0.4510663036760306
 10
-0.6183945441782901
 20
0.4495680782837959
 10
-0.5924568094243534
 20
0.4444394463399229
 10
-0.5679039386886982
 20
0.4356635513791897
 10
-0.5455496247713345
 20
0.423388271710312
 10
-0.5326731987097587
 20
0.4136494876225815
 10
-0.5212115873764118
 20
0.4025440450133583
 10
-0.5114640287792638
 20
0.3902488548782734
 10
-0.5011276317032021
 20
0.3713351422956064
 10
-0.4968297690401346
 20
0.3590952926141721
  0
LINE
  5
137
330
DA
100
AcDbEntity
  8
AM_4
100
AcDbLine
 10
-0.9086000000000001
 20
-0.7850000000000003
 30
0.0
 11
-0.5974410709893341
 21
-0.7850000000000003
 31
0.0
  0
LINE
  5
138
330
DA
100
AcDbEntity
  8
AM_4
100
AcDbLine
 10
-0.4600838692536331
 20
0.7850000000000003
 30
0.0
 11
-0.493092491514118
 21
0.7850000000000003
 31
0.0
  0
LINE
  5
139
330
DA
100
AcDbEntity
  8
AM_4
100
AcDbLine
 10
-0.7919075084858822
 20
0.7850000000000003
 30
0.0
 11
-0.9086000000000001
 21
0.7850000000000003
 31
0.0
  0
LINE
  5
13A
330
DA
100
AcDbEntity
  8
AM_4
100
AcDbLine
 10
-0.9086000000000001
 20
0.7850000000000003
 30
0.0
 11
-0.9086000000000001
 21
-0.7850000000000003
 31
0.0
  0
LWPOLYLINE
  5
13B
330
DA
100
AcDbEntity
  8
AM_4
100
AcDbPolyline
 90
       22
 70
     0
 43
0.0
 10
-0.4930924915145382
 20
0.784999999999933
 10
-0.4946818518635572
 20
0.7847471517867646
 10
-0.4995946923603398
 20
0.7839818414788834
 10
-0.5078950991204081
 20
0.782744937392084
 10
-0.5192225210658168
 20
0.7811715953268253
 10
-0.5335458029877105
 20
0.779373492494824
 10
-0.5511275909243667
 20
0.7774618902780104
 10
-0.5712795170929631
 20
0.7756763881256433
 10
-0.5942916659045819
 20
0.7741733572787116
 10
-0.619151531618249
 20
0.7731978505748353
 10
-0.6451654734933285
 20
0.7729023856378466
 10
-0.6718330944034944
 20
0.7733708953989824
 10
-0.6972923068760201
 20
0.7745446936242819
 10
-0.7218919248966661
 20
0.7763478623195984
 10
-0.7430923749599118
 20
0.7784234910788668
 10
-0.7529292758523299
 20
0.7795488489877428
 10
-0.7618797088138634
 20
0.780661024737876
 10
-0.7755788290158652
 20
0.7825252351141209
 10
-0.7811811513884058
 20
0.7833434489783979
 10
-0.7856727997217134
 20
0.7840228767776349
 10
-0.790680049672804
 20
0.7848045002271877
 10
-0.7919075084850126
 20
0.7849999999998611
  0
LINE
  5
13C
330
DA
100
AcDbEntity
  8
AM_4
100
AcDbLine
 10
0.5486
 20
0.7850000000000003
 30
0.0
 11
0.4600838692536333
 21
0.7850000000000003
 31
0.0
  0
LINE
  5
13D
330
DA
100
AcDbEntity
  8
AM_4
100
AcDbLine
 10
0.5486
 20
0.7850000000000003
 30
0.0
 11
0.5486000000000001
 21
-0.2267440040690312
 31
0.0
  0
ELLIPSE
  5
13E
330
DA
100
AcDbEntity
  8
AM_4
100
AcDbEllipse
 10
-0.6425
 20
0.3219474185708133
 30
0.0
 11
0.1262000000000001
 21
0.0
 31
0.0
210
0.0
220
0.0
230
1.0
 40
0.9063077870366495
 41
0.0
 42
6.283185307179586
  0
ENDBLK
  5
DD
330
DA
100
AcDbEntity
  8
0
100
AcDbBlockEnd
  0
BLOCK
  5
141
330
13F
100
AcDbEntity
  8
0
100
AcDbBlockBegin
  2
4_127674H_0_in_127674_2
 70
     2
 10
0.0
 20
0.0
 30
0.0
  3
4_127674H_0_in_127674_2
  1

  0
ATTDEF
  5
143
330
13F
100
AcDbEntity
  8
AM_6
100
AcDbText
 10
5.6875
 20
1.5
 30
0.0
 40
0.5
  1
P2B-SCEZ-SHCR I-Housing
100
AcDbAttributeDefinition
  3

  2
NN
 70
     8
280
     0
  0
ATTDEF
  5
144
330
13F
100
AcDbEntity
  8
AM_6
100
AcDbText
 10
5.6875
 20
1.0
 30
0.0
 40
0.5
  1
SC Pillow Block Bearings -(Normal Duty) -Corrosion Resistant Insert -E-Z KLEEN
100
AcDbAttributeDefinition
  3

  2
NT
 70
     8
280
     0
  0
ATTDEF
  5
145
330
13F
100
AcDbEntity
  8
AM_6
100
AcDbText
 10
5.6875
 20
0.5000000000000002
 30
0.0
 40
0.5
  1
127674H
100
AcDbAttributeDefinition
  3

  2
NB
 70
     8
280
     0
  0
ATTDEF
  5
146
330
13F
100
AcDbEntity
  8
AM_6
100
AcDbText
 10
5.6875
 20
0.0000000000000002
 30
0.0
 40
0.5
  1
$PN.H
100
AcDbAttributeDefinition
  3

  2
NBSYN
 70
     8
280
     0
  0
ATTDEF
  5
147
330
13F
100
AcDbEntity
  8
AM_6
100
AcDbText
 10
5.6875
 20
-0.4999999999999998
 30
0.0
 40
0.5
  1
127674
100
AcDbAttributeDefinition
  3

  2
LINA
 70
     8
280
     0
  0
ATTDEF
  5
148
330
13F
100
AcDbEntity
  8
AM_6
100
AcDbText
 10
5.6875
 20
-0.9999999999999998
 30
0.0
 40
0.5
  1
206
100
AcDbAttributeDefinition
  3

  2
SERIES
 70
     8
280
     0
  0
ATTDEF
  5
149
330
13F
100
AcDbEntity
  8
AM_6
100
AcDbText
 10
5.6875
 20
-1.5
 30
0.0
 40
0.5
  1
1-1/4
100
AcDbAttributeDefinition
  3

  2
SS
 70
     8
280
     0
  0
ATTDEF
  5
14A
330
13F
100
AcDbEntity
  8
AM_6
100
AcDbText
 10
5.6875
 20
-2.0
 30
0.0
 40
0.5
  1
127674
100
AcDbAttributeDefinition
  3

  2
PN
 70
     8
280
     0
  0
ATTDEF
  5
14B
330
13F
100
AcDbEntity
  8
AM_6
100
AcDbText
 10
5.6875
 20
-2.5
 30
0.0
 40
0.5
  1
P2B-SCEZ-104S-SHCR
100
AcDbAttributeDefinition
  3

  2
DESCRIPTION
 70
     8
280
     0
  0
ATTDEF
  5
14C
330
13F
100
AcDbEntity
  8
AM_6
100
AcDbText
 10
5.6875
 20
-3.0
 30
0.0
 40
0.5
  1
1.52
100
AcDbAttributeDefinition
  3

  2
A
 70
     8
280
     0
  0
ATTDEF
  5
14D
330
13F
100
AcDbEntity
  8
AM_6
100
AcDbText
 10
5.6875
 20
-3.5
 30
0.0
 40
0.5
  1
6.25
100
AcDbAttributeDefinition
  3

  2
B
 70
     8
280
     0
  0
ATTDEF
  5
14E
330
13F
100
AcDbEntity
  8
AM_6
100
AcDbText
 10
5.6875
 20
-4.0
 30
0.0
 40
0.5
  1
1.25
100
AcDbAttributeDefinition
  3

  2
C
 70
     8
280
     0
  0
ATTDEF
  5
14F
330
13F
100
AcDbEntity
  8
AM_6
100
AcDbText
 10
5.6875
 20
-4.5
 30
0.0
 40
0.5
  1
4.26
100
AcDbAttributeDefinition
  3

  2
DMIN
 70
     8
280
     0
  0
ATTDEF
  5
150
330
13F
100
AcDbEntity
  8
AM_6
100
AcDbText
 10
5.6875
 20
-5.0
 30
0.0
 40
0.5
  1
5.00
100
AcDbAttributeDefinition
  3

  2
DMAX
 70
     8
280
     0
  0
ATTDEF
  5
151
330
13F
100
AcDbEntity
  8
AM_6
100
AcDbText
 10
5.6875
 20
-5.5
 30
0.0
 40
0.5
  1
1/2
100
AcDbAttributeDefinition
  3

  2
F
 70
     8
280
     0
  0
ATTDEF
  5
152
330
13F
100
AcDbEntity
  8
AM_6
100
AcDbText
 10
5.6875
 20
-6.0
 30
0.0
 40
0.5
  1
0.93
100
AcDbAttributeDefinition
  3

  2
G
 70
     8
280
     0
  0
ATTDEF
  5
153
330
13F
100
AcDbEntity
  8
AM_6
100
AcDbText
 10
5.6875
 20
-6.5
 30
0.0
 40
0.5
  1
0.53
100
AcDbAttributeDefinition
  3

  2
H
 70
     8
280
     0
  0
ATTDEF
  5
154
330
13F
100
AcDbEntity
  8
AM_6
100
AcDbText
 10
5.6875
 20
-7.0
 30
0.0
 40
0.5
  1
3.13
100
AcDbAttributeDefinition
  3

  2
J
 70
     8
280
     0
  0
ATTDEF
  5
155
330
13F
100
AcDbEntity
  8
AM_6
100
AcDbText
 10
5.6875
 20
-7.5
 30
0.0
 40
0.5
  1
1.57
100
AcDbAttributeDefinition
  3

  2
L
 70
     8
280
     0
  0
ATTDEF
  5
156
330
13F
100
AcDbEntity
  8
AM_6
100
AcDbText
 10
5.6875
 20
-8.0
 30
0.0
 40
0.5
  1
1.63
100
AcDbAttributeDefinition
  3

  2
M
 70
     8
280
     0
  0
ATTDEF
  5
157
330
13F
100
AcDbEntity
  8
AM_6
100
AcDbText
 10
5.6875
 20
-8.5
 30
0.0
 40
0.5
  1
0.58
100
AcDbAttributeDefinition
  3

  2
R
 70
     8
280
     0
  0
ATTDEF
  5
158
330
13F
100
AcDbEntity
  8
AM_6
100
AcDbText
 10
5.6875
 20
-9.0
 30
0.0
 40
0.5
  1
0.94
100
AcDbAttributeDefinition
  3

  2
S
 70
     8
280
     0
  0
ATTDEF
  5
159
330
13F
100
AcDbEntity
  8
AM_6
100
AcDbText
 10
5.6875
 20
-9.5
 30
0.0
 40
0.5
  1
baldor
100
AcDbAttributeDefinition
  3

  2
COMPANY
 70
     8
280
     0
  0
LINE
  5
15A
330
13F
100
AcDbEntity
  8
AM_9
100
AcDbLine
 10
-0.5291286829775761
 20
-1.524
 30
0.0
 11
-0.5291286829775761
 21
-0.7069938314991
 31
0.0
  0
LINE
  5
15B
330
13F
100
AcDbEntity
  8
AM_9
100
AcDbLine
 10
0.5291286829775761
 20
-1.524
 30
0.0
 11
0.5291286829775761
 21
-0.625
 31
0.0
  0
LINE
  5
15C
330
13F
100
AcDbEntity
  8
AM_9
100
AcDbLine
 10
-0.5481286829775766
 20
-1.524
 30
0.0
 11
0.548128682977576
 21
-1.524
 31
0.0
  0
LINE
  5
15D
330
13F
100
AcDbEntity
  8
AM_9
100
AcDbLine
 10
-0.1874999999999999
 20
-0.625
 30
0.0
 11
0.5540963294380378
 21
-0.625
 31
0.0
  0
LINE
  5
15E
330
13F
100
AcDbEntity
  8
AM_9
100
AcDbLine
 10
-0.1874999999999999
 20
0.6249999999999994
 30
0.0
 11
0.474082055417781
 21
0.6249999999999994
 31
0.0
  0
LINE
  5
15F
330
13F
100
AcDbEntity
  8
AM_9
100
AcDbLine
 10
-0.6249999999999999
 20
-1.600871317022423
 30
0.0
 11
-0.5481286829775766
 21
-1.524
 31
0.0
  0
LINE
  5
160
330
13F
100
AcDbEntity
  8
AM_9
100
AcDbLine
 10
0.5540963294380378
 20
-0.6249999999999998
 30
0.0
 11
0.5792894736274588
 21
-0.5775262927750998
 31
0.0
  0
LINE
  5
161
330
13F
100
AcDbEntity
  8
AM_9
100
AcDbLine
 10
0.548128682977576
 20
-1.524
 30
0.0
 11
0.6250000000000001
 21
-1.600871317022424
 31
0.0
  0
LINE
  5
162
330
13F
100
AcDbEntity
  8
AM_9
100
AcDbLine
 10
-0.345
 20
-1.22045
 30
0.0
 11
0.5291286829775759
 21
-1.22045
 31
0.0
  0
LINE
  5
163
330
13F
100
AcDbEntity
  8
AM_9
100
AcDbLine
 10
0.4219869307212696
 20
1.22045
 30
0.0
 11
-0.345
 21
1.22045
 31
0.0
  0
LINE
  5
164
330
13F
100
AcDbEntity
  8
AM_9
100
AcDbLine
 10
-0.1874999999999999
 20
-0.625
 30
0.0
 11
-0.1874999999999999
 21
0.6249999999999994
 31
0.0
  0
LINE
  5
165
330
13F
100
AcDbEntity
  8
AM_9
100
AcDbLine
 10
-0.5826705819563973
 20
-0.6161725378161707
 30
0.0
 11
-0.5291286829775762
 21
-0.7069938314990998
 31
0.0
  0
LINE
  5
166
330
13F
100
AcDbEntity
  8
AM_9
100
AcDbLine
 10
-0.5291286829775761
 20
-1.303783333333333
 30
0.0
 11
-0.3449999999999999
 21
-1.303783333333333
 31
0.0
  0
LINE
  5
167
330
13F
100
AcDbEntity
  8
AM_9
100
AcDbLine
 10
-0.3449999999999999
 20
1.303783333333333
 30
0.0
 11
-0.414696208760776
 21
1.303783333333333
 31
0.0
  0
LINE
  5
168
330
13F
100
AcDbEntity
  8
AM_9
100
AcDbLine
 10
-0.3449999999999999
 20
1.303783333333333
 30
0.0
 11
-0.3449999999999999
 21
-1.303783333333333
 31
0.0
  0
LINE
  5
169
330
13F
100
AcDbEntity
  8
AM_9
100
AcDbLine
 10
0.2800000000000002
 20
-1.1
 30
0.0
 11
0.2800000000000002
 21
-1.63
 31
0.0
  0
LINE
  5
16A
330
13F
100
AcDbEntity
  8
AM_9
100
AcDbLine
 10
-0.2799999999999999
 20
-1.1
 30
0.0
 11
-0.2799999999999999
 21
-1.63
 31
0.0
  0
LINE
  5
16B
330
13F
100
AcDbEntity
  8
AM_7
100
AcDbLine
 10
-1.016
 20
0.0
 30
0.0
 11
0.6875
 21
0.0
 31
0.0
  0
LINE
  5
16C
330
13F
100
AcDbEntity
  8
AM_4
100
AcDbLine
 10
0.3975294748325977
 20
1.5
 30
0.0
 11
-0.3975294748325977
 21
1.5
 31
0.0
  0
LINE
  5
16D
330
13F
100
AcDbEntity
  8
AM_4
100
AcDbLine
 10
-0.5287624701214836
 20
-0.0000000000000003
 30
0.0
 11
0.5287624701214837
 21
-0.0000000000000003
 31
0.0
  0
LINE
  5
16E
330
13F
100
AcDbEntity
  8
AM_4
100
AcDbLine
 10
-0.6203631007640307
 20
-1.046999999210239
 30
0.0
 11
0.6203631007640312
 21
-1.046999999210239
 31
0.0
  0
LINE
  5
16F
330
13F
100
AcDbEntity
  8
AM_4
100
AcDbLine
 10
-0.3975294748325977
 20
1.5
 30
0.0
 11
-0.6249999999999999
 21
-1.1
 31
0.0
  0
LINE
  5
170
330
13F
100
AcDbEntity
  8
AM_4
100
AcDbLine
 10
0.6250000000000003
 20
-1.1
 30
0.0
 11
0.3975294748325975
 21
1.5
 31
0.0
  0
LINE
  5
171
330
13F
100
AcDbEntity
  8
AM_4
100
AcDbLine
 10
-0.4687499999999997
 20
-1.153
 30
0.0
 11
0.4687500000000002
 21
-1.153
 31
0.0
  0
LINE
  5
172
330
13F
100
AcDbEntity
  8
AM_4
100
AcDbLine
 10
0.4687500000000002
 20
-1.153
 30
0.0
 11
0.4687500000000002
 21
-1.63
 31
0.0
  0
LINE
  5
173
330
13F
100
AcDbEntity
  8
AM_4
100
AcDbLine
 10
-0.6249999999999999
 20
-1.63
 30
0.0
 11
0.6250000000000001
 21
-1.63
 31
0.0
  0
LINE
  5
174
330
13F
100
AcDbEntity
  8
AM_4
100
AcDbLine
 10
0.6250000000000001
 20
-1.1
 30
0.0
 11
0.6250000000000001
 21
-1.63
 31
0.0
  0
LINE
  5
175
330
13F
100
AcDbEntity
  8
AM_4
100
AcDbLine
 10
-0.6249999999999999
 20
-1.1
 30
0.0
 11
0.6250000000000001
 21
-1.1
 31
0.0
  0
LWPOLYLINE
  5
176
330
13F
100
AcDbEntity
  8
AM_4
100
AcDbPolyline
 90
       19
 70
     0
 43
0.0
 10
0.4687500000000002
 20
-1.153000001579523
 10
0.4689516808634732
 20
-1.148380747207886
 10
0.4695551888160719
 20
-1.143796648139179
 10
0.4705559307978689
 20
-1.139282592135268
 10
0.4719462905581184
 20
-1.134872933888006
 10
0.4737156866195225
 20
-1.130601233559277
 10
0.4758506528096634
 20
-1.126500001367907
 10
0.4783349407467065
 20
-1.122600450167264
 10
0.4811496434993965
 20
-1.118932257896598
 10
0.4842733394802217
 20
-1.115523341714004
 10
0.4876822554766287
 20
-1.112399645529992
 10
0.4913504475795252
 20
-1.10958494255866
 10
0.4952499986320931
 20
-1.107100654389186
 10
0.4993512306962091
 20
-1.104965687954592
 10
0.5036229309194735
 20
-1.103196291638575
 10
0.5080325890838645
 20
-1.10180593161549
 10
0.5125466450281263
 20
-1.100805189364634
 10
0.5171307440608618
 20
-1.100201681138802
 10
0.5217499984204772
 20
-1.1
  0
LINE
  5
177
330
13F
100
AcDbEntity
  8
AM_4
100
AcDbLine
 10
-0.6249999999999999
 20
-1.1
 30
0.0
 11
-0.6249999999999999
 21
-1.63
 31
0.0
  0
LINE
  5
178
330
13F
100
AcDbEntity
  8
AM_4
100
AcDbLine
 10
-0.4687499999999997
 20
-1.153
 30
0.0
 11
-0.4687499999999998
 21
-1.63
 31
0.0
  0
LWPOLYLINE
  5
179
330
13F
100
AcDbEntity
  8
AM_4
100
AcDbPolyline
 90
       19
 70
     0
 43
0.0
 10
-0.5217499999999999
 20
-1.1
 10
-0.517130745634374
 20
-1.100201681001137
 10
-0.5125466465836526
 20
-1.100805189090353
 10
-0.5080325906095663
 20
-1.101805931206679
 10
-0.5036229324037395
 20
-1.103196291098346
 10
-0.4993512321277429
 20
-1.104965687287057
 10
-0.4952499999999999
 20
-1.107100653599424
 10
-0.4913504488733945
 20
-1.109584941652683
 10
-0.4876822566866133
 20
-1.112399644514694
 10
-0.4842733405971129
 20
-1.115523340597113
 10
-0.481149644514694
 20
-1.118932256686613
 10
-0.4783349416526833
 20
-1.122600448873394
 10
-0.4758506535994245
 20
-1.1265
 10
-0.4737156872870574
 20
-1.130601232127743
 10
-0.4719462910983466
 20
-1.134872932403739
 10
-0.4705559312066792
 20
-1.139282590609566
 10
-0.4695551890903528
 20
-1.143796646583652
 10
-0.4689516810011372
 20
-1.148380745634374
 10
-0.4687499999999997
 20
-1.153
  0
ENDBLK
  5
142
330
13F
100
AcDbEntity
  8
0
100
AcDbBlockEnd
  0
ENDSEC
  0
SECTION
  2
ENTITIES
  0
INSERT
  5
6F
330
1F
100
AcDbEntity
  8
0
100
AcDbBlockReference
  2
1_127674_2
 10
0.0
 20
0.0
 30
0.0
  0
POINT
  5
17B
330
1F
100
AcDbEntity
  8
ConnectionPoints
100
AcDbPoint
 10
0.58
 20
0.0
 30
0.0
  0
POINT
  5
17C
330
1F
100
AcDbEntity
  8
ConnectionPoints
100
AcDbPoint
 10
-0.94
 20
0.0
 30
0.0000000000000001
  0
POINT
  5
17D
330
1F
100
AcDbEntity
  8
ConnectionPoints
100
AcDbPoint
 10
-0.0862499999999999
 20
1.060660171779821
 30
1.060660171779821
  0
POINT
  5
17E
330
1F
100
AcDbEntity
  8
ConnectionPoints
100
AcDbPoint
 10
-0.94
 20
0.0
 30
0.0000000000000001
  0
ENDSEC
  0
SECTION
  2
OBJECTS
  0
DICTIONARY
  5
C
330
0
100
AcDbDictionary
281
     1
  3
ACAD_DETAILVIEWSTYLE
350
186
  3
ACAD_GROUP
350
D
  3
ACAD_LAYOUT
350
1A
  3
ACAD_MATERIAL
350
43
  3
ACAD_MLEADERSTYLE
350
6B
  3
ACAD_MLINESTYLE
350
17
  3
ACAD_PLOTSETTINGS
350
19
  3
ACAD_PLOTSTYLENAME
350
E
  3
ACAD_SCALELIST
350
47
  3
ACAD_SECTIONVIEWSTYLE
350
187
  3
ACAD_TABLESTYLE
350
69
  3
ACAD_VISUALSTYLE
350
2A
  3
ACDB_RECOMPOSE_DATA
350
183
  3
AcDbVariableDictionary
350
17F
  0
SUN
  5
6D
330
29
100
AcDbSun
 90
        1
290
     0
 63
     7
421
 16777215
 40
1.0
291
     1
 91
  2455826
 92
 54000000
292
     0
 70
     2
 71
   256
280
     1
  0
DICTIONARY
  5
186
102
{ACAD_REACTORS
330
C
102
}
330
C
100
AcDbDictionary
281
     1
  0
DICTIONARY
  5
D
102
{ACAD_REACTORS
330
C
102
}
330
C
100
AcDbDictionary
281
     1
  0
DICTIONARY
  5
1A
102
{ACAD_REACTORS
330
C
102
}
330
C
100
AcDbDictionary
281
     1
  3
Layout1
350
1E
  3
Layout2
350
26
  3
Model
350
22
  0
DICTIONARY
  5
43
102
{ACAD_REACTORS
330
C
102
}
330
C
100
AcDbDictionary
281
     1
  3
ByBlock
350
45
  3
ByLayer
350
44
  3
Global
350
46
  0
DICTIONARY
  5
6B
102
{ACAD_REACTORS
330
C
102
}
330
C
100
AcDbDictionary
281
     1
  3
Standard
350
6C
  0
DICTIONARY
  5
17
102
{ACAD_REACTORS
330
C
102
}
330
C
100
AcDbDictionary
281
     1
  3
Standard
350
18
  0
DICTIONARY
  5
19
102
{ACAD_REACTORS
330
C
102
}
330
C
100
AcDbDictionary
281
     1
  0
ACDBDICTIONARYWDFLT
  5
E
102
{ACAD_REACTORS
330
C
102
}
330
C
100
AcDbDictionary
281
     1
  3
Normal
350
F
100
AcDbDictionaryWithDefault
340
F
  0
DICTIONARY
  5
47
102
{ACAD_REACTORS
330
C
102
}
330
C
100
AcDbDictionary
281
     1
  3
A0
350
48
  3
A1
350
49
  3
A2
350
4A
  3
A3
350
4B
  3
A4
350
4C
  3
A5
350
4D
  3
A6
350
4E
  3
A7
350
4F
  3
A8
350
50
  3
A9
350
51
  3
B0
350
52
  3
B1
350
53
  3
B2
350
54
  3
B3
350
55
  3
B4
350
56
  3
B5
350
57
  3
B6
350
58
  3
B7
350
59
  3
B8
350
5A
  3
B9
350
5B
  3
C0
350
5C
  3
C1
350
5D
  3
C2
350
5E
  3
C3
350
5F
  3
C4
350
60
  3
C5
350
61
  3
C6
350
62
  3
C7
350
63
  3
C8
350
64
  3
C9
350
65
  3
D0
350
66
  3
D1
350
67
  3
D2
350
68
  0
DICTIONARY
  5
187
102
{ACAD_REACTORS
330
C
102
}
330
C
100
AcDbDictionary
281
     1
  0
DICTIONARY
  5
69
102
{ACAD_REACTORS
330
C
102
}
330
C
100
AcDbDictionary
281
     1
  3
Standard
350
6A
  0
DICTIONARY
  5
2A
102
{ACAD_REACTORS
330
C
102
}
330
C
100
AcDbDictionary
281
     1
  3
2dWireframe
350
2F
  3
Basic
350
32
  3
Brighten
350
36
  3
ColorChange
350
3A
  3
Conceptual
350
34
  3
Dim
350
35
  3
EdgeColorOff
350
3D
  3
Facepattern
350
39
  3
Flat
350
2B
  3
FlatWithEdges
350
2C
  3
Gouraud
350
2D
  3
GouraudWithEdges
350
2E
  3
Hidden
350
31
  3
JitterOff
350
3B
  3
Linepattern
350
38
  3
OverhangOff
350
3C
  3
Realistic
350
33
  3
Shaded
350
42
  3
Shaded with edges
350
41
  3
Shades of Gray
350
3E
  3
Sketchy
350
3F
  3
Thicken
350
37
  3
Wireframe
350
30
  3
X-Ray
350
40
  0
XRECORD
  5
183
102
{ACAD_REACTORS
330
C
102
}
330
C
100
AcDbXrecord
280
     1
 90
        1
330
6A
  0
DICTIONARY
  5
17F
102
{ACAD_REACTORS
330
C
102
}
330
C
100
AcDbDictionary
281
     1
  3
CANNOSCALE
350
180
  3
CMLEADERSTYLE
350
185
  3
CTABLESTYLE
350
184
  0
LAYOUT
  5
1E
102
{ACAD_REACTORS
330
1A
102
}
330
1A
100
AcDbPlotSettings
  1

  2
none_device
  4

  6

 40
0.0
 41
0.0
 42
0.0
 43
0.0
 44
0.0
 45
0.0
 46
0.0
 47
0.0
 48
0.0
 49
0.0
140
0.0
141
0.0
142
1.0
143
1.0
 70
   688
 72
     0
 73
     0
 74
     5
  7

 75
    16
 76
     0
 77
     2
 78
   300
147
1.0
148
0.0
149
0.0
100
AcDbLayout
  1
Layout1
 70
     1
 71
     1
 10
0.0
 20
0.0
 11
12.0
 21
9.0
 12
0.0
 22
0.0
 32
0.0
 14
1.000000000000000E+20
 24
1.000000000000000E+20
 34
1.000000000000000E+20
 15
-1.000000000000000E+20
 25
-1.000000000000000E+20
 35
-1.000000000000000E+20
146
0.0
 13
0.0
 23
0.0
 33
0.0
 16
1.0
 26
0.0
 36
0.0
 17
0.0
 27
1.0
 37
0.0
 76
     0
330
1B
  0
LAYOUT
  5
26
102
{ACAD_REACTORS
330
1A
102
}
330
1A
100
AcDbPlotSettings
  1

  2
none_device
  4

  6

 40
0.0
 41
0.0
 42
0.0
 43
0.0
 44
0.0
 45
0.0
 46
0.0
 47
0.0
 48
0.0
 49
0.0
140
0.0
141
0.0
142
1.0
143
1.0
 70
   688
 72
     0
 73
     0
 74
     5
  7

 75
    16
 76
     0
 77
     2
 78
   300
147
1.0
148
0.0
149
0.0
100
AcDbLayout
  1
Layout2
 70
     1
 71
     2
 10
0.0
 20
0.0
 11
0.0
 21
0.0
 12
0.0
 22
0.0
 32
0.0
 14
0.0
 24
0.0
 34
0.0
 15
0.0
 25
0.0
 35
0.0
146
0.0
 13
0.0
 23
0.0
 33
0.0
 16
1.0
 26
0.0
 36
0.0
 17
0.0
 27
1.0
 37
0.0
 76
     0
330
23
  0
LAYOUT
  5
22
102
{ACAD_REACTORS
330
1A
102
}
330
1A
100
AcDbPlotSettings
  1

  2
none_device
  4
Letter_(8.50_x_11.00_Inches)
  6

 40
6.35
 41
6.35
 42
6.35000508
 43
6.35000508
 44
215.9
 45
279.4
 46
0.0
 47
0.0
 48
0.0
 49
0.0
140
0.0
141
0.0
142
1.0
143
1.0
 70
  1712
 72
     0
 73
     0
 74
     0
  7

 75
     0
 76
     0
 77
     2
 78
   300
147
1.0
148
0.0
149
0.0
100
AcDbLayout
  1
Model
 70
     1
 71
     0
 10
0.0
 20
0.0
 11
12.0
 21
9.0
 12
0.0
 22
0.0
 32
0.0
 14
1.000000000000000E+20
 24
1.000000000000000E+20
 34
1.000000000000000E+20
 15
-1.000000000000000E+20
 25
-1.000000000000000E+20
 35
-1.000000000000000E+20
146
0.0
 13
0.0
 23
0.0
 33
0.0
 16
1.0
 26
0.0
 36
0.0
 17
0.0
 27
1.0
 37
0.0
 76
     0
330
1F
331
29
  0
MATERIAL
  5
45
102
{ACAD_REACTORS
330
43
102
}
330
43
100
AcDbMaterial
  1
ByBlock
 72
     1
 94
      127
  0
MATERIAL
  5
44
102
{ACAD_REACTORS
330
43
102
}
330
43
100
AcDbMaterial
  1
ByLayer
 72
     1
 94
      127
  0
MATERIAL
  5
46
102
{ACAD_REACTORS
330
43
102
}
330
43
100
AcDbMaterial
  1
Global
 72
     1
 94
      127
  0
MLEADERSTYLE
  5
6C
102
{ACAD_REACTORS
330
6B
102
}
330
6B
100
AcDbMLeaderStyle
179
     2
170
     2
171
     1
172
     0
 90
        2
 40
0.0
 41
0.0
173
     1
 91
-1056964608
340
14
 92
       -2
290
     1
 42
0.09
291
     1
 43
0.36
  3
Standard
341
0
 44
0.18
300

342
11
174
     1
178
     6
175
     1
176
     0
 93
-1056964608
 45
0.18
292
     0
297
     0
 46
0.18
343
0
 94
-1056964608
 47
1.0
 49
1.0
140
1.0
293
     1
141
0.0
294
     1
177
     0
142
1.0
295
     0
296
     0
143
0.125
271
     0
272
     9
273
     9
298
     0
  0
MLINESTYLE
  5
18
102
{ACAD_REACTORS
330
17
102
}
330
17
100
AcDbMlineStyle
  2
Standard
 70
     0
  3

 62
   256
 51
90.0
 52
90.0
 71
     2
 49
0.5
 62
   256
  6
BYLAYER
 49
-0.5
 62
   256
  6
BYLAYER
  0
ACDBPLACEHOLDER
  5
F
102
{ACAD_REACTORS
330
E
102
}
330
E
  0
SCALE
  5
48
102
{ACAD_REACTORS
330
47
102
}
330
47
100
AcDbScale
 70
     0
300
1:1
140
1.0
141
1.0
290
     1
  0
SCALE
  5
49
102
{ACAD_REACTORS
330
47
102
}
330
47
100
AcDbScale
 70
     0
300
1:2
140
1.0
141
2.0
290
     0
  0
SCALE
  5
4A
102
{ACAD_REACTORS
330
47
102
}
330
47
100
AcDbScale
 70
     0
300
1:4
140
1.0
141
4.0
290
     0
  0
SCALE
  5
4B
102
{ACAD_REACTORS
330
47
102
}
330
47
100
AcDbScale
 70
     0
300
1:5
140
1.0
141
5.0
290
     0
  0
SCALE
  5
4C
102
{ACAD_REACTORS
330
47
102
}
330
47
100
AcDbScale
 70
     0
300
1:8
140
1.0
141
8.0
290
     0
  0
SCALE
  5
4D
102
{ACAD_REACTORS
330
47
102
}
330
47
100
AcDbScale
 70
     0
300
1:10
140
1.0
141
10.0
290
     0
  0
SCALE
  5
4E
102
{ACAD_REACTORS
330
47
102
}
330
47
100
AcDbScale
 70
     0
300
1:16
140
1.0
141
16.0
290
     0
  0
SCALE
  5
4F
102
{ACAD_REACTORS
330
47
102
}
330
47
100
AcDbScale
 70
     0
300
1:20
140
1.0
141
20.0
290
     0
  0
SCALE
  5
50
102
{ACAD_REACTORS
330
47
102
}
330
47
100
AcDbScale
 70
     0
300
1:30
140
1.0
141
30.0
290
     0
  0
SCALE
  5
51
102
{ACAD_REACTORS
330
47
102
}
330
47
100
AcDbScale
 70
     0
300
1:40
140
1.0
141
40.0
290
     0
  0
SCALE
  5
52
102
{ACAD_REACTORS
330
47
102
}
330
47
100
AcDbScale
 70
     0
300
1:50
140
1.0
141
50.0
290
     0
  0
SCALE
  5
53
102
{ACAD_REACTORS
330
47
102
}
330
47
100
AcDbScale
 70
     0
300
1:100
140
1.0
141
100.0
290
     0
  0
SCALE
  5
54
102
{ACAD_REACTORS
330
47
102
}
330
47
100
AcDbScale
 70
     0
300
2:1
140
2.0
141
1.0
290
     0
  0
SCALE
  5
55
102
{ACAD_REACTORS
330
47
102
}
330
47
100
AcDbScale
 70
     0
300
4:1
140
4.0
141
1.0
290
     0
  0
SCALE
  5
56
102
{ACAD_REACTORS
330
47
102
}
330
47
100
AcDbScale
 70
     0
300
8:1
140
8.0
141
1.0
290
     0
  0
SCALE
  5
57
102
{ACAD_REACTORS
330
47
102
}
330
47
100
AcDbScale
 70
     0
300
10:1
140
10.0
141
1.0
290
     0
  0
SCALE
  5
58
102
{ACAD_REACTORS
330
47
102
}
330
47
100
AcDbScale
 70
     0
300
100:1
140
100.0
141
1.0
290
     0
  0
SCALE
  5
59
102
{ACAD_REACTORS
330
47
102
}
330
47
100
AcDbScale
 70
     0
300
1/128" = 1'-0"
140
0.0078125
141
12.0
290
     0
  0
SCALE
  5
5A
102
{ACAD_REACTORS
330
47
102
}
330
47
100
AcDbScale
 70
     0
300
1/64" = 1'-0"
140
0.015625
141
12.0
290
     0
  0
SCALE
  5
5B
102
{ACAD_REACTORS
330
47
102
}
330
47
100
AcDbScale
 70
     0
300
1/32" = 1'-0"
140
0.03125
141
12.0
290
     0
  0
SCALE
  5
5C
102
{ACAD_REACTORS
330
47
102
}
330
47
100
AcDbScale
 70
     0
300
1/16" = 1'-0"
140
0.0625
141
12.0
290
     0
  0
SCALE
  5
5D
102
{ACAD_REACTORS
330
47
102
}
330
47
100
AcDbScale
 70
     0
300
3/32" = 1'-0"
140
0.09375
141
12.0
290
     0
  0
SCALE
  5
5E
102
{ACAD_REACTORS
330
47
102
}
330
47
100
AcDbScale
 70
     0
300
1/8" = 1'-0"
140
0.125
141
12.0
290
     0
  0
SCALE
  5
5F
102
{ACAD_REACTORS
330
47
102
}
330
47
100
AcDbScale
 70
     0
300
3/16" = 1'-0"
140
0.1875
141
12.0
290
     0
  0
SCALE
  5
60
102
{ACAD_REACTORS
330
47
102
}
330
47
100
AcDbScale
 70
     0
300
1/4" = 1'-0"
140
0.25
141
12.0
290
     0
  0
SCALE
  5
61
102
{ACAD_REACTORS
330
47
102
}
330
47
100
AcDbScale
 70
     0
300
3/8" = 1'-0"
140
0.375
141
12.0
290
     0
  0
SCALE
  5
62
102
{ACAD_REACTORS
330
47
102
}
330
47
100
AcDbScale
 70
     0
300
1/2" = 1'-0"
140
0.5
141
12.0
290
     0
  0
SCALE
  5
63
102
{ACAD_REACTORS
330
47
102
}
330
47
100
AcDbScale
 70
     0
300
3/4" = 1'-0"
140
0.75
141
12.0
290
     0
  0
SCALE
  5
64
102
{ACAD_REACTORS
330
47
102
}
330
47
100
AcDbScale
 70
     0
300
1" = 1'-0"
140
1.0
141
12.0
290
     0
  0
SCALE
  5
65
102
{ACAD_REACTORS
330
47
102
}
330
47
100
AcDbScale
 70
     0
300
1-1/2" = 1'-0"
140
1.5
141
12.0
290
     0
  0
SCALE
  5
66
102
{ACAD_REACTORS
330
47
102
}
330
47
100
AcDbScale
 70
     0
300
3" = 1'-0"
140
3.0
141
12.0
290
     0
  0
SCALE
  5
67
102
{ACAD_REACTORS
330
47
102
}
330
47
100
AcDbScale
 70
     0
300
6" = 1'-0"
140
6.0
141
12.0
290
     0
  0
SCALE
  5
68
102
{ACAD_REACTORS
330
47
102
}
330
47
100
AcDbScale
 70
     0
300
1'-0" = 1'-0"
140
12.0
141
12.0
290
     0
  0
TABLESTYLE
  5
6A
102
{ACAD_REACTORS
330
69
102
}
102
{ACAD_XDICTIONARY
360
181
102
}
330
69
100
AcDbTableStyle
  3
Standard
 70
     0
 71
     0
 40
0.06
 41
0.06
280
     0
281
     0
  7
Standard
140
0.18
170
     2
 62
     0
 63
   257
283
     0
 90
        4
 91
        0
  1

274
    -2
284
     1
 64
     0
275
    -2
285
     1
 65
     0
276
    -2
286
     1
 66
     0
277
    -2
287
     1
 67
     0
278
    -2
288
     1
 68
     0
279
    -2
289
     1
 69
     0
  7
Standard
140
0.25
170
     5
 62
     0
 63
   257
283
     0
 90
        4
 91
        0
  1

274
    -2
284
     1
 64
     0
275
    -2
285
     1
 65
     0
276
    -2
286
     1
 66
     0
277
    -2
287
     1
 67
     0
278
    -2
288
     1
 68
     0
279
    -2
289
     1
 69
     0
  7
Standard
140
0.18
170
     5
 62
     0
 63
   257
283
     0
 90
        4
 91
        0
  1

274
    -2
284
     1
 64
     0
275
    -2
285
     1
 65
     0
276
    -2
286
     1
 66
     0
277
    -2
287
     1
 67
     0
278
    -2
288
     1
 68
     0
279
    -2
289
     1
 69
     0
  0
VISUALSTYLE
  5
2F
102
{ACAD_REACTORS
330
2A
102
}
330
2A
100
AcDbVisualStyle
  2
2dWireframe
 70
     4
177
     3
291
     0
 70
    58
 90
        0
176
     1
 90
        2
176
     1
 90
        0
176
     1
 90
        0
176
     1
 40
0.6
176
     1
 40
30.0
176
     1
 62
     7
420
 16777215
176
     1
 90
        1
176
     1
 90
        4
176
     1
 62
     7
176
     1
 62
   257
176
     1
 90
        1
176
     1
 90
        1
176
     1
 40
1.0
176
     1
 90
        0
176
     1
 62
   257
176
     1
 40
1.0
176
     1
 90
        1
176
     1
 90
        6
176
     1
 90
        2
176
     1
 62
     7
176
     1
 90
        5
176
     1
 90
        0
176
     1
 90
        0
176
     1
290
     0
176
     1
 90
        1
176
     1
 40
0.0
176
     1
 90
        0
176
     1
290
     1
176
     1
290
     1
176
     1
290
     0
176
     1
290
     0
176
     1
290
     0
176
     1
290
     0
176
     1
290
     0
176
     1
290
     0
176
     1
290
     0
176
     1
 90
       50
176
     1
 40
0.0
176
     1
 40
1.0
176
     1
 90
        0
176
     1
 62
    18
420
        0
176
     1
 90
       50
176
     1
 90
        3
176
     1
 62
     5
420
      255
176
     1
290
     0
176
     1
 90
       50
176
     1
 90
       50
176
     1
 90
       50
176
     1
290
     0
176
     1
 90
       50
176
     1
 62
   256
176
     0
 40
1.0
176
     0
 90
        2
176
     1
  1
strokes_ogs.tif
176
     1
290
     0
176
     1
 40
1.0
176
     1
 40
1.0
176
     1
  0
VISUALSTYLE
  5
32
102
{ACAD_REACTORS
330
2A
102
}
330
2A
100
AcDbVisualStyle
  2
Basic
 70
     7
177
     3
291
     1
 70
    58
 90
        1
176
     1
 90
        0
176
     1
 90
        1
176
     1
 90
        0
176
     1
 40
0.6
176
     1
 40
30.0
176
     1
 62
     7
420
 16777215
176
     1
 90
        0
176
     1
 90
        4
176
     1
 62
     7
176
     1
 62
   257
176
     1
 90
        1
176
     1
 90
        1
176
     1
 40
1.0
176
     1
 90
        8
176
     1
 62
     7
176
     1
 40
1.0
176
     1
 90
        1
176
     1
 90
        6
176
     1
 90
        2
176
     1
 62
     7
176
     1
 90
        5
176
     1
 90
        0
176
     1
 90
        0
176
     1
290
     0
176
     1
 90
        1
176
     1
 40
0.0
176
     1
 90
        0
176
     1
290
     0
176
     1
290
     1
176
     1
290
     1
176
     1
290
     0
176
     1
290
     0
176
     1
290
     0
176
     1
290
     0
176
     1
290
     0
176
     1
290
     0
176
     1
 90
       50
176
     1
 40
0.0
176
     1
 40
1.0
176
     1
 90
        0
176
     1
 62
    18
420
        0
176
     1
 90
       50
176
     1
 90
        3
176
     1
 62
     5
420
      255
176
     1
290
     0
176
     1
 90
       50
176
     1
 90
       50
176
     1
 90
       50
176
     1
290
     0
176
     1
 90
       50
176
     1
 62
   256
176
     0
 40
1.0
176
     0
 90
        2
176
     1
  1
strokes_ogs.tif
176
     1
290
     0
176
     1
 40
1.0
176
     1
 40
1.0
176
     1
  0
VISUALSTYLE
  5
36
102
{ACAD_REACTORS
330
2A
102
}
330
2A
100
AcDbVisualStyle
  2
Brighten
 70
    12
177
     3
291
     1
 70
    58
 90
        2
176
     1
 90
        2
176
     1
 90
        0
176
     1
 90
        0
176
     1
 40
0.6
176
     1
 40
30.0
176
     1
 62
     7
420
 16777215
176
     1
 90
        1
176
     1
 90
        4
176
     1
 62
     7
176
     1
 62
   257
176
     1
 90
        1
176
     1
 90
        1
176
     1
 40
1.0
176
     1
 90
        8
176
     1
 62
     7
176
     1
 40
1.0
176
     1
 90
        1
176
     1
 90
        6
176
     1
 90
        2
176
     1
 62
     7
176
     1
 90
        5
176
     1
 90
        0
176
     1
 90
        0
176
     1
290
     0
176
     1
 90
        1
176
     1
 40
50.0
176
     1
 90
        0
176
     1
290
     0
176
     1
290
     1
176
     1
290
     1
176
     1
290
     0
176
     1
290
     0
176
     1
290
     0
176
     1
290
     0
176
     1
290
     0
176
     1
290
     0
176
     1
 90
       50
176
     1
 40
0.0
176
     1
 40
1.0
176
     1
 90
        0
176
     1
 62
    18
420
        0
176
     1
 90
       50
176
     1
 90
        3
176
     1
 62
     5
420
      255
176
     1
290
     0
176
     1
 90
       50
176
     1
 90
       50
176
     1
 90
       50
176
     1
290
     0
176
     1
 90
       50
176
     1
 62
   256
176
     0
 40
1.0
176
     0
 90
        2
176
     1
  1
strokes_ogs.tif
176
     1
290
     0
176
     1
 40
1.0
176
     1
 40
1.0
176
     1
  0
VISUALSTYLE
  5
3A
102
{ACAD_REACTORS
330
2A
102
}
330
2A
100
AcDbVisualStyle
  2
ColorChange
 70
    16
177
     3
291
     1
 70
    58
 90
        2
176
     1
 90
        2
176
     1
 90
        3
176
     1
 90
        0
176
     1
 40
0.6
176
     1
 40
30.0
176
     1
 62
     8
420
  8421504
176
     1
 90
        1
176
     1
 90
        4
176
     1
 62
     7
176
     1
 62
   257
176
     1
 90
        1
176
     1
 90
        1
176
     1
 40
1.0
176
     1
 90
        8
176
     1
 62
     8
420
  8421504
176
     1
 40
1.0
176
     1
 90
        1
176
     1
 90
        6
176
     1
 90
        2
176
     1
 62
     7
176
     1
 90
        5
176
     1
 90
        0
176
     1
 90
        0
176
     1
290
     0
176
     1
 90
        1
176
     1
 40
0.0
176
     1
 90
        0
176
     1
290
     0
176
     1
290
     1
176
     1
290
     1
176
     1
290
     0
176
     1
290
     0
176
     1
290
     0
176
     1
290
     0
176
     1
290
     0
176
     1
290
     0
176
     1
 90
       50
176
     1
 40
0.0
176
     1
 40
1.0
176
     1
 90
        0
176
     1
 62
    18
420
        0
176
     1
 90
       50
176
     1
 90
        3
176
     1
 62
     5
420
      255
176
     1
290
     0
176
     1
 90
       50
176
     1
 90
       50
176
     1
 90
       50
176
     1
290
     0
176
     1
 90
       50
176
     1
 62
   256
176
     0
 40
1.0
176
     0
 90
        2
176
     1
  1
strokes_ogs.tif
176
     1
290
     0
176
     1
 40
1.0
176
     1
 40
1.0
176
     1
  0
VISUALSTYLE
  5
34
102
{ACAD_REACTORS
330
2A
102
}
330
2A
100
AcDbVisualStyle
  2
Conceptual
 70
     9
177
     3
291
     0
 70
    58
 90
        3
176
     1
 90
        2
176
     1
 90
        0
176
     1
 90
        0
176
     1
 40
0.6
176
     1
 40
30.0
176
     1
 62
     7
420
 16777215
176
     1
 90
        2
176
     1
 90
        2
176
     1
 62
     7
176
     1
 62
   257
176
     1
 90
        1
176
     1
 90
        1
176
     1
 40
179.0
176
     1
 90
        8
176
     1
 62
     7
176
     1
 40
1.0
176
     1
 90
        1
176
     1
 90
        6
176
     1
 90
        2
176
     1
 62
     7
176
     1
 90
        3
176
     1
 90
        0
176
     1
 90
        0
176
     1
290
     0
176
     1
 90
        1
176
     1
 40
0.0
176
     1
 90
        0
176
     1
290
     0
176
     1
290
     1
176
     1
290
     1
176
     1
290
     0
176
     1
290
     0
176
     1
290
     0
176
     1
290
     0
176
     1
290
     0
176
     1
290
     0
176
     1
 90
       50
176
     1
 40
0.0
176
     1
 40
1.0
176
     1
 90
        0
176
     1
 62
    18
420
        0
176
     1
 90
       50
176
     1
 90
        3
176
     1
 62
     5
420
      255
176
     1
290
     0
176
     1
 90
       50
176
     1
 90
       50
176
     1
 90
       50
176
     1
290
     0
176
     1
 90
       50
176
     1
 62
   256
176
     0
 40
1.0
176
     0
 90
        2
176
     1
  1
strokes_ogs.tif
176
     1
290
     0
176
     1
 40
1.0
176
     1
 40
1.0
176
     1
  0
VISUALSTYLE
  5
35
102
{ACAD_REACTORS
330
2A
102
}
330
2A
100
AcDbVisualStyle
  2
Dim
 70
    11
177
     3
291
     1
 70
    58
 90
        2
176
     1
 90
        2
176
     1
 90
        0
176
     1
 90
        0
176
     1
 40
0.6
176
     1
 40
30.0
176
     1
 62
     7
420
 16777215
176
     1
 90
        1
176
     1
 90
        4
176
     1
 62
     7
176
     1
 62
   257
176
     1
 90
        1
176
     1
 90
        1
176
     1
 40
1.0
176
     1
 90
        8
176
     1
 62
     7
176
     1
 40
1.0
176
     1
 90
        1
176
     1
 90
        6
176
     1
 90
        2
176
     1
 62
     7
176
     1
 90
        5
176
     1
 90
        0
176
     1
 90
        0
176
     1
290
     0
176
     1
 90
        1
176
     1
 40
-50.0
176
     1
 90
        0
176
     1
290
     0
176
     1
290
     1
176
     1
290
     1
176
     1
290
     0
176
     1
290
     0
176
     1
290
     0
176
     1
290
     0
176
     1
290
     0
176
     1
290
     0
176
     1
 90
       50
176
     1
 40
0.0
176
     1
 40
1.0
176
     1
 90
        0
176
     1
 62
    18
420
        0
176
     1
 90
       50
176
     1
 90
        3
176
     1
 62
     5
420
      255
176
     1
290
     0
176
     1
 90
       50
176
     1
 90
       50
176
     1
 90
       50
176
     1
290
     0
176
     1
 90
       50
176
     1
 62
   256
176
     0
 40
1.0
176
     0
 90
        2
176
     1
  1
strokes_ogs.tif
176
     1
290
     0
176
     1
 40
1.0
176
     1
 40
1.0
176
     1
  0
VISUALSTYLE
  5
3D
102
{ACAD_REACTORS
330
2A
102
}
330
2A
100
AcDbVisualStyle
  2
EdgeColorOff
 70
    22
177
     3
291
     1
 70
    58
 90
        2
176
     0
 90
        2
176
     0
 90
        0
176
     0
 90
        0
176
     0
 40
0.6
176
     0
 40
30.0
176
     0
 62
     7
420
 16777215
176
     0
 90
        1
176
     0
 90
        4
176
     0
 62
     7
176
     0
 62
   257
176
     0
 90
        1
176
     0
 90
        1
176
     0
 40
1.0
176
     0
 90
        8
176
     2
 62
     7
176
     0
 40
1.0
176
     0
 90
        1
176
     0
 90
        6
176
     0
 90
        2
176
     0
 62
     7
176
     0
 90
        5
176
     0
 90
        0
176
     0
 90
        0
176
     0
290
     0
176
     0
 90
        1
176
     0
 40
0.0
176
     0
 90
        0
176
     0
290
     0
176
     0
290
     1
176
     0
290
     1
176
     0
290
     0
176
     0
290
     0
176
     0
290
     0
176
     0
290
     0
176
     0
290
     0
176
     0
290
     0
176
     0
 90
       50
176
     0
 40
0.0
176
     0
 40
1.0
176
     0
 90
        0
176
     0
 62
    18
420
        0
176
     0
 90
       50
176
     0
 90
        3
176
     0
 62
     5
420
      255
176
     0
290
     0
176
     0
 90
       50
176
     0
 90
       50
176
     0
 90
       50
176
     0
290
     0
176
     0
 90
       50
176
     0
 62
   256
176
     0
 40
1.0
176
     0
 90
        2
176
     0
  1
strokes_ogs.tif
176
     0
290
     0
176
     0
 40
1.0
176
     0
 40
1.0
176
     0
  0
VISUALSTYLE
  5
39
102
{ACAD_REACTORS
330
2A
102
}
330
2A
100
AcDbVisualStyle
  2
Facepattern
 70
    15
177
     3
291
     1
 70
    58
 90
        2
176
     1
 90
        2
176
     1
 90
        0
176
     1
 90
        0
176
     1
 40
0.6
176
     1
 40
30.0
176
     1
 62
     7
420
 16777215
176
     1
 90
        1
176
     1
 90
        4
176
     1
 62
     7
176
     1
 62
   257
176
     1
 90
        1
176
     1
 90
        1
176
     1
 40
1.0
176
     1
 90
        8
176
     1
 62
     7
176
     1
 40
1.0
176
     1
 90
        1
176
     1
 90
        6
176
     1
 90
        2
176
     1
 62
     7
176
     1
 90
        5
176
     1
 90
        0
176
     1
 90
        0
176
     1
290
     0
176
     1
 90
        1
176
     1
 40
0.0
176
     1
 90
        0
176
     1
290
     0
176
     1
290
     1
176
     1
290
     1
176
     1
290
     0
176
     1
290
     0
176
     1
290
     0
176
     1
290
     0
176
     1
290
     0
176
     1
290
     0
176
     1
 90
       50
176
     1
 40
0.0
176
     1
 40
1.0
176
     1
 90
        0
176
     1
 62
    18
420
        0
176
     1
 90
       50
176
     1
 90
        3
176
     1
 62
     5
420
      255
176
     1
290
     0
176
     1
 90
       50
176
     1
 90
       50
176
     1
 90
       50
176
     1
290
     0
176
     1
 90
       50
176
     1
 62
   256
176
     0
 40
1.0
176
     0
 90
        2
176
     1
  1
strokes_ogs.tif
176
     1
290
     0
176
     1
 40
1.0
176
     1
 40
1.0
176
     1
  0
VISUALSTYLE
  5
2B
102
{ACAD_REACTORS
330
2A
102
}
330
2A
100
AcDbVisualStyle
  2
Flat
 70
     0
177
     3
291
     1
 70
    58
 90
        2
176
     1
 90
        1
176
     1
 90
        1
176
     1
 90
        2
176
     1
 40
0.6
176
     1
 40
30.0
176
     1
 62
     7
420
 16777215
176
     1
 90
        0
176
     1
 90
        0
176
     1
 62
     7
176
     1
 62
   257
176
     1
 90
        1
176
     1
 90
        1
176
     1
 40
1.0
176
     1
 90
        8
176
     1
 62
     7
176
     1
 40
1.0
176
     1
 90
        1
176
     1
 90
        6
176
     1
 90
        2
176
     1
 62
     7
176
     1
 90
        5
176
     1
 90
        0
176
     1
 90
        0
176
     1
290
     0
176
     1
 90
       13
176
     1
 40
0.0
176
     1
 90
        0
176
     1
290
     0
176
     1
290
     1
176
     1
290
     1
176
     1
290
     0
176
     1
290
     0
176
     1
290
     0
176
     1
290
     0
176
     1
290
     0
176
     1
290
     0
176
     1
 90
       50
176
     1
 40
0.0
176
     1
 40
1.0
176
     1
 90
        0
176
     1
 62
    18
420
        0
176
     1
 90
       50
176
     1
 90
        3
176
     1
 62
     5
420
      255
176
     1
290
     0
176
     1
 90
       50
176
     1
 90
       50
176
     1
 90
       50
176
     1
290
     0
176
     1
 90
       50
176
     1
 62
   256
176
     0
 40
1.0
176
     0
 90
        2
176
     1
  1
strokes_ogs.tif
176
     1
290
     0
176
     1
 40
1.0
176
     1
 40
1.0
176
     1
  0
VISUALSTYLE
  5
2C
102
{ACAD_REACTORS
330
2A
102
}
330
2A
100
AcDbVisualStyle
  2
FlatWithEdges
 70
     1
177
     3
291
     1
 70
    58
 90
        2
176
     1
 90
        1
176
     1
 90
        1
176
     1
 90
        2
176
     1
 40
0.6
176
     1
 40
30.0
176
     1
 62
     7
420
 16777215
176
     1
 90
        1
176
     1
 90
        0
176
     1
 62
     7
176
     1
 62
   257
176
     1
 90
        1
176
     1
 90
        1
176
     1
 40
1.0
176
     1
 90
        0
176
     1
 62
   257
176
     1
 40
1.0
176
     1
 90
        1
176
     1
 90
        6
176
     1
 90
        2
176
     1
 62
     7
176
     1
 90
        5
176
     1
 90
        0
176
     1
 90
        0
176
     1
290
     0
176
     1
 90
       13
176
     1
 40
0.0
176
     1
 90
        0
176
     1
290
     0
176
     1
290
     1
176
     1
290
     1
176
     1
290
     0
176
     1
290
     0
176
     1
290
     0
176
     1
290
     0
176
     1
290
     0
176
     1
290
     0
176
     1
 90
       50
176
     1
 40
0.0
176
     1
 40
1.0
176
     1
 90
        0
176
     1
 62
    18
420
        0
176
     1
 90
       50
176
     1
 90
        3
176
     1
 62
     5
420
      255
176
     1
290
     0
176
     1
 90
       50
176
     1
 90
       50
176
     1
 90
       50
176
     1
290
     0
176
     1
 90
       50
176
     1
 62
   256
176
     0
 40
1.0
176
     0
 90
        2
176
     1
  1
strokes_ogs.tif
176
     1
290
     0
176
     1
 40
1.0
176
     1
 40
1.0
176
     1
  0
VISUALSTYLE
  5
2D
102
{ACAD_REACTORS
330
2A
102
}
330
2A
100
AcDbVisualStyle
  2
Gouraud
 70
     2
177
     3
291
     1
 70
    58
 90
        2
176
     1
 90
        2
176
     1
 90
        1
176
     1
 90
        2
176
     1
 40
0.6
176
     1
 40
30.0
176
     1
 62
     7
420
 16777215
176
     1
 90
        0
176
     1
 90
        0
176
     1
 62
     7
176
     1
 62
   257
176
     1
 90
        1
176
     1
 90
        1
176
     1
 40
1.0
176
     1
 90
        0
176
     1
 62
     7
176
     1
 40
1.0
176
     1
 90
        1
176
     1
 90
        6
176
     1
 90
        2
176
     1
 62
     7
176
     1
 90
        5
176
     1
 90
        0
176
     1
 90
        0
176
     1
290
     0
176
     1
 90
       13
176
     1
 40
0.0
176
     1
 90
        0
176
     1
290
     0
176
     1
290
     1
176
     1
290
     1
176
     1
290
     0
176
     1
290
     0
176
     1
290
     0
176
     1
290
     0
176
     1
290
     0
176
     1
290
     0
176
     1
 90
       50
176
     1
 40
0.0
176
     1
 40
1.0
176
     1
 90
        0
176
     1
 62
    18
420
        0
176
     1
 90
       50
176
     1
 90
        3
176
     1
 62
     5
420
      255
176
     1
290
     0
176
     1
 90
       50
176
     1
 90
       50
176
     1
 90
       50
176
     1
290
     0
176
     1
 90
       50
176
     1
 62
   256
176
     0
 40
1.0
176
     0
 90
        2
176
     1
  1
strokes_ogs.tif
176
     1
290
     0
176
     1
 40
1.0
176
     1
 40
1.0
176
     1
  0
VISUALSTYLE
  5
2E
102
{ACAD_REACTORS
330
2A
102
}
330
2A
100
AcDbVisualStyle
  2
GouraudWithEdges
 70
     3
177
     3
291
     1
 70
    58
 90
        2
176
     1
 90
        2
176
     1
 90
        1
176
     1
 90
        2
176
     1
 40
0.6
176
     1
 40
30.0
176
     1
 62
     7
420
 16777215
176
     1
 90
        1
176
     1
 90
        0
176
     1
 62
     7
176
     1
 62
   257
176
     1
 90
        1
176
     1
 90
        1
176
     1
 40
1.0
176
     1
 90
        0
176
     1
 62
   257
176
     1
 40
1.0
176
     1
 90
        1
176
     1
 90
        6
176
     1
 90
        2
176
     1
 62
     7
176
     1
 90
        5
176
     1
 90
        0
176
     1
 90
        0
176
     1
290
     0
176
     1
 90
       13
176
     1
 40
0.0
176
     1
 90
        0
176
     1
290
     0
176
     1
290
     1
176
     1
290
     1
176
     1
290
     0
176
     1
290
     0
176
     1
290
     0
176
     1
290
     0
176
     1
290
     0
176
     1
290
     0
176
     1
 90
       50
176
     1
 40
0.0
176
     1
 40
1.0
176
     1
 90
        0
176
     1
 62
    18
420
        0
176
     1
 90
       50
176
     1
 90
        3
176
     1
 62
     5
420
      255
176
     1
290
     0
176
     1
 90
       50
176
     1
 90
       50
176
     1
 90
       50
176
     1
290
     0
176
     1
 90
       50
176
     1
 62
   256
176
     0
 40
1.0
176
     0
 90
        2
176
     1
  1
strokes_ogs.tif
176
     1
290
     0
176
     1
 40
1.0
176
     1
 40
1.0
176
     1
  0
VISUALSTYLE
  5
31
102
{ACAD_REACTORS
330
2A
102
}
330
2A
100
AcDbVisualStyle
  2
Hidden
 70
     6
177
     3
291
     0
 70
    58
 90
        1
176
     1
 90
        2
176
     1
 90
        2
176
     1
 90
        0
176
     1
 40
0.6
176
     1
 40
30.0
176
     1
 62
     7
420
 16777215
176
     1
 90
        2
176
     1
 90
        2
176
     1
 62
     7
176
     1
 62
   257
176
     1
 90
        2
176
     1
 90
        1
176
     1
 40
40.0
176
     1
 90
        0
176
     1
 62
   257
176
     1
 40
1.0
176
     1
 90
        1
176
     1
 90
        6
176
     1
 90
        2
176
     1
 62
     7
176
     1
 90
        3
176
     1
 90
        0
176
     1
 90
        0
176
     1
290
     0
176
     1
 90
        1
176
     1
 40
0.0
176
     1
 90
        0
176
     1
290
     0
176
     1
290
     1
176
     1
290
     1
176
     1
290
     0
176
     1
290
     0
176
     1
290
     0
176
     1
290
     0
176
     1
290
     0
176
     1
290
     0
176
     1
 90
       50
176
     1
 40
0.0
176
     1
 40
1.0
176
     1
 90
        0
176
     1
 62
    18
420
        0
176
     1
 90
       50
176
     1
 90
        3
176
     1
 62
     5
420
      255
176
     1
290
     0
176
     1
 90
       50
176
     1
 90
       50
176
     1
 90
       50
176
     1
290
     0
176
     1
 90
       50
176
     1
 62
   256
176
     0
 40
1.0
176
     0
 90
        2
176
     1
  1
strokes_ogs.tif
176
     1
290
     0
176
     1
 40
1.0
176
     1
 40
1.0
176
     1
  0
VISUALSTYLE
  5
3B
102
{ACAD_REACTORS
330
2A
102
}
330
2A
100
AcDbVisualStyle
  2
JitterOff
 70
    20
177
     3
291
     1
 70
    58
 90
        2
176
     0
 90
        2
176
     0
 90
        0
176
     0
 90
        0
176
     0
 40
0.6
176
     0
 40
30.0
176
     0
 62
     7
420
 16777215
176
     0
 90
        1
176
     0
 90
        4
176
     0
 62
     7
176
     0
 62
   257
176
     0
 90
        1
176
     0
 90
        1
176
     0
 40
1.0
176
     0
 90
       10
176
     2
 62
     7
176
     0
 40
1.0
176
     0
 90
        1
176
     0
 90
        6
176
     0
 90
        2
176
     0
 62
     7
176
     0
 90
        5
176
     0
 90
        0
176
     0
 90
        0
176
     0
290
     0
176
     0
 90
        1
176
     0
 40
0.0
176
     0
 90
        0
176
     0
290
     0
176
     0
290
     1
176
     0
290
     1
176
     0
290
     0
176
     0
290
     0
176
     0
290
     0
176
     0
290
     0
176
     0
290
     0
176
     0
290
     0
176
     0
 90
       50
176
     0
 40
0.0
176
     0
 40
1.0
176
     0
 90
        0
176
     0
 62
    18
420
        0
176
     0
 90
       50
176
     0
 90
        3
176
     0
 62
     5
420
      255
176
     0
290
     0
176
     0
 90
       50
176
     0
 90
       50
176
     0
 90
       50
176
     0
290
     0
176
     0
 90
       50
176
     0
 62
   256
176
     0
 40
1.0
176
     0
 90
        2
176
     0
  1
strokes_ogs.tif
176
     0
290
     0
176
     0
 40
1.0
176
     0
 40
1.0
176
     0
  0
VISUALSTYLE
  5
38
102
{ACAD_REACTORS
330
2A
102
}
330
2A
100
AcDbVisualStyle
  2
Linepattern
 70
    14
177
     3
291
     1
 70
    58
 90
        2
176
     1
 90
        2
176
     1
 90
        0
176
     1
 90
        0
176
     1
 40
0.6
176
     1
 40
30.0
176
     1
 62
     7
420
 16777215
176
     1
 90
        1
176
     1
 90
        4
176
     1
 62
     7
176
     1
 62
   257
176
     1
 90
        7
176
     1
 90
        7
176
     1
 40
1.0
176
     1
 90
        8
176
     1
 62
     7
176
     1
 40
1.0
176
     1
 90
        1
176
     1
 90
        6
176
     1
 90
        2
176
     1
 62
     7
176
     1
 90
        5
176
     1
 90
        0
176
     1
 90
        0
176
     1
290
     0
176
     1
 90
        1
176
     1
 40
0.0
176
     1
 90
        0
176
     1
290
     0
176
     1
290
     1
176
     1
290
     1
176
     1
290
     0
176
     1
290
     0
176
     1
290
     0
176
     1
290
     0
176
     1
290
     0
176
     1
290
     0
176
     1
 90
       50
176
     1
 40
0.0
176
     1
 40
1.0
176
     1
 90
        0
176
     1
 62
    18
420
        0
176
     1
 90
       50
176
     1
 90
        3
176
     1
 62
     5
420
      255
176
     1
290
     0
176
     1
 90
       50
176
     1
 90
       50
176
     1
 90
       50
176
     1
290
     0
176
     1
 90
       50
176
     1
 62
   256
176
     0
 40
1.0
176
     0
 90
        2
176
     1
  1
strokes_ogs.tif
176
     1
290
     0
176
     1
 40
1.0
176
     1
 40
1.0
176
     1
  0
VISUALSTYLE
  5
3C
102
{ACAD_REACTORS
330
2A
102
}
330
2A
100
AcDbVisualStyle
  2
OverhangOff
 70
    21
177
     3
291
     1
 70
    58
 90
        2
176
     0
 90
        2
176
     0
 90
        0
176
     0
 90
        0
176
     0
 40
0.6
176
     0
 40
30.0
176
     0
 62
     7
420
 16777215
176
     0
 90
        1
176
     0
 90
        4
176
     0
 62
     7
176
     0
 62
   257
176
     0
 90
        1
176
     0
 90
        1
176
     0
 40
1.0
176
     0
 90
        9
176
     2
 62
     7
176
     0
 40
1.0
176
     0
 90
        1
176
     0
 90
        6
176
     0
 90
        2
176
     0
 62
     7
176
     0
 90
        5
176
     0
 90
        0
176
     0
 90
        0
176
     0
290
     0
176
     0
 90
        1
176
     0
 40
0.0
176
     0
 90
        0
176
     0
290
     0
176
     0
290
     1
176
     0
290
     1
176
     0
290
     0
176
     0
290
     0
176
     0
290
     0
176
     0
290
     0
176
     0
290
     0
176
     0
290
     0
176
     0
 90
       50
176
     0
 40
0.0
176
     0
 40
1.0
176
     0
 90
        0
176
     0
 62
    18
420
        0
176
     0
 90
       50
176
     0
 90
        3
176
     0
 62
     5
420
      255
176
     0
290
     0
176
     0
 90
       50
176
     0
 90
       50
176
     0
 90
       50
176
     0
290
     0
176
     0
 90
       50
176
     0
 62
   256
176
     0
 40
1.0
176
     0
 90
        2
176
     0
  1
strokes_ogs.tif
176
     0
290
     0
176
     0
 40
1.0
176
     0
 40
1.0
176
     0
  0
VISUALSTYLE
  5
33
102
{ACAD_REACTORS
330
2A
102
}
330
2A
100
AcDbVisualStyle
  2
Realistic
 70
     8
177
     3
291
     0
 70
    58
 90
        2
176
     1
 90
        3
176
     1
 90
        0
176
     1
 90
        2
176
     1
 40
0.6
176
     1
 40
30.0
176
     1
 62
     7
420
 16777215
176
     1
 90
        0
176
     1
 90
        0
176
     1
 62
     7
176
     1
 62
   257
176
     1
 90
        1
176
     1
 90
        1
176
     1
 40
1.0
176
     1
 90
        8
176
     1
 62
   257
176
     1
 40
1.0
176
     1
 90
        1
176
     1
 90
        6
176
     1
 90
        2
176
     1
 62
     7
176
     1
 90
        3
176
     1
 90
        0
176
     1
 90
        0
176
     1
290
     0
176
     1
 90
       13
176
     1
 40
0.0
176
     1
 90
        0
176
     1
290
     0
176
     1
290
     1
176
     1
290
     1
176
     1
290
     0
176
     1
290
     0
176
     1
290
     0
176
     1
290
     0
176
     1
290
     0
176
     1
290
     0
176
     1
 90
       50
176
     1
 40
0.0
176
     1
 40
1.0
176
     1
 90
        0
176
     1
 62
    18
420
        0
176
     1
 90
       50
176
     1
 90
        3
176
     1
 62
     5
420
      255
176
     1
290
     0
176
     1
 90
       50
176
     1
 90
       50
176
     1
 90
       50
176
     1
290
     0
176
     1
 90
       50
176
     1
 62
   256
176
     0
 40
1.0
176
     0
 90
        2
176
     1
  1
strokes_ogs.tif
176
     1
290
     0
176
     1
 40
1.0
176
     1
 40
1.0
176
     1
  0
VISUALSTYLE
  5
42
102
{ACAD_REACTORS
330
2A
102
}
330
2A
100
AcDbVisualStyle
  2
Shaded
 70
    27
177
     3
291
     0
 70
    58
 90
        2
176
     1
 90
        2
176
     1
 90
        1
176
     1
 90
        2
176
     1
 40
0.6
176
     1
 40
30.0
176
     1
 62
     7
420
 16777215
176
     1
 90
        0
176
     1
 90
        4
176
     1
 62
     7
176
     1
 62
   257
176
     1
 90
        1
176
     1
 90
        1
176
     1
 40
1.0
176
     1
 90
        8
176
     1
 62
   257
176
     1
 40
1.0
176
     1
 90
        1
176
     1
 90
        6
176
     1
 90
        2
176
     1
 62
     8
420
  7895160
176
     1
 90
        3
176
     1
 90
        0
176
     1
 90
        0
176
     1
290
     0
176
     1
 90
        5
176
     1
 40
0.0
176
     1
 90
        0
176
     1
290
     0
176
     1
290
     1
176
     1
290
     1
176
     1
290
     0
176
     1
290
     0
176
     1
290
     0
176
     1
290
     0
176
     1
290
     0
176
     1
290
     0
176
     1
 90
       50
176
     1
 40
0.0
176
     1
 40
1.0
176
     1
 90
        0
176
     1
 62
    18
420
        0
176
     1
 90
       50
176
     1
 90
        3
176
     1
 62
     5
420
      255
176
     1
290
     0
176
     1
 90
       50
176
     1
 90
       50
176
     1
 90
       50
176
     1
290
     0
176
     1
 90
       50
176
     1
 62
   256
176
     0
 40
1.0
176
     0
 90
        2
176
     1
  1
strokes_ogs.tif
176
     1
290
     0
176
     1
 40
1.0
176
     1
 40
1.0
176
     1
  0
VISUALSTYLE
  5
41
102
{ACAD_REACTORS
330
2A
102
}
330
2A
100
AcDbVisualStyle
  2
Shaded with edges
 70
    26
177
     3
291
     0
 70
    58
 90
        2
176
     1
 90
        2
176
     1
 90
        1
176
     1
 90
        2
176
     1
 40
0.6
176
     1
 40
30.0
176
     1
 62
     7
420
 16777215
176
     1
 90
        1
176
     1
 90
       10
176
     1
 62
     7
176
     1
 62
   257
176
     1
 90
        2
176
     1
 90
        1
176
     1
 40
1.0
176
     1
 90
        8
176
     1
 62
   257
176
     1
 40
1.0
176
     1
 90
        1
176
     1
 90
        6
176
     1
 90
        2
176
     1
 62
     7
176
     1
 90
        3
176
     1
 90
        0
176
     1
 90
        0
176
     1
290
     0
176
     1
 90
        5
176
     1
 40
0.0
176
     1
 90
        0
176
     1
290
     0
176
     1
290
     1
176
     1
290
     1
176
     1
290
     0
176
     1
290
     0
176
     1
290
     0
176
     1
290
     0
176
     1
290
     0
176
     1
290
     0
176
     1
 90
       50
176
     1
 40
0.0
176
     1
 40
1.0
176
     1
 90
        0
176
     1
 62
    18
420
        0
176
     1
 90
       50
176
     1
 90
        3
176
     1
 62
     5
420
      255
176
     1
290
     0
176
     1
 90
       50
176
     1
 90
       50
176
     1
 90
       50
176
     1
290
     0
176
     1
 90
       50
176
     1
 62
   256
176
     0
 40
1.0
176
     0
 90
        2
176
     1
  1
strokes_ogs.tif
176
     1
290
     0
176
     1
 40
1.0
176
     1
 40
1.0
176
     1
  0
VISUALSTYLE
  5
3E
102
{ACAD_REACTORS
330
2A
102
}
330
2A
100
AcDbVisualStyle
  2
Shades of Gray
 70
    23
177
     3
291
     0
 70
    58
 90
        2
176
     1
 90
        2
176
     1
 90
        3
176
     1
 90
        0
176
     1
 40
0.6
176
     1
 40
30.0
176
     1
 62
     7
420
 16777215
176
     1
 90
        2
176
     1
 90
        2
176
     1
 62
     7
176
     1
 62
     7
176
     1
 90
        1
176
     1
 90
        1
176
     1
 40
40.0
176
     1
 90
        8
176
     1
 62
     7
176
     1
 40
1.0
176
     1
 90
        1
176
     1
 90
        6
176
     1
 90
        2
176
     1
 62
     7
176
     1
 90
        3
176
     1
 90
        0
176
     1
 90
        0
176
     1
290
     0
176
     1
 90
        1
176
     1
 40
0.0
176
     1
 90
        0
176
     1
290
     0
176
     1
290
     1
176
     1
290
     1
176
     1
290
     0
176
     1
290
     0
176
     1
290
     0
176
     1
290
     0
176
     1
290
     0
176
     1
290
     0
176
     1
 90
       50
176
     1
 40
0.0
176
     1
 40
1.0
176
     1
 90
        0
176
     1
 62
    18
420
        0
176
     1
 90
       50
176
     1
 90
        3
176
     1
 62
     5
420
      255
176
     1
290
     0
176
     1
 90
       50
176
     1
 90
       50
176
     1
 90
       50
176
     1
290
     0
176
     1
 90
       50
176
     1
 62
   256
176
     0
 40
1.0
176
     0
 90
        2
176
     1
  1
strokes_ogs.tif
176
     1
290
     0
176
     1
 40
1.0
176
     1
 40
1.0
176
     1
  0
VISUALSTYLE
  5
3F
102
{ACAD_REACTORS
330
2A
102
}
330
2A
100
AcDbVisualStyle
  2
Sketchy
 70
    24
177
     3
291
     0
 70
    58
 90
        1
176
     1
 90
        2
176
     1
 90
        2
176
     1
 90
        0
176
     1
 40
0.6
176
     1
 40
30.0
176
     1
 62
     7
420
 16777215
176
     1
 90
        2
176
     1
 90
        2
176
     1
 62
     7
176
     1
 62
     7
176
     1
 90
        1
176
     1
 90
        1
176
     1
 40
40.0
176
     1
 90
       11
176
     1
 62
     7
176
     1
 40
1.0
176
     1
 90
        1
176
     1
 90
        6
176
     1
 90
        2
176
     1
 62
     7
176
     1
 90
        6
176
     1
 90
        0
176
     1
 90
        0
176
     1
290
     0
176
     1
 90
        1
176
     1
 40
0.0
176
     1
 90
        0
176
     1
290
     0
176
     1
290
     1
176
     1
290
     1
176
     1
290
     0
176
     1
290
     0
176
     1
290
     0
176
     1
290
     0
176
     1
290
     0
176
     1
290
     0
176
     1
 90
       50
176
     1
 40
0.0
176
     1
 40
1.0
176
     1
 90
        0
176
     1
 62
    18
420
        0
176
     1
 90
       50
176
     1
 90
        3
176
     1
 62
     5
420
      255
176
     1
290
     0
176
     1
 90
       50
176
     1
 90
       50
176
     1
 90
       50
176
     1
290
     0
176
     1
 90
       50
176
     1
 62
   256
176
     0
 40
1.0
176
     0
 90
        2
176
     1
  1
strokes_ogs.tif
176
     1
290
     0
176
     1
 40
1.0
176
     1
 40
1.0
176
     1
  0
VISUALSTYLE
  5
37
102
{ACAD_REACTORS
330
2A
102
}
330
2A
100
AcDbVisualStyle
  2
Thicken
 70
    13
177
     3
291
     1
 70
    58
 90
        2
176
     1
 90
        2
176
     1
 90
        0
176
     1
 90
        0
176
     1
 40
0.6
176
     1
 40
30.0
176
     1
 62
     7
420
 16777215
176
     1
 90
        1
176
     1
 90
        4
176
     1
 62
     7
176
     1
 62
   257
176
     1
 90
        1
176
     1
 90
        1
176
     1
 40
1.0
176
     1
 90
       12
176
     1
 62
     7
176
     1
 40
1.0
176
     1
 90
        1
176
     1
 90
        6
176
     1
 90
        2
176
     1
 62
     7
176
     1
 90
        5
176
     1
 90
        0
176
     1
 90
        0
176
     1
290
     0
176
     1
 90
        1
176
     1
 40
0.0
176
     1
 90
        0
176
     1
290
     0
176
     1
290
     1
176
     1
290
     1
176
     1
290
     0
176
     1
290
     0
176
     1
290
     0
176
     1
290
     0
176
     1
290
     0
176
     1
290
     0
176
     1
 90
       50
176
     1
 40
0.0
176
     1
 40
1.0
176
     1
 90
        0
176
     1
 62
    18
420
        0
176
     1
 90
       50
176
     1
 90
        3
176
     1
 62
     5
420
      255
176
     1
290
     0
176
     1
 90
       50
176
     1
 90
       50
176
     1
 90
       50
176
     1
290
     0
176
     1
 90
       50
176
     1
 62
   256
176
     0
 40
1.0
176
     0
 90
        2
176
     1
  1
strokes_ogs.tif
176
     1
290
     0
176
     1
 40
1.0
176
     1
 40
1.0
176
     1
  0
VISUALSTYLE
  5
30
102
{ACAD_REACTORS
330
2A
102
}
330
2A
100
AcDbVisualStyle
  2
Wireframe
 70
     5
177
     3
291
     0
 70
    58
 90
        0
176
     1
 90
        2
176
     1
 90
        0
176
     1
 90
        0
176
     1
 40
0.6
176
     1
 40
30.0
176
     1
 62
     7
420
 16777215
176
     1
 90
        1
176
     1
 90
        4
176
     1
 62
     7
176
     1
 62
   257
176
     1
 90
        1
176
     1
 90
        1
176
     1
 40
1.0
176
     1
 90
        0
176
     1
 62
   257
176
     1
 40
1.0
176
     1
 90
        1
176
     1
 90
        6
176
     1
 90
        2
176
     1
 62
     7
176
     1
 90
        3
176
     1
 90
        0
176
     1
 90
        0
176
     1
290
     0
176
     1
 90
        1
176
     1
 40
0.0
176
     1
 90
        0
176
     1
290
     0
176
     1
290
     1
176
     1
290
     1
176
     1
290
     0
176
     1
290
     0
176
     1
290
     0
176
     1
290
     0
176
     1
290
     0
176
     1
290
     0
176
     1
 90
       50
176
     1
 40
0.0
176
     1
 40
1.0
176
     1
 90
        0
176
     1
 62
    18
420
        0
176
     1
 90
       50
176
     1
 90
        3
176
     1
 62
     5
420
      255
176
     1
290
     0
176
     1
 90
       50
176
     1
 90
       50
176
     1
 90
       50
176
     1
290
     0
176
     1
 90
       50
176
     1
 62
   256
176
     0
 40
1.0
176
     0
 90
        2
176
     1
  1
strokes_ogs.tif
176
     1
290
     0
176
     1
 40
1.0
176
     1
 40
1.0
176
     1
  0
VISUALSTYLE
  5
40
102
{ACAD_REACTORS
330
2A
102
}
330
2A
100
AcDbVisualStyle
  2
X-Ray
 70
    25
177
     3
291
     0
 70
    58
 90
        2
176
     1
 90
        2
176
     1
 90
        1
176
     1
 90
        1
176
     1
 40
0.5
176
     1
 40
30.0
176
     1
 62
     7
420
 16777215
176
     1
 90
        1
176
     1
 90
        0
176
     1
 62
     7
176
     1
 62
   257
176
     1
 90
        1
176
     1
 90
        1
176
     1
 40
1.0
176
     1
 90
        8
176
     1
 62
     7
176
     1
 40
1.0
176
     1
 90
        1
176
     1
 90
        6
176
     1
 90
        2
176
     1
 62
     7
176
     1
 90
        3
176
     1
 90
        0
176
     1
 90
        0
176
     1
290
     0
176
     1
 90
       13
176
     1
 40
0.0
176
     1
 90
        0
176
     1
290
     0
176
     1
290
     1
176
     1
290
     1
176
     1
290
     0
176
     1
290
     0
176
     1
290
     0
176
     1
290
     0
176
     1
290
     0
176
     1
290
     0
176
     1
 90
       50
176
     1
 40
0.0
176
     1
 40
1.0
176
     1
 90
        0
176
     1
 62
    18
420
        0
176
     1
 90
       50
176
     1
 90
        3
176
     1
 62
     5
420
      255
176
     1
290
     0
176
     1
 90
       50
176
     1
 90
       50
176
     1
 90
       50
176
     1
290
     0
176
     1
 90
       50
176
     1
 62
   256
176
     0
 40
1.0
176
     0
 90
        2
176
     1
  1
strokes_ogs.tif
176
     1
290
     0
176
     1
 40
1.0
176
     1
 40
1.0
176
     1
  0
DICTIONARYVAR
  5
180
102
{ACAD_REACTORS
330
17F
102
}
330
17F
100
DictionaryVariables
280
     0
  1
1:1
  0
DICTIONARYVAR
  5
185
102
{ACAD_REACTORS
330
17F
102
}
330
17F
100
DictionaryVariables
280
     0
  1
Standard
  0
DICTIONARYVAR
  5
184
102
{ACAD_REACTORS
330
17F
102
}
330
17F
100
DictionaryVariables
280
     0
  1
Standard
  0
DICTIONARY
  5
181
330
6A
100
AcDbDictionary
280
     1
281
     1
  3
ACAD_ROUNDTRIP_2008_TABLESTYLE_CELLSTYLEMAP
360
182
  0
CELLSTYLEMAP
  5
182
102
{ACAD_REACTORS
330
181
102
}
330
181
100
AcDbCellStyleMap
 90
        3
300
CELLSTYLE
  1
TABLEFORMAT_BEGIN
 90
        5
170
     1
 91
        0
 92
    32768
 62
   257
 93
        1
300
CONTENTFORMAT
  1
CONTENTFORMAT_BEGIN
 90
        0
 91
        0
 92
        4
 93
        0
300

 40
0.0
140
1.0
 94
        5
 62
     0
340
11
144
0.25
309
CONTENTFORMAT_END
171
     1
301
MARGIN
  1
CELLMARGIN_BEGIN
 40
0.06
 40
0.06
 40
0.06
 40
0.06
 40
0.06
 40
0.06
309
CELLMARGIN_END
 94
        6
 95
        1
302
GRIDFORMAT
  1
GRIDFORMAT_BEGIN
 90
        0
 91
        1
 62
     0
 92
       -2
340
14
 93
        0
 40
0.045
309
GRIDFORMAT_END
 95
        2
302
GRIDFORMAT
  1
GRIDFORMAT_BEGIN
 90
        0
 91
        1
 62
     0
 92
       -2
340
14
 93
        0
 40
0.045
309
GRIDFORMAT_END
 95
        4
302
GRIDFORMAT
  1
GRIDFORMAT_BEGIN
 90
        0
 91
        1
 62
     0
 92
       -2
340
14
 93
        0
 40
0.045
309
GRIDFORMAT_END
 95
        8
302
GRIDFORMAT
  1
GRIDFORMAT_BEGIN
 90
        0
 91
        1
 62
     0
 92
       -2
340
14
 93
        0
 40
0.045
309
GRIDFORMAT_END
 95
       16
302
GRIDFORMAT
  1
GRIDFORMAT_BEGIN
 90
        0
 91
        1
 62
     0
 92
       -2
340
14
 93
        0
 40
0.045
309
GRIDFORMAT_END
 95
       32
302
GRIDFORMAT
  1
GRIDFORMAT_BEGIN
 90
        0
 91
        1
 62
     0
 92
       -2
340
14
 93
        0
 40
0.045
309
GRIDFORMAT_END
309
TABLEFORMAT_END
  1
CELLSTYLE_BEGIN
 90
        1
 91
        1
300
_TITLE
309
CELLSTYLE_END
300
CELLSTYLE
  1
TABLEFORMAT_BEGIN
 90
        5
170
     1
 91
        0
 92
        0
 62
   257
 93
        1
300
CONTENTFORMAT
  1
CONTENTFORMAT_BEGIN
 90
        0
 91
        0
 92
        4
 93
        0
300

 40
0.0
140
1.0
 94
        5
 62
     0
340
11
144
0.18
309
CONTENTFORMAT_END
171
     1
301
MARGIN
  1
CELLMARGIN_BEGIN
 40
0.06
 40
0.06
 40
0.06
 40
0.06
 40
0.06
 40
0.06
309
CELLMARGIN_END
 94
        6
 95
        1
302
GRIDFORMAT
  1
GRIDFORMAT_BEGIN
 90
        0
 91
        1
 62
     0
 92
       -2
340
14
 93
        0
 40
0.045
309
GRIDFORMAT_END
 95
        2
302
GRIDFORMAT
  1
GRIDFORMAT_BEGIN
 90
        0
 91
        1
 62
     0
 92
       -2
340
14
 93
        0
 40
0.045
309
GRIDFORMAT_END
 95
        4
302
GRIDFORMAT
  1
GRIDFORMAT_BEGIN
 90
        0
 91
        1
 62
     0
 92
       -2
340
14
 93
        0
 40
0.045
309
GRIDFORMAT_END
 95
        8
302
GRIDFORMAT
  1
GRIDFORMAT_BEGIN
 90
        0
 91
        1
 62
     0
 92
       -2
340
14
 93
        0
 40
0.045
309
GRIDFORMAT_END
 95
       16
302
GRIDFORMAT
  1
GRIDFORMAT_BEGIN
 90
        0
 91
        1
 62
     0
 92
       -2
340
14
 93
        0
 40
0.045
309
GRIDFORMAT_END
 95
       32
302
GRIDFORMAT
  1
GRIDFORMAT_BEGIN
 90
        0
 91
        1
 62
     0
 92
       -2
340
14
 93
        0
 40
0.045
309
GRIDFORMAT_END
309
TABLEFORMAT_END
  1
CELLSTYLE_BEGIN
 90
        2
 91
        1
300
_HEADER
309
CELLSTYLE_END
300
CELLSTYLE
  1
TABLEFORMAT_BEGIN
 90
        5
170
     1
 91
        0
 92
        0
 62
   257
 93
        1
300
CONTENTFORMAT
  1
CONTENTFORMAT_BEGIN
 90
        0
 91
        0
 92
        4
 93
        0
300

 40
0.0
140
1.0
 94
        2
 62
     0
340
11
144
0.18
309
CONTENTFORMAT_END
171
     1
301
MARGIN
  1
CELLMARGIN_BEGIN
 40
0.06
 40
0.06
 40
0.06
 40
0.06
 40
0.06
 40
0.06
309
CELLMARGIN_END
 94
        6
 95
        1
302
GRIDFORMAT
  1
GRIDFORMAT_BEGIN
 90
        0
 91
        1
 62
     0
 92
       -2
340
14
 93
        0
 40
0.045
309
GRIDFORMAT_END
 95
        2
302
GRIDFORMAT
  1
GRIDFORMAT_BEGIN
 90
        0
 91
        1
 62
     0
 92
       -2
340
14
 93
        0
 40
0.045
309
GRIDFORMAT_END
 95
        4
302
GRIDFORMAT
  1
GRIDFORMAT_BEGIN
 90
        0
 91
        1
 62
     0
 92
       -2
340
14
 93
        0
 40
0.045
309
GRIDFORMAT_END
 95
        8
302
GRIDFORMAT
  1
GRIDFORMAT_BEGIN
 90
        0
 91
        1
 62
     0
 92
       -2
340
14
 93
        0
 40
0.045
309
GRIDFORMAT_END
 95
       16
302
GRIDFORMAT
  1
GRIDFORMAT_BEGIN
 90
        0
 91
        1
 62
     0
 92
       -2
340
14
 93
        0
 40
0.045
309
GRIDFORMAT_END
 95
       32
302
GRIDFORMAT
  1
GRIDFORMAT_BEGIN
 90
        0
 91
        1
 62
     0
 92
       -2
340
14
 93
        0
 40
0.045
309
GRIDFORMAT_END
309
TABLEFORMAT_END
  1
CELLSTYLE_BEGIN
 90
        3
 91
        2
300
_DATA
309
CELLSTYLE_END
  0
ENDSEC
  0
EOF