0
SECTION
  2
HEADER
  9
$ACADVER
  1
AC1027
  9
$ACADMAINTVER
 70
     8
  9
$DWGCODEPAGE
  3
ANSI_1252
  9
$REQUIREDVERSIONS
160
                 0
  9
$COMMENTS
  1
File was created by Cadenas
  9
$CUSTOMPROPERTYTAG
  1
NN
  9
$CUSTOMPROPERTY
  1
D-Lok Tapped Base Metric Bore - Polymer Housing, Corrosion Resistant Insert
  9
$CUSTOMPROPERTYTAG
  1
NT
  9
$CUSTOMPROPERTY
  1
DLEZ Normal Duty Polymer Housed Tapped Base Pillow Blocks
  9
$CUSTOMPROPERTYTAG
  1
NB
  9
$CUSTOMPROPERTY
  1
127633
  9
$CUSTOMPROPERTYTAG
  1
NBSYN
  9
$CUSTOMPROPERTY
  1
$PN.
  9
$CUSTOMPROPERTYTAG
  1
LINA
  9
$CUSTOMPROPERTY
  1
127633
  9
$CUSTOMPROPERTYTAG
  1
SERIES
  9
$CUSTOMPROPERTY
  1
207
  9
$CUSTOMPROPERTYTAG
  1
SS
  9
$CUSTOMPROPERTY
  1
35
  9
$CUSTOMPROPERTYTAG
  1
PN
  9
$CUSTOMPROPERTY
  1
127633
  9
$CUSTOMPROPERTYTAG
  1
DESCRIPTION
  9
$CUSTOMPROPERTY
  1
TB-DLEZ-35M-PCR
  9
$CUSTOMPROPERTYTAG
  1
W
  9
$CUSTOMPROPERTY
  1
1.11
  9
$CUSTOMPROPERTYTAG
  1
A
  9
$CUSTOMPROPERTY
  1
44.5
  9
$CUSTOMPROPERTYTAG
  1
B
  9
$CUSTOMPROPERTY
  1
117.6
  9
$CUSTOMPROPERTYTAG
  1
C
  9
$CUSTOMPROPERTY
  1
48.0
  9
$CUSTOMPROPERTYTAG
  1
D
  9
$CUSTOMPROPERTY
  1
82.6
  9
$CUSTOMPROPERTYTAG
  1
J
  9
$CUSTOMPROPERTY
  1
97.0
  9
$CUSTOMPROPERTYTAG
  1
L
  9
$CUSTOMPROPERTY
  1
68.3
  9
$CUSTOMPROPERTYTAG
  1
M
  9
$CUSTOMPROPERTY
  1
47.6
  9
$CUSTOMPROPERTYTAG
  1
N
  9
$CUSTOMPROPERTY
  1
14.0
  9
$CUSTOMPROPERTYTAG
  1
R
  9
$CUSTOMPROPERTY
  1
M12x1.75
  9
$CUSTOMPROPERTYTAG
  1
S
  9
$CUSTOMPROPERTY
  1
27.4
  9
$CUSTOMPROPERTYTAG
  1
COMPANY
  9
$CUSTOMPROPERTY
  1
baldor
  9
$INSBASE
 10
0.0
 20
0.0
 30
0.0
  9
$EXTMIN
 10
1.000000000000000E+20
 20
1.000000000000000E+20
 30
1.000000000000000E+20
  9
$EXTMAX
 10
-1.000000000000000E+20
 20
-1.000000000000000E+20
 30
-1.000000000000000E+20
  9
$LIMMIN
 10
0.0
 20
0.0
  9
$LIMMAX
 10
420.0
 20
297.0
  9
$ORTHOMODE
 70
     0
  9
$REGENMODE
 70
     1
  9
$FILLMODE
 70
     1
  9
$QTEXTMODE
 70
     0
  9
$MIRRTEXT
 70
     1
  9
$LTSCALE
 40
1.0
  9
$ATTMODE
 70
     1
  9
$TEXTSIZE
 40
2.5
  9
$TRACEWID
 40
1.0
  9
$TEXTSTYLE
  7
Standard
  9
$CLAYER
  8
0
  9
$CELTYPE
  6
ByLayer
  9
$CECOLOR
 62
   256
  9
$CELTSCALE
 40
1.0
  9
$DISPSILH
 70
     0
  9
$DIMSCALE
 40
1.0
  9
$DIMASZ
 40
2.5
  9
$DIMEXO
 40
0.625
  9
$DIMDLI
 40
3.75
  9
$DIMRND
 40
0.0
  9
$DIMDLE
 40
0.0
  9
$DIMEXE
 40
1.25
  9
$DIMTP
 40
0.0
  9
$DIMTM
 40
0.0
  9
$DIMTXT
 40
2.5
  9
$DIMCEN
 40
2.5
  9
$DIMTSZ
 40
0.0
  9
$DIMTOL
 70
     0
  9
$DIMLIM
 70
     0
  9
$DIMTIH
 70
     0
  9
$DIMTOH
 70
     0
  9
$DIMSE1
 70
     0
  9
$DIMSE2
 70
     0
  9
$DIMTAD
 70
     1
  9
$DIMZIN
 70
     8
  9
$DIMBLK
  1

  9
$DIMASO
 70
     1
  9
$DIMSHO
 70
     1
  9
$DIMPOST
  1

  9
$DIMAPOST
  1

  9
$DIMALT
 70
     0
  9
$DIMALTD
 70
     3
  9
$DIMALTF
 40
0.03937007874016
  9
$DIMLFAC
 40
1.0
  9
$DIMTOFL
 70
     1
  9
$DIMTVP
 40
0.0
  9
$DIMTIX
 70
     0
  9
$DIMSOXD
 70
     0
  9
$DIMSAH
 70
     0
  9
$DIMBLK1
  1

  9
$DIMBLK2
  1

  9
$DIMSTYLE
  2
ISO-25
  9
$DIMCLRD
 70
     0
  9
$DIMCLRE
 70
     0
  9
$DIMCLRT
 70
     0
  9
$DIMTFAC
 40
1.0
  9
$DIMGAP
 40
0.625
  9
$DIMJUST
 70
     0
  9
$DIMSD1
 70
     0
  9
$DIMSD2
 70
     0
  9
$DIMTOLJ
 70
     0
  9
$DIMTZIN
 70
     8
  9
$DIMALTZ
 70
     0
  9
$DIMALTTZ
 70
     0
  9
$DIMUPT
 70
     0
  9
$DIMDEC
 70
     2
  9
$DIMTDEC
 70
     2
  9
$DIMALTU
 70
     2
  9
$DIMALTTD
 70
     3
  9
$DIMTXSTY
  7
Standard
  9
$DIMAUNIT
 70
     0
  9
$DIMADEC
 70
     0
  9
$DIMALTRND
 40
0.0
  9
$DIMAZIN
 70
     0
  9
$DIMDSEP
 70
    44
  9
$DIMATFIT
 70
     3
  9
$DIMFRAC
 70
     0
  9
$DIMLDRBLK
  1

  9
$DIMLUNIT
 70
     2
  9
$DIMLWD
 70
    -2
  9
$DIMLWE
 70
    -2
  9
$DIMTMOVE
 70
     0
  9
$DIMFXL
 40
1.0
  9
$DIMFXLON
 70
     0
  9
$DIMJOGANG
 40
0.7853981633974483
  9
$DIMTFILL
 70
     0
  9
$DIMTFILLCLR
 70
     0
  9
$DIMARCSYM
 70
     0
  9
$DIMLTYPE
  6

  9
$DIMLTEX1
  6

  9
$DIMLTEX2
  6

  9
$DIMTXTDIRECTION
 70
     0
  9
$LUNITS
 70
     2
  9
$LUPREC
 70
     4
  9
$SKETCHINC
 40
1.0
  9
$FILLETRAD
 40
10.0
  9
$AUNITS
 70
     0
  9
$AUPREC
 70
     0
  9
$MENU
  1
.
  9
$ELEVATION
 40
0.0
  9
$PELEVATION
 40
0.0
  9
$THICKNESS
 40
0.0
  9
$LIMCHECK
 70
     0
  9
$CHAMFERA
 40
0.0
  9
$CHAMFERB
 40
0.0
  9
$CHAMFERC
 40
0.0
  9
$CHAMFERD
 40
0.0
  9
$SKPOLY
 70
     0
  9
$TDCREATE
 40
2458168.96525522
  9
$TDUCREATE
 40
2458168.923588553
  9
$TDUPDATE
 40
2458168.96525522
  9
$TDUUPDATE
 40
2458168.923588553
  9
$TDINDWG
 40
0.0000000116
  9
$TDUSRTIMER
 40
0.0000000116
  9
$USRTIMER
 70
     1
  9
$ANGBASE
 50
0.0
  9
$ANGDIR
 70
     0
  9
$PDMODE
 70
     0
  9
$PDSIZE
 40
0.0
  9
$PLINEWID
 40
0.0
  9
$SPLFRAME
 70
     0
  9
$SPLINETYPE
 70
     6
  9
$SPLINESEGS
 70
     8
  9
$HANDSEED
  5
182
  9
$SURFTAB1
 70
     6
  9
$SURFTAB2
 70
     6
  9
$SURFTYPE
 70
     6
  9
$SURFU
 70
     6
  9
$SURFV
 70
     6
  9
$UCSBASE
  2

  9
$UCSNAME
  2

  9
$UCSORG
 10
0.0
 20
0.0
 30
0.0
  9
$UCSXDIR
 10
1.0
 20
0.0
 30
0.0
  9
$UCSYDIR
 10
0.0
 20
1.0
 30
0.0
  9
$UCSORTHOREF
  2

  9
$UCSORTHOVIEW
 70
     0
  9
$UCSORGTOP
 10
0.0
 20
0.0
 30
0.0
  9
$UCSORGBOTTOM
 10
0.0
 20
0.0
 30
0.0
  9
$UCSORGLEFT
 10
0.0
 20
0.0
 30
0.0
  9
$UCSORGRIGHT
 10
0.0
 20
0.0
 30
0.0
  9
$UCSORGFRONT
 10
0.0
 20
0.0
 30
0.0
  9
$UCSORGBACK
 10
0.0
 20
0.0
 30
0.0
  9
$PUCSBASE
  2

  9
$PUCSNAME
  2

  9
$PUCSORG
 10
0.0
 20
0.0
 30
0.0
  9
$PUCSXDIR
 10
1.0
 20
0.0
 30
0.0
  9
$PUCSYDIR
 10
0.0
 20
1.0
 30
0.0
  9
$PUCSORTHOREF
  2

  9
$PUCSORTHOVIEW
 70
     0
  9
$PUCSORGTOP
 10
0.0
 20
0.0
 30
0.0
  9
$PUCSORGBOTTOM
 10
0.0
 20
0.0
 30
0.0
  9
$PUCSORGLEFT
 10
0.0
 20
0.0
 30
0.0
  9
$PUCSORGRIGHT
 10
0.0
 20
0.0
 30
0.0
  9
$PUCSORGFRONT
 10
0.0
 20
0.0
 30
0.0
  9
$PUCSORGBACK
 10
0.0
 20
0.0
 30
0.0
  9
$USERI1
 70
     0
  9
$USERI2
 70
     0
  9
$USERI3
 70
     0
  9
$USERI4
 70
     0
  9
$USERI5
 70
     0
  9
$USERR1
 40
0.0
  9
$USERR2
 40
0.0
  9
$USERR3
 40
0.0
  9
$USERR4
 40
0.0
  9
$USERR5
 40
0.0
  9
$WORLDVIEW
 70
     1
  9
$SHADEDGE
 70
     3
  9
$SHADEDIF
 70
    70
  9
$TILEMODE
 70
     1
  9
$MAXACTVP
 70
    64
  9
$PINSBASE
 10
0.0
 20
0.0
 30
0.0
  9
$PLIMCHECK
 70
     0
  9
$PEXTMIN
 10
1.000000000000000E+20
 20
1.000000000000000E+20
 30
1.000000000000000E+20
  9
$PEXTMAX
 10
-1.000000000000000E+20
 20
-1.000000000000000E+20
 30
-1.000000000000000E+20
  9
$PLIMMIN
 10
0.0
 20
0.0
  9
$PLIMMAX
 10
420.0
 20
297.0
  9
$UNITMODE
 70
     0
  9
$VISRETAIN
 70
     1
  9
$PLINEGEN
 70
     0
  9
$PSLTSCALE
 70
     1
  9
$TREEDEPTH
 70
  3020
  9
$CMLSTYLE
  2
Standard
  9
$CMLJUST
 70
     0
  9
$CMLSCALE
 40
20.0
  9
$PROXYGRAPHICS
 70
     1
  9
$MEASUREMENT
 70
     1
  9
$CELWEIGHT
370
    -1
  9
$ENDCAPS
280
     0
  9
$JOINSTYLE
280
     0
  9
$LWDISPLAY
290
     0
  9
$INSUNITS
 70
     4
  9
$HYPERLINKBASE
  1

  9
$STYLESHEET
  1

  9
$XEDIT
290
     1
  9
$CEPSNTYPE
380
     0
  9
$PSTYLEMODE
290
     1
  9
$FINGERPRINTGUID
  2
{53A3F606-DFAE-40DB-98A5-6EB4A2A08859}
  9
$VERSIONGUID
  2
{FAEB1C32-E019-11D5-929B-00C0DF256EC4}
  9
$EXTNAMES
290
     1
  9
$PSVPSCALE
 40
0.0
  9
$OLESTARTUP
290
     0
  9
$SORTENTS
280
   127
  9
$INDEXCTL
280
     0
  9
$HIDETEXT
280
     1
  9
$XCLIPFRAME
280
     2
  9
$HALOGAP
280
     0
  9
$OBSCOLOR
 70
   257
  9
$OBSLTYPE
280
     0
  9
$INTERSECTIONDISPLAY
280
     0
  9
$INTERSECTIONCOLOR
 70
   257
  9
$DIMASSOC
280
     2
  9
$PROJECTNAME
  1

  9
$CAMERADISPLAY
290
     0
  9
$LENSLENGTH
 40
50.0
  9
$CAMERAHEIGHT
 40
0.0
  9
$STEPSPERSEC
 40
2.0
  9
$STEPSIZE
 40
6.0
  9
$3DDWFPREC
 40
2.0
  9
$PSOLWIDTH
 40
5.0
  9
$PSOLHEIGHT
 40
80.0
  9
$LOFTANG1
 40
1.570796326794897
  9
$LOFTANG2
 40
1.570796326794897
  9
$LOFTMAG1
 40
0.0
  9
$LOFTMAG2
 40
0.0
  9
$LOFTPARAM
 70
     7
  9
$LOFTNORMALS
280
     1
  9
$LATITUDE
 40
37.795
  9
$LONGITUDE
 40
-122.394
  9
$NORTHDIRECTION
 40
0.0
  9
$TIMEZONE
 70
 -8000
  9
$LIGHTGLYPHDISPLAY
280
     1
  9
$TILEMODELIGHTSYNCH
280
     1
  9
$CMATERIAL
347
44
  9
$SOLIDHIST
280
     0
  9
$SHOWHIST
280
     1
  9
$DWFFRAME
280
     2
  9
$DGNFRAME
280
     2
  9
$REALWORLDSCALE
290
     1
  9
$INTERFERECOLOR
 62
   256
  9
$CSHADOW
280
     0
  9
$SHADOWPLANELOCATION
 40
0.0
  0
ENDSEC
  0
SECTION
  2
CLASSES
  0
CLASS
  1
ACDBDICTIONARYWDFLT
  2
AcDbDictionaryWithDefault
  3
ObjectDBX Classes
 90
        0
 91
        4
280
     0
281
     0
  0
CLASS
  1
VISUALSTYLE
  2
AcDbVisualStyle
  3
ObjectDBX Classes
 90
     4095
 91
        4
280
     0
281
     0
  0
CLASS
  1
MATERIAL
  2
AcDbMaterial
  3
ObjectDBX Classes
 90
     1153
 91
        4
280
     0
281
     0
  0
CLASS
  1
SCALE
  2
AcDbScale
  3
ObjectDBX Classes
 90
     1153
 91
        4
280
     0
281
     0
  0
CLASS
  1
TABLESTYLE
  2
AcDbTableStyle
  3
ObjectDBX Classes
 90
     4095
 91
        4
280
     0
281
     0
  0
CLASS
  1
MLEADERSTYLE
  2
AcDbMLeaderStyle
  3
ACDB_MLEADERSTYLE_CLASS
 90
     4095
 91
        4
280
     0
281
     0
  0
CLASS
  1
SUN
  2
AcDbSun
  3
SCENEOE
 90
     1153
 91
        4
280
     0
281
     0
  0
CLASS
  1
DICTIONARYVAR
  2
AcDbDictionaryVar
  3
ObjectDBX Classes
 90
        0
 91
        4
280
     0
281
     0
  0
CLASS
  1
CELLSTYLEMAP
  2
AcDbCellStyleMap
  3
ObjectDBX Classes
 90
     1152
 91
        4
280
     0
281
     0
  0
ENDSEC
  0
SECTION
  2
TABLES
  0
TABLE
  2
VPORT
  5
8
330
0
100
AcDbSymbolTable
 70
     1
  0
VPORT
  5
29
330
8
100
AcDbSymbolTableRecord
100
AcDbViewportTableRecord
  2
*Active
 70
     0
 10
0.0
 20
0.0
 11
1.0
 21
1.0
 12
-1.609999999999957
 22
0.3720662272446305
 13
0.0
 23
0.0
 14
10.0
 24
10.0
 15
10.0
 25
10.0
 16
0.0
 26
0.0
 36
1.0
 17
0.0
 27
0.0
 37
0.0
 40
100.016984896421
 41
0.5713069641038987
 42
50.0
 43
0.0
 44
0.0
 50
0.0
 51
0.0
 71
     0
 72
   100
 73
     1
 74
     3
 75
     0
 76
     0
 77
     0
 78
     0
281
     0
 65
     1
110
0.0
120
0.0
130
0.0
111
1.0
121
0.0
131
0.0
112
0.0
122
1.0
132
0.0
 79
     0
146
0.0
348
2F
 60
     3
 61
     5
292
     1
282
     1
141
0.0
142
0.0
 63
   250
361
6D
  0
ENDTAB
  0
TABLE
  2
LTYPE
  5
5
330
0
100
AcDbSymbolTable
 70
     3
  0
LTYPE
  5
14
330
5
100
AcDbSymbolTableRecord
100
AcDbLinetypeTableRecord
  2
ByBlock
 70
     0
  3

 72
    65
 73
     0
 40
0.0
  0
LTYPE
  5
15
330
5
100
AcDbSymbolTableRecord
100
AcDbLinetypeTableRecord
  2
ByLayer
 70
     0
  3

 72
    65
 73
     0
 40
0.0
  0
LTYPE
  5
16
330
5
100
AcDbSymbolTableRecord
100
AcDbLinetypeTableRecord
  2
Continuous
 70
     0
  3
Solid line
 72
    65
 73
     0
 40
0.0
  0
LTYPE
  5
A0
330
5
100
AcDbSymbolTableRecord
100
AcDbLinetypeTableRecord
  2
Dashed
 70
     0
  3

 72
    65
 73
     2
 40
2.0
 49
1.0
 74
     0
 49
-1.0
 74
     0
  0
LTYPE
  5
169
330
5
100
AcDbSymbolTableRecord
100
AcDbLinetypeTableRecord
  2
Center
 70
     0
  3

 72
    65
 73
     4
 40
1.5
 49
0.45
 74
     0
 49
-0.5
 74
     0
 49
0.05
 74
     0
 49
-0.5
 74
     0
  0
ENDTAB
  0
TABLE
  2
LAYER
  5
2
330
0
100
AcDbSymbolTable
 70
     7
  0
LAYER
  5
10
330
2
100
AcDbSymbolTableRecord
100
AcDbLayerTableRecord
  2
0
 70
     0
 62
     7
  6
Continuous
370
    -3
390
F
347
46
348
0
  0
LAYER
  5
72
330
2
100
AcDbSymbolTableRecord
100
AcDbLayerTableRecord
  2
AM_6
 70
     0
 62
    -2
  6
Continuous
370
    35
390
F
347
46
348
0
  0
LAYER
  5
A1
330
2
100
AcDbSymbolTableRecord
100
AcDbLayerTableRecord
  2
AM_9
 70
     0
 62
     6
  6
Dashed
370
    25
390
F
347
46
348
0
  0
LAYER
  5
C3
330
2
100
AcDbSymbolTableRecord
100
AcDbLayerTableRecord
  2
AM_4
 70
     0
 62
     7
  6
Continuous
370
    50
390
F
347
46
348
0
  0
LAYER
  5
163
330
2
100
AcDbSymbolTableRecord
100
AcDbLayerTableRecord
  2
AM_5
 70
     0
 62
     3
  6
Continuous
370
    25
390
F
347
46
348
0
  0
LAYER
  5
16A
330
2
100
AcDbSymbolTableRecord
100
AcDbLayerTableRecord
  2
AM_7
 70
     0
 62
     7
  6
Center
370
    25
390
F
347
46
348
0
  0
LAYER
  5
174
330
2
100
AcDbSymbolTableRecord
100
AcDbLayerTableRecord
  2
ConnectionPoints
 70
     0
 62
     7
  6
Continuous
370
    50
390
F
347
46
348
0
  0
ENDTAB
  0
TABLE
  2
STYLE
  5
3
330
0
100
AcDbSymbolTable
 70
     1
  0
STYLE
  5
11
330
3
100
AcDbSymbolTableRecord
100
AcDbTextStyleTableRecord
  2
Standard
 70
     0
 40
0.0
 41
1.0
 50
0.0
 71
     0
 42
2.5
  3
txt
  4

  0
ENDTAB
  0
TABLE
  2
VIEW
  5
6
330
0
100
AcDbSymbolTable
 70
     0
  0
ENDTAB
  0
TABLE
  2
UCS
  5
7
330
0
100
AcDbSymbolTable
 70
     0
  0
ENDTAB
  0
TABLE
  2
APPID
  5
9
330
0
100
AcDbSymbolTable
 70
     1
  0
APPID
  5
12
330
9
100
AcDbSymbolTableRecord
100
AcDbRegAppTableRecord
  2
ACAD
 70
     0
  0
ENDTAB
  0
TABLE
  2
DIMSTYLE
  5
A
330
0
100
AcDbSymbolTable
 70
     1
100
AcDbDimStyleTable
  0
DIMSTYLE
105
27
330
A
100
AcDbSymbolTableRecord
100
AcDbDimStyleTableRecord
  2
ISO-25
 70
     0
 41
2.5
 42
0.625
 43
3.75
 44
1.25
 73
     0
 74
     0
 77
     1
 78
     8
140
2.5
141
2.5
143
0.03937007874016
147
0.625
171
     3
172
     1
178
     0
271
     2
272
     2
274
     3
278
    44
283
     0
284
     8
340
11
  0
ENDTAB
  0
TABLE
  2
BLOCK_RECORD
  5
1
330
0
100
AcDbSymbolTable
 70
     5
  0
BLOCK_RECORD
  5
1F
330
1
100
AcDbSymbolTableRecord
100
AcDbBlockTableRecord
  2
*Model_Space
340
22
 70
     0
280
     1
281
     0
  0
BLOCK_RECORD
  5
1B
330
1
100
AcDbSymbolTableRecord
100
AcDbBlockTableRecord
  2
*Paper_Space
340
1E
 70
     0
280
     1
281
     0
  0
BLOCK_RECORD
  5
23
330
1
100
AcDbSymbolTableRecord
100
AcDbBlockTableRecord
  2
*Paper_Space0
340
26
 70
     0
280
     1
281
     0
  0
BLOCK_RECORD
  5
6E
330
1
100
AcDbSymbolTableRecord
100
AcDbBlockTableRecord
  2
1_127633_2
340
0
102
{BLKREFS
331
6F
102
}
 70
     0
280
     1
281
     0
  0
BLOCK_RECORD
  5
88
330
1
100
AcDbSymbolTableRecord
100
AcDbBlockTableRecord
  2
2_126632_0_in_127633_2
340
0
102
{BLKREFS
331
89
102
}
 70
     0
280
     1
281
     0
  0
BLOCK_RECORD
  5
D1
330
1
100
AcDbSymbolTableRecord
100
AcDbBlockTableRecord
  2
3_405020c_M_0_in_127633_2
340
0
102
{BLKREFS
331
D2
102
}
 70
     0
280
     1
281
     0
  0
BLOCK_RECORD
  5
12E
330
1
100
AcDbSymbolTableRecord
100
AcDbBlockTableRecord
  2
4_127633h_0_in_127633_2
340
0
102
{BLKREFS
331
12F
102
}
 70
     0
280
     1
281
     0
  0
ENDTAB
  0
ENDSEC
  0
SECTION
  2
BLOCKS
  0
BLOCK
  5
20
330
1F
100
AcDbEntity
  8
0
100
AcDbBlockBegin
  2
*Model_Space
 70
     0
 10
0.0
 20
0.0
 30
0.0
  3
*Model_Space
  1

  0
ENDBLK
  5
21
330
1F
100
AcDbEntity
  8
0
100
AcDbBlockEnd
  0
BLOCK
  5
1C
330
1B
100
AcDbEntity
 67
     1
  8
0
100
AcDbBlockBegin
  2
*Paper_Space
 70
     0
 10
0.0
 20
0.0
 30
0.0
  3
*Paper_Space
  1

  0
ENDBLK
  5
1D
330
1B
100
AcDbEntity
 67
     1
  8
0
100
AcDbBlockEnd
  0
BLOCK
  5
24
330
23
100
AcDbEntity
  8
0
100
AcDbBlockBegin
  2
*Paper_Space0
 70
     0
 10
0.0
 20
0.0
 30
0.0
  3
*Paper_Space0
  1

  0
ENDBLK
  5
25
330
23
100
AcDbEntity
  8
0
100
AcDbBlockEnd
  0
BLOCK
  5
70
330
6E
100
AcDbEntity
  8
0
100
AcDbBlockBegin
  2
1_127633_2
 70
     2
 10
0.0
 20
0.0
 30
0.0
  3
1_127633_2
  1

  0
ATTDEF
  5
73
330
6E
100
AcDbEntity
  8
AM_6
100
AcDbText
 10
31.4
 20
49.40000000000001
 30
0.0
 40
0.5
  1
D-Lok Tapped Base Metric Bore - Polymer Housing, Corrosion Resistant Insert
100
AcDbAttributeDefinition
  3

  2
NN
 70
     8
280
     0
  0
ATTDEF
  5
74
330
6E
100
AcDbEntity
  8
AM_6
100
AcDbText
 10
31.4
 20
48.90000000000001
 30
0.0
 40
0.5
  1
DLEZ Normal Duty Polymer Housed Tapped Base Pillow Blocks
100
AcDbAttributeDefinition
  3

  2
NT
 70
     8
280
     0
  0
ATTDEF
  5
75
330
6E
100
AcDbEntity
  8
AM_6
100
AcDbText
 10
31.4
 20
48.40000000000001
 30
0.0
 40
0.5
  1
127633
100
AcDbAttributeDefinition
  3

  2
NB
 70
     8
280
     0
  0
ATTDEF
  5
76
330
6E
100
AcDbEntity
  8
AM_6
100
AcDbText
 10
31.4
 20
47.90000000000001
 30
0.0
 40
0.5
  1
$PN.
100
AcDbAttributeDefinition
  3

  2
NBSYN
 70
     8
280
     0
  0
ATTDEF
  5
77
330
6E
100
AcDbEntity
  8
AM_6
100
AcDbText
 10
31.4
 20
47.40000000000001
 30
0.0
 40
0.5
  1
127633
100
AcDbAttributeDefinition
  3

  2
LINA
 70
     8
280
     0
  0
ATTDEF
  5
78
330
6E
100
AcDbEntity
  8
AM_6
100
AcDbText
 10
31.4
 20
46.90000000000001
 30
0.0
 40
0.5
  1
207
100
AcDbAttributeDefinition
  3

  2
SERIES
 70
     8
280
     0
  0
ATTDEF
  5
79
330
6E
100
AcDbEntity
  8
AM_6
100
AcDbText
 10
31.4
 20
46.40000000000001
 30
0.0
 40
0.5
  1
35
100
AcDbAttributeDefinition
  3

  2
SS
 70
     8
280
     0
  0
ATTDEF
  5
7A
330
6E
100
AcDbEntity
  8
AM_6
100
AcDbText
 10
31.4
 20
45.90000000000001
 30
0.0
 40
0.5
  1
127633
100
AcDbAttributeDefinition
  3

  2
PN
 70
     8
280
     0
  0
ATTDEF
  5
7B
330
6E
100
AcDbEntity
  8
AM_6
100
AcDbText
 10
31.4
 20
45.40000000000001
 30
0.0
 40
0.5
  1
TB-DLEZ-35M-PCR
100
AcDbAttributeDefinition
  3

  2
DESCRIPTION
 70
     8
280
     0
  0
ATTDEF
  5
7C
330
6E
100
AcDbEntity
  8
AM_6
100
AcDbText
 10
31.4
 20
44.90000000000001
 30
0.0
 40
0.5
  1
1.11
100
AcDbAttributeDefinition
  3

  2
W
 70
     8
280
     0
  0
ATTDEF
  5
7D
330
6E
100
AcDbEntity
  8
AM_6
100
AcDbText
 10
31.4
 20
44.40000000000001
 30
0.0
 40
0.5
  1
44.5
100
AcDbAttributeDefinition
  3

  2
A
 70
     8
280
     0
  0
ATTDEF
  5
7E
330
6E
100
AcDbEntity
  8
AM_6
100
AcDbText
 10
31.4
 20
43.90000000000001
 30
0.0
 40
0.5
  1
117.6
100
AcDbAttributeDefinition
  3

  2
B
 70
     8
280
     0
  0
ATTDEF
  5
7F
330
6E
100
AcDbEntity
  8
AM_6
100
AcDbText
 10
31.4
 20
43.40000000000001
 30
0.0
 40
0.5
  1
48.0
100
AcDbAttributeDefinition
  3

  2
C
 70
     8
280
     0
  0
ATTDEF
  5
80
330
6E
100
AcDbEntity
  8
AM_6
100
AcDbText
 10
31.4
 20
42.90000000000001
 30
0.0
 40
0.5
  1
82.6
100
AcDbAttributeDefinition
  3

  2
D
 70
     8
280
     0
  0
ATTDEF
  5
81
330
6E
100
AcDbEntity
  8
AM_6
100
AcDbText
 10
31.4
 20
42.40000000000001
 30
0.0
 40
0.5
  1
97.0
100
AcDbAttributeDefinition
  3

  2
J
 70
     8
280
     0
  0
ATTDEF
  5
82
330
6E
100
AcDbEntity
  8
AM_6
100
AcDbText
 10
31.4
 20
41.90000000000001
 30
0.0
 40
0.5
  1
68.3
100
AcDbAttributeDefinition
  3

  2
L
 70
     8
280
     0
  0
ATTDEF
  5
83
330
6E
100
AcDbEntity
  8
AM_6
100
AcDbText
 10
31.4
 20
41.40000000000001
 30
0.0
 40
0.5
  1
47.6
100
AcDbAttributeDefinition
  3

  2
M
 70
     8
280
     0
  0
ATTDEF
  5
84
330
6E
100
AcDbEntity
  8
AM_6
100
AcDbText
 10
31.4
 20
40.90000000000001
 30
0.0
 40
0.5
  1
14.0
100
AcDbAttributeDefinition
  3

  2
N
 70
     8
280
     0
  0
ATTDEF
  5
85
330
6E
100
AcDbEntity
  8
AM_6
100
AcDbText
 10
31.4
 20
40.40000000000001
 30
0.0
 40
0.5
  1
M12x1.75
100
AcDbAttributeDefinition
  3

  2
R
 70
     8
280
     0
  0
ATTDEF
  5
86
330
6E
100
AcDbEntity
  8
AM_6
100
AcDbText
 10
31.4
 20
39.90000000000001
 30
0.0
 40
0.5
  1
27.4
100
AcDbAttributeDefinition
  3

  2
S
 70
     8
280
     0
  0
ATTDEF
  5
87
330
6E
100
AcDbEntity
  8
AM_6
100
AcDbText
 10
31.4
 20
39.40000000000001
 30
0.0
 40
0.5
  1
baldor
100
AcDbAttributeDefinition
  3

  2
COMPANY
 70
     8
280
     0
  0
INSERT
  5
89
330
6E
100
AcDbEntity
  8
0
100
AcDbBlockReference
  2
2_126632_0_in_127633_2
 10
0.0
 20
0.0
 30
0.0
  0
INSERT
  5
D2
330
6E
100
AcDbEntity
  8
0
100
AcDbBlockReference
  2
3_405020c_M_0_in_127633_2
 10
0.0
 20
0.0
 30
0.0
  0
INSERT
  5
12F
330
6E
100
AcDbEntity
  8
0
100
AcDbBlockReference
  2
4_127633h_0_in_127633_2
 10
0.0
 20
0.0
 30
0.0
  0
ENDBLK
  5
71
330
6E
100
AcDbEntity
  8
0
100
AcDbBlockEnd
  0
BLOCK
  5
8A
330
88
100
AcDbEntity
  8
0
100
AcDbBlockBegin
  2
2_126632_0_in_127633_2
 70
     2
 10
0.0
 20
0.0
 30
0.0
  3
2_126632_0_in_127633_2
  1

  0
ATTDEF
  5
8C
330
88
100
AcDbEntity
  8
AM_6
100
AcDbText
 10
22.0
 20
35.98457015714907
 30
0.0
 40
0.5
  1
D-Lok Insert Metric Bore
100
AcDbAttributeDefinition
  3

  2
NN
 70
     8
280
     0
  0
ATTDEF
  5
8D
330
88
100
AcDbEntity
  8
AM_6
100
AcDbText
 10
22.0
 20
35.48457015714907
 30
0.0
 40
0.5
  1
D-LOK
100
AcDbAttributeDefinition
  3

  2
NT
 70
     8
280
     0
  0
ATTDEF
  5
8E
330
88
100
AcDbEntity
  8
AM_6
100
AcDbText
 10
22.0
 20
34.98457015714907
 30
0.0
 40
0.5
  1
126632
100
AcDbAttributeDefinition
  3

  2
NB
 70
     8
280
     0
  0
ATTDEF
  5
8F
330
88
100
AcDbEntity
  8
AM_6
100
AcDbText
 10
22.0
 20
34.48457015714907
 30
0.0
 40
0.5
  1
$PN.
100
AcDbAttributeDefinition
  3

  2
NBSYN
 70
     8
280
     0
  0
ATTDEF
  5
90
330
88
100
AcDbEntity
  8
AM_6
100
AcDbText
 10
22.0
 20
33.98457015714907
 30
0.0
 40
0.5
  1
126632
100
AcDbAttributeDefinition
  3

  2
LINA
 70
     8
280
     0
  0
ATTDEF
  5
91
330
88
100
AcDbEntity
  8
AM_6
100
AcDbText
 10
22.0
 20
33.48457015714907
 30
0.0
 40
0.5
  1
207
100
AcDbAttributeDefinition
  3

  2
SERIES
 70
     8
280
     0
  0
ATTDEF
  5
92
330
88
100
AcDbEntity
  8
AM_6
100
AcDbText
 10
22.0
 20
32.98457015714907
 30
0.0
 40
0.5
  1
35
100
AcDbAttributeDefinition
  3

  2
SS
 70
     8
280
     0
  0
ATTDEF
  5
93
330
88
100
AcDbEntity
  8
AM_6
100
AcDbText
 10
22.0
 20
32.48457015714907
 30
0.0
 40
0.5
  1
126632
100
AcDbAttributeDefinition
  3

  2
PN
 70
     8
280
     0
  0
ATTDEF
  5
94
330
88
100
AcDbEntity
  8
AM_6
100
AcDbText
 10
22.0
 20
31.98457015714907
 30
0.0
 40
0.5
  1
INS-DL-35M
100
AcDbAttributeDefinition
  3

  2
DESCRIPTION
 70
     8
280
     0
  0
ATTDEF
  5
95
330
88
100
AcDbEntity
  8
AM_6
100
AcDbText
 10
22.0
 20
31.48457015714907
 30
0.0
 40
0.5
  1
0.790
100
AcDbAttributeDefinition
  3

  2
WEIGHT
 70
     8
280
     0
  0
ATTDEF
  5
96
330
88
100
AcDbEntity
  8
AM_6
100
AcDbText
 10
22.0
 20
30.98457015714907
 30
0.0
 40
0.5
  1
44.4
100
AcDbAttributeDefinition
  3

  2
A
 70
     8
280
     0
  0
ATTDEF
  5
97
330
88
100
AcDbEntity
  8
AM_6
100
AcDbText
 10
22.0
 20
30.48457015714907
 30
0.0
 40
0.5
  1
19.1
100
AcDbAttributeDefinition
  3

  2
C
 70
     8
280
     0
  0
ATTDEF
  5
98
330
88
100
AcDbEntity
  8
AM_6
100
AcDbText
 10
22.0
 20
29.98457015714907
 30
0.0
 40
0.5
  1
72
100
AcDbAttributeDefinition
  3

  2
D
 70
     8
280
     0
  0
ATTDEF
  5
99
330
88
100
AcDbEntity
  8
AM_6
100
AcDbText
 10
22.0
 20
29.48457015714907
 30
0.0
 40
0.5
  1
5.1
100
AcDbAttributeDefinition
  3

  2
J
 70
     8
280
     0
  0
ATTDEF
  5
9A
330
88
100
AcDbEntity
  8
AM_6
100
AcDbText
 10
22.0
 20
28.98457015714907
 30
0.0
 40
0.5
  1
68.3
100
AcDbAttributeDefinition
  3

  2
L
 70
     8
280
     0
  0
ATTDEF
  5
9B
330
88
100
AcDbEntity
  8
AM_6
100
AcDbText
 10
22.0
 20
28.48457015714907
 30
0.0
 40
0.5
  1
M6x20
100
AcDbAttributeDefinition
  3

  2
N
 70
     8
280
     0
  0
ATTDEF
  5
9C
330
88
100
AcDbEntity
  8
AM_6
100
AcDbText
 10
22.0
 20
27.98457015714907
 30
0.0
 40
0.5
  1
17.0
100
AcDbAttributeDefinition
  3

  2
W
 70
     8
280
     0
  0
ATTDEF
  5
9D
330
88
100
AcDbEntity
  8
AM_6
100
AcDbText
 10
22.0
 20
27.48457015714907
 30
0.0
 40
0.5
  1
27.4
100
AcDbAttributeDefinition
  3

  2
Y
 70
     8
280
     0
  0
ATTDEF
  5
9E
330
88
100
AcDbEntity
  8
AM_6
100
AcDbText
 10
22.0
 20
26.98457015714907
 30
0.0
 40
0.5
  1
46.8
100
AcDbAttributeDefinition
  3

  2
Z
 70
     8
280
     0
  0
ATTDEF
  5
9F
330
88
100
AcDbEntity
  8
AM_6
100
AcDbText
 10
22.0
 20
26.48457015714907
 30
0.0
 40
0.5
  1
baldor
100
AcDbAttributeDefinition
  3

  2
COMPANY
 70
     8
280
     0
  0
LINE
  5
A2
330
88
100
AcDbEntity
  8
AM_9
100
AcDbLine
 10
-26.034
 20
-17.50000000000001
 30
0.0
 11
15.63399999999999
 21
-17.50000000000001
 31
0.0
  0
LINE
  5
A3
330
88
100
AcDbEntity
  8
AM_9
100
AcDbLine
 10
15.63399999999999
 20
17.50000000000001
 30
0.0
 11
-26.034
 21
17.50000000000001
 31
0.0
  0
LINE
  5
A4
330
88
100
AcDbEntity
  8
AM_9
100
AcDbLine
 10
-26.034
 20
17.50000000000001
 30
0.0
 11
-27.4
 21
18.86600000000001
 31
0.0
  0
LINE
  5
A5
330
88
100
AcDbEntity
  8
AM_9
100
AcDbLine
 10
-27.4
 20
-18.86600000000001
 30
0.0
 11
-26.034
 21
-17.50000000000001
 31
0.0
  0
LINE
  5
A6
330
88
100
AcDbEntity
  8
AM_9
100
AcDbLine
 10
15.63399999999999
 20
-17.50000000000001
 30
0.0
 11
17.0
 21
-18.86600000000001
 31
0.0
  0
LINE
  5
A7
330
88
100
AcDbEntity
  8
AM_9
100
AcDbLine
 10
17.0
 20
18.86600000000001
 30
0.0
 11
15.63399999999999
 21
17.50000000000001
 31
0.0
  0
LINE
  5
A8
330
88
100
AcDbEntity
  8
AM_9
100
AcDbLine
 10
-13.7
 20
-23.40000000000002
 30
0.0
 11
-9.550000000000002
 21
-23.40000000000002
 31
0.0
  0
LINE
  5
A9
330
88
100
AcDbEntity
  8
AM_9
100
AcDbLine
 10
-9.550000000000002
 20
23.40000000000002
 30
0.0
 11
-13.7
 21
23.40000000000002
 31
0.0
  0
LINE
  5
AA
330
88
100
AcDbEntity
  8
AM_9
100
AcDbLine
 10
15.634
 20
-23.40000000000002
 30
0.0
 11
17.0
 21
-22.03399999999999
 31
0.0
  0
LINE
  5
AB
330
88
100
AcDbEntity
  8
AM_9
100
AcDbLine
 10
17.0
 20
2.207588056689538
 30
0.0
 11
17.0
 21
-22.03399999999999
 31
0.0
  0
LINE
  5
AC
330
88
100
AcDbEntity
  8
AM_9
100
AcDbLine
 10
9.55
 20
-23.40000000000001
 30
0.0
 11
15.634
 21
-23.40000000000001
 31
0.0
  0
LINE
  5
AD
330
88
100
AcDbEntity
  8
AM_9
100
AcDbLine
 10
14.02160073613022
 20
23.40000000000001
 30
0.0
 11
9.55
 21
23.40000000000001
 31
0.0
  0
LINE
  5
AE
330
88
100
AcDbEntity
  8
AM_9
100
AcDbLine
 10
15.634
 20
11.92718309746637
 30
0.0
 11
15.634
 21
-23.40000000000001
 31
0.0
  0
LINE
  5
AF
330
88
100
AcDbEntity
  8
AM_9
100
AcDbLine
 10
-5.863333333333332
 20
-34.09000000000003
 30
0.0
 11
-3.316666666666666
 21
-34.09000000000003
 31
0.0
  0
LINE
  5
B0
330
88
100
AcDbEntity
  8
AM_9
100
AcDbLine
 10
-3.316666666666666
 20
34.09000000000003
 30
0.0
 11
-5.863333333333332
 21
34.09000000000003
 31
0.0
  0
LINE
  5
B1
330
88
100
AcDbEntity
  8
AM_9
100
AcDbLine
 10
-15.066
 20
-34.15000000000001
 30
0.0
 11
-13.7
 21
-32.78400000000001
 31
0.0
  0
LINE
  5
B2
330
88
100
AcDbEntity
  8
AM_9
100
AcDbLine
 10
-13.7
 20
25.6883081405572
 30
0.0
 11
-13.7
 21
-32.78400000000001
 31
0.0
  0
LINE
  5
B3
330
88
100
AcDbEntity
  8
AM_9
100
AcDbLine
 10
-22.10972577325283
 20
-34.15000000000001
 30
0.0
 11
-15.066
 21
-34.15000000000001
 31
0.0
  0
LINE
  5
B4
330
88
100
AcDbEntity
  8
AM_9
100
AcDbLine
 10
-15.06599999999999
 20
15.96871309978042
 30
0.0
 11
-15.066
 21
-34.15000000000001
 31
0.0
  0
LINE
  5
B5
330
88
100
AcDbEntity
  8
AM_9
100
AcDbLine
 10
9.55
 20
33.57487804028403
 30
0.0
 11
9.55
 21
-33.57487804028403
 31
0.0
  0
ARC
  5
B6
330
88
100
AcDbEntity
  8
AM_9
100
AcDbCircle
 10
8.785999999999998
 20
-33.57487804028403
 30
0.0
 40
0.7640000000000106
100
AcDbArc
 50
291.4124814882284
 51
0.0
  0
ARC
  5
B7
330
88
100
AcDbEntity
  8
AM_9
100
AcDbCircle
 10
8.785999999999998
 20
33.57487804028403
 30
0.0
 40
0.7640000000000029
100
AcDbArc
 50
0.0
 51
68.58751851177169
  0
LINE
  5
B8
330
88
100
AcDbEntity
  8
AM_9
100
AcDbLine
 10
-9.549999999999995
 20
33.57487804028401
 30
0.0
 11
-9.549999999999995
 21
-33.57487804028401
 31
0.0
  0
ARC
  5
B9
330
88
100
AcDbEntity
  8
AM_9
100
AcDbCircle
 10
-8.785999999999987
 20
-33.57487804028401
 30
0.0
 40
0.7640000000000082
100
AcDbArc
 50
180.0
 51
248.5875329531158
  0
ARC
  5
BA
330
88
100
AcDbEntity
  8
AM_9
100
AcDbCircle
 10
-8.785999999999987
 20
33.57487804028401
 30
0.0
 40
0.764000000000008
100
AcDbArc
 50
111.4124670468842
 51
180.0
  0
ARC
  5
BB
330
88
100
AcDbEntity
  8
AM_9
100
AcDbCircle
 10
0.0000000000001847
 20
-11.16999999999933
 30
0.0
 40
24.83000000000071
100
AcDbArc
 50
248.5875329531161
 51
256.3412229076664
  0
ARC
  5
BC
330
88
100
AcDbEntity
  8
AM_9
100
AcDbCircle
 10
0.000000000000127
 20
11.16999999999951
 30
0.0
 40
24.83000000000052
100
AcDbArc
 50
103.6587770923336
 51
111.4124670468839
  0
LINE
  5
BD
330
88
100
AcDbEntity
  8
AM_9
100
AcDbLine
 10
-9.064920634920627
 20
34.28614400981684
 30
0.0
 11
-9.064920634920627
 21
-34.28614400981684
 31
0.0
  0
LINE
  5
BE
330
88
100
AcDbEntity
  8
AM_9
100
AcDbLine
 10
-5.863333333333332
 20
35.29778941847394
 30
0.0
 11
-5.863333333333332
 21
-35.29778941847394
 31
0.0
  0
ARC
  5
BF
330
88
100
AcDbEntity
  8
AM_9
100
AcDbCircle
 10
-0.0000000000000001
 20
-11.16999999999986
 30
0.0
 40
24.83000000000014
100
AcDbArc
 50
262.3237742425158
 51
291.412467491233
  0
ARC
  5
C0
330
88
100
AcDbEntity
  8
AM_9
100
AcDbCircle
 10
0.0000000000000018
 20
11.16999999999986
 30
0.0
 40
24.83000000000015
100
AcDbArc
 50
68.58753250876705
 51
97.67622575748423
  0
LINE
  5
C1
330
88
100
AcDbEntity
  8
AM_9
100
AcDbLine
 10
-3.316666666666673
 20
35.77749118098435
 30
0.0
 11
-3.316666666666673
 21
-35.77749118098435
 31
0.0
  0
LINE
  5
C2
330
88
100
AcDbEntity
  8
AM_9
100
AcDbLine
 10
9.064920814194508
 20
34.28614393951517
 30
0.0
 11
9.064920814194508
 21
-34.28614393951517
 31
0.0
  0
LINE
  5
C4
330
88
100
AcDbEntity
  8
AM_4
100
AcDbLine
 10
17.0
 20
22.03399999999999
 30
0.0
 11
15.634
 21
23.40000000000002
 31
0.0
  0
LINE
  5
C5
330
88
100
AcDbEntity
  8
AM_4
100
AcDbLine
 10
17.0
 20
22.03399999999999
 30
0.0
 11
17.0
 21
2.207588056689538
 31
0.0
  0
LINE
  5
C6
330
88
100
AcDbEntity
  8
AM_4
100
AcDbLine
 10
15.634
 20
23.40000000000001
 30
0.0
 11
14.02160073613022
 21
23.40000000000001
 31
0.0
  0
LINE
  5
C7
330
88
100
AcDbEntity
  8
AM_4
100
AcDbLine
 10
15.634
 20
23.40000000000001
 30
0.0
 11
15.634
 21
11.92718309746637
 31
0.0
  0
LINE
  5
C8
330
88
100
AcDbEntity
  8
AM_4
100
AcDbLine
 10
-13.7
 20
32.78400000000001
 30
0.0
 11
-15.066
 21
34.15000000000001
 31
0.0
  0
LINE
  5
C9
330
88
100
AcDbEntity
  8
AM_4
100
AcDbLine
 10
-13.7
 20
32.78400000000001
 30
0.0
 11
-13.7
 21
25.6883081405572
 31
0.0
  0
LINE
  5
CA
330
88
100
AcDbEntity
  8
AM_4
100
AcDbLine
 10
-27.4
 20
-32.78400000000001
 30
0.0
 11
-26.034
 21
-34.15000000000001
 31
0.0
  0
LINE
  5
CB
330
88
100
AcDbEntity
  8
AM_4
100
AcDbLine
 10
-26.034
 20
34.15000000000001
 30
0.0
 11
-27.4
 21
32.78400000000001
 31
0.0
  0
LINE
  5
CC
330
88
100
AcDbEntity
  8
AM_4
100
AcDbLine
 10
-27.4
 20
32.78400000000001
 30
0.0
 11
-27.4
 21
-32.78400000000001
 31
0.0
  0
LINE
  5
CD
330
88
100
AcDbEntity
  8
AM_4
100
AcDbLine
 10
-26.034
 20
-34.15000000000001
 30
0.0
 11
-22.10972577325283
 21
-34.15000000000001
 31
0.0
  0
LINE
  5
CE
330
88
100
AcDbEntity
  8
AM_4
100
AcDbLine
 10
-15.066
 20
34.15000000000001
 30
0.0
 11
-26.034
 21
34.15000000000001
 31
0.0
  0
LINE
  5
CF
330
88
100
AcDbEntity
  8
AM_4
100
AcDbLine
 10
-26.034
 20
34.15000000000001
 30
0.0
 11
-26.034
 21
-34.15000000000001
 31
0.0
  0
LINE
  5
D0
330
88
100
AcDbEntity
  8
AM_4
100
AcDbLine
 10
-15.066
 20
34.15000000000001
 30
0.0
 11
-15.06599999999999
 21
15.96871309978042
 31
0.0
  0
ENDBLK
  5
8B
330
88
100
AcDbEntity
  8
0
100
AcDbBlockEnd
  0
BLOCK
  5
D3
330
D1
100
AcDbEntity
  8
0
100
AcDbBlockBegin
  2
3_405020c_M_0_in_127633_2
 70
     2
 10
0.0
 20
0.0
 30
0.0
  3
3_405020c_M_0_in_127633_2
  1

  0
ATTDEF
  5
D5
330
D1
100
AcDbEntity
  8
AM_6
100
AcDbText
 10
9.041451884327381
 20
42.92438690201649
 30
0.0
 40
0.5
  1
405020C -Metric
100
AcDbAttributeDefinition
  3

  2
NN
 70
     8
280
     0
  0
ATTDEF
  5
D6
330
D1
100
AcDbEntity
  8
AM_6
100
AcDbText
 10
9.041451884327381
 20
42.42438690201649
 30
0.0
 40
0.5
  1
Grease fitting
100
AcDbAttributeDefinition
  3

  2
NT
 70
     8
280
     0
  0
ATTDEF
  5
D7
330
D1
100
AcDbEntity
  8
AM_6
100
AcDbText
 10
9.041451884327381
 20
41.92438690201649
 30
0.0
 40
0.5
  1
405020c-M
100
AcDbAttributeDefinition
  3

  2
NB
 70
     8
280
     0
  0
ATTDEF
  5
D8
330
D1
100
AcDbEntity
  8
AM_6
100
AcDbText
 10
9.041451884327381
 20
41.42438690201649
 30
0.0
 40
0.5
  1
$MN.-M
100
AcDbAttributeDefinition
  3

  2
NBSYN
 70
     8
280
     0
  0
ATTDEF
  5
D9
330
D1
100
AcDbEntity
  8
AM_6
100
AcDbText
 10
9.041451884327381
 20
40.92438690201649
 30
0.0
 40
0.5
  1
405020c
100
AcDbAttributeDefinition
  3

  2
LINA
 70
     8
280
     0
  0
ATTDEF
  5
DA
330
D1
100
AcDbEntity
  8
AM_6
100
AcDbText
 10
9.041451884327381
 20
40.42438690201649
 30
0.0
 40
0.5
  1
405020c
100
AcDbAttributeDefinition
  3

  2
MN
 70
     8
280
     0
  0
ATTDEF
  5
DB
330
D1
100
AcDbEntity
  8
AM_6
100
AcDbText
 10
9.041451884327381
 20
39.92438690201649
 30
0.0
 40
0.5
  1
5.842
100
AcDbAttributeDefinition
  3

  2
NDR
 70
     8
280
     0
  0
ATTDEF
  5
DC
330
D1
100
AcDbEntity
  8
AM_6
100
AcDbText
 10
9.041451884327381
 20
39.42438690201649
 30
0.0
 40
0.5
  1
5.359
100
AcDbAttributeDefinition
  3

  2
KDR
 70
     8
280
     0
  0
ATTDEF
  5
DD
330
D1
100
AcDbEntity
  8
AM_6
100
AcDbText
 10
9.041451884327381
 20
38.92438690201649
 30
0.0
 40
0.5
  1
4.000
100
AcDbAttributeDefinition
  3

  2
BZE
 70
     8
280
     0
  0
ATTDEF
  5
DE
330
D1
100
AcDbEntity
  8
AM_6
100
AcDbText
 10
9.041451884327381
 20
38.42438690201649
 30
0.0
 40
0.5
  1
7
100
AcDbAttributeDefinition
  3

  2
WAF
 70
     8
280
     0
  0
ATTDEF
  5
DF
330
D1
100
AcDbEntity
  8
AM_6
100
AcDbText
 10
9.041451884327381
 20
37.92438690201649
 30
0.0
 40
0.5
  1
7.0000
100
AcDbAttributeDefinition
  3

  2
WAF1
 70
     8
280
     0
  0
ATTDEF
  5
E0
330
D1
100
AcDbEntity
  8
AM_6
100
AcDbText
 10
9.041451884327381
 20
37.42438690201649
 30
0.0
 40
0.5
  1
13.843
100
AcDbAttributeDefinition
  3

  2
BL
 70
     8
280
     0
  0
ATTDEF
  5
E1
330
D1
100
AcDbEntity
  8
AM_6
100
AcDbText
 10
9.041451884327381
 20
36.92438690201649
 30
0.0
 40
0.5
  1
5.080
100
AcDbAttributeDefinition
  3

  2
TL
 70
     8
280
     0
  0
ATTDEF
  5
E2
330
D1
100
AcDbEntity
  8
AM_6
100
AcDbText
 10
9.041451884327381
 20
36.42438690201649
 30
0.0
 40
0.5
  1
baldor
100
AcDbAttributeDefinition
  3

  2
COMPANY
 70
     8
280
     0
  0
ELLIPSE
  5
E3
330
D1
100
AcDbEntity
  8
AM_9
100
AcDbEllipse
 10
0.0000000000000019
 20
31.50210224962328
 30
0.0
 11
2.55437585025611
 21
0.0
 31
0.0
210
0.0
220
0.0
230
1.0
 40
0.7071067811865476
 41
0.0
 42
6.283185307179586
  0
LINE
  5
E4
330
D1
100
AcDbEntity
  8
AM_9
100
AcDbLine
 10
2.020725942163693
 20
38.54129255985444
 30
0.0
 11
2.020725942163693
 21
37.67166661195684
 31
0.0
  0
LINE
  5
E5
330
D1
100
AcDbEntity
  8
AM_9
100
AcDbLine
 10
-2.020725942163689
 20
38.54129255985444
 30
0.0
 11
-2.020725942163689
 21
37.67166661195684
 31
0.0
  0
LWPOLYLINE
  5
E6
330
D1
100
AcDbEntity
  8
AM_9
100
AcDbPolyline
 90
        3
 70
     0
 43
0.0
 10
1.080107123531172
 20
37.59993757968427
 10
1.546688894797465
 20
37.6309435319845
 10
2.020725942163693
 20
37.67166661195684
  0
LWPOLYLINE
  5
E7
330
D1
100
AcDbEntity
  8
AM_9
100
AcDbPolyline
 90
        3
 70
     0
 43
0.0
 10
0.000000000000002
 20
37.56907843220386
 10
0.7733444473987334
 20
37.58507324425127
 10
1.080107123531172
 20
37.59993757968427
  0
LWPOLYLINE
  5
E8
330
D1
100
AcDbEntity
  8
AM_9
100
AcDbPolyline
 90
        3
 70
     0
 43
0.0
 10
-1.066926506349613
 20
37.59920527889835
 10
-1.014905835062986
 20
37.59639566364739
 10
0.000000000000002
 20
37.56907843220386
  0
LINE
  5
E9
330
D1
100
AcDbEntity
  8
AM_9
100
AcDbLine
 10
-2.020725942163689
 20
37.67166661195684
 30
0.0
 11
-1.066926506349613
 21
37.59920527889835
 31
0.0
  0
LWPOLYLINE
  5
EA
330
D1
100
AcDbEntity
  8
AM_9
100
AcDbPolyline
 90
        3
 70
     0
 43
0.0
 10
-3.031088913245533
 20
36.33164156512741
 10
-2.525907427704611
 20
36.97743801119459
 10
-2.020725942163689
 20
37.67166661195684
  0
LWPOLYLINE
  5
EB
330
D1
100
AcDbEntity
  8
AM_9
100
AcDbPolyline
 90
        3
 70
     0
 43
0.0
 10
2.020725942163693
 20
37.67166661195684
 10
2.523635995714045
 20
36.98045915479032
 10
3.031088913245538
 20
36.33164156512741
  0
LWPOLYLINE
  5
EC
330
D1
100
AcDbEntity
  8
AM_9
100
AcDbPolyline
 90
        3
 70
     0
 43
0.0
 10
2.682631185199018
 20
37.82019729173699
 10
2.525907427704615
 20
37.99808429354024
 10
2.020725942163693
 20
38.54129255985444
  0
LWPOLYLINE
  5
ED
330
D1
100
AcDbEntity
  8
AM_9
100
AcDbPolyline
 90
        4
 70
     0
 43
0.0
 10
2.020725942163693
 20
38.54129255985444
 10
1.546688894797465
 20
38.58201563982679
 10
0.7756181668409005
 20
38.62779285177552
 10
0.0000000000000021
 20
38.64388073960742
  0
LWPOLYLINE
  5
EE
330
D1
100
AcDbEntity
  8
AM_9
100
AcDbPolyline
 90
        3
 70
     0
 43
0.0
 10
-2.020725942163689
 20
38.54129255985444
 10
-2.52363599571404
 20
38.00062699930682
 10
-2.682596126444206
 20
37.82023763526647
  0
LWPOLYLINE
  5
EF
330
D1
100
AcDbEntity
  8
AM_9
100
AcDbPolyline
 90
        3
 70
     0
 43
0.0
 10
0.0000000000000021
 20
38.64388073960742
 10
-1.010362971081843
 20
38.61680272707846
 10
-2.020725942163689
 20
38.54129255985444
  0
LWPOLYLINE
  5
F0
330
D1
100
AcDbEntity
  8
AM_9
100
AcDbPolyline
 90
        3
 70
     0
 43
0.0
 10
-4.041451884327379
 20
35.19679287780392
 10
-3.538541830777027
 20
35.73745843835154
 10
-3.031088913245533
 20
36.33164156512741
  0
LWPOLYLINE
  5
F1
330
D1
100
AcDbEntity
  8
AM_9
100
AcDbPolyline
 90
        3
 70
     0
 43
0.0
 10
3.031088913245538
 20
36.33164156512741
 10
3.53627039878646
 20
35.74000114411812
 10
4.041451884327381
 20
35.19679287780392
  0
LINE
  5
F2
330
D1
100
AcDbEntity
  8
AM_9
100
AcDbLine
 10
2.802418772605767
 20
31.61650482129438
 30
0.0
 11
2.953308440111948
 21
35.02891003032025
 31
0.0
  0
LINE
  5
F3
330
D1
100
AcDbEntity
  8
AM_9
100
AcDbLine
 10
-2.953308440111944
 20
35.02891003032025
 30
0.0
 11
-2.802418772605763
 21
31.61650482129438
 31
0.0
  0
LWPOLYLINE
  5
F4
330
D1
100
AcDbEntity
  8
AM_9
100
AcDbPolyline
 90
        3
 70
     0
 43
0.0
 10
-2.4664105847407
 20
33.19884873635217
 10
-2.52363599571404
 20
33.26258470419862
 10
-3.031088913245534
 20
33.85676783097449
  0
LWPOLYLINE
  5
F5
330
D1
100
AcDbEntity
  8
AM_9
100
AcDbPolyline
 90
        3
 70
     0
 43
0.0
 10
0.0000000000000023
 20
32.61933096389803
 10
-1.010362971081843
 20
32.64640897642698
 10
-1.283661400579117
 20
32.66252480895928
  0
LWPOLYLINE
  5
F6
330
D1
100
AcDbEntity
  8
AM_9
100
AcDbPolyline
 90
        3
 70
     0
 43
0.0
 10
1.283777024874404
 20
32.66253235260798
 10
0.7756181668409006
 20
32.63541885172992
 10
0.0000000000000023
 20
32.61933096389803
  0
ELLIPSE
  5
F7
330
D1
100
AcDbEntity
  8
AM_9
100
AcDbEllipse
 10
0.0000000000000129
 20
36.16900700545453
 30
0.0
 11
-3.499999999999961
 21
5.215406460709259E-8
 31
0.0
210
0.0
220
0.0
230
1.0
 40
0.7071067811865467
 41
3.850326550048981
 42
5.574451443939794
  0
ELLIPSE
  5
F8
330
D1
100
AcDbEntity
  8
AM_9
100
AcDbEllipse
 10
0.0000000000000691
 20
36.88546392390706
 30
0.0
 11
-2.486776909068395
 21
3.045423381884158E-16
 31
0.0
210
0.0
220
0.0
230
1.0
 40
0.7071067811865481
 41
5.474784097105177
 42
5.984242208656113
  0
ELLIPSE
  5
F9
330
D1
100
AcDbEntity
  8
AM_9
100
AcDbEllipse
 10
-0.0000000000000062
 20
36.88546392390711
 30
0.0
 11
-2.486776909068338
 21
3.045423381884089E-16
 31
0.0
210
0.0
220
0.0
230
1.0
 40
0.7071067811865356
 41
3.440535752113252
 42
4.059955990934868
  0
ELLIPSE
  5
FA
330
D1
100
AcDbEntity
  8
AM_9
100
AcDbEllipse
 10
-0.0000000000593605
 20
36.88546392392016
 30
0.0
 11
-2.48677690921682
 21
3.045423382065927E-16
 31
0.0
210
0.0
220
0.0
230
1.0
 40
0.7071067811462154
 41
4.29442410043381
 42
5.280975091578417
  0
LWPOLYLINE
  5
FB
330
D1
100
AcDbEntity
  8
AM_9
100
AcDbPolyline
 90
        4
 70
     0
 43
0.0
 10
2.15315277063082
 20
37.16392432970695
 10
2.120989957346862
 20
37.08837750774016
 10
2.049797029126916
 20
36.96661636022365
 10
2.023151932660965
 20
36.92936327963184
  0
LWPOLYLINE
  5
FC
330
D1
100
AcDbEntity
  8
AM_9
100
AcDbPolyline
 90
        4
 70
     0
 43
0.0
 10
2.193883690254873
 20
37.38546392390708
 10
2.1919613465342
 20
37.33754431234449
 10
2.16824494671716
 20
37.20995582822938
 10
2.15315277063082
 20
37.16392432970695
  0
LWPOLYLINE
  5
FD
330
D1
100
AcDbEntity
  8
AM_9
100
AcDbPolyline
 90
       12
 70
     0
 43
0.0
 10
-2.16729344195725
 20
37.20671081275437
 10
-2.18211277579461
 20
37.26673327467392
 10
-2.193854682239075
 20
37.39134886069333
 10
-2.175015069062384
 20
37.53591482492332
 10
-2.132529539008355
 20
37.65781415877142
 10
-2.066326125406447
 20
37.77940146779737
 10
-1.975104715154888
 20
37.90174901561583
 10
-1.845720118661041
 20
38.03451239519466
 10
-1.687602040961975
 20
38.16126750148899
 10
-1.501876022816538
 20
38.27914639887733
 10
-1.290481167095154
 20
38.38507469822071
 10
-1.063428468017409
 20
38.47360515525209
  0
LINE
  5
FE
330
D1
100
AcDbEntity
  8
AM_9
100
AcDbLine
 10
-2.025648102681742
 20
36.93271952820229
 30
0.0
 11
-2.042558910845326
 21
36.95616897378963
 31
0.0
  0
LWPOLYLINE
  5
FF
330
D1
100
AcDbEntity
  8
AM_9
100
AcDbPolyline
 90
       11
 70
     0
 43
0.0
 10
0.9750599029803523
 20
38.50214133656322
 10
1.09820814302202
 20
38.46151316868909
 10
1.327879976887925
 20
38.36815248277305
 10
1.533594838127487
 20
38.26088123124072
 10
1.712417710555679
 20
38.14326170752727
 10
1.862357480529798
 20
38.01923764172293
 10
1.982570663373582
 20
37.89289318348742
 10
2.073738051691641
 20
37.76770086610411
 10
2.13780130593735
 20
37.64575042634786
 10
2.177329119579183
 20
37.52634971615691
 10
2.193883690254873
 20
37.38546392390708
  0
ELLIPSE
  5
100
330
D1
100
AcDbEntity
  8
AM_9
100
AcDbEllipse
 10
0.0000000000000488
 20
37.68430016263719
 30
0.0
 11
-2.287575903218174
 21
3.408753755716290E-8
 31
0.0
210
0.0
220
0.0
230
1.0
 40
0.707106781186548
 41
2.656480425898304
 42
3.141592674663217
  0
ELLIPSE
  5
101
330
D1
100
AcDbEntity
  8
AM_9
100
AcDbEllipse
 10
-0.0000000000012284
 20
39.23748682415746
 30
0.0
 11
-3.311838226939141
 21
4.935023567314997E-8
 31
0.0
210
0.0
220
0.0
230
1.0
 40
0.7071067811850792
 41
-3.630217827268895
 42
-3.594135941733998
  0
ELLIPSE
  5
102
330
D1
100
AcDbEntity
  8
AM_9
100
AcDbEllipse
 10
0.0000000000000178
 20
39.23748682416809
 30
0.0
 11
-3.311838226937797
 21
4.935023567312994E-8
 31
0.0
210
0.0
220
0.0
230
1.0
 40
0.7071067811865548
 41
2.698232518170414
 42
3.141592668490954
  0
ELLIPSE
  5
103
330
D1
100
AcDbEntity
  8
AM_9
100
AcDbEllipse
 10
0.0000000000194142
 20
39.81261169338628
 30
0.0
 11
-3.326035293332039
 21
4.073218475830209E-16
 31
0.0
210
0.0
220
0.0
230
1.0
 40
0.7071067811986151
 41
3.579974428573321
 42
5.844803532201012
  0
ELLIPSE
  5
104
330
D1
100
AcDbEntity
  8
AM_9
100
AcDbEllipse
 10
0.000000000000002
 20
41.07517234628311
 30
0.0
 11
-2.568122605604355
 21
3.145043128771334E-16
 31
0.0
210
0.0
220
0.0
230
1.0
 40
0.7071067811865469
 41
3.614297346315404
 42
5.844803532225581
  0
ELLIPSE
  5
105
330
D1
100
AcDbEntity
  8
AM_9
100
AcDbEllipse
 10
-0.0000000000000062
 20
35.09420469805092
 30
0.0
 11
-3.499999999999987
 21
4.286263797015720E-16
 31
0.0
210
0.0
220
0.0
230
1.0
 40
0.7071067811865437
 41
0.0
 42
6.283185307179586
  0
ELLIPSE
  5
106
330
D1
100
AcDbEntity
  8
AM_9
100
AcDbEllipse
 10
-0.0000000000049813
 20
35.09420469802193
 30
0.0
 11
-2.954751686645433
 21
3.618527195325573E-16
 31
0.0
210
0.0
220
0.0
230
1.0
 40
0.7071067811863928
 41
0.0
 42
6.283185307179586
  0
ELLIPSE
  5
107
330
D1
100
AcDbEntity
  8
AM_9
100
AcDbEllipse
 10
-0.0000000000023346
 20
31.67846347082599
 30
0.0
 11
-2.803788281159949
 21
3.433650344009391E-16
 31
0.0
210
0.0
220
0.0
230
1.0
 40
0.7071067811865482
 41
0.0
 42
6.283185307179586
  0
LINE
  5
108
330
D1
100
AcDbEntity
  8
AM_4
100
AcDbLine
 10
3.031088913245538
 20
37.40644387253096
 30
0.0
 11
2.682631185199018
 21
37.82019729173699
 31
0.0
  0
LINE
  5
109
330
D1
100
AcDbEntity
  8
AM_4
100
AcDbLine
 10
-2.682596126444206
 20
37.82023763526647
 30
0.0
 11
-3.031088913245533
 21
37.40644387253096
 31
0.0
  0
LWPOLYLINE
  5
10A
330
D1
100
AcDbEntity
  8
AM_4
100
AcDbPolyline
 90
        3
 70
     0
 43
0.0
 10
4.041451884327381
 20
36.06641882570153
 10
3.538541830777031
 20
36.75762628286804
 10
3.031088913245538
 20
37.40644387253096
  0
LWPOLYLINE
  5
10B
330
D1
100
AcDbEntity
  8
AM_4
100
AcDbPolyline
 90
        3
 70
     0
 43
0.0
 10
-3.031088913245533
 20
37.40644387253096
 10
-3.536270398786456
 20
36.76064742646378
 10
-4.041451884327379
 20
36.06641882570153
  0
LINE
  5
10C
330
D1
100
AcDbEntity
  8
AM_4
100
AcDbLine
 10
2.466411814183153
 20
33.19885009904188
 30
0.0
 11
2.020725942163693
 21
32.72191914365101
 31
0.0
  0
LWPOLYLINE
  5
10D
330
D1
100
AcDbEntity
  8
AM_4
100
AcDbPolyline
 90
        3
 70
     0
 43
0.0
 10
3.031088913245538
 20
33.85676783097449
 10
2.525907427704615
 20
33.26512740996521
 10
2.466411814183153
 20
33.19885009904188
  0
LINE
  5
10E
330
D1
100
AcDbEntity
  8
AM_4
100
AcDbLine
 10
3.391327962041385
 20
34.31187313921068
 30
0.0
 11
3.031088913245538
 21
33.85676783097449
 31
0.0
  0
LWPOLYLINE
  5
10F
330
D1
100
AcDbEntity
  8
AM_4
100
AcDbPolyline
 90
        3
 70
     0
 43
0.0
 10
4.041451884327381
 20
35.19679287780392
 10
3.538541830777032
 20
34.50558542063741
 10
3.391327962041385
 20
34.31187313921068
  0
LINE
  5
110
330
D1
100
AcDbEntity
  8
AM_4
100
AcDbLine
 10
4.041451884327381
 20
36.06641882570153
 30
0.0
 11
4.041451884327381
 21
35.19679287780392
 31
0.0
  0
LWPOLYLINE
  5
111
330
D1
100
AcDbEntity
  8
AM_4
100
AcDbPolyline
 90
        3
 70
     0
 43
0.0
 10
3.031088913245538
 20
34.93157013837804
 10
3.53627039878646
 20
35.52321055938732
 10
4.041451884327381
 20
36.06641882570153
  0
LWPOLYLINE
  5
112
330
D1
100
AcDbEntity
  8
AM_4
100
AcDbPolyline
 90
        3
 70
     0
 43
0.0
 10
2.020725942163693
 20
33.5915450915486
 10
2.523635995714044
 20
34.28275254871512
 10
3.031088913245538
 20
34.93157013837804
  0
LINE
  5
113
330
D1
100
AcDbEntity
  8
AM_4
100
AcDbLine
 10
-4.041451884327379
 20
36.06641882570153
 30
0.0
 11
-4.041451884327379
 21
35.19679287780392
 31
0.0
  0
LWPOLYLINE
  5
114
330
D1
100
AcDbEntity
  8
AM_4
100
AcDbPolyline
 90
        3
 70
     0
 43
0.0
 10
-3.391327648778705
 20
34.31187273160975
 10
-3.536270398786456
 20
34.50256427704167
 10
-4.041451884327379
 20
35.19679287780392
  0
LINE
  5
115
330
D1
100
AcDbEntity
  8
AM_4
100
AcDbLine
 10
-3.031088913245534
 20
33.85676783097449
 30
0.0
 11
-3.391327648778705
 21
34.31187273160975
 31
0.0
  0
LINE
  5
116
330
D1
100
AcDbEntity
  8
AM_4
100
AcDbLine
 10
-2.020725942163689
 20
32.72191914365101
 30
0.0
 11
-2.4664105847407
 21
33.19884873635217
 31
0.0
  0
LWPOLYLINE
  5
117
330
D1
100
AcDbEntity
  8
AM_4
100
AcDbPolyline
 90
        3
 70
     0
 43
0.0
 10
-4.041451884327379
 20
36.06641882570153
 10
-3.538541830777027
 20
35.52575326515391
 10
-3.031088913245533
 20
34.93157013837804
  0
LINE
  5
118
330
D1
100
AcDbEntity
  8
AM_4
100
AcDbLine
 10
-2.020725942163689
 20
33.5915450915486
 30
0.0
 11
-2.020725942163689
 21
32.72191914365101
 31
0.0
  0
LINE
  5
119
330
D1
100
AcDbEntity
  8
AM_4
100
AcDbLine
 10
-1.283661400579117
 20
32.66252480895928
 30
0.0
 11
-2.020725942163689
 21
32.72191914365101
 31
0.0
  0
LWPOLYLINE
  5
11A
330
D1
100
AcDbEntity
  8
AM_4
100
AcDbPolyline
 90
        3
 70
     0
 43
0.0
 10
2.020725942163693
 20
32.72191914365101
 10
1.546688894797465
 20
32.68119606367866
 10
1.283777024874404
 20
32.66253235260798
  0
LINE
  5
11B
330
D1
100
AcDbEntity
  8
AM_4
100
AcDbLine
 10
2.020725942163693
 20
33.5915450915486
 30
0.0
 11
2.020725942163693
 21
32.72191914365101
 31
0.0
  0
LWPOLYLINE
  5
11C
330
D1
100
AcDbEntity
  8
AM_4
100
AcDbPolyline
 90
        4
 70
     0
 43
0.0
 10
0.0000000000000024
 20
33.69413327130158
 10
0.7733444473987339
 20
33.67813845925418
 10
1.546688894797465
 20
33.63226817152095
 10
2.020725942163693
 20
33.5915450915486
  0
LWPOLYLINE
  5
11D
330
D1
100
AcDbEntity
  8
AM_4
100
AcDbPolyline
 90
        3
 70
     0
 43
0.0
 10
-3.031088913245533
 20
34.93157013837804
 10
-2.525907427704611
 20
34.28577369231086
 10
-2.020725942163689
 20
33.5915450915486
  0
LWPOLYLINE
  5
11E
330
D1
100
AcDbEntity
  8
AM_4
100
AcDbPolyline
 90
        3
 70
     0
 43
0.0
 10
-2.020725942163689
 20
33.5915450915486
 10
-1.014905835062985
 20
33.66681603985806
 10
0.0000000000000024
 20
33.69413327130158
  0
ELLIPSE
  5
11F
330
D1
100
AcDbEntity
  8
AM_4
100
AcDbEllipse
 10
0.0000000000000298
 20
36.16900700545455
 30
0.0
 11
-3.50000000000004
 21
4.286263797015784E-16
 31
0.0
210
0.0
220
0.0
230
1.0
 40
0.7071067811865533
 41
5.574451427330111
 42
10.13351184061887
  0
ELLIPSE
  5
120
330
D1
100
AcDbEntity
  8
AM_4
100
AcDbEllipse
 10
-0.0000000000000036
 20
36.88546392390708
 30
0.0
 11
-2.486776909068327
 21
3.045423381884075E-16
 31
0.0
210
0.0
220
0.0
230
1.0
 40
0.7071067811865474
 41
5.984242208656115
 42
9.72372105929285
  0
LINE
  5
121
330
D1
100
AcDbEntity
  8
AM_4
100
AcDbLine
 10
2.023641373606687
 20
36.93001934490023
 30
0.0
 11
2.92972698711114
 21
38.14547670003928
 31
0.0
  0
LINE
  5
122
330
D1
100
AcDbEntity
  8
AM_4
100
AcDbLine
 10
-2.929726987111135
 20
38.14547670003928
 30
0.0
 11
-2.023641373606683
 21
36.93001934490023
 31
0.0
  0
ELLIPSE
  5
123
330
D1
100
AcDbEntity
  8
AM_4
100
AcDbEllipse
 10
0.0000000000000024
 20
37.68430016263719
 30
0.0
 11
-2.287575903218216
 21
2.801472507682804E-16
 31
0.0
210
0.0
220
0.0
230
1.0
 40
0.7071067811865474
 41
0.485112246473772
 42
2.656480407116022
  0
LWPOLYLINE
  5
124
330
D1
100
AcDbEntity
  8
AM_4
100
AcDbPolyline
 90
        7
 70
     0
 43
0.0
 10
3.405530439901163
 20
39.53632306289813
 10
3.396174015350144
 20
39.73919344950126
 10
3.351725813476351
 20
40.0210267790255
 10
3.271818012175103
 20
40.29536365530542
 10
3.157611648212316
 20
40.56001605929097
 10
3.010144739995331
 20
40.81299689850017
 10
2.990387963619668
 20
40.84229048560295
  0
LWPOLYLINE
  5
125
330
D1
100
AcDbEntity
  8
AM_4
100
AcDbPolyline
 90
       12
 70
     0
 43
0.0
 10
-3.055513173371323
 20
40.74218637802845
 10
-3.108984957740731
 20
40.65132034263242
 10
-3.241180465584321
 20
40.37568880517156
 10
-3.33457821938473
 20
40.09213987197828
 10
-3.389146278039536
 20
39.80462493443629
 10
-3.405443047317122
 20
39.51670151512865
 10
-3.384366900933983
 20
39.23150956764758
 10
-3.32703735549602
 20
38.95208161256812
 10
-3.234681492299726
 20
38.68098827589746
 10
-3.10841210405936
 20
38.42030357634334
 10
-2.949237215588397
 20
38.17199591266861
 10
-2.925472041109757
 20
38.13978509857792
  0
LWPOLYLINE
  5
126
330
D1
100
AcDbEntity
  8
AM_4
100
AcDbPolyline
 90
        7
 70
     0
 43
0.0
 10
2.922917164349552
 20
38.13638299564416
 10
3.004260450801288
 20
38.25083262486756
 10
3.160908546467008
 20
38.51917655024535
 10
3.279217853016369
 20
38.79812873403481
 10
3.358632495910117
 20
39.08353806067469
 10
3.399364212239587
 20
39.37158730942055
 10
3.405530439901163
 20
39.53632306289813
  0
ELLIPSE
  5
127
330
D1
100
AcDbEntity
  8
AM_4
100
AcDbEllipse
 10
0.0000000000000067
 20
39.23748682416802
 30
0.0
 11
-3.311838226937808
 21
4.055832083913233E-16
 31
0.0
210
0.0
220
0.0
230
1.0
 40
0.7071067811865502
 41
0.4873376313428635
 42
2.652967461155716
  0
ELLIPSE
  5
128
330
D1
100
AcDbEntity
  8
AM_4
100
AcDbEllipse
 10
0.0000000000000025
 20
41.29058142158867
 30
0.0
 11
2.107870178878142
 21
0.0
 31
0.0
210
0.0
220
0.0
230
1.0
 40
0.7071067811865464
 41
0.0
 42
6.283185307179586
  0
LWPOLYLINE
  5
129
330
D1
100
AcDbEntity
  8
AM_4
100
AcDbPolyline
 90
       20
 70
     0
 43
0.0
 10
2.32047034409841
 20
41.85320999272889
 10
2.225233365458269
 20
41.98307490853905
 10
2.048718007094797
 20
42.17658232479164
 10
1.842189012297637
 20
42.35309941433694
 10
1.608321753270386
 20
42.50983944558484
 10
1.350599202081206
 20
42.64422483851713
 10
1.073076165773084
 20
42.75413040411648
 10
0.7801232706083362
 20
42.83796582831296
 10
0.4761836116225974
 20
42.89465964966278
 10
0.1655405516490234
 20
42.92357698602585
 10
-0.1475659296403435
 20
42.92438690201649
 10
-0.4589377898426474
 20
42.89701585723799
 10
-0.7643460165132526
 20
42.84163722269377
 10
-1.059677219221536
 20
42.75864503373011
 10
-1.340843361283995
 20
42.64865485833568
 10
-1.603737308459297
 20
42.51254846186276
 10
-1.844078011351366
 20
42.35166792639517
 10
-2.057551229490993
 20
42.16799533367396
 10
-2.240040011698898
 20
41.96432868366671
 10
-2.325662143331263
 20
41.84541562024699
  0
ELLIPSE
  5
12A
330
D1
100
AcDbEntity
  8
AM_4
100
AcDbEllipse
 10
0.0000000000000004
 20
39.81261169347358
 30
0.0
 11
-3.326035293353611
 21
4.073218475856627E-16
 31
0.0
210
0.0
220
0.0
230
1.0
 40
0.7071067811865498
 41
5.844803532225585
 42
9.86315973572338
  0
ELLIPSE
  5
12B
330
D1
100
AcDbEntity
  8
AM_4
100
AcDbEllipse
 10
0.0000000000000062
 20
41.0751723462831
 30
0.0
 11
-2.568122605604361
 21
3.145043128771341E-16
 31
0.0
210
0.0
220
0.0
230
1.0
 40
0.7071067811865508
 41
5.844803532225579
 42
9.863159735723386
  0
LINE
  5
12C
330
D1
100
AcDbEntity
  8
AM_4
100
AcDbLine
 10
-2.325280275130742
 20
41.845991832124
 30
0.0
 11
-3.011524545263588
 21
40.81091793053429
 31
0.0
  0
LINE
  5
12D
330
D1
100
AcDbEntity
  8
AM_4
100
AcDbLine
 10
3.011524545263593
 20
40.81091793053429
 30
0.0
 11
2.325280275130746
 21
41.845991832124
 31
0.0
  0
ENDBLK
  5
D4
330
D1
100
AcDbEntity
  8
0
100
AcDbBlockEnd
  0
BLOCK
  5
130
330
12E
100
AcDbEntity
  8
0
100
AcDbBlockBegin
  2
4_127633h_0_in_127633_2
 70
     2
 10
0.0
 20
0.0
 30
0.0
  3
4_127633h_0_in_127633_2
  1

  0
ATTDEF
  5
132
330
12E
100
AcDbEntity
  8
AM_6
100
AcDbText
 10
31.4
 20
49.40000000000001
 30
0.0
 40
0.5
  1
TB-DLEZ-PCR - Metric - Housing
100
AcDbAttributeDefinition
  3

  2
NN
 70
     8
280
     0
  0
ATTDEF
  5
133
330
12E
100
AcDbEntity
  8
AM_6
100
AcDbText
 10
31.4
 20
48.90000000000001
 30
0.0
 40
0.5
  1
DLEZ Normal Duty Polymer Housed Tapped Base Pillow Blocks
100
AcDbAttributeDefinition
  3

  2
NT
 70
     8
280
     0
  0
ATTDEF
  5
134
330
12E
100
AcDbEntity
  8
AM_6
100
AcDbText
 10
31.4
 20
48.40000000000001
 30
0.0
 40
0.5
  1
127633h
100
AcDbAttributeDefinition
  3

  2
NB
 70
     8
280
     0
  0
ATTDEF
  5
135
330
12E
100
AcDbEntity
  8
AM_6
100
AcDbText
 10
31.4
 20
47.90000000000001
 30
0.0
 40
0.5
  1
$PN.h
100
AcDbAttributeDefinition
  3

  2
NBSYN
 70
     8
280
     0
  0
ATTDEF
  5
136
330
12E
100
AcDbEntity
  8
AM_6
100
AcDbText
 10
31.4
 20
47.40000000000001
 30
0.0
 40
0.5
  1
127633
100
AcDbAttributeDefinition
  3

  2
LINA
 70
     8
280
     0
  0
ATTDEF
  5
137
330
12E
100
AcDbEntity
  8
AM_6
100
AcDbText
 10
31.4
 20
46.90000000000001
 30
0.0
 40
0.5
  1
207
100
AcDbAttributeDefinition
  3

  2
SERIES
 70
     8
280
     0
  0
ATTDEF
  5
138
330
12E
100
AcDbEntity
  8
AM_6
100
AcDbText
 10
31.4
 20
46.40000000000001
 30
0.0
 40
0.5
  1
35
100
AcDbAttributeDefinition
  3

  2
SS
 70
     8
280
     0
  0
ATTDEF
  5
139
330
12E
100
AcDbEntity
  8
AM_6
100
AcDbText
 10
31.4
 20
45.90000000000001
 30
0.0
 40
0.5
  1
127633
100
AcDbAttributeDefinition
  3

  2
PN
 70
     8
280
     0
  0
ATTDEF
  5
13A
330
12E
100
AcDbEntity
  8
AM_6
100
AcDbText
 10
31.4
 20
45.40000000000001
 30
0.0
 40
0.5
  1
TB-DLEZ-35M-PCR
100
AcDbAttributeDefinition
  3

  2
DESCRIPTION
 70
     8
280
     0
  0
ATTDEF
  5
13B
330
12E
100
AcDbEntity
  8
AM_6
100
AcDbText
 10
31.4
 20
44.90000000000001
 30
0.0
 40
0.5
  1
1.11
100
AcDbAttributeDefinition
  3

  2
W
 70
     8
280
     0
  0
ATTDEF
  5
13C
330
12E
100
AcDbEntity
  8
AM_6
100
AcDbText
 10
31.4
 20
44.40000000000001
 30
0.0
 40
0.5
  1
44.5
100
AcDbAttributeDefinition
  3

  2
A
 70
     8
280
     0
  0
ATTDEF
  5
13D
330
12E
100
AcDbEntity
  8
AM_6
100
AcDbText
 10
31.4
 20
43.90000000000001
 30
0.0
 40
0.5
  1
117.6
100
AcDbAttributeDefinition
  3

  2
B
 70
     8
280
     0
  0
ATTDEF
  5
13E
330
12E
100
AcDbEntity
  8
AM_6
100
AcDbText
 10
31.4
 20
43.40000000000001
 30
0.0
 40
0.5
  1
48.0
100
AcDbAttributeDefinition
  3

  2
C
 70
     8
280
     0
  0
ATTDEF
  5
13F
330
12E
100
AcDbEntity
  8
AM_6
100
AcDbText
 10
31.4
 20
42.90000000000001
 30
0.0
 40
0.5
  1
82.6
100
AcDbAttributeDefinition
  3

  2
D
 70
     8
280
     0
  0
ATTDEF
  5
140
330
12E
100
AcDbEntity
  8
AM_6
100
AcDbText
 10
31.4
 20
42.40000000000001
 30
0.0
 40
0.5
  1
97.0
100
AcDbAttributeDefinition
  3

  2
J
 70
     8
280
     0
  0
ATTDEF
  5
141
330
12E
100
AcDbEntity
  8
AM_6
100
AcDbText
 10
31.4
 20
41.90000000000001
 30
0.0
 40
0.5
  1
68.3
100
AcDbAttributeDefinition
  3

  2
L
 70
     8
280
     0
  0
ATTDEF
  5
142
330
12E
100
AcDbEntity
  8
AM_6
100
AcDbText
 10
31.4
 20
41.40000000000001
 30
0.0
 40
0.5
  1
47.6
100
AcDbAttributeDefinition
  3

  2
M
 70
     8
280
     0
  0
ATTDEF
  5
143
330
12E
100
AcDbEntity
  8
AM_6
100
AcDbText
 10
31.4
 20
40.90000000000001
 30
0.0
 40
0.5
  1
14.0
100
AcDbAttributeDefinition
  3

  2
N
 70
     8
280
     0
  0
ATTDEF
  5
144
330
12E
100
AcDbEntity
  8
AM_6
100
AcDbText
 10
31.4
 20
40.40000000000001
 30
0.0
 40
0.5
  1
M12x1.75
100
AcDbAttributeDefinition
  3

  2
R
 70
     8
280
     0
  0
ATTDEF
  5
145
330
12E
100
AcDbEntity
  8
AM_6
100
AcDbText
 10
31.4
 20
39.90000000000001
 30
0.0
 40
0.5
  1
12
100
AcDbAttributeDefinition
  3

  2
R1
 70
     8
280
     0
  0
ATTDEF
  5
146
330
12E
100
AcDbEntity
  8
AM_6
100
AcDbText
 10
31.4
 20
39.40000000000001
 30
0.0
 40
0.5
  1
27.4
100
AcDbAttributeDefinition
  3

  2
S
 70
     8
280
     0
  0
ATTDEF
  5
147
330
12E
100
AcDbEntity
  8
AM_6
100
AcDbText
 10
31.4
 20
38.90000000000001
 30
0.0
 40
0.5
  1
3065
100
AcDbAttributeDefinition
  3

  2
CAPS
 70
     8
280
     0
  0
ATTDEF
  5
148
330
12E
100
AcDbEntity
  8
AM_6
100
AcDbText
 10
31.4
 20
38.40000000000001
 30
0.0
 40
0.5
  1
5759
100
AcDbAttributeDefinition
  3

  2
CAPD
 70
     8
280
     0
  0
ATTDEF
  5
149
330
12E
100
AcDbEntity
  8
AM_6
100
AcDbText
 10
31.4
 20
37.90000000000001
 30
0.0
 40
0.5
  1
9
100
AcDbAttributeDefinition
  3

  2
BN
 70
     8
280
     0
  0
ATTDEF
  5
14A
330
12E
100
AcDbEntity
  8
AM_6
100
AcDbText
 10
31.4
 20
37.40000000000001
 30
0.0
 40
0.5
  1
7/16
100
AcDbAttributeDefinition
  3

  2
BD
 70
     8
280
     0
  0
ATTDEF
  5
14B
330
12E
100
AcDbEntity
  8
AM_6
100
AcDbText
 10
31.4
 20
36.90000000000001
 30
0.0
 40
0.5
  1
2.1360
100
AcDbAttributeDefinition
  3

  2
PDI
 70
     8
280
     0
  0
ATTDEF
  5
14C
330
12E
100
AcDbEntity
  8
AM_6
100
AcDbText
 10
31.4
 20
36.40000000000001
 30
0.0
 40
0.5
  1
15-33
100
AcDbAttributeDefinition
  3

  2
IC
 70
     8
280
     0
  0
ATTDEF
  5
14D
330
12E
100
AcDbEntity
  8
AM_6
100
AcDbText
 10
31.4
 20
35.90000000000001
 30
0.0
 40
0.5
  1
M6*1.0
100
AcDbAttributeDefinition
  3

  2
SC
 70
     8
280
     0
  0
ATTDEF
  5
14E
330
12E
100
AcDbEntity
  8
AM_6
100
AcDbText
 10
31.4
 20
35.40000000000001
 30
0.0
 40
0.5
  1
20.5
100
AcDbAttributeDefinition
  3

  2
TC
 70
     8
280
     0
  0
ATTDEF
  5
14F
330
12E
100
AcDbEntity
  8
AM_6
100
AcDbText
 10
31.4
 20
34.90000000000001
 30
0.0
 40
0.5
  1
PBT 30GF
100
AcDbAttributeDefinition
  3

  2
MH
 70
     8
280
     0
  0
ATTDEF
  5
150
330
12E
100
AcDbEntity
  8
AM_6
100
AcDbText
 10
31.4
 20
34.40000000000001
 30
0.0
 40
0.5
  1
4118
100
AcDbAttributeDefinition
  3

  2
IR
 70
     8
280
     0
  0
ATTDEF
  5
151
330
12E
100
AcDbEntity
  8
AM_6
100
AcDbText
 10
31.4
 20
33.90000000000001
 30
0.0
 40
0.5
  1
52100
100
AcDbAttributeDefinition
  3

  2
OR
 70
     8
280
     0
  0
ATTDEF
  5
152
330
12E
100
AcDbEntity
  8
AM_6
100
AcDbText
 10
31.4
 20
33.40000000000001
 30
0.0
 40
0.5
  1
NYLON 6/6
100
AcDbAttributeDefinition
  3

  2
RM
 70
     8
280
     0
  0
ATTDEF
  5
153
330
12E
100
AcDbEntity
  8
AM_6
100
AcDbText
 10
31.4
 20
32.90000000000001
 30
0.0
 40
0.5
  1
52100
100
AcDbAttributeDefinition
  3

  2
BM
 70
     8
280
     0
  0
ATTDEF
  5
154
330
12E
100
AcDbEntity
  8
AM_6
100
AcDbText
 10
31.4
 20
32.40000000000001
 30
0.0
 40
0.5
  1
±2
100
AcDbAttributeDefinition
  3

  2
SM
 70
     8
280
     0
  0
ATTDEF
  5
155
330
12E
100
AcDbEntity
  8
AM_6
100
AcDbText
 10
31.4
 20
31.90000000000001
 30
0.0
 40
0.5
  1
10.106
100
AcDbAttributeDefinition
  3

  2
KDM
 70
     8
280
     0
  0
ATTDEF
  5
156
330
12E
100
AcDbEntity
  8
AM_6
100
AcDbText
 10
31.4
 20
31.40000000000001
 30
0.0
 40
0.5
  1
72.000
100
AcDbAttributeDefinition
  3

  2
BOD
 70
     8
280
     0
  0
ATTDEF
  5
157
330
12E
100
AcDbEntity
  8
AM_6
100
AcDbText
 10
31.4
 20
30.90000000000001
 30
0.0
 40
0.5
  1
14.000
100
AcDbAttributeDefinition
  3

  2
NDM
 70
     8
280
     0
  0
ATTDEF
  5
158
330
12E
100
AcDbEntity
  8
AM_6
100
AcDbText
 10
31.4
 20
30.40000000000001
 30
0.0
 40
0.5
  1
baldor
100
AcDbAttributeDefinition
  3

  2
COMPANY
 70
     8
280
     0
  0
LINE
  5
159
330
12E
100
AcDbEntity
  8
AM_9
100
AcDbLine
 10
-22.36972631745226
 20
-36.00000000000001
 30
0.0
 11
22.36972631745226
 21
-36.00000000000001
 31
0.0
  0
LINE
  5
15A
330
12E
100
AcDbEntity
  8
AM_9
100
AcDbLine
 10
12.25078621888008
 20
36.00000000000001
 30
0.0
 11
-12.25078621888005
 21
36.00000000000001
 31
0.0
  0
LINE
  5
15B
330
12E
100
AcDbEntity
  8
AM_9
100
AcDbLine
 10
-5.052999999999999
 20
-29.40000000000001
 30
0.0
 11
-5.052999999999999
 21
-46.653
 31
0.0
  0
LINE
  5
15C
330
12E
100
AcDbEntity
  8
AM_9
100
AcDbLine
 10
5.053000000000004
 20
-46.653
 30
0.0
 11
5.053000000000004
 21
-29.40000000000001
 31
0.0
  0
LINE
  5
15D
330
12E
100
AcDbEntity
  8
AM_9
100
AcDbLine
 10
5.053000000000004
 20
-29.40000000000001
 30
0.0
 11
-5.053
 21
-29.40000000000001
 31
0.0
  0
LINE
  5
15E
330
12E
100
AcDbEntity
  8
AM_9
100
AcDbLine
 10
0.0000000000000025
 20
-26.48264908978483
 30
0.0
 11
-5.053
 21
-29.40000000000001
 31
0.0
  0
LINE
  5
15F
330
12E
100
AcDbEntity
  8
AM_9
100
AcDbLine
 10
5.053000000000005
 20
-29.40000000000001
 30
0.0
 11
0.0000000000000025
 21
-26.48264908978483
 31
0.0
  0
LINE
  5
160
330
12E
100
AcDbEntity
  8
AM_9
100
AcDbLine
 10
5.053000000000004
 20
-46.653
 30
0.0
 11
-5.052999999999999
 21
-46.653
 31
0.0
  0
LINE
  5
161
330
12E
100
AcDbEntity
  8
AM_9
100
AcDbLine
 10
-5.052999999999999
 20
-46.653
 30
0.0
 11
-5.999999999999996
 21
-47.6
 31
0.0
  0
LINE
  5
162
330
12E
100
AcDbEntity
  8
AM_9
100
AcDbLine
 10
6.000000000000001
 20
-47.6
 30
0.0
 11
5.053000000000004
 21
-46.653
 31
0.0
  0
LINE
  5
164
330
12E
100
AcDbEntity
  8
AM_5
100
AcDbLine
 10
-5.999999999999998
 20
-47.6
 30
0.0
 11
-5.999999999999998
 21
-33.6
 31
0.0
  0
LINE
  5
165
330
12E
100
AcDbEntity
  8
AM_5
100
AcDbLine
 10
-5.999999999999998
 20
-33.6
 30
0.0
 11
5.999999999999998
 21
-33.6
 31
0.0
  0
LINE
  5
166
330
12E
100
AcDbEntity
  8
AM_5
100
AcDbLine
 10
-5.052999999999997
 20
-31.95974788523227
 30
0.0
 11
-5.999999999999998
 21
-33.6
 31
0.0
  0
LINE
  5
167
330
12E
100
AcDbEntity
  8
AM_5
100
AcDbLine
 10
5.999999999999998
 20
-47.6
 30
0.0
 11
5.999999999999998
 21
-33.6
 31
0.0
  0
LINE
  5
168
330
12E
100
AcDbEntity
  8
AM_5
100
AcDbLine
 10
5.052999999999992
 20
-31.95974788523225
 30
0.0
 11
5.999999999999998
 21
-33.6
 31
0.0
  0
LINE
  5
16B
330
12E
100
AcDbEntity
  8
AM_7
100
AcDbLine
 10
26.4
 20
0.0
 30
0.0
 11
-29.62
 21
0.0
 31
0.0
  0
LINE
  5
16C
330
12E
100
AcDbEntity
  8
AM_7
100
AcDbLine
 10
-0.0000000000000025
 20
-25.42678154427407
 30
0.0
 11
-0.0000000000000025
 21
-48.65586754551076
 31
0.0
  0
LINE
  5
16D
330
12E
100
AcDbEntity
  8
AM_4
100
AcDbLine
 10
-10.36753903386801
 20
49.4
 30
0.0
 11
10.36753903386804
 21
49.40000000000001
 31
0.0
  0
LINE
  5
16E
330
12E
100
AcDbEntity
  8
AM_4
100
AcDbLine
 10
-10.54503801814466
 20
48.13702910152394
 30
0.0
 11
10.5450380181447
 21
48.13702910152394
 31
0.0
  0
LINE
  5
16F
330
12E
100
AcDbEntity
  8
AM_4
100
AcDbLine
 10
-13.72785888581511
 20
25.49008186792896
 30
0.0
 11
13.72785888581515
 21
25.49008186792896
 31
0.0
  0
LINE
  5
170
330
12E
100
AcDbEntity
  8
AM_4
100
AcDbLine
 10
24.0
 20
-47.6
 30
0.0
 11
10.36753903386805
 21
49.4
 31
0.0
  0
LINE
  5
171
330
12E
100
AcDbEntity
  8
AM_4
100
AcDbLine
 10
-10.367539033868
 20
49.4
 30
0.0
 11
-24.0
 21
-47.6
 31
0.0
  0
LINE
  5
172
330
12E
100
AcDbEntity
  8
AM_4
100
AcDbLine
 10
-24.0
 20
-47.6
 30
0.0
 11
24.0
 21
-47.6
 31
0.0
  0
LINE
  5
173
330
12E
100
AcDbEntity
  8
AM_4
100
AcDbLine
 10
-14.07297268844686
 20
23.0344695659062
 30
0.0
 11
14.07297268844689
 21
23.0344695659062
 31
0.0
  0
ENDBLK
  5
131
330
12E
100
AcDbEntity
  8
0
100
AcDbBlockEnd
  0
ENDSEC
  0
SECTION
  2
ENTITIES
  0
INSERT
  5
6F
330
1F
100
AcDbEntity
  8
0
100
AcDbBlockReference
  2
1_127633_2
 10
0.0
 20
0.0
 30
0.0
  0
POINT
  5
175
330
1F
100
AcDbEntity
  8
ConnectionPoints
100
AcDbPoint
 10
0.0000000000000021
 20
35.09420469805094
 30
35.09420469805096
  0
POINT
  5
176
330
1F
100
AcDbEntity
  8
ConnectionPoints
100
AcDbPoint
 10
0.0
 20
0.0
 30
0.0
  0
POINT
  5
177
330
1F
100
AcDbEntity
  8
ConnectionPoints
100
AcDbPoint
 10
0.0000000000000021
 20
35.09420469805094
 30
35.09420469805096
  0
POINT
  5
178
330
1F
100
AcDbEntity
  8
ConnectionPoints
100
AcDbPoint
 10
-27.4
 20
0.0
 30
0.0000000000000017
  0
ENDSEC
  0
SECTION
  2
OBJECTS
  0
DICTIONARY
  5
C
330
0
100
AcDbDictionary
281
     1
  3
ACAD_DETAILVIEWSTYLE
350
180
  3
ACAD_GROUP
350
D
  3
ACAD_LAYOUT
350
1A
  3
ACAD_MATERIAL
350
43
  3
ACAD_MLEADERSTYLE
350
6B
  3
ACAD_MLINESTYLE
350
17
  3
ACAD_PLOTSETTINGS
350
19
  3
ACAD_PLOTSTYLENAME
350
E
  3
ACAD_SCALELIST
350
47
  3
ACAD_SECTIONVIEWSTYLE
350
181
  3
ACAD_TABLESTYLE
350
69
  3
ACAD_VISUALSTYLE
350
2A
  3
ACDB_RECOMPOSE_DATA
350
17D
  3
AcDbVariableDictionary
350
179
  0
SUN
  5
6D
330
29
100
AcDbSun
 90
        1
290
     0
 63
     7
421
 16777215
 40
1.0
291
     1
 91
  2455826
 92
 54000000
292
     0
 70
     2
 71
   256
280
     1
  0
DICTIONARY
  5
180
102
{ACAD_REACTORS
330
C
102
}
330
C
100
AcDbDictionary
281
     1
  0
DICTIONARY
  5
D
102
{ACAD_REACTORS
330
C
102
}
330
C
100
AcDbDictionary
281
     1
  0
DICTIONARY
  5
1A
102
{ACAD_REACTORS
330
C
102
}
330
C
100
AcDbDictionary
281
     1
  3
Layout1
350
1E
  3
Layout2
350
26
  3
Model
350
22
  0
DICTIONARY
  5
43
102
{ACAD_REACTORS
330
C
102
}
330
C
100
AcDbDictionary
281
     1
  3
ByBlock
350
45
  3
ByLayer
350
44
  3
Global
350
46
  0
DICTIONARY
  5
6B
102
{ACAD_REACTORS
330
C
102
}
330
C
100
AcDbDictionary
281
     1
  3
Standard
350
6C
  0
DICTIONARY
  5
17
102
{ACAD_REACTORS
330
C
102
}
330
C
100
AcDbDictionary
281
     1
  3
Standard
350
18
  0
DICTIONARY
  5
19
102
{ACAD_REACTORS
330
C
102
}
330
C
100
AcDbDictionary
281
     1
  0
ACDBDICTIONARYWDFLT
  5
E
102
{ACAD_REACTORS
330
C
102
}
330
C
100
AcDbDictionary
281
     1
  3
Normal
350
F
100
AcDbDictionaryWithDefault
340
F
  0
DICTIONARY
  5
47
102
{ACAD_REACTORS
330
C
102
}
330
C
100
AcDbDictionary
281
     1
  3
A0
350
48
  3
A1
350
49
  3
A2
350
4A
  3
A3
350
4B
  3
A4
350
4C
  3
A5
350
4D
  3
A6
350
4E
  3
A7
350
4F
  3
A8
350
50
  3
A9
350
51
  3
B0
350
52
  3
B1
350
53
  3
B2
350
54
  3
B3
350
55
  3
B4
350
56
  3
B5
350
57
  3
B6
350
58
  3
B7
350
59
  3
B8
350
5A
  3
B9
350
5B
  3
C0
350
5C
  3
C1
350
5D
  3
C2
350
5E
  3
C3
350
5F
  3
C4
350
60
  3
C5
350
61
  3
C6
350
62
  3
C7
350
63
  3
C8
350
64
  3
C9
350
65
  3
D0
350
66
  3
D1
350
67
  3
D2
350
68
  0
DICTIONARY
  5
181
102
{ACAD_REACTORS
330
C
102
}
330
C
100
AcDbDictionary
281
     1
  0
DICTIONARY
  5
69
102
{ACAD_REACTORS
330
C
102
}
330
C
100
AcDbDictionary
281
     1
  3
Standard
350
6A
  0
DICTIONARY
  5
2A
102
{ACAD_REACTORS
330
C
102
}
330
C
100
AcDbDictionary
281
     1
  3
2dWireframe
350
2F
  3
Basic
350
32
  3
Brighten
350
36
  3
ColorChange
350
3A
  3
Conceptual
350
34
  3
Dim
350
35
  3
EdgeColorOff
350
3D
  3
Facepattern
350
39
  3
Flat
350
2B
  3
FlatWithEdges
350
2C
  3
Gouraud
350
2D
  3
GouraudWithEdges
350
2E
  3
Hidden
350
31
  3
JitterOff
350
3B
  3
Linepattern
350
38
  3
OverhangOff
350
3C
  3
Realistic
350
33
  3
Shaded
350
42
  3
Shaded with edges
350
41
  3
Shades of Gray
350
3E
  3
Sketchy
350
3F
  3
Thicken
350
37
  3
Wireframe
350
30
  3
X-Ray
350
40
  0
XRECORD
  5
17D
102
{ACAD_REACTORS
330
C
102
}
330
C
100
AcDbXrecord
280
     1
 90
        1
330
6A
  0
DICTIONARY
  5
179
102
{ACAD_REACTORS
330
C
102
}
330
C
100
AcDbDictionary
281
     1
  3
CANNOSCALE
350
17A
  3
CMLEADERSTYLE
350
17F
  3
CTABLESTYLE
350
17E
  0
LAYOUT
  5
1E
102
{ACAD_REACTORS
330
1A
102
}
330
1A
100
AcDbPlotSettings
  1

  2
none_device
  4

  6

 40
0.0
 41
0.0
 42
0.0
 43
0.0
 44
0.0
 45
0.0
 46
0.0
 47
0.0
 48
0.0
 49
0.0
140
0.0
141
0.0
142
1.0
143
1.0
 70
   688
 72
     1
 73
     0
 74
     5
  7

 75
    16
 76
     0
 77
     2
 78
   300
147
1.0
148
0.0
149
0.0
100
AcDbLayout
  1
Layout1
 70
     1
 71
     1
 10
0.0
 20
0.0
 11
420.0
 21
297.0
 12
0.0
 22
0.0
 32
0.0
 14
1.000000000000000E+20
 24
1.000000000000000E+20
 34
1.000000000000000E+20
 15
-1.000000000000000E+20
 25
-1.000000000000000E+20
 35
-1.000000000000000E+20
146
0.0
 13
0.0
 23
0.0
 33
0.0
 16
1.0
 26
0.0
 36
0.0
 17
0.0
 27
1.0
 37
0.0
 76
     0
330
1B
  0
LAYOUT
  5
26
102
{ACAD_REACTORS
330
1A
102
}
330
1A
100
AcDbPlotSettings
  1

  2
none_device
  4

  6

 40
0.0
 41
0.0
 42
0.0
 43
0.0
 44
0.0
 45
0.0
 46
0.0
 47
0.0
 48
0.0
 49
0.0
140
0.0
141
0.0
142
1.0
143
1.0
 70
   688
 72
     1
 73
     0
 74
     5
  7

 75
    16
 76
     0
 77
     2
 78
   300
147
1.0
148
0.0
149
0.0
100
AcDbLayout
  1
Layout2
 70
     1
 71
     2
 10
0.0
 20
0.0
 11
0.0
 21
0.0
 12
0.0
 22
0.0
 32
0.0
 14
0.0
 24
0.0
 34
0.0
 15
0.0
 25
0.0
 35
0.0
146
0.0
 13
0.0
 23
0.0
 33
0.0
 16
1.0
 26
0.0
 36
0.0
 17
0.0
 27
1.0
 37
0.0
 76
     0
330
23
  0
LAYOUT
  5
22
102
{ACAD_REACTORS
330
1A
102
}
330
1A
100
AcDbPlotSettings
  1

  2
none_device
  4
Letter_(8.50_x_11.00_Inches)
  6

 40
6.35
 41
6.35
 42
6.35000508
 43
6.35000508
 44
215.9
 45
279.4
 46
0.0
 47
0.0
 48
0.0
 49
0.0
140
0.0
141
0.0
142
1.0
143
1.0
 70
  1712
 72
     1
 73
     0
 74
     0
  7

 75
     0
 76
     0
 77
     2
 78
   300
147
1.0
148
0.0
149
0.0
100
AcDbLayout
  1
Model
 70
     1
 71
     0
 10
0.0
 20
0.0
 11
420.0
 21
297.0
 12
0.0
 22
0.0
 32
0.0
 14
1.000000000000000E+20
 24
1.000000000000000E+20
 34
1.000000000000000E+20
 15
-1.000000000000000E+20
 25
-1.000000000000000E+20
 35
-1.000000000000000E+20
146
0.0
 13
0.0
 23
0.0
 33
0.0
 16
1.0
 26
0.0
 36
0.0
 17
0.0
 27
1.0
 37
0.0
 76
     0
330
1F
331
29
  0
MATERIAL
  5
45
102
{ACAD_REACTORS
330
43
102
}
330
43
100
AcDbMaterial
  1
ByBlock
 72
     1
 94
      127
  0
MATERIAL
  5
44
102
{ACAD_REACTORS
330
43
102
}
330
43
100
AcDbMaterial
  1
ByLayer
 72
     1
 94
      127
  0
MATERIAL
  5
46
102
{ACAD_REACTORS
330
43
102
}
330
43
100
AcDbMaterial
  1
Global
 72
     1
 94
      127
  0
MLEADERSTYLE
  5
6C
102
{ACAD_REACTORS
330
6B
102
}
330
6B
100
AcDbMLeaderStyle
179
     2
170
     2
171
     1
172
     0
 90
        2
 40
0.0
 41
0.0
173
     1
 91
-1056964608
340
14
 92
       -2
290
     1
 42
2.0
291
     1
 43
8.0
  3
Standard
341
0
 44
4.0
300

342
11
174
     1
178
     6
175
     1
176
     0
 93
-1056964608
 45
4.0
292
     0
297
     0
 46
4.0
343
0
 94
-1056964608
 47
1.0
 49
1.0
140
1.0
293
     1
141
0.0
294
     1
177
     0
142
1.0
295
     0
296
     0
143
3.75
271
     0
272
     9
273
     9
298
     0
  0
MLINESTYLE
  5
18
102
{ACAD_REACTORS
330
17
102
}
330
17
100
AcDbMlineStyle
  2
Standard
 70
     0
  3

 62
   256
 51
90.0
 52
90.0
 71
     2
 49
0.5
 62
   256
  6
BYLAYER
 49
-0.5
 62
   256
  6
BYLAYER
  0
ACDBPLACEHOLDER
  5
F
102
{ACAD_REACTORS
330
E
102
}
330
E
  0
SCALE
  5
48
102
{ACAD_REACTORS
330
47
102
}
330
47
100
AcDbScale
 70
     0
300
1:1
140
1.0
141
1.0
290
     1
  0
SCALE
  5
49
102
{ACAD_REACTORS
330
47
102
}
330
47
100
AcDbScale
 70
     0
300
1:2
140
1.0
141
2.0
290
     0
  0
SCALE
  5
4A
102
{ACAD_REACTORS
330
47
102
}
330
47
100
AcDbScale
 70
     0
300
1:4
140
1.0
141
4.0
290
     0
  0
SCALE
  5
4B
102
{ACAD_REACTORS
330
47
102
}
330
47
100
AcDbScale
 70
     0
300
1:5
140
1.0
141
5.0
290
     0
  0
SCALE
  5
4C
102
{ACAD_REACTORS
330
47
102
}
330
47
100
AcDbScale
 70
     0
300
1:8
140
1.0
141
8.0
290
     0
  0
SCALE
  5
4D
102
{ACAD_REACTORS
330
47
102
}
330
47
100
AcDbScale
 70
     0
300
1:10
140
1.0
141
10.0
290
     0
  0
SCALE
  5
4E
102
{ACAD_REACTORS
330
47
102
}
330
47
100
AcDbScale
 70
     0
300
1:16
140
1.0
141
16.0
290
     0
  0
SCALE
  5
4F
102
{ACAD_REACTORS
330
47
102
}
330
47
100
AcDbScale
 70
     0
300
1:20
140
1.0
141
20.0
290
     0
  0
SCALE
  5
50
102
{ACAD_REACTORS
330
47
102
}
330
47
100
AcDbScale
 70
     0
300
1:30
140
1.0
141
30.0
290
     0
  0
SCALE
  5
51
102
{ACAD_REACTORS
330
47
102
}
330
47
100
AcDbScale
 70
     0
300
1:40
140
1.0
141
40.0
290
     0
  0
SCALE
  5
52
102
{ACAD_REACTORS
330
47
102
}
330
47
100
AcDbScale
 70
     0
300
1:50
140
1.0
141
50.0
290
     0
  0
SCALE
  5
53
102
{ACAD_REACTORS
330
47
102
}
330
47
100
AcDbScale
 70
     0
300
1:100
140
1.0
141
100.0
290
     0
  0
SCALE
  5
54
102
{ACAD_REACTORS
330
47
102
}
330
47
100
AcDbScale
 70
     0
300
2:1
140
2.0
141
1.0
290
     0
  0
SCALE
  5
55
102
{ACAD_REACTORS
330
47
102
}
330
47
100
AcDbScale
 70
     0
300
4:1
140
4.0
141
1.0
290
     0
  0
SCALE
  5
56
102
{ACAD_REACTORS
330
47
102
}
330
47
100
AcDbScale
 70
     0
300
8:1
140
8.0
141
1.0
290
     0
  0
SCALE
  5
57
102
{ACAD_REACTORS
330
47
102
}
330
47
100
AcDbScale
 70
     0
300
10:1
140
10.0
141
1.0
290
     0
  0
SCALE
  5
58
102
{ACAD_REACTORS
330
47
102
}
330
47
100
AcDbScale
 70
     0
300
100:1
140
100.0
141
1.0
290
     0
  0
SCALE
  5
59
102
{ACAD_REACTORS
330
47
102
}
330
47
100
AcDbScale
 70
     0
300
1/128" = 1'-0"
140
0.0078125
141
12.0
290
     0
  0
SCALE
  5
5A
102
{ACAD_REACTORS
330
47
102
}
330
47
100
AcDbScale
 70
     0
300
1/64" = 1'-0"
140
0.015625
141
12.0
290
     0
  0
SCALE
  5
5B
102
{ACAD_REACTORS
330
47
102
}
330
47
100
AcDbScale
 70
     0
300
1/32" = 1'-0"
140
0.03125
141
12.0
290
     0
  0
SCALE
  5
5C
102
{ACAD_REACTORS
330
47
102
}
330
47
100
AcDbScale
 70
     0
300
1/16" = 1'-0"
140
0.0625
141
12.0
290
     0
  0
SCALE
  5
5D
102
{ACAD_REACTORS
330
47
102
}
330
47
100
AcDbScale
 70
     0
300
3/32" = 1'-0"
140
0.09375
141
12.0
290
     0
  0
SCALE
  5
5E
102
{ACAD_REACTORS
330
47
102
}
330
47
100
AcDbScale
 70
     0
300
1/8" = 1'-0"
140
0.125
141
12.0
290
     0
  0
SCALE
  5
5F
102
{ACAD_REACTORS
330
47
102
}
330
47
100
AcDbScale
 70
     0
300
3/16" = 1'-0"
140
0.1875
141
12.0
290
     0
  0
SCALE
  5
60
102
{ACAD_REACTORS
330
47
102
}
330
47
100
AcDbScale
 70
     0
300
1/4" = 1'-0"
140
0.25
141
12.0
290
     0
  0
SCALE
  5
61
102
{ACAD_REACTORS
330
47
102
}
330
47
100
AcDbScale
 70
     0
300
3/8" = 1'-0"
140
0.375
141
12.0
290
     0
  0
SCALE
  5
62
102
{ACAD_REACTORS
330
47
102
}
330
47
100
AcDbScale
 70
     0
300
1/2" = 1'-0"
140
0.5
141
12.0
290
     0
  0
SCALE
  5
63
102
{ACAD_REACTORS
330
47
102
}
330
47
100
AcDbScale
 70
     0
300
3/4" = 1'-0"
140
0.75
141
12.0
290
     0
  0
SCALE
  5
64
102
{ACAD_REACTORS
330
47
102
}
330
47
100
AcDbScale
 70
     0
300
1" = 1'-0"
140
1.0
141
12.0
290
     0
  0
SCALE
  5
65
102
{ACAD_REACTORS
330
47
102
}
330
47
100
AcDbScale
 70
     0
300
1-1/2" = 1'-0"
140
1.5
141
12.0
290
     0
  0
SCALE
  5
66
102
{ACAD_REACTORS
330
47
102
}
330
47
100
AcDbScale
 70
     0
300
3" = 1'-0"
140
3.0
141
12.0
290
     0
  0
SCALE
  5
67
102
{ACAD_REACTORS
330
47
102
}
330
47
100
AcDbScale
 70
     0
300
6" = 1'-0"
140
6.0
141
12.0
290
     0
  0
SCALE
  5
68
102
{ACAD_REACTORS
330
47
102
}
330
47
100
AcDbScale
 70
     0
300
1'-0" = 1'-0"
140
12.0
141
12.0
290
     0
  0
TABLESTYLE
  5
6A
102
{ACAD_REACTORS
330
69
102
}
102
{ACAD_XDICTIONARY
360
17B
102
}
330
69
100
AcDbTableStyle
  3
Standard
 70
     0
 71
     0
 40
0.06
 41
0.06
280
     0
281
     0
  7
Standard
140
4.5
170
     2
 62
     0
 63
   257
283
     0
 90
        4
 91
        0
  1

274
    -2
284
     1
 64
     0
275
    -2
285
     1
 65
     0
276
    -2
286
     1
 66
     0
277
    -2
287
     1
 67
     0
278
    -2
288
     1
 68
     0
279
    -2
289
     1
 69
     0
  7
Standard
140
6.0
170
     5
 62
     0
 63
   257
283
     0
 90
        4
 91
        0
  1

274
    -2
284
     1
 64
     0
275
    -2
285
     1
 65
     0
276
    -2
286
     1
 66
     0
277
    -2
287
     1
 67
     0
278
    -2
288
     1
 68
     0
279
    -2
289
     1
 69
     0
  7
Standard
140
4.5
170
     5
 62
     0
 63
   257
283
     0
 90
        4
 91
        0
  1

274
    -2
284
     1
 64
     0
275
    -2
285
     1
 65
     0
276
    -2
286
     1
 66
     0
277
    -2
287
     1
 67
     0
278
    -2
288
     1
 68
     0
279
    -2
289
     1
 69
     0
  0
VISUALSTYLE
  5
2F
102
{ACAD_REACTORS
330
2A
102
}
330
2A
100
AcDbVisualStyle
  2
2dWireframe
 70
     4
177
     3
291
     0
 70
    58
 90
        0
176
     1
 90
        2
176
     1
 90
        0
176
     1
 90
        0
176
     1
 40
0.6
176
     1
 40
30.0
176
     1
 62
     7
420
 16777215
176
     1
 90
        1
176
     1
 90
        4
176
     1
 62
     7
176
     1
 62
   257
176
     1
 90
        1
176
     1
 90
        1
176
     1
 40
1.0
176
     1
 90
        0
176
     1
 62
   257
176
     1
 40
1.0
176
     1
 90
        1
176
     1
 90
        6
176
     1
 90
        2
176
     1
 62
     7
176
     1
 90
        5
176
     1
 90
        0
176
     1
 90
        0
176
     1
290
     0
176
     1
 90
        1
176
     1
 40
0.0
176
     1
 90
        0
176
     1
290
     1
176
     1
290
     1
176
     1
290
     0
176
     1
290
     0
176
     1
290
     0
176
     1
290
     0
176
     1
290
     0
176
     1
290
     0
176
     1
290
     0
176
     1
 90
       50
176
     1
 40
0.0
176
     1
 40
1.0
176
     1
 90
        0
176
     1
 62
    18
420
        0
176
     1
 90
       50
176
     1
 90
        3
176
     1
 62
     5
420
      255
176
     1
290
     0
176
     1
 90
       50
176
     1
 90
       50
176
     1
 90
       50
176
     1
290
     0
176
     1
 90
       50
176
     1
 62
   256
176
     0
 40
1.0
176
     0
 90
        2
176
     1
  1
strokes_ogs.tif
176
     1
290
     0
176
     1
 40
1.0
176
     1
 40
1.0
176
     1
  0
VISUALSTYLE
  5
32
102
{ACAD_REACTORS
330
2A
102
}
330
2A
100
AcDbVisualStyle
  2
Basic
 70
     7
177
     3
291
     1
 70
    58
 90
        1
176
     1
 90
        0
176
     1
 90
        1
176
     1
 90
        0
176
     1
 40
0.6
176
     1
 40
30.0
176
     1
 62
     7
420
 16777215
176
     1
 90
        0
176
     1
 90
        4
176
     1
 62
     7
176
     1
 62
   257
176
     1
 90
        1
176
     1
 90
        1
176
     1
 40
1.0
176
     1
 90
        8
176
     1
 62
     7
176
     1
 40
1.0
176
     1
 90
        1
176
     1
 90
        6
176
     1
 90
        2
176
     1
 62
     7
176
     1
 90
        5
176
     1
 90
        0
176
     1
 90
        0
176
     1
290
     0
176
     1
 90
        1
176
     1
 40
0.0
176
     1
 90
        0
176
     1
290
     0
176
     1
290
     1
176
     1
290
     1
176
     1
290
     0
176
     1
290
     0
176
     1
290
     0
176
     1
290
     0
176
     1
290
     0
176
     1
290
     0
176
     1
 90
       50
176
     1
 40
0.0
176
     1
 40
1.0
176
     1
 90
        0
176
     1
 62
    18
420
        0
176
     1
 90
       50
176
     1
 90
        3
176
     1
 62
     5
420
      255
176
     1
290
     0
176
     1
 90
       50
176
     1
 90
       50
176
     1
 90
       50
176
     1
290
     0
176
     1
 90
       50
176
     1
 62
   256
176
     0
 40
1.0
176
     0
 90
        2
176
     1
  1
strokes_ogs.tif
176
     1
290
     0
176
     1
 40
1.0
176
     1
 40
1.0
176
     1
  0
VISUALSTYLE
  5
36
102
{ACAD_REACTORS
330
2A
102
}
330
2A
100
AcDbVisualStyle
  2
Brighten
 70
    12
177
     3
291
     1
 70
    58
 90
        2
176
     1
 90
        2
176
     1
 90
        0
176
     1
 90
        0
176
     1
 40
0.6
176
     1
 40
30.0
176
     1
 62
     7
420
 16777215
176
     1
 90
        1
176
     1
 90
        4
176
     1
 62
     7
176
     1
 62
   257
176
     1
 90
        1
176
     1
 90
        1
176
     1
 40
1.0
176
     1
 90
        8
176
     1
 62
     7
176
     1
 40
1.0
176
     1
 90
        1
176
     1
 90
        6
176
     1
 90
        2
176
     1
 62
     7
176
     1
 90
        5
176
     1
 90
        0
176
     1
 90
        0
176
     1
290
     0
176
     1
 90
        1
176
     1
 40
50.0
176
     1
 90
        0
176
     1
290
     0
176
     1
290
     1
176
     1
290
     1
176
     1
290
     0
176
     1
290
     0
176
     1
290
     0
176
     1
290
     0
176
     1
290
     0
176
     1
290
     0
176
     1
 90
       50
176
     1
 40
0.0
176
     1
 40
1.0
176
     1
 90
        0
176
     1
 62
    18
420
        0
176
     1
 90
       50
176
     1
 90
        3
176
     1
 62
     5
420
      255
176
     1
290
     0
176
     1
 90
       50
176
     1
 90
       50
176
     1
 90
       50
176
     1
290
     0
176
     1
 90
       50
176
     1
 62
   256
176
     0
 40
1.0
176
     0
 90
        2
176
     1
  1
strokes_ogs.tif
176
     1
290
     0
176
     1
 40
1.0
176
     1
 40
1.0
176
     1
  0
VISUALSTYLE
  5
3A
102
{ACAD_REACTORS
330
2A
102
}
330
2A
100
AcDbVisualStyle
  2
ColorChange
 70
    16
177
     3
291
     1
 70
    58
 90
        2
176
     1
 90
        2
176
     1
 90
        3
176
     1
 90
        0
176
     1
 40
0.6
176
     1
 40
30.0
176
     1
 62
     8
420
  8421504
176
     1
 90
        1
176
     1
 90
        4
176
     1
 62
     7
176
     1
 62
   257
176
     1
 90
        1
176
     1
 90
        1
176
     1
 40
1.0
176
     1
 90
        8
176
     1
 62
     8
420
  8421504
176
     1
 40
1.0
176
     1
 90
        1
176
     1
 90
        6
176
     1
 90
        2
176
     1
 62
     7
176
     1
 90
        5
176
     1
 90
        0
176
     1
 90
        0
176
     1
290
     0
176
     1
 90
        1
176
     1
 40
0.0
176
     1
 90
        0
176
     1
290
     0
176
     1
290
     1
176
     1
290
     1
176
     1
290
     0
176
     1
290
     0
176
     1
290
     0
176
     1
290
     0
176
     1
290
     0
176
     1
290
     0
176
     1
 90
       50
176
     1
 40
0.0
176
     1
 40
1.0
176
     1
 90
        0
176
     1
 62
    18
420
        0
176
     1
 90
       50
176
     1
 90
        3
176
     1
 62
     5
420
      255
176
     1
290
     0
176
     1
 90
       50
176
     1
 90
       50
176
     1
 90
       50
176
     1
290
     0
176
     1
 90
       50
176
     1
 62
   256
176
     0
 40
1.0
176
     0
 90
        2
176
     1
  1
strokes_ogs.tif
176
     1
290
     0
176
     1
 40
1.0
176
     1
 40
1.0
176
     1
  0
VISUALSTYLE
  5
34
102
{ACAD_REACTORS
330
2A
102
}
330
2A
100
AcDbVisualStyle
  2
Conceptual
 70
     9
177
     3
291
     0
 70
    58
 90
        3
176
     1
 90
        2
176
     1
 90
        0
176
     1
 90
        0
176
     1
 40
0.6
176
     1
 40
30.0
176
     1
 62
     7
420
 16777215
176
     1
 90
        2
176
     1
 90
        2
176
     1
 62
     7
176
     1
 62
   257
176
     1
 90
        1
176
     1
 90
        1
176
     1
 40
179.0
176
     1
 90
        8
176
     1
 62
     7
176
     1
 40
1.0
176
     1
 90
        1
176
     1
 90
        6
176
     1
 90
        2
176
     1
 62
     7
176
     1
 90
        3
176
     1
 90
        0
176
     1
 90
        0
176
     1
290
     0
176
     1
 90
        1
176
     1
 40
0.0
176
     1
 90
        0
176
     1
290
     0
176
     1
290
     1
176
     1
290
     1
176
     1
290
     0
176
     1
290
     0
176
     1
290
     0
176
     1
290
     0
176
     1
290
     0
176
     1
290
     0
176
     1
 90
       50
176
     1
 40
0.0
176
     1
 40
1.0
176
     1
 90
        0
176
     1
 62
    18
420
        0
176
     1
 90
       50
176
     1
 90
        3
176
     1
 62
     5
420
      255
176
     1
290
     0
176
     1
 90
       50
176
     1
 90
       50
176
     1
 90
       50
176
     1
290
     0
176
     1
 90
       50
176
     1
 62
   256
176
     0
 40
1.0
176
     0
 90
        2
176
     1
  1
strokes_ogs.tif
176
     1
290
     0
176
     1
 40
1.0
176
     1
 40
1.0
176
     1
  0
VISUALSTYLE
  5
35
102
{ACAD_REACTORS
330
2A
102
}
330
2A
100
AcDbVisualStyle
  2
Dim
 70
    11
177
     3
291
     1
 70
    58
 90
        2
176
     1
 90
        2
176
     1
 90
        0
176
     1
 90
        0
176
     1
 40
0.6
176
     1
 40
30.0
176
     1
 62
     7
420
 16777215
176
     1
 90
        1
176
     1
 90
        4
176
     1
 62
     7
176
     1
 62
   257
176
     1
 90
        1
176
     1
 90
        1
176
     1
 40
1.0
176
     1
 90
        8
176
     1
 62
     7
176
     1
 40
1.0
176
     1
 90
        1
176
     1
 90
        6
176
     1
 90
        2
176
     1
 62
     7
176
     1
 90
        5
176
     1
 90
        0
176
     1
 90
        0
176
     1
290
     0
176
     1
 90
        1
176
     1
 40
-50.0
176
     1
 90
        0
176
     1
290
     0
176
     1
290
     1
176
     1
290
     1
176
     1
290
     0
176
     1
290
     0
176
     1
290
     0
176
     1
290
     0
176
     1
290
     0
176
     1
290
     0
176
     1
 90
       50
176
     1
 40
0.0
176
     1
 40
1.0
176
     1
 90
        0
176
     1
 62
    18
420
        0
176
     1
 90
       50
176
     1
 90
        3
176
     1
 62
     5
420
      255
176
     1
290
     0
176
     1
 90
       50
176
     1
 90
       50
176
     1
 90
       50
176
     1
290
     0
176
     1
 90
       50
176
     1
 62
   256
176
     0
 40
1.0
176
     0
 90
        2
176
     1
  1
strokes_ogs.tif
176
     1
290
     0
176
     1
 40
1.0
176
     1
 40
1.0
176
     1
  0
VISUALSTYLE
  5
3D
102
{ACAD_REACTORS
330
2A
102
}
330
2A
100
AcDbVisualStyle
  2
EdgeColorOff
 70
    22
177
     3
291
     1
 70
    58
 90
        2
176
     0
 90
        2
176
     0
 90
        0
176
     0
 90
        0
176
     0
 40
0.6
176
     0
 40
30.0
176
     0
 62
     7
420
 16777215
176
     0
 90
        1
176
     0
 90
        4
176
     0
 62
     7
176
     0
 62
   257
176
     0
 90
        1
176
     0
 90
        1
176
     0
 40
1.0
176
     0
 90
        8
176
     2
 62
     7
176
     0
 40
1.0
176
     0
 90
        1
176
     0
 90
        6
176
     0
 90
        2
176
     0
 62
     7
176
     0
 90
        5
176
     0
 90
        0
176
     0
 90
        0
176
     0
290
     0
176
     0
 90
        1
176
     0
 40
0.0
176
     0
 90
        0
176
     0
290
     0
176
     0
290
     1
176
     0
290
     1
176
     0
290
     0
176
     0
290
     0
176
     0
290
     0
176
     0
290
     0
176
     0
290
     0
176
     0
290
     0
176
     0
 90
       50
176
     0
 40
0.0
176
     0
 40
1.0
176
     0
 90
        0
176
     0
 62
    18
420
        0
176
     0
 90
       50
176
     0
 90
        3
176
     0
 62
     5
420
      255
176
     0
290
     0
176
     0
 90
       50
176
     0
 90
       50
176
     0
 90
       50
176
     0
290
     0
176
     0
 90
       50
176
     0
 62
   256
176
     0
 40
1.0
176
     0
 90
        2
176
     0
  1
strokes_ogs.tif
176
     0
290
     0
176
     0
 40
1.0
176
     0
 40
1.0
176
     0
  0
VISUALSTYLE
  5
39
102
{ACAD_REACTORS
330
2A
102
}
330
2A
100
AcDbVisualStyle
  2
Facepattern
 70
    15
177
     3
291
     1
 70
    58
 90
        2
176
     1
 90
        2
176
     1
 90
        0
176
     1
 90
        0
176
     1
 40
0.6
176
     1
 40
30.0
176
     1
 62
     7
420
 16777215
176
     1
 90
        1
176
     1
 90
        4
176
     1
 62
     7
176
     1
 62
   257
176
     1
 90
        1
176
     1
 90
        1
176
     1
 40
1.0
176
     1
 90
        8
176
     1
 62
     7
176
     1
 40
1.0
176
     1
 90
        1
176
     1
 90
        6
176
     1
 90
        2
176
     1
 62
     7
176
     1
 90
        5
176
     1
 90
        0
176
     1
 90
        0
176
     1
290
     0
176
     1
 90
        1
176
     1
 40
0.0
176
     1
 90
        0
176
     1
290
     0
176
     1
290
     1
176
     1
290
     1
176
     1
290
     0
176
     1
290
     0
176
     1
290
     0
176
     1
290
     0
176
     1
290
     0
176
     1
290
     0
176
     1
 90
       50
176
     1
 40
0.0
176
     1
 40
1.0
176
     1
 90
        0
176
     1
 62
    18
420
        0
176
     1
 90
       50
176
     1
 90
        3
176
     1
 62
     5
420
      255
176
     1
290
     0
176
     1
 90
       50
176
     1
 90
       50
176
     1
 90
       50
176
     1
290
     0
176
     1
 90
       50
176
     1
 62
   256
176
     0
 40
1.0
176
     0
 90
        2
176
     1
  1
strokes_ogs.tif
176
     1
290
     0
176
     1
 40
1.0
176
     1
 40
1.0
176
     1
  0
VISUALSTYLE
  5
2B
102
{ACAD_REACTORS
330
2A
102
}
330
2A
100
AcDbVisualStyle
  2
Flat
 70
     0
177
     3
291
     1
 70
    58
 90
        2
176
     1
 90
        1
176
     1
 90
        1
176
     1
 90
        2
176
     1
 40
0.6
176
     1
 40
30.0
176
     1
 62
     7
420
 16777215
176
     1
 90
        0
176
     1
 90
        0
176
     1
 62
     7
176
     1
 62
   257
176
     1
 90
        1
176
     1
 90
        1
176
     1
 40
1.0
176
     1
 90
        8
176
     1
 62
     7
176
     1
 40
1.0
176
     1
 90
        1
176
     1
 90
        6
176
     1
 90
        2
176
     1
 62
     7
176
     1
 90
        5
176
     1
 90
        0
176
     1
 90
        0
176
     1
290
     0
176
     1
 90
       13
176
     1
 40
0.0
176
     1
 90
        0
176
     1
290
     0
176
     1
290
     1
176
     1
290
     1
176
     1
290
     0
176
     1
290
     0
176
     1
290
     0
176
     1
290
     0
176
     1
290
     0
176
     1
290
     0
176
     1
 90
       50
176
     1
 40
0.0
176
     1
 40
1.0
176
     1
 90
        0
176
     1
 62
    18
420
        0
176
     1
 90
       50
176
     1
 90
        3
176
     1
 62
     5
420
      255
176
     1
290
     0
176
     1
 90
       50
176
     1
 90
       50
176
     1
 90
       50
176
     1
290
     0
176
     1
 90
       50
176
     1
 62
   256
176
     0
 40
1.0
176
     0
 90
        2
176
     1
  1
strokes_ogs.tif
176
     1
290
     0
176
     1
 40
1.0
176
     1
 40
1.0
176
     1
  0
VISUALSTYLE
  5
2C
102
{ACAD_REACTORS
330
2A
102
}
330
2A
100
AcDbVisualStyle
  2
FlatWithEdges
 70
     1
177
     3
291
     1
 70
    58
 90
        2
176
     1
 90
        1
176
     1
 90
        1
176
     1
 90
        2
176
     1
 40
0.6
176
     1
 40
30.0
176
     1
 62
     7
420
 16777215
176
     1
 90
        1
176
     1
 90
        0
176
     1
 62
     7
176
     1
 62
   257
176
     1
 90
        1
176
     1
 90
        1
176
     1
 40
1.0
176
     1
 90
        0
176
     1
 62
   257
176
     1
 40
1.0
176
     1
 90
        1
176
     1
 90
        6
176
     1
 90
        2
176
     1
 62
     7
176
     1
 90
        5
176
     1
 90
        0
176
     1
 90
        0
176
     1
290
     0
176
     1
 90
       13
176
     1
 40
0.0
176
     1
 90
        0
176
     1
290
     0
176
     1
290
     1
176
     1
290
     1
176
     1
290
     0
176
     1
290
     0
176
     1
290
     0
176
     1
290
     0
176
     1
290
     0
176
     1
290
     0
176
     1
 90
       50
176
     1
 40
0.0
176
     1
 40
1.0
176
     1
 90
        0
176
     1
 62
    18
420
        0
176
     1
 90
       50
176
     1
 90
        3
176
     1
 62
     5
420
      255
176
     1
290
     0
176
     1
 90
       50
176
     1
 90
       50
176
     1
 90
       50
176
     1
290
     0
176
     1
 90
       50
176
     1
 62
   256
176
     0
 40
1.0
176
     0
 90
        2
176
     1
  1
strokes_ogs.tif
176
     1
290
     0
176
     1
 40
1.0
176
     1
 40
1.0
176
     1
  0
VISUALSTYLE
  5
2D
102
{ACAD_REACTORS
330
2A
102
}
330
2A
100
AcDbVisualStyle
  2
Gouraud
 70
     2
177
     3
291
     1
 70
    58
 90
        2
176
     1
 90
        2
176
     1
 90
        1
176
     1
 90
        2
176
     1
 40
0.6
176
     1
 40
30.0
176
     1
 62
     7
420
 16777215
176
     1
 90
        0
176
     1
 90
        0
176
     1
 62
     7
176
     1
 62
   257
176
     1
 90
        1
176
     1
 90
        1
176
     1
 40
1.0
176
     1
 90
        0
176
     1
 62
     7
176
     1
 40
1.0
176
     1
 90
        1
176
     1
 90
        6
176
     1
 90
        2
176
     1
 62
     7
176
     1
 90
        5
176
     1
 90
        0
176
     1
 90
        0
176
     1
290
     0
176
     1
 90
       13
176
     1
 40
0.0
176
     1
 90
        0
176
     1
290
     0
176
     1
290
     1
176
     1
290
     1
176
     1
290
     0
176
     1
290
     0
176
     1
290
     0
176
     1
290
     0
176
     1
290
     0
176
     1
290
     0
176
     1
 90
       50
176
     1
 40
0.0
176
     1
 40
1.0
176
     1
 90
        0
176
     1
 62
    18
420
        0
176
     1
 90
       50
176
     1
 90
        3
176
     1
 62
     5
420
      255
176
     1
290
     0
176
     1
 90
       50
176
     1
 90
       50
176
     1
 90
       50
176
     1
290
     0
176
     1
 90
       50
176
     1
 62
   256
176
     0
 40
1.0
176
     0
 90
        2
176
     1
  1
strokes_ogs.tif
176
     1
290
     0
176
     1
 40
1.0
176
     1
 40
1.0
176
     1
  0
VISUALSTYLE
  5
2E
102
{ACAD_REACTORS
330
2A
102
}
330
2A
100
AcDbVisualStyle
  2
GouraudWithEdges
 70
     3
177
     3
291
     1
 70
    58
 90
        2
176
     1
 90
        2
176
     1
 90
        1
176
     1
 90
        2
176
     1
 40
0.6
176
     1
 40
30.0
176
     1
 62
     7
420
 16777215
176
     1
 90
        1
176
     1
 90
        0
176
     1
 62
     7
176
     1
 62
   257
176
     1
 90
        1
176
     1
 90
        1
176
     1
 40
1.0
176
     1
 90
        0
176
     1
 62
   257
176
     1
 40
1.0
176
     1
 90
        1
176
     1
 90
        6
176
     1
 90
        2
176
     1
 62
     7
176
     1
 90
        5
176
     1
 90
        0
176
     1
 90
        0
176
     1
290
     0
176
     1
 90
       13
176
     1
 40
0.0
176
     1
 90
        0
176
     1
290
     0
176
     1
290
     1
176
     1
290
     1
176
     1
290
     0
176
     1
290
     0
176
     1
290
     0
176
     1
290
     0
176
     1
290
     0
176
     1
290
     0
176
     1
 90
       50
176
     1
 40
0.0
176
     1
 40
1.0
176
     1
 90
        0
176
     1
 62
    18
420
        0
176
     1
 90
       50
176
     1
 90
        3
176
     1
 62
     5
420
      255
176
     1
290
     0
176
     1
 90
       50
176
     1
 90
       50
176
     1
 90
       50
176
     1
290
     0
176
     1
 90
       50
176
     1
 62
   256
176
     0
 40
1.0
176
     0
 90
        2
176
     1
  1
strokes_ogs.tif
176
     1
290
     0
176
     1
 40
1.0
176
     1
 40
1.0
176
     1
  0
VISUALSTYLE
  5
31
102
{ACAD_REACTORS
330
2A
102
}
330
2A
100
AcDbVisualStyle
  2
Hidden
 70
     6
177
     3
291
     0
 70
    58
 90
        1
176
     1
 90
        2
176
     1
 90
        2
176
     1
 90
        0
176
     1
 40
0.6
176
     1
 40
30.0
176
     1
 62
     7
420
 16777215
176
     1
 90
        2
176
     1
 90
        2
176
     1
 62
     7
176
     1
 62
   257
176
     1
 90
        2
176
     1
 90
        1
176
     1
 40
40.0
176
     1
 90
        0
176
     1
 62
   257
176
     1
 40
1.0
176
     1
 90
        1
176
     1
 90
        6
176
     1
 90
        2
176
     1
 62
     7
176
     1
 90
        3
176
     1
 90
        0
176
     1
 90
        0
176
     1
290
     0
176
     1
 90
        1
176
     1
 40
0.0
176
     1
 90
        0
176
     1
290
     0
176
     1
290
     1
176
     1
290
     1
176
     1
290
     0
176
     1
290
     0
176
     1
290
     0
176
     1
290
     0
176
     1
290
     0
176
     1
290
     0
176
     1
 90
       50
176
     1
 40
0.0
176
     1
 40
1.0
176
     1
 90
        0
176
     1
 62
    18
420
        0
176
     1
 90
       50
176
     1
 90
        3
176
     1
 62
     5
420
      255
176
     1
290
     0
176
     1
 90
       50
176
     1
 90
       50
176
     1
 90
       50
176
     1
290
     0
176
     1
 90
       50
176
     1
 62
   256
176
     0
 40
1.0
176
     0
 90
        2
176
     1
  1
strokes_ogs.tif
176
     1
290
     0
176
     1
 40
1.0
176
     1
 40
1.0
176
     1
  0
VISUALSTYLE
  5
3B
102
{ACAD_REACTORS
330
2A
102
}
330
2A
100
AcDbVisualStyle
  2
JitterOff
 70
    20
177
     3
291
     1
 70
    58
 90
        2
176
     0
 90
        2
176
     0
 90
        0
176
     0
 90
        0
176
     0
 40
0.6
176
     0
 40
30.0
176
     0
 62
     7
420
 16777215
176
     0
 90
        1
176
     0
 90
        4
176
     0
 62
     7
176
     0
 62
   257
176
     0
 90
        1
176
     0
 90
        1
176
     0
 40
1.0
176
     0
 90
       10
176
     2
 62
     7
176
     0
 40
1.0
176
     0
 90
        1
176
     0
 90
        6
176
     0
 90
        2
176
     0
 62
     7
176
     0
 90
        5
176
     0
 90
        0
176
     0
 90
        0
176
     0
290
     0
176
     0
 90
        1
176
     0
 40
0.0
176
     0
 90
        0
176
     0
290
     0
176
     0
290
     1
176
     0
290
     1
176
     0
290
     0
176
     0
290
     0
176
     0
290
     0
176
     0
290
     0
176
     0
290
     0
176
     0
290
     0
176
     0
 90
       50
176
     0
 40
0.0
176
     0
 40
1.0
176
     0
 90
        0
176
     0
 62
    18
420
        0
176
     0
 90
       50
176
     0
 90
        3
176
     0
 62
     5
420
      255
176
     0
290
     0
176
     0
 90
       50
176
     0
 90
       50
176
     0
 90
       50
176
     0
290
     0
176
     0
 90
       50
176
     0
 62
   256
176
     0
 40
1.0
176
     0
 90
        2
176
     0
  1
strokes_ogs.tif
176
     0
290
     0
176
     0
 40
1.0
176
     0
 40
1.0
176
     0
  0
VISUALSTYLE
  5
38
102
{ACAD_REACTORS
330
2A
102
}
330
2A
100
AcDbVisualStyle
  2
Linepattern
 70
    14
177
     3
291
     1
 70
    58
 90
        2
176
     1
 90
        2
176
     1
 90
        0
176
     1
 90
        0
176
     1
 40
0.6
176
     1
 40
30.0
176
     1
 62
     7
420
 16777215
176
     1
 90
        1
176
     1
 90
        4
176
     1
 62
     7
176
     1
 62
   257
176
     1
 90
        7
176
     1
 90
        7
176
     1
 40
1.0
176
     1
 90
        8
176
     1
 62
     7
176
     1
 40
1.0
176
     1
 90
        1
176
     1
 90
        6
176
     1
 90
        2
176
     1
 62
     7
176
     1
 90
        5
176
     1
 90
        0
176
     1
 90
        0
176
     1
290
     0
176
     1
 90
        1
176
     1
 40
0.0
176
     1
 90
        0
176
     1
290
     0
176
     1
290
     1
176
     1
290
     1
176
     1
290
     0
176
     1
290
     0
176
     1
290
     0
176
     1
290
     0
176
     1
290
     0
176
     1
290
     0
176
     1
 90
       50
176
     1
 40
0.0
176
     1
 40
1.0
176
     1
 90
        0
176
     1
 62
    18
420
        0
176
     1
 90
       50
176
     1
 90
        3
176
     1
 62
     5
420
      255
176
     1
290
     0
176
     1
 90
       50
176
     1
 90
       50
176
     1
 90
       50
176
     1
290
     0
176
     1
 90
       50
176
     1
 62
   256
176
     0
 40
1.0
176
     0
 90
        2
176
     1
  1
strokes_ogs.tif
176
     1
290
     0
176
     1
 40
1.0
176
     1
 40
1.0
176
     1
  0
VISUALSTYLE
  5
3C
102
{ACAD_REACTORS
330
2A
102
}
330
2A
100
AcDbVisualStyle
  2
OverhangOff
 70
    21
177
     3
291
     1
 70
    58
 90
        2
176
     0
 90
        2
176
     0
 90
        0
176
     0
 90
        0
176
     0
 40
0.6
176
     0
 40
30.0
176
     0
 62
     7
420
 16777215
176
     0
 90
        1
176
     0
 90
        4
176
     0
 62
     7
176
     0
 62
   257
176
     0
 90
        1
176
     0
 90
        1
176
     0
 40
1.0
176
     0
 90
        9
176
     2
 62
     7
176
     0
 40
1.0
176
     0
 90
        1
176
     0
 90
        6
176
     0
 90
        2
176
     0
 62
     7
176
     0
 90
        5
176
     0
 90
        0
176
     0
 90
        0
176
     0
290
     0
176
     0
 90
        1
176
     0
 40
0.0
176
     0
 90
        0
176
     0
290
     0
176
     0
290
     1
176
     0
290
     1
176
     0
290
     0
176
     0
290
     0
176
     0
290
     0
176
     0
290
     0
176
     0
290
     0
176
     0
290
     0
176
     0
 90
       50
176
     0
 40
0.0
176
     0
 40
1.0
176
     0
 90
        0
176
     0
 62
    18
420
        0
176
     0
 90
       50
176
     0
 90
        3
176
     0
 62
     5
420
      255
176
     0
290
     0
176
     0
 90
       50
176
     0
 90
       50
176
     0
 90
       50
176
     0
290
     0
176
     0
 90
       50
176
     0
 62
   256
176
     0
 40
1.0
176
     0
 90
        2
176
     0
  1
strokes_ogs.tif
176
     0
290
     0
176
     0
 40
1.0
176
     0
 40
1.0
176
     0
  0
VISUALSTYLE
  5
33
102
{ACAD_REACTORS
330
2A
102
}
330
2A
100
AcDbVisualStyle
  2
Realistic
 70
     8
177
     3
291
     0
 70
    58
 90
        2
176
     1
 90
        3
176
     1
 90
        0
176
     1
 90
        2
176
     1
 40
0.6
176
     1
 40
30.0
176
     1
 62
     7
420
 16777215
176
     1
 90
        0
176
     1
 90
        0
176
     1
 62
     7
176
     1
 62
   257
176
     1
 90
        1
176
     1
 90
        1
176
     1
 40
1.0
176
     1
 90
        8
176
     1
 62
   257
176
     1
 40
1.0
176
     1
 90
        1
176
     1
 90
        6
176
     1
 90
        2
176
     1
 62
     7
176
     1
 90
        3
176
     1
 90
        0
176
     1
 90
        0
176
     1
290
     0
176
     1
 90
       13
176
     1
 40
0.0
176
     1
 90
        0
176
     1
290
     0
176
     1
290
     1
176
     1
290
     1
176
     1
290
     0
176
     1
290
     0
176
     1
290
     0
176
     1
290
     0
176
     1
290
     0
176
     1
290
     0
176
     1
 90
       50
176
     1
 40
0.0
176
     1
 40
1.0
176
     1
 90
        0
176
     1
 62
    18
420
        0
176
     1
 90
       50
176
     1
 90
        3
176
     1
 62
     5
420
      255
176
     1
290
     0
176
     1
 90
       50
176
     1
 90
       50
176
     1
 90
       50
176
     1
290
     0
176
     1
 90
       50
176
     1
 62
   256
176
     0
 40
1.0
176
     0
 90
        2
176
     1
  1
strokes_ogs.tif
176
     1
290
     0
176
     1
 40
1.0
176
     1
 40
1.0
176
     1
  0
VISUALSTYLE
  5
42
102
{ACAD_REACTORS
330
2A
102
}
330
2A
100
AcDbVisualStyle
  2
Shaded
 70
    27
177
     3
291
     0
 70
    58
 90
        2
176
     1
 90
        2
176
     1
 90
        1
176
     1
 90
        2
176
     1
 40
0.6
176
     1
 40
30.0
176
     1
 62
     7
420
 16777215
176
     1
 90
        0
176
     1
 90
        4
176
     1
 62
     7
176
     1
 62
   257
176
     1
 90
        1
176
     1
 90
        1
176
     1
 40
1.0
176
     1
 90
        8
176
     1
 62
   257
176
     1
 40
1.0
176
     1
 90
        1
176
     1
 90
        6
176
     1
 90
        2
176
     1
 62
     8
420
  7895160
176
     1
 90
        3
176
     1
 90
        0
176
     1
 90
        0
176
     1
290
     0
176
     1
 90
        5
176
     1
 40
0.0
176
     1
 90
        0
176
     1
290
     0
176
     1
290
     1
176
     1
290
     1
176
     1
290
     0
176
     1
290
     0
176
     1
290
     0
176
     1
290
     0
176
     1
290
     0
176
     1
290
     0
176
     1
 90
       50
176
     1
 40
0.0
176
     1
 40
1.0
176
     1
 90
        0
176
     1
 62
    18
420
        0
176
     1
 90
       50
176
     1
 90
        3
176
     1
 62
     5
420
      255
176
     1
290
     0
176
     1
 90
       50
176
     1
 90
       50
176
     1
 90
       50
176
     1
290
     0
176
     1
 90
       50
176
     1
 62
   256
176
     0
 40
1.0
176
     0
 90
        2
176
     1
  1
strokes_ogs.tif
176
     1
290
     0
176
     1
 40
1.0
176
     1
 40
1.0
176
     1
  0
VISUALSTYLE
  5
41
102
{ACAD_REACTORS
330
2A
102
}
330
2A
100
AcDbVisualStyle
  2
Shaded with edges
 70
    26
177
     3
291
     0
 70
    58
 90
        2
176
     1
 90
        2
176
     1
 90
        1
176
     1
 90
        2
176
     1
 40
0.6
176
     1
 40
30.0
176
     1
 62
     7
420
 16777215
176
     1
 90
        1
176
     1
 90
       10
176
     1
 62
     7
176
     1
 62
   257
176
     1
 90
        2
176
     1
 90
        1
176
     1
 40
1.0
176
     1
 90
        8
176
     1
 62
   257
176
     1
 40
1.0
176
     1
 90
        1
176
     1
 90
        6
176
     1
 90
        2
176
     1
 62
     7
176
     1
 90
        3
176
     1
 90
        0
176
     1
 90
        0
176
     1
290
     0
176
     1
 90
        5
176
     1
 40
0.0
176
     1
 90
        0
176
     1
290
     0
176
     1
290
     1
176
     1
290
     1
176
     1
290
     0
176
     1
290
     0
176
     1
290
     0
176
     1
290
     0
176
     1
290
     0
176
     1
290
     0
176
     1
 90
       50
176
     1
 40
0.0
176
     1
 40
1.0
176
     1
 90
        0
176
     1
 62
    18
420
        0
176
     1
 90
       50
176
     1
 90
        3
176
     1
 62
     5
420
      255
176
     1
290
     0
176
     1
 90
       50
176
     1
 90
       50
176
     1
 90
       50
176
     1
290
     0
176
     1
 90
       50
176
     1
 62
   256
176
     0
 40
1.0
176
     0
 90
        2
176
     1
  1
strokes_ogs.tif
176
     1
290
     0
176
     1
 40
1.0
176
     1
 40
1.0
176
     1
  0
VISUALSTYLE
  5
3E
102
{ACAD_REACTORS
330
2A
102
}
330
2A
100
AcDbVisualStyle
  2
Shades of Gray
 70
    23
177
     3
291
     0
 70
    58
 90
        2
176
     1
 90
        2
176
     1
 90
        3
176
     1
 90
        0
176
     1
 40
0.6
176
     1
 40
30.0
176
     1
 62
     7
420
 16777215
176
     1
 90
        2
176
     1
 90
        2
176
     1
 62
     7
176
     1
 62
     7
176
     1
 90
        1
176
     1
 90
        1
176
     1
 40
40.0
176
     1
 90
        8
176
     1
 62
     7
176
     1
 40
1.0
176
     1
 90
        1
176
     1
 90
        6
176
     1
 90
        2
176
     1
 62
     7
176
     1
 90
        3
176
     1
 90
        0
176
     1
 90
        0
176
     1
290
     0
176
     1
 90
        1
176
     1
 40
0.0
176
     1
 90
        0
176
     1
290
     0
176
     1
290
     1
176
     1
290
     1
176
     1
290
     0
176
     1
290
     0
176
     1
290
     0
176
     1
290
     0
176
     1
290
     0
176
     1
290
     0
176
     1
 90
       50
176
     1
 40
0.0
176
     1
 40
1.0
176
     1
 90
        0
176
     1
 62
    18
420
        0
176
     1
 90
       50
176
     1
 90
        3
176
     1
 62
     5
420
      255
176
     1
290
     0
176
     1
 90
       50
176
     1
 90
       50
176
     1
 90
       50
176
     1
290
     0
176
     1
 90
       50
176
     1
 62
   256
176
     0
 40
1.0
176
     0
 90
        2
176
     1
  1
strokes_ogs.tif
176
     1
290
     0
176
     1
 40
1.0
176
     1
 40
1.0
176
     1
  0
VISUALSTYLE
  5
3F
102
{ACAD_REACTORS
330
2A
102
}
330
2A
100
AcDbVisualStyle
  2
Sketchy
 70
    24
177
     3
291
     0
 70
    58
 90
        1
176
     1
 90
        2
176
     1
 90
        2
176
     1
 90
        0
176
     1
 40
0.6
176
     1
 40
30.0
176
     1
 62
     7
420
 16777215
176
     1
 90
        2
176
     1
 90
        2
176
     1
 62
     7
176
     1
 62
     7
176
     1
 90
        1
176
     1
 90
        1
176
     1
 40
40.0
176
     1
 90
       11
176
     1
 62
     7
176
     1
 40
1.0
176
     1
 90
        1
176
     1
 90
        6
176
     1
 90
        2
176
     1
 62
     7
176
     1
 90
        6
176
     1
 90
        0
176
     1
 90
        0
176
     1
290
     0
176
     1
 90
        1
176
     1
 40
0.0
176
     1
 90
        0
176
     1
290
     0
176
     1
290
     1
176
     1
290
     1
176
     1
290
     0
176
     1
290
     0
176
     1
290
     0
176
     1
290
     0
176
     1
290
     0
176
     1
290
     0
176
     1
 90
       50
176
     1
 40
0.0
176
     1
 40
1.0
176
     1
 90
        0
176
     1
 62
    18
420
        0
176
     1
 90
       50
176
     1
 90
        3
176
     1
 62
     5
420
      255
176
     1
290
     0
176
     1
 90
       50
176
     1
 90
       50
176
     1
 90
       50
176
     1
290
     0
176
     1
 90
       50
176
     1
 62
   256
176
     0
 40
1.0
176
     0
 90
        2
176
     1
  1
strokes_ogs.tif
176
     1
290
     0
176
     1
 40
1.0
176
     1
 40
1.0
176
     1
  0
VISUALSTYLE
  5
37
102
{ACAD_REACTORS
330
2A
102
}
330
2A
100
AcDbVisualStyle
  2
Thicken
 70
    13
177
     3
291
     1
 70
    58
 90
        2
176
     1
 90
        2
176
     1
 90
        0
176
     1
 90
        0
176
     1
 40
0.6
176
     1
 40
30.0
176
     1
 62
     7
420
 16777215
176
     1
 90
        1
176
     1
 90
        4
176
     1
 62
     7
176
     1
 62
   257
176
     1
 90
        1
176
     1
 90
        1
176
     1
 40
1.0
176
     1
 90
       12
176
     1
 62
     7
176
     1
 40
1.0
176
     1
 90
        1
176
     1
 90
        6
176
     1
 90
        2
176
     1
 62
     7
176
     1
 90
        5
176
     1
 90
        0
176
     1
 90
        0
176
     1
290
     0
176
     1
 90
        1
176
     1
 40
0.0
176
     1
 90
        0
176
     1
290
     0
176
     1
290
     1
176
     1
290
     1
176
     1
290
     0
176
     1
290
     0
176
     1
290
     0
176
     1
290
     0
176
     1
290
     0
176
     1
290
     0
176
     1
 90
       50
176
     1
 40
0.0
176
     1
 40
1.0
176
     1
 90
        0
176
     1
 62
    18
420
        0
176
     1
 90
       50
176
     1
 90
        3
176
     1
 62
     5
420
      255
176
     1
290
     0
176
     1
 90
       50
176
     1
 90
       50
176
     1
 90
       50
176
     1
290
     0
176
     1
 90
       50
176
     1
 62
   256
176
     0
 40
1.0
176
     0
 90
        2
176
     1
  1
strokes_ogs.tif
176
     1
290
     0
176
     1
 40
1.0
176
     1
 40
1.0
176
     1
  0
VISUALSTYLE
  5
30
102
{ACAD_REACTORS
330
2A
102
}
330
2A
100
AcDbVisualStyle
  2
Wireframe
 70
     5
177
     3
291
     0
 70
    58
 90
        0
176
     1
 90
        2
176
     1
 90
        0
176
     1
 90
        0
176
     1
 40
0.6
176
     1
 40
30.0
176
     1
 62
     7
420
 16777215
176
     1
 90
        1
176
     1
 90
        4
176
     1
 62
     7
176
     1
 62
   257
176
     1
 90
        1
176
     1
 90
        1
176
     1
 40
1.0
176
     1
 90
        0
176
     1
 62
   257
176
     1
 40
1.0
176
     1
 90
        1
176
     1
 90
        6
176
     1
 90
        2
176
     1
 62
     7
176
     1
 90
        3
176
     1
 90
        0
176
     1
 90
        0
176
     1
290
     0
176
     1
 90
        1
176
     1
 40
0.0
176
     1
 90
        0
176
     1
290
     0
176
     1
290
     1
176
     1
290
     1
176
     1
290
     0
176
     1
290
     0
176
     1
290
     0
176
     1
290
     0
176
     1
290
     0
176
     1
290
     0
176
     1
 90
       50
176
     1
 40
0.0
176
     1
 40
1.0
176
     1
 90
        0
176
     1
 62
    18
420
        0
176
     1
 90
       50
176
     1
 90
        3
176
     1
 62
     5
420
      255
176
     1
290
     0
176
     1
 90
       50
176
     1
 90
       50
176
     1
 90
       50
176
     1
290
     0
176
     1
 90
       50
176
     1
 62
   256
176
     0
 40
1.0
176
     0
 90
        2
176
     1
  1
strokes_ogs.tif
176
     1
290
     0
176
     1
 40
1.0
176
     1
 40
1.0
176
     1
  0
VISUALSTYLE
  5
40
102
{ACAD_REACTORS
330
2A
102
}
330
2A
100
AcDbVisualStyle
  2
X-Ray
 70
    25
177
     3
291
     0
 70
    58
 90
        2
176
     1
 90
        2
176
     1
 90
        1
176
     1
 90
        1
176
     1
 40
0.5
176
     1
 40
30.0
176
     1
 62
     7
420
 16777215
176
     1
 90
        1
176
     1
 90
        0
176
     1
 62
     7
176
     1
 62
   257
176
     1
 90
        1
176
     1
 90
        1
176
     1
 40
1.0
176
     1
 90
        8
176
     1
 62
     7
176
     1
 40
1.0
176
     1
 90
        1
176
     1
 90
        6
176
     1
 90
        2
176
     1
 62
     7
176
     1
 90
        3
176
     1
 90
        0
176
     1
 90
        0
176
     1
290
     0
176
     1
 90
       13
176
     1
 40
0.0
176
     1
 90
        0
176
     1
290
     0
176
     1
290
     1
176
     1
290
     1
176
     1
290
     0
176
     1
290
     0
176
     1
290
     0
176
     1
290
     0
176
     1
290
     0
176
     1
290
     0
176
     1
 90
       50
176
     1
 40
0.0
176
     1
 40
1.0
176
     1
 90
        0
176
     1
 62
    18
420
        0
176
     1
 90
       50
176
     1
 90
        3
176
     1
 62
     5
420
      255
176
     1
290
     0
176
     1
 90
       50
176
     1
 90
       50
176
     1
 90
       50
176
     1
290
     0
176
     1
 90
       50
176
     1
 62
   256
176
     0
 40
1.0
176
     0
 90
        2
176
     1
  1
strokes_ogs.tif
176
     1
290
     0
176
     1
 40
1.0
176
     1
 40
1.0
176
     1
  0
DICTIONARYVAR
  5
17A
102
{ACAD_REACTORS
330
179
102
}
330
179
100
DictionaryVariables
280
     0
  1
1:1
  0
DICTIONARYVAR
  5
17F
102
{ACAD_REACTORS
330
179
102
}
330
179
100
DictionaryVariables
280
     0
  1
Standard
  0
DICTIONARYVAR
  5
17E
102
{ACAD_REACTORS
330
179
102
}
330
179
100
DictionaryVariables
280
     0
  1
Standard
  0
DICTIONARY
  5
17B
330
6A
100
AcDbDictionary
280
     1
281
     1
  3
ACAD_ROUNDTRIP_2008_TABLESTYLE_CELLSTYLEMAP
360
17C
  0
CELLSTYLEMAP
  5
17C
102
{ACAD_REACTORS
330
17B
102
}
330
17B
100
AcDbCellStyleMap
 90
        3
300
CELLSTYLE
  1
TABLEFORMAT_BEGIN
 90
        5
170
     1
 91
        0
 92
    32768
 62
   257
 93
        1
300
CONTENTFORMAT
  1
CONTENTFORMAT_BEGIN
 90
        0
 91
        0
 92
        4
 93
        0
300

 40
0.0
140
1.0
 94
        5
 62
     0
340
11
144
6.0
309
CONTENTFORMAT_END
171
     1
301
MARGIN
  1
CELLMARGIN_BEGIN
 40
1.5
 40
1.5
 40
1.5
 40
1.5
 40
1.5
 40
1.5
309
CELLMARGIN_END
 94
        6
 95
        1
302
GRIDFORMAT
  1
GRIDFORMAT_BEGIN
 90
        0
 91
        1
 62
     0
 92
       -2
340
14
 93
        0
 40
0.045
309
GRIDFORMAT_END
 95
        2
302
GRIDFORMAT
  1
GRIDFORMAT_BEGIN
 90
        0
 91
        1
 62
     0
 92
       -2
340
14
 93
        0
 40
0.045
309
GRIDFORMAT_END
 95
        4
302
GRIDFORMAT
  1
GRIDFORMAT_BEGIN
 90
        0
 91
        1
 62
     0
 92
       -2
340
14
 93
        0
 40
0.045
309
GRIDFORMAT_END
 95
        8
302
GRIDFORMAT
  1
GRIDFORMAT_BEGIN
 90
        0
 91
        1
 62
     0
 92
       -2
340
14
 93
        0
 40
0.045
309
GRIDFORMAT_END
 95
       16
302
GRIDFORMAT
  1
GRIDFORMAT_BEGIN
 90
        0
 91
        1
 62
     0
 92
       -2
340
14
 93
        0
 40
0.045
309
GRIDFORMAT_END
 95
       32
302
GRIDFORMAT
  1
GRIDFORMAT_BEGIN
 90
        0
 91
        1
 62
     0
 92
       -2
340
14
 93
        0
 40
0.045
309
GRIDFORMAT_END
309
TABLEFORMAT_END
  1
CELLSTYLE_BEGIN
 90
        1
 91
        1
300
_TITLE
309
CELLSTYLE_END
300
CELLSTYLE
  1
TABLEFORMAT_BEGIN
 90
        5
170
     1
 91
        0
 92
        0
 62
   257
 93
        1
300
CONTENTFORMAT
  1
CONTENTFORMAT_BEGIN
 90
        0
 91
        0
 92
        4
 93
        0
300

 40
0.0
140
1.0
 94
        5
 62
     0
340
11
144
4.5
309
CONTENTFORMAT_END
171
     1
301
MARGIN
  1
CELLMARGIN_BEGIN
 40
1.5
 40
1.5
 40
1.5
 40
1.5
 40
1.5
 40
1.5
309
CELLMARGIN_END
 94
        6
 95
        1
302
GRIDFORMAT
  1
GRIDFORMAT_BEGIN
 90
        0
 91
        1
 62
     0
 92
       -2
340
14
 93
        0
 40
0.045
309
GRIDFORMAT_END
 95
        2
302
GRIDFORMAT
  1
GRIDFORMAT_BEGIN
 90
        0
 91
        1
 62
     0
 92
       -2
340
14
 93
        0
 40
0.045
309
GRIDFORMAT_END
 95
        4
302
GRIDFORMAT
  1
GRIDFORMAT_BEGIN
 90
        0
 91
        1
 62
     0
 92
       -2
340
14
 93
        0
 40
0.045
309
GRIDFORMAT_END
 95
        8
302
GRIDFORMAT
  1
GRIDFORMAT_BEGIN
 90
        0
 91
        1
 62
     0
 92
       -2
340
14
 93
        0
 40
0.045
309
GRIDFORMAT_END
 95
       16
302
GRIDFORMAT
  1
GRIDFORMAT_BEGIN
 90
        0
 91
        1
 62
     0
 92
       -2
340
14
 93
        0
 40
0.045
309
GRIDFORMAT_END
 95
       32
302
GRIDFORMAT
  1
GRIDFORMAT_BEGIN
 90
        0
 91
        1
 62
     0
 92
       -2
340
14
 93
        0
 40
0.045
309
GRIDFORMAT_END
309
TABLEFORMAT_END
  1
CELLSTYLE_BEGIN
 90
        2
 91
        1
300
_HEADER
309
CELLSTYLE_END
300
CELLSTYLE
  1
TABLEFORMAT_BEGIN
 90
        5
170
     1
 91
        0
 92
        0
 62
   257
 93
        1
300
CONTENTFORMAT
  1
CONTENTFORMAT_BEGIN
 90
        0
 91
        0
 92
        4
 93
        0
300

 40
0.0
140
1.0
 94
        2
 62
     0
340
11
144
4.5
309
CONTENTFORMAT_END
171
     1
301
MARGIN
  1
CELLMARGIN_BEGIN
 40
1.5
 40
1.5
 40
1.5
 40
1.5
 40
1.5
 40
1.5
309
CELLMARGIN_END
 94
        6
 95
        1
302
GRIDFORMAT
  1
GRIDFORMAT_BEGIN
 90
        0
 91
        1
 62
     0
 92
       -2
340
14
 93
        0
 40
0.045
309
GRIDFORMAT_END
 95
        2
302
GRIDFORMAT
  1
GRIDFORMAT_BEGIN
 90
        0
 91
        1
 62
     0
 92
       -2
340
14
 93
        0
 40
0.045
309
GRIDFORMAT_END
 95
        4
302
GRIDFORMAT
  1
GRIDFORMAT_BEGIN
 90
        0
 91
        1
 62
     0
 92
       -2
340
14
 93
        0
 40
0.045
309
GRIDFORMAT_END
 95
        8
302
GRIDFORMAT
  1
GRIDFORMAT_BEGIN
 90
        0
 91
        1
 62
     0
 92
       -2
340
14
 93
        0
 40
0.045
309
GRIDFORMAT_END
 95
       16
302
GRIDFORMAT
  1
GRIDFORMAT_BEGIN
 90
        0
 91
        1
 62
     0
 92
       -2
340
14
 93
        0
 40
0.045
309
GRIDFORMAT_END
 95
       32
302
GRIDFORMAT
  1
GRIDFORMAT_BEGIN
 90
        0
 91
        1
 62
     0
 92
       -2
340
14
 93
        0
 40
0.045
309
GRIDFORMAT_END
309
TABLEFORMAT_END
  1
CELLSTYLE_BEGIN
 90
        3
 91
        2
300
_DATA
309
CELLSTYLE_END
  0
ENDSEC
  0
EOF