0
SECTION
  2
HEADER
  9
$ACADVER
  1
AC1027
  9
$ACADMAINTVER
 70
     8
  9
$DWGCODEPAGE
  3
ANSI_1252
  9
$REQUIREDVERSIONS
160
                 0
  9
$COMMENTS
  1
File was created by Cadenas
  9
$CUSTOMPROPERTYTAG
  1
NN
  9
$CUSTOMPROPERTY
  1
D-Lok Two-Bolt Pillow Block Metric Bore - Polymer Housing, Corrosion Resistant Insert
  9
$CUSTOMPROPERTYTAG
  1
NT
  9
$CUSTOMPROPERTY
  1
DLEZ Normal Duty Polymer Housed Pillow Blocks
  9
$CUSTOMPROPERTYTAG
  1
NB
  9
$CUSTOMPROPERTY
  1
127623
  9
$CUSTOMPROPERTYTAG
  1
NBSYN
  9
$CUSTOMPROPERTY
  1
$PN.
  9
$CUSTOMPROPERTYTAG
  1
LINA
  9
$CUSTOMPROPERTY
  1
127623
  9
$CUSTOMPROPERTYTAG
  1
SERIES
  9
$CUSTOMPROPERTY
  1
204
  9
$CUSTOMPROPERTYTAG
  1
SS
  9
$CUSTOMPROPERTY
  1
20
  9
$CUSTOMPROPERTYTAG
  1
PN
  9
$CUSTOMPROPERTY
  1
127623
  9
$CUSTOMPROPERTYTAG
  1
DESCRIPTION
  9
$CUSTOMPROPERTY
  1
P2B-DLEZ-20M-PCR
  9
$CUSTOMPROPERTYTAG
  1
W
  9
$CUSTOMPROPERTY
  1
0.42
  9
$CUSTOMPROPERTYTAG
  1
A
  9
$CUSTOMPROPERTY
  1
32.5
  9
$CUSTOMPROPERTYTAG
  1
B
  9
$CUSTOMPROPERTY
  1
127.5
  9
$CUSTOMPROPERTYTAG
  1
C
  9
$CUSTOMPROPERTY
  1
37.6
  9
$CUSTOMPROPERTYTAG
  1
DMIN
  9
$CUSTOMPROPERTY
  1
93.0
  9
$CUSTOMPROPERTYTAG
  1
DMAX
  9
$CUSTOMPROPERTY
  1
99.6
  9
$CUSTOMPROPERTYTAG
  1
F
  9
$CUSTOMPROPERTY
  1
M10
  9
$CUSTOMPROPERTYTAG
  1
G
  9
$CUSTOMPROPERTY
  1
15.0
  9
$CUSTOMPROPERTYTAG
  1
H
  9
$CUSTOMPROPERTY
  1
15.5
  9
$CUSTOMPROPERTYTAG
  1
J
  9
$CUSTOMPROPERTY
  1
66.8
  9
$CUSTOMPROPERTYTAG
  1
L
  9
$CUSTOMPROPERTY
  1
43.4
  9
$CUSTOMPROPERTYTAG
  1
M
  9
$CUSTOMPROPERTY
  1
33.3
  9
$CUSTOMPROPERTYTAG
  1
R
  9
$CUSTOMPROPERTY
  1
12.7
  9
$CUSTOMPROPERTYTAG
  1
S
  9
$CUSTOMPROPERTY
  1
19.8
  9
$CUSTOMPROPERTYTAG
  1
COMPANY
  9
$CUSTOMPROPERTY
  1
baldor
  9
$INSBASE
 10
0.0
 20
0.0
 30
0.0
  9
$EXTMIN
 10
1.000000000000000E+20
 20
1.000000000000000E+20
 30
1.000000000000000E+20
  9
$EXTMAX
 10
-1.000000000000000E+20
 20
-1.000000000000000E+20
 30
-1.000000000000000E+20
  9
$LIMMIN
 10
0.0
 20
0.0
  9
$LIMMAX
 10
420.0
 20
297.0
  9
$ORTHOMODE
 70
     0
  9
$REGENMODE
 70
     1
  9
$FILLMODE
 70
     1
  9
$QTEXTMODE
 70
     0
  9
$MIRRTEXT
 70
     1
  9
$LTSCALE
 40
1.0
  9
$ATTMODE
 70
     1
  9
$TEXTSIZE
 40
2.5
  9
$TRACEWID
 40
1.0
  9
$TEXTSTYLE
  7
Standard
  9
$CLAYER
  8
0
  9
$CELTYPE
  6
ByLayer
  9
$CECOLOR
 62
   256
  9
$CELTSCALE
 40
1.0
  9
$DISPSILH
 70
     0
  9
$DIMSCALE
 40
1.0
  9
$DIMASZ
 40
2.5
  9
$DIMEXO
 40
0.625
  9
$DIMDLI
 40
3.75
  9
$DIMRND
 40
0.0
  9
$DIMDLE
 40
0.0
  9
$DIMEXE
 40
1.25
  9
$DIMTP
 40
0.0
  9
$DIMTM
 40
0.0
  9
$DIMTXT
 40
2.5
  9
$DIMCEN
 40
2.5
  9
$DIMTSZ
 40
0.0
  9
$DIMTOL
 70
     0
  9
$DIMLIM
 70
     0
  9
$DIMTIH
 70
     0
  9
$DIMTOH
 70
     0
  9
$DIMSE1
 70
     0
  9
$DIMSE2
 70
     0
  9
$DIMTAD
 70
     1
  9
$DIMZIN
 70
     8
  9
$DIMBLK
  1

  9
$DIMASO
 70
     1
  9
$DIMSHO
 70
     1
  9
$DIMPOST
  1

  9
$DIMAPOST
  1

  9
$DIMALT
 70
     0
  9
$DIMALTD
 70
     3
  9
$DIMALTF
 40
0.03937007874016
  9
$DIMLFAC
 40
1.0
  9
$DIMTOFL
 70
     1
  9
$DIMTVP
 40
0.0
  9
$DIMTIX
 70
     0
  9
$DIMSOXD
 70
     0
  9
$DIMSAH
 70
     0
  9
$DIMBLK1
  1

  9
$DIMBLK2
  1

  9
$DIMSTYLE
  2
ISO-25
  9
$DIMCLRD
 70
     0
  9
$DIMCLRE
 70
     0
  9
$DIMCLRT
 70
     0
  9
$DIMTFAC
 40
1.0
  9
$DIMGAP
 40
0.625
  9
$DIMJUST
 70
     0
  9
$DIMSD1
 70
     0
  9
$DIMSD2
 70
     0
  9
$DIMTOLJ
 70
     0
  9
$DIMTZIN
 70
     8
  9
$DIMALTZ
 70
     0
  9
$DIMALTTZ
 70
     0
  9
$DIMUPT
 70
     0
  9
$DIMDEC
 70
     2
  9
$DIMTDEC
 70
     2
  9
$DIMALTU
 70
     2
  9
$DIMALTTD
 70
     3
  9
$DIMTXSTY
  7
Standard
  9
$DIMAUNIT
 70
     0
  9
$DIMADEC
 70
     0
  9
$DIMALTRND
 40
0.0
  9
$DIMAZIN
 70
     0
  9
$DIMDSEP
 70
    44
  9
$DIMATFIT
 70
     3
  9
$DIMFRAC
 70
     0
  9
$DIMLDRBLK
  1

  9
$DIMLUNIT
 70
     2
  9
$DIMLWD
 70
    -2
  9
$DIMLWE
 70
    -2
  9
$DIMTMOVE
 70
     0
  9
$DIMFXL
 40
1.0
  9
$DIMFXLON
 70
     0
  9
$DIMJOGANG
 40
0.7853981633974483
  9
$DIMTFILL
 70
     0
  9
$DIMTFILLCLR
 70
     0
  9
$DIMARCSYM
 70
     0
  9
$DIMLTYPE
  6

  9
$DIMLTEX1
  6

  9
$DIMLTEX2
  6

  9
$DIMTXTDIRECTION
 70
     0
  9
$LUNITS
 70
     2
  9
$LUPREC
 70
     4
  9
$SKETCHINC
 40
1.0
  9
$FILLETRAD
 40
10.0
  9
$AUNITS
 70
     0
  9
$AUPREC
 70
     0
  9
$MENU
  1
.
  9
$ELEVATION
 40
0.0
  9
$PELEVATION
 40
0.0
  9
$THICKNESS
 40
0.0
  9
$LIMCHECK
 70
     0
  9
$CHAMFERA
 40
0.0
  9
$CHAMFERB
 40
0.0
  9
$CHAMFERC
 40
0.0
  9
$CHAMFERD
 40
0.0
  9
$SKPOLY
 70
     0
  9
$TDCREATE
 40
2458168.997475718
  9
$TDUCREATE
 40
2458168.955809051
  9
$TDUPDATE
 40
2458168.997475718
  9
$TDUUPDATE
 40
2458168.955809051
  9
$TDINDWG
 40
0.0000000116
  9
$TDUSRTIMER
 40
0.0000000116
  9
$USRTIMER
 70
     1
  9
$ANGBASE
 50
0.0
  9
$ANGDIR
 70
     0
  9
$PDMODE
 70
     0
  9
$PDSIZE
 40
0.0
  9
$PLINEWID
 40
0.0
  9
$SPLFRAME
 70
     0
  9
$SPLINETYPE
 70
     6
  9
$SPLINESEGS
 70
     8
  9
$HANDSEED
  5
1A1
  9
$SURFTAB1
 70
     6
  9
$SURFTAB2
 70
     6
  9
$SURFTYPE
 70
     6
  9
$SURFU
 70
     6
  9
$SURFV
 70
     6
  9
$UCSBASE
  2

  9
$UCSNAME
  2

  9
$UCSORG
 10
0.0
 20
0.0
 30
0.0
  9
$UCSXDIR
 10
1.0
 20
0.0
 30
0.0
  9
$UCSYDIR
 10
0.0
 20
1.0
 30
0.0
  9
$UCSORTHOREF
  2

  9
$UCSORTHOVIEW
 70
     0
  9
$UCSORGTOP
 10
0.0
 20
0.0
 30
0.0
  9
$UCSORGBOTTOM
 10
0.0
 20
0.0
 30
0.0
  9
$UCSORGLEFT
 10
0.0
 20
0.0
 30
0.0
  9
$UCSORGRIGHT
 10
0.0
 20
0.0
 30
0.0
  9
$UCSORGFRONT
 10
0.0
 20
0.0
 30
0.0
  9
$UCSORGBACK
 10
0.0
 20
0.0
 30
0.0
  9
$PUCSBASE
  2

  9
$PUCSNAME
  2

  9
$PUCSORG
 10
0.0
 20
0.0
 30
0.0
  9
$PUCSXDIR
 10
1.0
 20
0.0
 30
0.0
  9
$PUCSYDIR
 10
0.0
 20
1.0
 30
0.0
  9
$PUCSORTHOREF
  2

  9
$PUCSORTHOVIEW
 70
     0
  9
$PUCSORGTOP
 10
0.0
 20
0.0
 30
0.0
  9
$PUCSORGBOTTOM
 10
0.0
 20
0.0
 30
0.0
  9
$PUCSORGLEFT
 10
0.0
 20
0.0
 30
0.0
  9
$PUCSORGRIGHT
 10
0.0
 20
0.0
 30
0.0
  9
$PUCSORGFRONT
 10
0.0
 20
0.0
 30
0.0
  9
$PUCSORGBACK
 10
0.0
 20
0.0
 30
0.0
  9
$USERI1
 70
     0
  9
$USERI2
 70
     0
  9
$USERI3
 70
     0
  9
$USERI4
 70
     0
  9
$USERI5
 70
     0
  9
$USERR1
 40
0.0
  9
$USERR2
 40
0.0
  9
$USERR3
 40
0.0
  9
$USERR4
 40
0.0
  9
$USERR5
 40
0.0
  9
$WORLDVIEW
 70
     1
  9
$SHADEDGE
 70
     3
  9
$SHADEDIF
 70
    70
  9
$TILEMODE
 70
     1
  9
$MAXACTVP
 70
    64
  9
$PINSBASE
 10
0.0
 20
0.0
 30
0.0
  9
$PLIMCHECK
 70
     0
  9
$PEXTMIN
 10
1.000000000000000E+20
 20
1.000000000000000E+20
 30
1.000000000000000E+20
  9
$PEXTMAX
 10
-1.000000000000000E+20
 20
-1.000000000000000E+20
 30
-1.000000000000000E+20
  9
$PLIMMIN
 10
0.0
 20
0.0
  9
$PLIMMAX
 10
420.0
 20
297.0
  9
$UNITMODE
 70
     0
  9
$VISRETAIN
 70
     1
  9
$PLINEGEN
 70
     0
  9
$PSLTSCALE
 70
     1
  9
$TREEDEPTH
 70
  3020
  9
$CMLSTYLE
  2
Standard
  9
$CMLJUST
 70
     0
  9
$CMLSCALE
 40
20.0
  9
$PROXYGRAPHICS
 70
     1
  9
$MEASUREMENT
 70
     1
  9
$CELWEIGHT
370
    -1
  9
$ENDCAPS
280
     0
  9
$JOINSTYLE
280
     0
  9
$LWDISPLAY
290
     0
  9
$INSUNITS
 70
     4
  9
$HYPERLINKBASE
  1

  9
$STYLESHEET
  1

  9
$XEDIT
290
     1
  9
$CEPSNTYPE
380
     0
  9
$PSTYLEMODE
290
     1
  9
$FINGERPRINTGUID
  2
{A9D3092E-E85F-478C-A7FE-3D8D2D86808B}
  9
$VERSIONGUID
  2
{FAEB1C32-E019-11D5-929B-00C0DF256EC4}
  9
$EXTNAMES
290
     1
  9
$PSVPSCALE
 40
0.0
  9
$OLESTARTUP
290
     0
  9
$SORTENTS
280
   127
  9
$INDEXCTL
280
     0
  9
$HIDETEXT
280
     1
  9
$XCLIPFRAME
280
     2
  9
$HALOGAP
280
     0
  9
$OBSCOLOR
 70
   257
  9
$OBSLTYPE
280
     0
  9
$INTERSECTIONDISPLAY
280
     0
  9
$INTERSECTIONCOLOR
 70
   257
  9
$DIMASSOC
280
     2
  9
$PROJECTNAME
  1

  9
$CAMERADISPLAY
290
     0
  9
$LENSLENGTH
 40
50.0
  9
$CAMERAHEIGHT
 40
0.0
  9
$STEPSPERSEC
 40
2.0
  9
$STEPSIZE
 40
6.0
  9
$3DDWFPREC
 40
2.0
  9
$PSOLWIDTH
 40
5.0
  9
$PSOLHEIGHT
 40
80.0
  9
$LOFTANG1
 40
1.570796326794897
  9
$LOFTANG2
 40
1.570796326794897
  9
$LOFTMAG1
 40
0.0
  9
$LOFTMAG2
 40
0.0
  9
$LOFTPARAM
 70
     7
  9
$LOFTNORMALS
280
     1
  9
$LATITUDE
 40
37.795
  9
$LONGITUDE
 40
-122.394
  9
$NORTHDIRECTION
 40
0.0
  9
$TIMEZONE
 70
 -8000
  9
$LIGHTGLYPHDISPLAY
280
     1
  9
$TILEMODELIGHTSYNCH
280
     1
  9
$CMATERIAL
347
44
  9
$SOLIDHIST
280
     0
  9
$SHOWHIST
280
     1
  9
$DWFFRAME
280
     2
  9
$DGNFRAME
280
     2
  9
$REALWORLDSCALE
290
     1
  9
$INTERFERECOLOR
 62
   256
  9
$CSHADOW
280
     0
  9
$SHADOWPLANELOCATION
 40
0.0
  0
ENDSEC
  0
SECTION
  2
CLASSES
  0
CLASS
  1
ACDBDICTIONARYWDFLT
  2
AcDbDictionaryWithDefault
  3
ObjectDBX Classes
 90
        0
 91
        4
280
     0
281
     0
  0
CLASS
  1
VISUALSTYLE
  2
AcDbVisualStyle
  3
ObjectDBX Classes
 90
     4095
 91
        4
280
     0
281
     0
  0
CLASS
  1
MATERIAL
  2
AcDbMaterial
  3
ObjectDBX Classes
 90
     1153
 91
        4
280
     0
281
     0
  0
CLASS
  1
SCALE
  2
AcDbScale
  3
ObjectDBX Classes
 90
     1153
 91
        4
280
     0
281
     0
  0
CLASS
  1
TABLESTYLE
  2
AcDbTableStyle
  3
ObjectDBX Classes
 90
     4095
 91
        4
280
     0
281
     0
  0
CLASS
  1
MLEADERSTYLE
  2
AcDbMLeaderStyle
  3
ACDB_MLEADERSTYLE_CLASS
 90
     4095
 91
        4
280
     0
281
     0
  0
CLASS
  1
SUN
  2
AcDbSun
  3
SCENEOE
 90
     1153
 91
        4
280
     0
281
     0
  0
CLASS
  1
DICTIONARYVAR
  2
AcDbDictionaryVar
  3
ObjectDBX Classes
 90
        0
 91
        4
280
     0
281
     0
  0
CLASS
  1
CELLSTYLEMAP
  2
AcDbCellStyleMap
  3
ObjectDBX Classes
 90
     1152
 91
        4
280
     0
281
     0
  0
ENDSEC
  0
SECTION
  2
TABLES
  0
TABLE
  2
VPORT
  5
8
330
0
100
AcDbSymbolTable
 70
     1
  0
VPORT
  5
29
330
8
100
AcDbSymbolTableRecord
100
AcDbViewportTableRecord
  2
*Active
 70
     0
 10
0.0
 20
0.0
 11
1.0
 21
1.0
 12
0.0
 22
-0.3725000000000023
 13
0.0
 23
0.0
 14
10.0
 24
10.0
 15
10.0
 25
10.0
 16
0.0
 26
0.0
 36
1.0
 17
0.0
 27
0.0
 37
0.0
 40
42.94710000000001
 41
3.028143925899537
 42
50.0
 43
0.0
 44
0.0
 50
0.0
 51
0.0
 71
     0
 72
   100
 73
     1
 74
     3
 75
     0
 76
     0
 77
     0
 78
     0
281
     0
 65
     1
110
0.0
120
0.0
130
0.0
111
1.0
121
0.0
131
0.0
112
0.0
122
1.0
132
0.0
 79
     0
146
0.0
348
2F
 60
     3
 61
     5
292
     1
282
     1
141
0.0
142
0.0
 63
   250
361
6D
  0
ENDTAB
  0
TABLE
  2
LTYPE
  5
5
330
0
100
AcDbSymbolTable
 70
     3
  0
LTYPE
  5
14
330
5
100
AcDbSymbolTableRecord
100
AcDbLinetypeTableRecord
  2
ByBlock
 70
     0
  3

 72
    65
 73
     0
 40
0.0
  0
LTYPE
  5
15
330
5
100
AcDbSymbolTableRecord
100
AcDbLinetypeTableRecord
  2
ByLayer
 70
     0
  3

 72
    65
 73
     0
 40
0.0
  0
LTYPE
  5
16
330
5
100
AcDbSymbolTableRecord
100
AcDbLinetypeTableRecord
  2
Continuous
 70
     0
  3
Solid line
 72
    65
 73
     0
 40
0.0
  0
LTYPE
  5
A3
330
5
100
AcDbSymbolTableRecord
100
AcDbLinetypeTableRecord
  2
Dashed
 70
     0
  3

 72
    65
 73
     2
 40
2.0
 49
1.0
 74
     0
 49
-1.0
 74
     0
  0
LTYPE
  5
154
330
5
100
AcDbSymbolTableRecord
100
AcDbLinetypeTableRecord
  2
Center
 70
     0
  3

 72
    65
 73
     4
 40
1.5
 49
0.45
 74
     0
 49
-0.5
 74
     0
 49
0.05
 74
     0
 49
-0.5
 74
     0
  0
ENDTAB
  0
TABLE
  2
LAYER
  5
2
330
0
100
AcDbSymbolTable
 70
     7
  0
LAYER
  5
10
330
2
100
AcDbSymbolTableRecord
100
AcDbLayerTableRecord
  2
0
 70
     0
 62
     7
  6
Continuous
370
    -3
390
F
347
46
348
0
  0
LAYER
  5
72
330
2
100
AcDbSymbolTableRecord
100
AcDbLayerTableRecord
  2
AM_6
 70
     0
 62
    -2
  6
Continuous
370
    35
390
F
347
46
348
0
  0
LAYER
  5
A4
330
2
100
AcDbSymbolTableRecord
100
AcDbLayerTableRecord
  2
AM_9
 70
     0
 62
     6
  6
Dashed
370
    25
390
F
347
46
348
0
  0
LAYER
  5
CA
330
2
100
AcDbSymbolTableRecord
100
AcDbLayerTableRecord
  2
AM_4
 70
     0
 62
     7
  6
Continuous
370
    50
390
F
347
46
348
0
  0
LAYER
  5
D2
330
2
100
AcDbSymbolTableRecord
100
AcDbLayerTableRecord
  2
AM_5
 70
     0
 62
     3
  6
Continuous
370
    25
390
F
347
46
348
0
  0
LAYER
  5
155
330
2
100
AcDbSymbolTableRecord
100
AcDbLayerTableRecord
  2
AM_7
 70
     0
 62
     7
  6
Center
370
    25
390
F
347
46
348
0
  0
LAYER
  5
193
330
2
100
AcDbSymbolTableRecord
100
AcDbLayerTableRecord
  2
ConnectionPoints
 70
     0
 62
     7
  6
Continuous
370
    50
390
F
347
46
348
0
  0
ENDTAB
  0
TABLE
  2
STYLE
  5
3
330
0
100
AcDbSymbolTable
 70
     1
  0
STYLE
  5
11
330
3
100
AcDbSymbolTableRecord
100
AcDbTextStyleTableRecord
  2
Standard
 70
     0
 40
0.0
 41
1.0
 50
0.0
 71
     0
 42
2.5
  3
txt
  4

  0
ENDTAB
  0
TABLE
  2
VIEW
  5
6
330
0
100
AcDbSymbolTable
 70
     0
  0
ENDTAB
  0
TABLE
  2
UCS
  5
7
330
0
100
AcDbSymbolTable
 70
     0
  0
ENDTAB
  0
TABLE
  2
APPID
  5
9
330
0
100
AcDbSymbolTable
 70
     1
  0
APPID
  5
12
330
9
100
AcDbSymbolTableRecord
100
AcDbRegAppTableRecord
  2
ACAD
 70
     0
  0
ENDTAB
  0
TABLE
  2
DIMSTYLE
  5
A
330
0
100
AcDbSymbolTable
 70
     1
100
AcDbDimStyleTable
  0
DIMSTYLE
105
27
330
A
100
AcDbSymbolTableRecord
100
AcDbDimStyleTableRecord
  2
ISO-25
 70
     0
 41
2.5
 42
0.625
 43
3.75
 44
1.25
 73
     0
 74
     0
 77
     1
 78
     8
140
2.5
141
2.5
143
0.03937007874016
147
0.625
171
     3
172
     1
178
     0
271
     2
272
     2
274
     3
278
    44
283
     0
284
     8
340
11
  0
ENDTAB
  0
TABLE
  2
BLOCK_RECORD
  5
1
330
0
100
AcDbSymbolTable
 70
     5
  0
BLOCK_RECORD
  5
1F
330
1
100
AcDbSymbolTableRecord
100
AcDbBlockTableRecord
  2
*Model_Space
340
22
 70
     0
280
     1
281
     0
  0
BLOCK_RECORD
  5
1B
330
1
100
AcDbSymbolTableRecord
100
AcDbBlockTableRecord
  2
*Paper_Space
340
1E
 70
     0
280
     1
281
     0
  0
BLOCK_RECORD
  5
23
330
1
100
AcDbSymbolTableRecord
100
AcDbBlockTableRecord
  2
*Paper_Space0
340
26
 70
     0
280
     1
281
     0
  0
BLOCK_RECORD
  5
6E
330
1
100
AcDbSymbolTableRecord
100
AcDbBlockTableRecord
  2
1_127623_4
340
0
102
{BLKREFS
331
6F
102
}
 70
     0
280
     1
281
     0
  0
BLOCK_RECORD
  5
8B
330
1
100
AcDbSymbolTableRecord
100
AcDbBlockTableRecord
  2
2_126629_0_in_127623_4
340
0
102
{BLKREFS
331
8C
102
}
 70
     0
280
     1
281
     0
  0
BLOCK_RECORD
  5
D4
330
1
100
AcDbSymbolTableRecord
100
AcDbBlockTableRecord
  2
3_405020c_M_0_in_127623_4
340
0
102
{BLKREFS
331
D5
102
}
 70
     0
280
     1
281
     0
  0
BLOCK_RECORD
  5
130
330
1
100
AcDbSymbolTableRecord
100
AcDbBlockTableRecord
  2
4_127623h_0_in_127623_4
340
0
102
{BLKREFS
331
131
102
}
 70
     0
280
     1
281
     0
  0
ENDTAB
  0
ENDSEC
  0
SECTION
  2
BLOCKS
  0
BLOCK
  5
20
330
1F
100
AcDbEntity
  8
0
100
AcDbBlockBegin
  2
*Model_Space
 70
     0
 10
0.0
 20
0.0
 30
0.0
  3
*Model_Space
  1

  0
ENDBLK
  5
21
330
1F
100
AcDbEntity
  8
0
100
AcDbBlockEnd
  0
BLOCK
  5
1C
330
1B
100
AcDbEntity
 67
     1
  8
0
100
AcDbBlockBegin
  2
*Paper_Space
 70
     0
 10
0.0
 20
0.0
 30
0.0
  3
*Paper_Space
  1

  0
ENDBLK
  5
1D
330
1B
100
AcDbEntity
 67
     1
  8
0
100
AcDbBlockEnd
  0
BLOCK
  5
24
330
23
100
AcDbEntity
  8
0
100
AcDbBlockBegin
  2
*Paper_Space0
 70
     0
 10
0.0
 20
0.0
 30
0.0
  3
*Paper_Space0
  1

  0
ENDBLK
  5
25
330
23
100
AcDbEntity
  8
0
100
AcDbBlockEnd
  0
BLOCK
  5
70
330
6E
100
AcDbEntity
  8
0
100
AcDbBlockBegin
  2
1_127623_4
 70
     2
 10
0.0
 20
0.0
 30
0.0
  3
1_127623_4
  1

  0
ATTDEF
  5
73
330
6E
100
AcDbEntity
  8
AM_6
100
AcDbText
 10
68.75
 20
20.68
 30
0.0
 40
0.5
  1
D-Lok Two-Bolt Pillow Block Metric Bore - Polymer Housing, Corrosion Resistant Insert
100
AcDbAttributeDefinition
  3

  2
NN
 70
     8
280
     0
  0
ATTDEF
  5
74
330
6E
100
AcDbEntity
  8
AM_6
100
AcDbText
 10
68.75
 20
20.18
 30
0.0
 40
0.5
  1
DLEZ Normal Duty Polymer Housed Pillow Blocks
100
AcDbAttributeDefinition
  3

  2
NT
 70
     8
280
     0
  0
ATTDEF
  5
75
330
6E
100
AcDbEntity
  8
AM_6
100
AcDbText
 10
68.75
 20
19.68
 30
0.0
 40
0.5
  1
127623
100
AcDbAttributeDefinition
  3

  2
NB
 70
     8
280
     0
  0
ATTDEF
  5
76
330
6E
100
AcDbEntity
  8
AM_6
100
AcDbText
 10
68.75
 20
19.18
 30
0.0
 40
0.5
  1
$PN.
100
AcDbAttributeDefinition
  3

  2
NBSYN
 70
     8
280
     0
  0
ATTDEF
  5
77
330
6E
100
AcDbEntity
  8
AM_6
100
AcDbText
 10
68.75
 20
18.68
 30
0.0
 40
0.5
  1
127623
100
AcDbAttributeDefinition
  3

  2
LINA
 70
     8
280
     0
  0
ATTDEF
  5
78
330
6E
100
AcDbEntity
  8
AM_6
100
AcDbText
 10
68.75
 20
18.18
 30
0.0
 40
0.5
  1
204
100
AcDbAttributeDefinition
  3

  2
SERIES
 70
     8
280
     0
  0
ATTDEF
  5
79
330
6E
100
AcDbEntity
  8
AM_6
100
AcDbText
 10
68.75
 20
17.68
 30
0.0
 40
0.5
  1
20
100
AcDbAttributeDefinition
  3

  2
SS
 70
     8
280
     0
  0
ATTDEF
  5
7A
330
6E
100
AcDbEntity
  8
AM_6
100
AcDbText
 10
68.75
 20
17.18
 30
0.0
 40
0.5
  1
127623
100
AcDbAttributeDefinition
  3

  2
PN
 70
     8
280
     0
  0
ATTDEF
  5
7B
330
6E
100
AcDbEntity
  8
AM_6
100
AcDbText
 10
68.75
 20
16.68
 30
0.0
 40
0.5
  1
P2B-DLEZ-20M-PCR
100
AcDbAttributeDefinition
  3

  2
DESCRIPTION
 70
     8
280
     0
  0
ATTDEF
  5
7C
330
6E
100
AcDbEntity
  8
AM_6
100
AcDbText
 10
68.75
 20
16.18
 30
0.0
 40
0.5
  1
0.42
100
AcDbAttributeDefinition
  3

  2
W
 70
     8
280
     0
  0
ATTDEF
  5
7D
330
6E
100
AcDbEntity
  8
AM_6
100
AcDbText
 10
68.75
 20
15.68
 30
0.0
 40
0.5
  1
32.5
100
AcDbAttributeDefinition
  3

  2
A
 70
     8
280
     0
  0
ATTDEF
  5
7E
330
6E
100
AcDbEntity
  8
AM_6
100
AcDbText
 10
68.75
 20
15.18
 30
0.0
 40
0.5
  1
127.5
100
AcDbAttributeDefinition
  3

  2
B
 70
     8
280
     0
  0
ATTDEF
  5
7F
330
6E
100
AcDbEntity
  8
AM_6
100
AcDbText
 10
68.75
 20
14.68
 30
0.0
 40
0.5
  1
37.6
100
AcDbAttributeDefinition
  3

  2
C
 70
     8
280
     0
  0
ATTDEF
  5
80
330
6E
100
AcDbEntity
  8
AM_6
100
AcDbText
 10
68.75
 20
14.18
 30
0.0
 40
0.5
  1
93.0
100
AcDbAttributeDefinition
  3

  2
DMIN
 70
     8
280
     0
  0
ATTDEF
  5
81
330
6E
100
AcDbEntity
  8
AM_6
100
AcDbText
 10
68.75
 20
13.68
 30
0.0
 40
0.5
  1
99.6
100
AcDbAttributeDefinition
  3

  2
DMAX
 70
     8
280
     0
  0
ATTDEF
  5
82
330
6E
100
AcDbEntity
  8
AM_6
100
AcDbText
 10
68.75
 20
13.18
 30
0.0
 40
0.5
  1
M10
100
AcDbAttributeDefinition
  3

  2
F
 70
     8
280
     0
  0
ATTDEF
  5
83
330
6E
100
AcDbEntity
  8
AM_6
100
AcDbText
 10
68.75
 20
12.68
 30
0.0
 40
0.5
  1
15.0
100
AcDbAttributeDefinition
  3

  2
G
 70
     8
280
     0
  0
ATTDEF
  5
84
330
6E
100
AcDbEntity
  8
AM_6
100
AcDbText
 10
68.75
 20
12.18
 30
0.0
 40
0.5
  1
15.5
100
AcDbAttributeDefinition
  3

  2
H
 70
     8
280
     0
  0
ATTDEF
  5
85
330
6E
100
AcDbEntity
  8
AM_6
100
AcDbText
 10
68.75
 20
11.68
 30
0.0
 40
0.5
  1
66.8
100
AcDbAttributeDefinition
  3

  2
J
 70
     8
280
     0
  0
ATTDEF
  5
86
330
6E
100
AcDbEntity
  8
AM_6
100
AcDbText
 10
68.75
 20
11.18
 30
0.0
 40
0.5
  1
43.4
100
AcDbAttributeDefinition
  3

  2
L
 70
     8
280
     0
  0
ATTDEF
  5
87
330
6E
100
AcDbEntity
  8
AM_6
100
AcDbText
 10
68.75
 20
10.68
 30
0.0
 40
0.5
  1
33.3
100
AcDbAttributeDefinition
  3

  2
M
 70
     8
280
     0
  0
ATTDEF
  5
88
330
6E
100
AcDbEntity
  8
AM_6
100
AcDbText
 10
68.75
 20
10.18
 30
0.0
 40
0.5
  1
12.7
100
AcDbAttributeDefinition
  3

  2
R
 70
     8
280
     0
  0
ATTDEF
  5
89
330
6E
100
AcDbEntity
  8
AM_6
100
AcDbText
 10
68.75
 20
9.680000000000003
 30
0.0
 40
0.5
  1
19.8
100
AcDbAttributeDefinition
  3

  2
S
 70
     8
280
     0
  0
ATTDEF
  5
8A
330
6E
100
AcDbEntity
  8
AM_6
100
AcDbText
 10
68.75
 20
9.180000000000003
 30
0.0
 40
0.5
  1
baldor
100
AcDbAttributeDefinition
  3

  2
COMPANY
 70
     8
280
     0
  0
INSERT
  5
8C
330
6E
100
AcDbEntity
  8
0
100
AcDbBlockReference
  2
2_126629_0_in_127623_4
 10
0.0
 20
0.0
 30
0.0
  0
INSERT
  5
D5
330
6E
100
AcDbEntity
  8
0
100
AcDbBlockReference
  2
3_405020c_M_0_in_127623_4
 10
0.0
 20
0.0
 30
0.0
  0
INSERT
  5
131
330
6E
100
AcDbEntity
  8
0
100
AcDbBlockReference
  2
4_127623h_0_in_127623_4
 10
0.0
 20
0.0
 30
0.0
  0
ENDBLK
  5
71
330
6E
100
AcDbEntity
  8
0
100
AcDbBlockEnd
  0
BLOCK
  5
8D
330
8B
100
AcDbEntity
  8
0
100
AcDbBlockBegin
  2
2_126629_0_in_127623_4
 70
     2
 10
0.0
 20
0.0
 30
0.0
  3
2_126629_0_in_127623_4
  1

  0
ATTDEF
  5
8F
330
8B
100
AcDbEntity
  8
AM_6
100
AcDbText
 10
28.48530545755781
 20
12.7
 30
0.0
 40
0.5
  1
D-Lok Insert Metric Bore
100
AcDbAttributeDefinition
  3

  2
NN
 70
     8
280
     0
  0
ATTDEF
  5
90
330
8B
100
AcDbEntity
  8
AM_6
100
AcDbText
 10
28.48530545755781
 20
12.2
 30
0.0
 40
0.5
  1
D-LOK
100
AcDbAttributeDefinition
  3

  2
NT
 70
     8
280
     0
  0
ATTDEF
  5
91
330
8B
100
AcDbEntity
  8
AM_6
100
AcDbText
 10
28.48530545755781
 20
11.7
 30
0.0
 40
0.5
  1
126629
100
AcDbAttributeDefinition
  3

  2
NB
 70
     8
280
     0
  0
ATTDEF
  5
92
330
8B
100
AcDbEntity
  8
AM_6
100
AcDbText
 10
28.48530545755781
 20
11.2
 30
0.0
 40
0.5
  1
$PN.
100
AcDbAttributeDefinition
  3

  2
NBSYN
 70
     8
280
     0
  0
ATTDEF
  5
93
330
8B
100
AcDbEntity
  8
AM_6
100
AcDbText
 10
28.48530545755781
 20
10.7
 30
0.0
 40
0.5
  1
126629
100
AcDbAttributeDefinition
  3

  2
LINA
 70
     8
280
     0
  0
ATTDEF
  5
94
330
8B
100
AcDbEntity
  8
AM_6
100
AcDbText
 10
28.48530545755781
 20
10.2
 30
0.0
 40
0.5
  1
204
100
AcDbAttributeDefinition
  3

  2
SERIES
 70
     8
280
     0
  0
ATTDEF
  5
95
330
8B
100
AcDbEntity
  8
AM_6
100
AcDbText
 10
28.48530545755781
 20
9.700000000000001
 30
0.0
 40
0.5
  1
20
100
AcDbAttributeDefinition
  3

  2
SS
 70
     8
280
     0
  0
ATTDEF
  5
96
330
8B
100
AcDbEntity
  8
AM_6
100
AcDbText
 10
28.48530545755781
 20
9.200000000000001
 30
0.0
 40
0.5
  1
126629
100
AcDbAttributeDefinition
  3

  2
PN
 70
     8
280
     0
  0
ATTDEF
  5
97
330
8B
100
AcDbEntity
  8
AM_6
100
AcDbText
 10
28.48530545755781
 20
8.700000000000001
 30
0.0
 40
0.5
  1
INS-DL-20M
100
AcDbAttributeDefinition
  3

  2
DESCRIPTION
 70
     8
280
     0
  0
ATTDEF
  5
98
330
8B
100
AcDbEntity
  8
AM_6
100
AcDbText
 10
28.48530545755781
 20
8.200000000000001
 30
0.0
 40
0.5
  1
0.270
100
AcDbAttributeDefinition
  3

  2
WEIGHT
 70
     8
280
     0
  0
ATTDEF
  5
99
330
8B
100
AcDbEntity
  8
AM_6
100
AcDbText
 10
28.48530545755781
 20
7.700000000000001
 30
0.0
 40
0.5
  1
32.5
100
AcDbAttributeDefinition
  3

  2
A
 70
     8
280
     0
  0
ATTDEF
  5
9A
330
8B
100
AcDbEntity
  8
AM_6
100
AcDbText
 10
28.48530545755781
 20
7.200000000000001
 30
0.0
 40
0.5
  1
14.7
100
AcDbAttributeDefinition
  3

  2
C
 70
     8
280
     0
  0
ATTDEF
  5
9B
330
8B
100
AcDbEntity
  8
AM_6
100
AcDbText
 10
28.48530545755781
 20
6.700000000000001
 30
0.0
 40
0.5
  1
47
100
AcDbAttributeDefinition
  3

  2
D
 70
     8
280
     0
  0
ATTDEF
  5
9C
330
8B
100
AcDbEntity
  8
AM_6
100
AcDbText
 10
28.48530545755781
 20
6.200000000000001
 30
0.0
 40
0.5
  1
3.8
100
AcDbAttributeDefinition
  3

  2
J
 70
     8
280
     0
  0
ATTDEF
  5
9D
330
8B
100
AcDbEntity
  8
AM_6
100
AcDbText
 10
28.48530545755781
 20
5.700000000000001
 30
0.0
 40
0.5
  1
43.4
100
AcDbAttributeDefinition
  3

  2
L
 70
     8
280
     0
  0
ATTDEF
  5
9E
330
8B
100
AcDbEntity
  8
AM_6
100
AcDbText
 10
28.48530545755781
 20
5.200000000000001
 30
0.0
 40
0.5
  1
M4x7
100
AcDbAttributeDefinition
  3

  2
N
 70
     8
280
     0
  0
ATTDEF
  5
9F
330
8B
100
AcDbEntity
  8
AM_6
100
AcDbText
 10
28.48530545755781
 20
4.700000000000001
 30
0.0
 40
0.5
  1
12.7
100
AcDbAttributeDefinition
  3

  2
W
 70
     8
280
     0
  0
ATTDEF
  5
A0
330
8B
100
AcDbEntity
  8
AM_6
100
AcDbText
 10
28.48530545755781
 20
4.200000000000001
 30
0.0
 40
0.5
  1
19.8
100
AcDbAttributeDefinition
  3

  2
Y
 70
     8
280
     0
  0
ATTDEF
  5
A1
330
8B
100
AcDbEntity
  8
AM_6
100
AcDbText
 10
28.48530545755781
 20
3.700000000000001
 30
0.0
 40
0.5
  1
28.4
100
AcDbAttributeDefinition
  3

  2
Z
 70
     8
280
     0
  0
ATTDEF
  5
A2
330
8B
100
AcDbEntity
  8
AM_6
100
AcDbText
 10
28.48530545755781
 20
3.200000000000001
 30
0.0
 40
0.5
  1
baldor
100
AcDbAttributeDefinition
  3

  2
COMPANY
 70
     8
280
     0
  0
LINE
  5
A5
330
8B
100
AcDbEntity
  8
AM_9
100
AcDbLine
 10
9.999999999999991
 20
-18.93200000000001
 30
0.0
 11
9.999999999999991
 21
11.832
 31
0.0
  0
LINE
  5
A6
330
8B
100
AcDbEntity
  8
AM_9
100
AcDbLine
 10
-9.999999999999991
 20
11.832
 30
0.0
 11
-9.999999999999991
 21
-18.93200000000001
 31
0.0
  0
LINE
  5
A7
330
8B
100
AcDbEntity
  8
AM_9
100
AcDbLine
 10
-9.999999999999991
 20
-18.93200000000001
 30
0.0
 11
-10.86799999999999
 21
-19.8
 31
0.0
  0
LINE
  5
A8
330
8B
100
AcDbEntity
  8
AM_9
100
AcDbLine
 10
10.86799999999999
 20
-19.8
 30
0.0
 11
9.999999999999991
 21
-18.93200000000001
 31
0.0
  0
LINE
  5
A9
330
8B
100
AcDbEntity
  8
AM_9
100
AcDbLine
 10
9.999999999999991
 20
11.832
 30
0.0
 11
10.86799999999999
 21
12.7
 31
0.0
  0
LINE
  5
AA
330
8B
100
AcDbEntity
  8
AM_9
100
AcDbLine
 10
-10.86799999999999
 20
12.7
 30
0.0
 11
-9.999999999999991
 21
11.832
 31
0.0
  0
LINE
  5
AB
330
8B
100
AcDbEntity
  8
AM_9
100
AcDbLine
 10
14.2
 20
-9.9
 30
0.0
 11
14.2
 21
-7.349999999999997
 31
0.0
  0
LINE
  5
AC
330
8B
100
AcDbEntity
  8
AM_9
100
AcDbLine
 10
-14.2
 20
-7.349999999999997
 30
0.0
 11
-14.2
 21
-9.9
 31
0.0
  0
LINE
  5
AD
330
8B
100
AcDbEntity
  8
AM_9
100
AcDbLine
 10
10.46984437247246
 20
12.7
 30
0.0
 11
13.33199999999997
 21
12.7
 31
0.0
  0
LINE
  5
AE
330
8B
100
AcDbEntity
  8
AM_9
100
AcDbLine
 10
-13.33199999999997
 20
12.7
 30
0.0
 11
-10.46984437247246
 21
12.7
 31
0.0
  0
LINE
  5
AF
330
8B
100
AcDbEntity
  8
AM_9
100
AcDbLine
 10
-13.33199999999997
 20
12.7
 30
0.0
 11
-14.20000000000001
 21
11.832
 31
0.0
  0
LINE
  5
B0
330
8B
100
AcDbEntity
  8
AM_9
100
AcDbLine
 10
14.20000000000001
 20
11.832
 30
0.0
 11
13.33199999999997
 21
12.7
 31
0.0
  0
LINE
  5
B1
330
8B
100
AcDbEntity
  8
AM_9
100
AcDbLine
 10
-14.20000000000001
 20
11.832
 30
0.0
 11
14.20000000000001
 21
11.832
 31
0.0
  0
LINE
  5
B2
330
8B
100
AcDbEntity
  8
AM_9
100
AcDbLine
 10
14.20000000000001
 20
7.350000000000001
 30
0.0
 11
14.20000000000001
 21
11.832
 31
0.0
  0
LINE
  5
B3
330
8B
100
AcDbEntity
  8
AM_9
100
AcDbLine
 10
-14.20000000000001
 20
11.832
 30
0.0
 11
-14.20000000000001
 21
7.350000000000001
 31
0.0
  0
LINE
  5
B4
330
8B
100
AcDbEntity
  8
AM_9
100
AcDbLine
 10
21.69999999999999
 20
-14.58767265540478
 30
0.0
 11
21.69999999999999
 21
-10.768
 31
0.0
  0
LINE
  5
B5
330
8B
100
AcDbEntity
  8
AM_9
100
AcDbLine
 10
-21.69999999999999
 20
-10.768
 30
0.0
 11
-21.69999999999999
 21
-14.58767265540478
 31
0.0
  0
LINE
  5
B6
330
8B
100
AcDbEntity
  8
AM_9
100
AcDbLine
 10
-21.69999999999999
 20
-10.768
 30
0.0
 11
21.69999999999999
 21
-10.768
 31
0.0
  0
LINE
  5
B7
330
8B
100
AcDbEntity
  8
AM_9
100
AcDbLine
 10
-20.83199999999999
 20
-9.900000000000004
 30
0.0
 11
20.83199999999999
 21
-9.900000000000004
 31
0.0
  0
LINE
  5
B8
330
8B
100
AcDbEntity
  8
AM_9
100
AcDbLine
 10
-20.83199999999999
 20
-9.900000000000004
 30
0.0
 11
-21.69999999999999
 21
-10.768
 31
0.0
  0
LINE
  5
B9
330
8B
100
AcDbEntity
  8
AM_9
100
AcDbLine
 10
21.69999999999999
 20
-10.768
 30
0.0
 11
20.83199999999999
 21
-9.900000000000004
 31
0.0
  0
LINE
  5
BA
330
8B
100
AcDbEntity
  8
AM_9
100
AcDbLine
 10
22.03
 20
-4.399999999999999
 30
0.0
 11
22.03
 21
-2.439999999999997
 31
0.0
  0
LINE
  5
BB
330
8B
100
AcDbEntity
  8
AM_9
100
AcDbLine
 10
-22.03
 20
-2.439999999999997
 30
0.0
 11
-22.03
 21
-4.399999999999999
 31
0.0
  0
LINE
  5
BC
330
8B
100
AcDbEntity
  8
AM_9
100
AcDbLine
 10
-21.63354487917144
 20
7.350000000000001
 30
0.0
 11
21.63354487915323
 21
7.350000000000001
 31
0.0
  0
ARC
  5
BD
330
8B
100
AcDbEntity
  8
AM_9
100
AcDbCircle
 10
21.63354487917142
 20
6.761999999999992
 30
0.0
 40
0.5880000000000142
100
AcDbArc
 50
21.41246704688467
 51
90.0
  0
ARC
  5
BE
330
8B
100
AcDbEntity
  8
AM_9
100
AcDbCircle
 10
-21.63354487917142
 20
6.761999999999992
 30
0.0
 40
0.5880000000000098
100
AcDbArc
 50
90.0
 51
158.5875329531154
  0
LINE
  5
BF
330
8B
100
AcDbEntity
  8
AM_9
100
AcDbLine
 10
-21.63354487917143
 20
-7.350000000000001
 30
0.0
 11
21.63354487915323
 21
-7.350000000000001
 31
0.0
  0
ARC
  5
C0
330
8B
100
AcDbEntity
  8
AM_9
100
AcDbCircle
 10
21.63354487917143
 20
-6.761999999999988
 30
0.0
 40
0.5880000000000125
100
AcDbArc
 50
270.0
 51
338.587532953115
  0
ARC
  5
C1
330
8B
100
AcDbEntity
  8
AM_9
100
AcDbCircle
 10
-21.63354487917142
 20
-6.761999999999981
 30
0.0
 40
0.5880000000000207
100
AcDbArc
 50
201.4124670468854
 51
270.0
  0
LINE
  5
C2
330
8B
100
AcDbEntity
  8
AM_9
100
AcDbLine
 10
-22.98656151012868
 20
-4.399999999999999
 30
0.0
 11
22.98656151012868
 21
-4.399999999999999
 31
0.0
  0
LINE
  5
C3
330
8B
100
AcDbEntity
  8
AM_9
100
AcDbLine
 10
-22.18095900231974
 20
-6.976666666666667
 30
0.0
 11
22.18095900231974
 21
-6.976666666666667
 31
0.0
  0
ARC
  5
C4
330
8B
100
AcDbEntity
  8
AM_9
100
AcDbCircle
 10
4.39000000000059
 20
-0.0000000000001634
 30
0.0
 40
19.10999999999938
100
AcDbArc
 50
338.5875329531157
 51
346.6884480428106
  0
ARC
  5
C5
330
8B
100
AcDbEntity
  8
AM_9
100
AcDbCircle
 10
-4.390000000001059
 20
-0.0000000000003126
 30
0.0
 40
19.10999999999889
100
AcDbArc
 50
193.3115519571892
 51
201.4124670468844
  0
LINE
  5
C6
330
8B
100
AcDbEntity
  8
AM_9
100
AcDbLine
 10
-23.34358805081508
 20
-2.439999999999996
 30
0.0
 11
23.34358805081508
 21
-2.439999999999996
 31
0.0
  0
LINE
  5
C7
330
8B
100
AcDbEntity
  8
AM_9
100
AcDbLine
 10
-22.18095900231974
 20
6.976666666666669
 30
0.0
 11
22.18095900231974
 21
6.976666666666669
 31
0.0
  0
ARC
  5
C8
330
8B
100
AcDbEntity
  8
AM_9
100
AcDbCircle
 10
4.390000000000228
 20
-0.000000000000001
 30
0.0
 40
19.10999999999977
100
AcDbArc
 50
352.6643447152237
 51
21.41246704688432
  0
ARC
  5
C9
330
8B
100
AcDbEntity
  8
AM_9
100
AcDbCircle
 10
-4.390000000000143
 20
-0.0000000000000107
 30
0.0
 40
19.10999999999986
100
AcDbArc
 50
158.5875329531157
 51
187.3356552847762
  0
LINE
  5
CB
330
8B
100
AcDbEntity
  8
AM_4
100
AcDbLine
 10
-10.46984437247246
 20
12.7
 30
0.0
 11
10.46984437247246
 21
12.7
 31
0.0
  0
LINE
  5
CC
330
8B
100
AcDbEntity
  8
AM_4
100
AcDbLine
 10
21.69999999999999
 20
-18.93200000000001
 30
0.0
 11
21.69999999999999
 21
-14.58767265540478
 31
0.0
  0
LINE
  5
CD
330
8B
100
AcDbEntity
  8
AM_4
100
AcDbLine
 10
-21.69999999999999
 20
-14.58767265540478
 30
0.0
 11
-21.69999999999999
 21
-18.93200000000001
 31
0.0
  0
LINE
  5
CE
330
8B
100
AcDbEntity
  8
AM_4
100
AcDbLine
 10
-20.83199999999999
 20
-19.8
 30
0.0
 11
20.83199999999999
 21
-19.8
 31
0.0
  0
LINE
  5
CF
330
8B
100
AcDbEntity
  8
AM_4
100
AcDbLine
 10
-21.69999999999999
 20
-18.93200000000001
 30
0.0
 11
21.69999999999999
 21
-18.93200000000001
 31
0.0
  0
LINE
  5
D0
330
8B
100
AcDbEntity
  8
AM_4
100
AcDbLine
 10
20.83199999999999
 20
-19.8
 30
0.0
 11
21.69999999999999
 21
-18.93200000000001
 31
0.0
  0
LINE
  5
D1
330
8B
100
AcDbEntity
  8
AM_4
100
AcDbLine
 10
-21.69999999999999
 20
-18.93200000000001
 30
0.0
 11
-20.83199999999999
 21
-19.8
 31
0.0
  0
ARC
  5
D3
330
8B
100
AcDbEntity
  8
AM_5
100
AcDbCircle
 10
-0.0000000000000006
 20
-13.55
 30
0.0
 40
3.125
100
AcDbArc
 50
75.0
 51
15.00000000000002
  0
ENDBLK
  5
8E
330
8B
100
AcDbEntity
  8
0
100
AcDbBlockEnd
  0
BLOCK
  5
D6
330
D4
100
AcDbEntity
  8
0
100
AcDbBlockBegin
  2
3_405020c_M_0_in_127623_4
 70
     2
 10
0.0
 20
0.0
 30
0.0
  3
3_405020c_M_0_in_127623_4
  1

  0
ATTDEF
  5
D8
330
D4
100
AcDbEntity
  8
AM_6
100
AcDbText
 10
36.872963725928
 20
0.0414518843273835
 30
0.0
 40
0.5
  1
405020C -Metric
100
AcDbAttributeDefinition
  3

  2
NN
 70
     8
280
     0
  0
ATTDEF
  5
D9
330
D4
100
AcDbEntity
  8
AM_6
100
AcDbText
 10
36.872963725928
 20
-0.4585481156726164
 30
0.0
 40
0.5
  1
Grease fitting
100
AcDbAttributeDefinition
  3

  2
NT
 70
     8
280
     0
  0
ATTDEF
  5
DA
330
D4
100
AcDbEntity
  8
AM_6
100
AcDbText
 10
36.872963725928
 20
-0.9585481156726164
 30
0.0
 40
0.5
  1
405020c-M
100
AcDbAttributeDefinition
  3

  2
NB
 70
     8
280
     0
  0
ATTDEF
  5
DB
330
D4
100
AcDbEntity
  8
AM_6
100
AcDbText
 10
36.872963725928
 20
-1.458548115672616
 30
0.0
 40
0.5
  1
$MN.-M
100
AcDbAttributeDefinition
  3

  2
NBSYN
 70
     8
280
     0
  0
ATTDEF
  5
DC
330
D4
100
AcDbEntity
  8
AM_6
100
AcDbText
 10
36.872963725928
 20
-1.958548115672616
 30
0.0
 40
0.5
  1
405020c
100
AcDbAttributeDefinition
  3

  2
LINA
 70
     8
280
     0
  0
ATTDEF
  5
DD
330
D4
100
AcDbEntity
  8
AM_6
100
AcDbText
 10
36.872963725928
 20
-2.458548115672616
 30
0.0
 40
0.5
  1
405020c
100
AcDbAttributeDefinition
  3

  2
MN
 70
     8
280
     0
  0
ATTDEF
  5
DE
330
D4
100
AcDbEntity
  8
AM_6
100
AcDbText
 10
36.872963725928
 20
-2.958548115672616
 30
0.0
 40
0.5
  1
5.842
100
AcDbAttributeDefinition
  3

  2
NDR
 70
     8
280
     0
  0
ATTDEF
  5
DF
330
D4
100
AcDbEntity
  8
AM_6
100
AcDbText
 10
36.872963725928
 20
-3.458548115672616
 30
0.0
 40
0.5
  1
5.359
100
AcDbAttributeDefinition
  3

  2
KDR
 70
     8
280
     0
  0
ATTDEF
  5
E0
330
D4
100
AcDbEntity
  8
AM_6
100
AcDbText
 10
36.872963725928
 20
-3.958548115672616
 30
0.0
 40
0.5
  1
4.000
100
AcDbAttributeDefinition
  3

  2
BZE
 70
     8
280
     0
  0
ATTDEF
  5
E1
330
D4
100
AcDbEntity
  8
AM_6
100
AcDbText
 10
36.872963725928
 20
-4.458548115672617
 30
0.0
 40
0.5
  1
7
100
AcDbAttributeDefinition
  3

  2
WAF
 70
     8
280
     0
  0
ATTDEF
  5
E2
330
D4
100
AcDbEntity
  8
AM_6
100
AcDbText
 10
36.872963725928
 20
-4.958548115672617
 30
0.0
 40
0.5
  1
7.0000
100
AcDbAttributeDefinition
  3

  2
WAF1
 70
     8
280
     0
  0
ATTDEF
  5
E3
330
D4
100
AcDbEntity
  8
AM_6
100
AcDbText
 10
36.872963725928
 20
-5.458548115672617
 30
0.0
 40
0.5
  1
13.843
100
AcDbAttributeDefinition
  3

  2
BL
 70
     8
280
     0
  0
ATTDEF
  5
E4
330
D4
100
AcDbEntity
  8
AM_6
100
AcDbText
 10
36.872963725928
 20
-5.958548115672617
 30
0.0
 40
0.5
  1
5.080
100
AcDbAttributeDefinition
  3

  2
TL
 70
     8
280
     0
  0
ATTDEF
  5
E5
330
D4
100
AcDbEntity
  8
AM_6
100
AcDbText
 10
36.872963725928
 20
-6.458548115672617
 30
0.0
 40
0.5
  1
baldor
100
AcDbAttributeDefinition
  3

  2
COMPANY
 70
     8
280
     0
  0
ELLIPSE
  5
E6
330
D4
100
AcDbEntity
  8
AM_9
100
AcDbEllipse
 10
20.44952811191495
 20
-3.999999999999996
 30
0.0
 11
-4.692312313253164E-16
 21
-2.554375850256109
 31
0.0
210
0.0
220
0.0
230
1.0
 40
0.7071067811865477
 41
0.0
 42
6.283185307179586
  0
LINE
  5
E7
330
D4
100
AcDbEntity
  8
AM_9
100
AcDbLine
 10
27.4887184221461
 20
-1.979274057836306
 30
0.0
 11
26.61909247424851
 21
-1.979274057836306
 31
0.0
  0
LINE
  5
E8
330
D4
100
AcDbEntity
  8
AM_9
100
AcDbLine
 10
27.4887184221461
 20
-6.020725942163686
 30
0.0
 11
26.61909247424851
 21
-6.020725942163686
 31
0.0
  0
LWPOLYLINE
  5
E9
330
D4
100
AcDbEntity
  8
AM_9
100
AcDbPolyline
 90
        3
 70
     0
 43
0.0
 10
26.51650429449553
 20
-3.999999999999996
 10
26.54358230702449
 20
-5.010362971081842
 10
26.61909247424851
 20
-6.020725942163686
  0
LWPOLYLINE
  5
EA
330
D4
100
AcDbEntity
  8
AM_9
100
AcDbPolyline
 90
        4
 70
     0
 43
0.0
 10
26.61909247424851
 20
-1.979274057836306
 10
26.57836939427616
 20
-2.453311105202534
 10
26.53259218232742
 20
-3.224381833159098
 10
26.51650429449553
 20
-3.999999999999996
  0
LWPOLYLINE
  5
EB
330
D4
100
AcDbEntity
  8
AM_9
100
AcDbPolyline
 90
        3
 70
     0
 43
0.0
 10
25.27906742741907
 20
-0.9689110867544606
 10
25.92486387348626
 20
-1.474092572295383
 10
26.61909247424851
 20
-1.979274057836306
  0
LWPOLYLINE
  5
EC
330
D4
100
AcDbEntity
  8
AM_9
100
AcDbPolyline
 90
        3
 70
     0
 43
0.0
 10
26.61909247424851
 20
-6.020725942163686
 10
25.92788501708199
 20
-6.523635995714039
 10
25.27906742741907
 20
-7.031088913245533
  0
LWPOLYLINE
  5
ED
330
D4
100
AcDbEntity
  8
AM_9
100
AcDbPolyline
 90
        3
 70
     0
 43
0.0
 10
26.76762315402866
 20
-6.682631185199011
 10
26.9455101558319
 20
-6.52590742770461
 10
27.4887184221461
 20
-6.020725942163686
  0
LWPOLYLINE
  5
EE
330
D4
100
AcDbEntity
  8
AM_9
100
AcDbPolyline
 90
        3
 70
     0
 43
0.0
 10
27.4887184221461
 20
-6.020725942163686
 10
27.56398937045556
 20
-5.014905835062984
 10
27.59130660189908
 20
-3.999999999999996
  0
LWPOLYLINE
  5
EF
330
D4
100
AcDbEntity
  8
AM_9
100
AcDbPolyline
 90
        3
 70
     0
 43
0.0
 10
27.4887184221461
 20
-1.979274057836306
 10
26.94805286159849
 20
-1.476364004285955
 10
26.76766349755813
 20
-1.317403873555787
  0
LWPOLYLINE
  5
F0
330
D4
100
AcDbEntity
  8
AM_9
100
AcDbPolyline
 90
        4
 70
     0
 43
0.0
 10
27.59129570466866
 20
-3.979934954723841
 10
27.57531178985168
 20
-3.226655552601265
 10
27.52944150211845
 20
-2.453311105202534
 10
27.4887184221461
 20
-1.979274057836306
  0
LINE
  5
F1
330
D4
100
AcDbEntity
  8
AM_9
100
AcDbLine
 10
27.59130660189908
 20
-3.999999999999996
 30
0.0
 11
27.59129570466866
 21
-3.979934954723841
 31
0.0
  0
LWPOLYLINE
  5
F2
330
D4
100
AcDbEntity
  8
AM_9
100
AcDbPolyline
 90
        3
 70
     0
 43
0.0
 10
25.27906742741907
 20
-7.031088913245533
 10
24.68742700640979
 20
-7.536270398786455
 10
24.14421874009559
 20
-8.041451884327376
  0
LWPOLYLINE
  5
F3
330
D4
100
AcDbEntity
  8
AM_9
100
AcDbPolyline
 90
        3
 70
     0
 43
0.0
 10
24.14421874009559
 20
0.0414518843273835
 10
24.6848843006432
 20
-0.4614581692229673
 10
25.27906742741907
 20
-0.9689110867544606
  0
LINE
  5
F4
330
D4
100
AcDbEntity
  8
AM_9
100
AcDbLine
 10
20.56393068358604
 20
-6.802418772605762
 30
0.0
 11
23.97633589261192
 21
-6.953308440111942
 31
0.0
  0
LINE
  5
F5
330
D4
100
AcDbEntity
  8
AM_9
100
AcDbLine
 10
23.97633589261192
 20
-1.046691559888051
 30
0.0
 11
20.56393068358604
 21
-1.197581227394231
 31
0.0
  0
LWPOLYLINE
  5
F6
330
D4
100
AcDbEntity
  8
AM_9
100
AcDbPolyline
 90
        3
 70
     0
 43
0.0
 10
22.80419369326616
 20
-7.031088913245533
 10
22.21255327225688
 20
-6.52590742770461
 10
21.66934500594268
 20
-6.020725942163686
  0
LWPOLYLINE
  5
F7
330
D4
100
AcDbEntity
  8
AM_9
100
AcDbPolyline
 90
        3
 70
     0
 43
0.0
 10
24.14421874009559
 20
-8.041451884327376
 10
23.45301128292908
 20
-7.538541830777025
 10
22.80419369326616
 20
-7.031088913245533
  0
LINE
  5
F8
330
D4
100
AcDbEntity
  8
AM_9
100
AcDbLine
 10
24.25000000000001
 20
-8.041451884327376
 30
0.0
 11
24.14421874009559
 21
-8.041451884327376
 31
0.0
  0
LWPOLYLINE
  5
F9
330
D4
100
AcDbEntity
  8
AM_9
100
AcDbPolyline
 90
        4
 70
     0
 43
0.0
 10
21.5667568261897
 20
-3.999999999999996
 10
21.5827516382371
 20
-3.226655552601265
 10
21.62862192597033
 20
-2.453311105202534
 10
21.66934500594268
 20
-1.979274057836306
  0
LWPOLYLINE
  5
FA
330
D4
100
AcDbEntity
  8
AM_9
100
AcDbPolyline
 90
        3
 70
     0
 43
0.0
 10
21.66934500594268
 20
-6.020725942163686
 10
21.59407405763322
 20
-5.014905835062984
 10
21.5667568261897
 20
-3.999999999999996
  0
LINE
  5
FB
330
D4
100
AcDbEntity
  8
AM_9
100
AcDbLine
 10
21.7751262658471
 20
-6.020725942163686
 30
0.0
 11
21.66934500594268
 21
-6.020725942163686
 31
0.0
  0
LINE
  5
FC
330
D4
100
AcDbEntity
  8
AM_9
100
AcDbLine
 10
24.25000000000001
 20
0.0414518843273834
 30
0.0
 11
24.14421874009559
 21
0.0414518843273835
 31
0.0
  0
LWPOLYLINE
  5
FD
330
D4
100
AcDbEntity
  8
AM_9
100
AcDbPolyline
 90
        3
 70
     0
 43
0.0
 10
22.80419369326616
 20
-0.968911086754461
 10
23.44999013933334
 20
-0.4637296012135386
 10
24.14421874009559
 20
0.0414518843273835
  0
LWPOLYLINE
  5
FE
330
D4
100
AcDbEntity
  8
AM_9
100
AcDbPolyline
 90
        3
 70
     0
 43
0.0
 10
21.66934500594268
 20
-1.979274057836306
 10
22.21001056649029
 20
-1.476364004285954
 10
22.80419369326616
 20
-0.968911086754461
  0
LINE
  5
FF
330
D4
100
AcDbEntity
  8
AM_9
100
AcDbLine
 10
21.7751262658471
 20
-1.979274057836306
 30
0.0
 11
21.66934500594268
 21
-1.979274057836306
 31
0.0
  0
ELLIPSE
  5
100
330
D4
100
AcDbEntity
  8
AM_9
100
AcDbEllipse
 10
25.11643286774622
 20
-4.000000000000016
 30
0.0
 11
2.143131898507852E-16
 21
3.499999999999974
 31
0.0
210
0.0
220
0.0
230
1.0
 40
0.7071067811865392
 41
3.85032653343929
 42
5.574451427330097
  0
ELLIPSE
  5
101
330
D4
100
AcDbEntity
  8
AM_9
100
AcDbEllipse
 10
25.83288978619874
 20
-3.999999999999979
 30
0.0
 11
1.522711690942019E-16
 21
2.486776909068297
 31
0.0
210
0.0
220
0.0
230
1.0
 40
0.7071067811865501
 41
5.353486349114719
 42
5.984242208656113
  0
ELLIPSE
  5
102
330
D4
100
AcDbEntity
  8
AM_9
100
AcDbEllipse
 10
25.83288978619876
 20
-4.000000000000041
 30
0.0
 11
1.522711690942004E-16
 21
2.486776909068273
 31
0.0
210
0.0
220
0.0
230
1.0
 40
0.7071067811865471
 41
3.440535752113265
 42
4.091585668823233
  0
ELLIPSE
  5
103
330
D4
100
AcDbEntity
  8
AM_9
100
AcDbEllipse
 10
25.83288978618866
 20
-3.999999999993852
 30
0.0
 11
1.522711690951545E-16
 21
2.486776909083854
 31
0.0
210
0.0
220
0.0
230
1.0
 40
0.7071067811865369
 41
4.284969291575724
 42
5.157588901300576
  0
LWPOLYLINE
  5
104
330
D4
100
AcDbEntity
  8
AM_9
100
AcDbPolyline
 90
       13
 70
     0
 43
0.0
 10
26.33288978619874
 20
-1.806116309745125
 10
26.37441101113371
 20
-1.807559762176702
 10
26.48691768574365
 20
-1.825888737482726
 10
26.59332700203839
 20
-1.862263114541042
 10
26.69894251810866
 20
-1.916378136178031
 10
26.80501453447057
 20
-1.989029772192215
 10
26.92104005609946
 20
-2.090743283809075
 10
27.03356501237884
 20
-2.214188002742657
 10
27.14089914408589
 20
-2.358958756995861
 10
27.24110026467685
 20
-2.524233714602723
 10
27.33209673216736
 20
-2.708607573055342
 10
27.411827872666
 20
-2.909971373727387
 10
27.46641850145016
 20
-3.082078715766858
  0
LWPOLYLINE
  5
105
330
D4
100
AcDbEntity
  8
AM_9
100
AcDbPolyline
 90
        3
 70
     0
 43
0.0
 10
26.03728491654973
 20
-6.12170874195838
 10
25.98022454743539
 20
-6.09147605148465
 10
25.88602452045857
 20
-6.029974739192538
  0
LWPOLYLINE
  5
106
330
D4
100
AcDbEntity
  8
AM_9
100
AcDbPolyline
 90
       16
 70
     0
 43
0.0
 10
27.47109359019294
 20
-4.901297629020042
 10
27.4369310413355
 20
-5.015371463690932
 10
27.3616994894724
 20
-5.221952184821495
 10
27.2748621306282
 20
-5.41182534773364
 10
27.17856790392782
 20
-5.582773747429115
 10
27.07520273461752
 20
-5.73309582636115
 10
26.96737964781825
 20
-5.861588168209507
 10
26.85769705279271
 20
-5.967788516939057
 10
26.74842077164415
 20
-6.05205689381378
 10
26.64111213933899
 20
-6.115474503096954
 10
26.53599483779109
 20
-6.159608124343223
 10
26.43091214255319
 20
-6.18585313453459
 10
26.31968781909008
 20
-6.193737708909868
 10
26.19252780438236
 20
-6.177451517307112
 10
26.08582144873357
 20
-6.143309425649614
 10
26.03728491654973
 20
-6.12170874195838
  0
LWPOLYLINE
  5
107
330
D4
100
AcDbEntity
  8
AM_9
100
AcDbPolyline
 90
        3
 70
     0
 43
0.0
 10
26.12478885159127
 20
-1.842087150154085
 10
26.22272792176703
 20
-1.816253658194449
 10
26.33288978619874
 20
-1.806116309745125
  0
LINE
  5
108
330
D4
100
AcDbEntity
  8
AM_9
100
AcDbLine
 10
25.87758711607284
 20
-1.976252854802057
 30
0.0
 11
25.89375065338082
 21
-1.964427899387598
 31
0.0
  0
ELLIPSE
  5
109
330
D4
100
AcDbEntity
  8
AM_9
100
AcDbEllipse
 10
26.63172602497206
 20
-3.999999999882941
 30
0.0
 11
1.400736253922254E-16
 21
2.287575903350257
 31
0.0
210
0.0
220
0.0
230
1.0
 40
0.7071067811865483
 41
2.656480407116257
 42
6.283185307179586
  0
ELLIPSE
  5
10A
330
D4
100
AcDbEntity
  8
AM_9
100
AcDbEllipse
 10
28.18491268645968
 20
-3.999999999999987
 30
0.0
 11
2.027916041956617E-16
 21
3.31183822693781
 31
0.0
210
0.0
220
0.0
230
1.0
 40
0.707106781186551
 41
2.656480407116019
 42
6.283185307179586
  0
ELLIPSE
  5
10B
330
D4
100
AcDbEntity
  8
AM_9
100
AcDbEllipse
 10
28.76003755576523
 20
-3.999999999999996
 30
0.0
 11
2.036609237928308E-16
 21
3.326035293353601
 31
0.0
210
0.0
220
0.0
230
1.0
 40
0.7071067811865476
 41
3.579974428543801
 42
5.844803532225579
  0
ELLIPSE
  5
10C
330
D4
100
AcDbEntity
  8
AM_9
100
AcDbEllipse
 10
30.02259820859087
 20
-4.000000000003574
 30
0.0
 11
1.572521564383195E-16
 21
2.568122605600318
 31
0.0
210
0.0
220
0.0
230
1.0
 40
0.7071067811838859
 41
3.600550724029606
 42
3.638532791876598
  0
ELLIPSE
  5
10D
330
D4
100
AcDbEntity
  8
AM_9
100
AcDbEllipse
 10
30.02259820857477
 20
-3.999999999999992
 30
0.0
 11
1.572521564385674E-16
 21
2.568122605604366
 31
0.0
210
0.0
220
0.0
230
1.0
 40
0.7071067811865439
 41
3.65848512333916
 42
5.844803532225578
  0
ELLIPSE
  5
10E
330
D4
100
AcDbEntity
  8
AM_9
100
AcDbEllipse
 10
24.04163056034261
 20
-3.999999999999989
 30
0.0
 11
2.143131898507863E-16
 21
3.499999999999992
 31
0.0
210
0.0
220
0.0
230
1.0
 40
0.7071067811865478
 41
0.0
 42
6.283185307179586
  0
ELLIPSE
  5
10F
330
D4
100
AcDbEntity
  8
AM_9
100
AcDbEllipse
 10
24.04163056034261
 20
-3.999999999999994
 30
0.0
 11
1.809263597659737E-16
 21
2.954751686640453
 31
0.0
210
0.0
220
0.0
230
1.0
 40
0.7071067811865482
 41
0.0
 42
6.283185307179586
  0
ELLIPSE
  5
110
330
D4
100
AcDbEntity
  8
AM_9
100
AcDbEllipse
 10
20.62588933311763
 20
-3.999999999999998
 30
0.0
 11
1.716825172003266E-16
 21
2.803788281157614
 31
0.0
210
0.0
220
0.0
230
1.0
 40
0.7071067811865479
 41
0.0
 42
6.283185307179586
  0
LINE
  5
111
330
D4
100
AcDbEntity
  8
AM_4
100
AcDbLine
 10
26.35386973482262
 20
-7.031088913245533
 30
0.0
 11
26.76762315402866
 21
-6.682631185199011
 31
0.0
  0
LINE
  5
112
330
D4
100
AcDbEntity
  8
AM_4
100
AcDbLine
 10
26.76766349755813
 20
-1.317403873555787
 30
0.0
 11
26.35386973482262
 21
-0.968911086754461
 31
0.0
  0
LWPOLYLINE
  5
113
330
D4
100
AcDbEntity
  8
AM_4
100
AcDbPolyline
 90
        3
 70
     0
 43
0.0
 10
26.35386973482262
 20
-0.968911086754461
 10
25.70807328875544
 20
-0.4637296012135386
 10
25.01384468799319
 20
0.0414518843273835
  0
LWPOLYLINE
  5
114
330
D4
100
AcDbEntity
  8
AM_4
100
AcDbPolyline
 90
        3
 70
     0
 43
0.0
 10
25.01384468799319
 20
-8.041451884327376
 10
25.7050521451597
 20
-7.538541830777025
 10
26.35386973482262
 20
-7.031088913245533
  0
LINE
  5
115
330
D4
100
AcDbEntity
  8
AM_4
100
AcDbLine
 10
25.01384468799319
 20
-8.041451884327376
 30
0.0
 11
24.25000000000001
 21
-8.041451884327376
 31
0.0
  0
LWPOLYLINE
  5
116
330
D4
100
AcDbEntity
  8
AM_4
100
AcDbPolyline
 90
        3
 70
     0
 43
0.0
 10
23.87899600066971
 20
-7.031088913245533
 10
24.47063642167898
 20
-7.536270398786455
 10
25.01384468799319
 20
-8.041451884327376
  0
LINE
  5
117
330
D4
100
AcDbEntity
  8
AM_4
100
AcDbLine
 10
22.53897095384027
 20
-6.020725942163686
 30
0.0
 11
21.7751262658471
 21
-6.020725942163686
 31
0.0
  0
LWPOLYLINE
  5
118
330
D4
100
AcDbEntity
  8
AM_4
100
AcDbPolyline
 90
        4
 70
     0
 43
0.0
 10
22.53897095384027
 20
-1.979274057836306
 10
22.57969403381262
 20
-2.453311105202534
 10
22.62547124576136
 20
-3.224381833159098
 10
22.64155913359325
 20
-3.999999999999996
  0
LINE
  5
119
330
D4
100
AcDbEntity
  8
AM_4
100
AcDbLine
 10
25.01384468799319
 20
0.0414518843273835
 30
0.0
 11
24.25000000000001
 21
0.0414518843273834
 31
0.0
  0
LINE
  5
11A
330
D4
100
AcDbEntity
  8
AM_4
100
AcDbLine
 10
22.53897095384027
 20
-1.979274057836306
 30
0.0
 11
21.7751262658471
 21
-1.979274057836306
 31
0.0
  0
LWPOLYLINE
  5
11B
330
D4
100
AcDbEntity
  8
AM_4
100
AcDbPolyline
 90
        3
 70
     0
 43
0.0
 10
23.87899600066971
 20
-0.968911086754461
 10
23.23319955460253
 20
-1.474092572295383
 10
22.53897095384027
 20
-1.979274057836306
  0
LWPOLYLINE
  5
11C
330
D4
100
AcDbEntity
  8
AM_4
100
AcDbPolyline
 90
        3
 70
     0
 43
0.0
 10
25.01384468799319
 20
0.0414518843273835
 10
24.47317912744558
 20
-0.4614581692229678
 10
23.87899600066971
 20
-0.968911086754461
  0
LWPOLYLINE
  5
11D
330
D4
100
AcDbEntity
  8
AM_4
100
AcDbPolyline
 90
        3
 70
     0
 43
0.0
 10
22.64155913359325
 20
-3.999999999999996
 10
22.6144811210643
 20
-5.010362971081841
 10
22.53897095384027
 20
-6.020725942163686
  0
LWPOLYLINE
  5
11E
330
D4
100
AcDbEntity
  8
AM_4
100
AcDbPolyline
 90
        3
 70
     0
 43
0.0
 10
22.53897095384027
 20
-6.020725942163686
 10
23.23017841100679
 20
-6.523635995714039
 10
23.87899600066971
 20
-7.031088913245533
  0
ELLIPSE
  5
11F
330
D4
100
AcDbEntity
  8
AM_4
100
AcDbEllipse
 10
25.11643286774622
 20
-4.000000000000018
 30
0.0
 11
2.143131898507893E-16
 21
3.500000000000041
 31
0.0
210
0.0
220
0.0
230
1.0
 40
0.707106781186555
 41
5.574451427330111
 42
10.13351184061886
  0
ELLIPSE
  5
120
330
D4
100
AcDbEntity
  8
AM_4
100
AcDbEllipse
 10
25.83288978619899
 20
-3.999999999999942
 30
0.0
 11
1.522711690942003E-16
 21
2.48677690906827
 31
0.0
210
0.0
220
0.0
230
1.0
 40
0.707106781186535
 41
5.984242208656235
 42
9.723721059292721
  0
LINE
  5
121
330
D4
100
AcDbEntity
  8
AM_4
100
AcDbLine
 10
25.87744520719189
 20
-6.023641373606682
 30
0.0
 11
27.09290256233095
 21
-6.929726987111133
 31
0.0
  0
LINE
  5
122
330
D4
100
AcDbEntity
  8
AM_4
100
AcDbLine
 10
27.09290256233095
 20
-1.070273012888859
 30
0.0
 11
25.87744520719189
 21
-1.976358626393312
 31
0.0
  0
ELLIPSE
  5
123
330
D4
100
AcDbEntity
  8
AM_4
100
AcDbEllipse
 10
26.63172602492886
 20
-3.999999999999996
 30
0.0
 11
1.400736253841409E-16
 21
2.287575903218228
 31
0.0
210
0.0
220
0.0
230
1.0
 40
0.7071067811865437
 41
0.4851122464737774
 42
2.656480407116016
  0
ELLIPSE
  5
124
330
D4
100
AcDbEntity
  8
AM_4
100
AcDbEllipse
 10
28.18491268604091
 20
-4.000000000710065
 30
0.0
 11
2.027916041464117E-16
 21
3.311838226133496
 31
0.0
210
0.0
220
0.0
230
1.0
 40
0.7071067811648644
 41
-3.633550588651453
 42
-3.62670490001801
  0
LWPOLYLINE
  5
125
330
D4
100
AcDbEntity
  8
AM_4
100
AcDbPolyline
 90
        8
 70
     0
 43
0.0
 10
28.4837489251898
 20
-0.594469560098836
 10
28.30777732403231
 20
-0.6015066230912712
 10
28.06267732793428
 20
-0.634985178058716
 10
27.82253026946295
 20
-0.6953847796614369
 10
27.58886329776668
 20
-0.782008214998648
 10
27.36307386084224
 20
-0.8942050378053091
 10
27.14652536705508
 20
-1.031350422293117
 10
27.09478802615765
 20
-1.068868776268481
  0
LWPOLYLINE
  5
126
330
D4
100
AcDbEntity
  8
AM_4
100
AcDbPolyline
 90
       13
 70
     0
 43
0.0
 10
27.07574203033879
 20
-6.91682460400584
 10
27.15311775783191
 20
-6.973291813916346
 10
27.38196531280146
 20
-7.116332474137189
 10
27.61971807983111
 20
-7.231084701981482
 10
27.86373068402292
 20
-7.316981857204398
 10
28.11149859608398
 20
-7.373911951854284
 10
28.36070576148797
 20
-7.402091985815982
 10
28.60923796480619
 20
-7.40195384506484
 10
28.85517643832027
 20
-7.374052306440315
 10
29.09646510044125
 20
-7.319085529226995
 10
29.3315696853048
 20
-7.237756560257139
 10
29.55907654599266
 20
-7.130724906709488
 10
29.75951402975925
 20
-7.010748223808668
  0
LWPOLYLINE
  5
127
330
D4
100
AcDbEntity
  8
AM_4
100
AcDbPolyline
 90
        7
 70
     0
 43
0.0
 10
29.76773018930473
 20
-0.9947285449538575
 10
29.63303402783662
 20
-0.9105823928665132
 10
29.39688018153365
 20
-0.7899956134769909
 10
29.15393579035428
 20
-0.6981892302181376
 10
28.90673949741852
 20
-0.6353578314509715
 10
28.65764770738015
 20
-0.6013416291857379
 10
28.4837489251898
 20
-0.594469560098836
  0
ELLIPSE
  5
128
330
D4
100
AcDbEntity
  8
AM_4
100
AcDbEllipse
 10
28.18491268645968
 20
-3.999999999999996
 30
0.0
 11
2.027916041956613E-16
 21
3.311838226937803
 31
0.0
210
0.0
220
0.0
230
1.0
 40
0.707106781186547
 41
0.4841510790559891
 42
2.649634718484559
  0
ELLIPSE
  5
129
330
D4
100
AcDbEntity
  8
AM_4
100
AcDbEllipse
 10
30.23800728388033
 20
-3.999999999999996
 30
0.0
 11
-3.872094701371914E-16
 21
-2.107870178878143
 31
0.0
210
0.0
220
0.0
230
1.0
 40
0.7071067811865478
 41
0.0
 42
6.283185307179586
  0
LWPOLYLINE
  5
12A
330
D4
100
AcDbEntity
  8
AM_4
100
AcDbPolyline
 90
       22
 70
     0
 43
0.0
 10
30.83142467731565
 20
-6.29940023388493
 10
30.97559835709702
 20
-6.188054638244843
 10
31.14166902987581
 20
-6.030228133281595
 10
31.29464045799388
 20
-5.84992964532113
 10
31.43266451578069
 20
-5.649002140969849
 10
31.55404287175728
 20
-5.429735021117
 10
31.65734231271859
 20
-5.194739456078057
 10
31.74144164321134
 20
-4.946801013529515
 10
31.80550440953404
 20
-4.688832960870124
 10
31.84898493668272
 20
-4.42363899541518
 10
31.87153396866029
 20
-4.153991177361202
 10
31.872963725928
 20
-3.882638698634794
 10
31.85322823989781
 20
-3.612309952637083
 10
31.81242053230499
 20
-3.345758378792795
 10
31.75076051676852
 20
-3.085672076951484
 10
31.66859268648427
 20
-2.834720414781246
 10
31.56640046124262
 20
-2.595573833331646
 10
31.44484255954432
 20
-2.37092485133083
 10
31.30490179905108
 20
-2.163610704314213
 10
31.14790191071754
 20
-1.976402762047953
 10
30.97562780629389
 20
-1.811970377173426
 10
30.79326444639966
 20
-1.674618133829852
  0
ELLIPSE
  5
12B
330
D4
100
AcDbEntity
  8
AM_4
100
AcDbEllipse
 10
30.02259820859221
 20
-4.000000000002471
 30
0.0
 11
1.572521564384062E-16
 21
2.568122605601733
 31
0.0
210
0.0
220
0.0
230
1.0
 40
0.7071067811838005
 41
3.579974428537007
 42
3.600550724028803
  0
ELLIPSE
  5
12C
330
D4
100
AcDbEntity
  8
AM_4
100
AcDbEllipse
 10
28.76003755576537
 20
-4.000000000000038
 30
0.0
 11
2.036609237928334E-16
 21
3.326035293353644
 31
0.0
210
0.0
220
0.0
230
1.0
 40
0.7071067811865374
 41
5.844803532225631
 42
9.863159735723343
  0
ELLIPSE
  5
12D
330
D4
100
AcDbEntity
  8
AM_4
100
AcDbEllipse
 10
30.02259820857488
 20
-4.000000000000048
 30
0.0
 11
1.572521564385703E-16
 21
2.568122605604414
 31
0.0
210
0.0
220
0.0
230
1.0
 40
0.7071067811865333
 41
5.844803532225632
 42
9.863159735723352
  0
LINE
  5
12E
330
D4
100
AcDbEntity
  8
AM_4
100
AcDbLine
 10
30.79341769441567
 20
-1.674719724869253
 30
0.0
 11
29.75834379282596
 21
-0.9884754547364069
 31
0.0
  0
LINE
  5
12F
330
D4
100
AcDbEntity
  8
AM_4
100
AcDbLine
 10
29.75834379282596
 20
-7.011524545263586
 30
0.0
 11
30.79341769441567
 21
-6.325280275130741
 31
0.0
  0
ENDBLK
  5
D7
330
D4
100
AcDbEntity
  8
0
100
AcDbBlockEnd
  0
BLOCK
  5
132
330
130
100
AcDbEntity
  8
0
100
AcDbBlockBegin
  2
4_127623h_0_in_127623_4
 70
     2
 10
0.0
 20
0.0
 30
0.0
  3
4_127623h_0_in_127623_4
  1

  0
ATTDEF
  5
134
330
130
100
AcDbEntity
  8
AM_6
100
AcDbText
 10
68.75
 20
20.68
 30
0.0
 40
0.5
  1
P2B-DLEZ-PCR - Metric - Housing
100
AcDbAttributeDefinition
  3

  2
NN
 70
     8
280
     0
  0
ATTDEF
  5
135
330
130
100
AcDbEntity
  8
AM_6
100
AcDbText
 10
68.75
 20
20.18
 30
0.0
 40
0.5
  1
DLEZ Normal Duty Polymer Housed Pillow Blocks
100
AcDbAttributeDefinition
  3

  2
NT
 70
     8
280
     0
  0
ATTDEF
  5
136
330
130
100
AcDbEntity
  8
AM_6
100
AcDbText
 10
68.75
 20
19.68
 30
0.0
 40
0.5
  1
127623h
100
AcDbAttributeDefinition
  3

  2
NB
 70
     8
280
     0
  0
ATTDEF
  5
137
330
130
100
AcDbEntity
  8
AM_6
100
AcDbText
 10
68.75
 20
19.18
 30
0.0
 40
0.5
  1
$PN.h
100
AcDbAttributeDefinition
  3

  2
NBSYN
 70
     8
280
     0
  0
ATTDEF
  5
138
330
130
100
AcDbEntity
  8
AM_6
100
AcDbText
 10
68.75
 20
18.68
 30
0.0
 40
0.5
  1
127623
100
AcDbAttributeDefinition
  3

  2
LINA
 70
     8
280
     0
  0
ATTDEF
  5
139
330
130
100
AcDbEntity
  8
AM_6
100
AcDbText
 10
68.75
 20
18.18
 30
0.0
 40
0.5
  1
204
100
AcDbAttributeDefinition
  3

  2
SERIES
 70
     8
280
     0
  0
ATTDEF
  5
13A
330
130
100
AcDbEntity
  8
AM_6
100
AcDbText
 10
68.75
 20
17.68
 30
0.0
 40
0.5
  1
20
100
AcDbAttributeDefinition
  3

  2
SS
 70
     8
280
     0
  0
ATTDEF
  5
13B
330
130
100
AcDbEntity
  8
AM_6
100
AcDbText
 10
68.75
 20
17.18
 30
0.0
 40
0.5
  1
127623
100
AcDbAttributeDefinition
  3

  2
PN
 70
     8
280
     0
  0
ATTDEF
  5
13C
330
130
100
AcDbEntity
  8
AM_6
100
AcDbText
 10
68.75
 20
16.68
 30
0.0
 40
0.5
  1
P2B-DLEZ-20M-PCR
100
AcDbAttributeDefinition
  3

  2
DESCRIPTION
 70
     8
280
     0
  0
ATTDEF
  5
13D
330
130
100
AcDbEntity
  8
AM_6
100
AcDbText
 10
68.75
 20
16.18
 30
0.0
 40
0.5
  1
0.42
100
AcDbAttributeDefinition
  3

  2
W
 70
     8
280
     0
  0
ATTDEF
  5
13E
330
130
100
AcDbEntity
  8
AM_6
100
AcDbText
 10
68.75
 20
15.68
 30
0.0
 40
0.5
  1
32.5
100
AcDbAttributeDefinition
  3

  2
A
 70
     8
280
     0
  0
ATTDEF
  5
13F
330
130
100
AcDbEntity
  8
AM_6
100
AcDbText
 10
68.75
 20
15.18
 30
0.0
 40
0.5
  1
127.5
100
AcDbAttributeDefinition
  3

  2
B
 70
     8
280
     0
  0
ATTDEF
  5
140
330
130
100
AcDbEntity
  8
AM_6
100
AcDbText
 10
68.75
 20
14.68
 30
0.0
 40
0.5
  1
37.6
100
AcDbAttributeDefinition
  3

  2
C
 70
     8
280
     0
  0
ATTDEF
  5
141
330
130
100
AcDbEntity
  8
AM_6
100
AcDbText
 10
68.75
 20
14.18
 30
0.0
 40
0.5
  1
93.0
100
AcDbAttributeDefinition
  3

  2
DMIN
 70
     8
280
     0
  0
ATTDEF
  5
142
330
130
100
AcDbEntity
  8
AM_6
100
AcDbText
 10
68.75
 20
13.68
 30
0.0
 40
0.5
  1
99.6
100
AcDbAttributeDefinition
  3

  2
DMAX
 70
     8
280
     0
  0
ATTDEF
  5
143
330
130
100
AcDbEntity
  8
AM_6
100
AcDbText
 10
68.75
 20
13.18
 30
0.0
 40
0.5
  1
M10
100
AcDbAttributeDefinition
  3

  2
F
 70
     8
280
     0
  0
ATTDEF
  5
144
330
130
100
AcDbEntity
  8
AM_6
100
AcDbText
 10
68.75
 20
12.68
 30
0.0
 40
0.5
  1
10.000
100
AcDbAttributeDefinition
  3

  2
F1
 70
     8
280
     0
  0
ATTDEF
  5
145
330
130
100
AcDbEntity
  8
AM_6
100
AcDbText
 10
68.75
 20
12.18
 30
0.0
 40
0.5
  1
47.000
100
AcDbAttributeDefinition
  3

  2
BOD
 70
     8
280
     0
  0
ATTDEF
  5
146
330
130
100
AcDbEntity
  8
AM_6
100
AcDbText
 10
68.75
 20
11.68
 30
0.0
 40
0.5
  1
15.0
100
AcDbAttributeDefinition
  3

  2
G
 70
     8
280
     0
  0
ATTDEF
  5
147
330
130
100
AcDbEntity
  8
AM_6
100
AcDbText
 10
68.75
 20
11.18
 30
0.0
 40
0.5
  1
15.5
100
AcDbAttributeDefinition
  3

  2
H
 70
     8
280
     0
  0
ATTDEF
  5
148
330
130
100
AcDbEntity
  8
AM_6
100
AcDbText
 10
68.75
 20
10.68
 30
0.0
 40
0.5
  1
66.8
100
AcDbAttributeDefinition
  3

  2
J
 70
     8
280
     0
  0
ATTDEF
  5
149
330
130
100
AcDbEntity
  8
AM_6
100
AcDbText
 10
68.75
 20
10.18
 30
0.0
 40
0.5
  1
43.4
100
AcDbAttributeDefinition
  3

  2
L
 70
     8
280
     0
  0
ATTDEF
  5
14A
330
130
100
AcDbEntity
  8
AM_6
100
AcDbText
 10
68.75
 20
9.680000000000003
 30
0.0
 40
0.5
  1
33.3
100
AcDbAttributeDefinition
  3

  2
M
 70
     8
280
     0
  0
ATTDEF
  5
14B
330
130
100
AcDbEntity
  8
AM_6
100
AcDbText
 10
68.75
 20
9.180000000000003
 30
0.0
 40
0.5
  1
12.7
100
AcDbAttributeDefinition
  3

  2
R
 70
     8
280
     0
  0
ATTDEF
  5
14C
330
130
100
AcDbEntity
  8
AM_6
100
AcDbText
 10
68.75
 20
8.680000000000003
 30
0.0
 40
0.5
  1
19.8
100
AcDbAttributeDefinition
  3

  2
S
 70
     8
280
     0
  0
ATTDEF
  5
14D
330
130
100
AcDbEntity
  8
AM_6
100
AcDbText
 10
68.75
 20
8.180000000000003
 30
0.0
 40
0.5
  1
1390
100
AcDbAttributeDefinition
  3

  2
CAPS
 70
     8
280
     0
  0
ATTDEF
  5
14E
330
130
100
AcDbEntity
  8
AM_6
100
AcDbText
 10
68.75
 20
7.680000000000003
 30
0.0
 40
0.5
  1
2899
100
AcDbAttributeDefinition
  3

  2
CAPD
 70
     8
280
     0
  0
ATTDEF
  5
14F
330
130
100
AcDbEntity
  8
AM_6
100
AcDbText
 10
68.75
 20
7.180000000000003
 30
0.0
 40
0.5
  1
baldor
100
AcDbAttributeDefinition
  3

  2
COMPANY
 70
     8
280
     0
  0
LINE
  5
150
330
130
100
AcDbEntity
  8
AM_9
100
AcDbLine
 10
21.69999999999999
 20
-16.71111111111111
 30
0.0
 11
-21.69999999999999
 21
-16.71111111111111
 31
0.0
  0
LINE
  5
151
330
130
100
AcDbEntity
  8
AM_9
100
AcDbLine
 10
23.5
 20
-16.00434419381788
 30
0.0
 11
23.5
 21
16.00434419381788
 31
0.0
  0
LINE
  5
152
330
130
100
AcDbEntity
  8
AM_9
100
AcDbLine
 10
-23.5
 20
16.00434419381788
 30
0.0
 11
-23.5
 21
-16.00434419381788
 31
0.0
  0
LINE
  5
153
330
130
100
AcDbEntity
  8
AM_9
100
AcDbLine
 10
30.364
 20
-6.609980171277108
 30
0.0
 11
30.36400000000001
 21
-1.390019828722884
 31
0.0
  0
LINE
  5
156
330
130
100
AcDbEntity
  8
AM_7
100
AcDbLine
 10
0.0
 20
20.68
 30
0.0
 11
0.0
 21
-21.425
 31
0.0
  0
LINE
  5
157
330
130
100
AcDbEntity
  8
AM_7
100
AcDbLine
 10
-55.05
 20
0.0000000000000053
 30
0.0
 11
-41.24999999999999
 21
0.0000000000000049
 31
0.0
  0
LINE
  5
158
330
130
100
AcDbEntity
  8
AM_7
100
AcDbLine
 10
-46.49999999999999
 20
-5.249999999999995
 30
0.0
 11
-46.49999999999999
 21
5.250000000000005
 31
0.0
  0
LINE
  5
159
330
130
100
AcDbEntity
  8
AM_7
100
AcDbLine
 10
-49.80000000000001
 20
-5.249999999999988
 30
0.0
 11
-49.80000000000001
 21
5.249999999999998
 31
0.0
  0
LINE
  5
15A
330
130
100
AcDbEntity
  8
AM_7
100
AcDbLine
 10
41.24999999999999
 20
0.0000000000000022
 30
0.0
 11
55.05
 21
-0.0000000000000009
 31
0.0
  0
LINE
  5
15B
330
130
100
AcDbEntity
  8
AM_7
100
AcDbLine
 10
49.8
 20
-5.250000000000001
 30
0.0
 11
49.8
 21
5.249999999999999
 31
0.0
  0
LINE
  5
15C
330
130
100
AcDbEntity
  8
AM_7
100
AcDbLine
 10
46.49999999999999
 20
-5.249999999999998
 30
0.0
 11
46.49999999999999
 21
5.250000000000002
 31
0.0
  0
LINE
  5
15D
330
130
100
AcDbEntity
  8
AM_4
100
AcDbLine
 10
-63.75
 20
-14.62222222222222
 30
0.0
 11
-59.57222222222222
 21
-18.8
 31
0.0
  0
LINE
  5
15E
330
130
100
AcDbEntity
  8
AM_4
100
AcDbLine
 10
-59.57222222222222
 20
18.8
 30
0.0
 11
-63.75
 21
14.62222222222224
 31
0.0
  0
LINE
  5
15F
330
130
100
AcDbEntity
  8
AM_4
100
AcDbLine
 10
-63.75
 20
-14.62222222222222
 30
0.0
 11
-63.75
 21
14.62222222222223
 31
0.0
  0
LINE
  5
160
330
130
100
AcDbEntity
  8
AM_4
100
AcDbLine
 10
-31.46000000000003
 20
-18.8
 30
0.0
 11
-59.57222222222222
 21
-18.8
 31
0.0
  0
LINE
  5
161
330
130
100
AcDbEntity
  8
AM_4
100
AcDbLine
 10
-46.5
 20
5.000000000000005
 30
0.0
 11
-49.8
 21
5.000000000000004
 31
0.0
  0
ARC
  5
162
330
130
100
AcDbEntity
  8
AM_4
100
AcDbCircle
 10
-46.5
 20
0.0000000000000036
 30
0.0
 40
5.0
100
AcDbArc
 50
270.0
 51
90.0
  0
LINE
  5
163
330
130
100
AcDbEntity
  8
AM_4
100
AcDbLine
 10
-49.8
 20
-4.999999999999995
 30
0.0
 11
-46.5
 21
-4.999999999999996
 31
0.0
  0
ARC
  5
164
330
130
100
AcDbEntity
  8
AM_4
100
AcDbCircle
 10
-49.8
 20
0.0000000000000053
 30
0.0
 40
4.999999999999998
100
AcDbArc
 50
90.0
 51
270.0
  0
LINE
  5
165
330
130
100
AcDbEntity
  8
AM_4
100
AcDbLine
 10
-31.45999999999999
 20
18.8
 30
0.0
 11
-59.57222222222222
 21
18.8
 31
0.0
  0
LINE
  5
166
330
130
100
AcDbEntity
  8
AM_4
100
AcDbLine
 10
-62.25000000000001
 20
-16.12222222222221
 30
0.0
 11
-62.25000000000001
 21
16.12222222222221
 31
0.0
  0
LINE
  5
167
330
130
100
AcDbEntity
  8
AM_4
100
AcDbLine
 10
59.57222222222223
 20
-18.8
 30
0.0
 11
63.75
 21
-14.62222222222223
 31
0.0
  0
LINE
  5
168
330
130
100
AcDbEntity
  8
AM_4
100
AcDbLine
 10
63.75
 20
14.62222222222222
 30
0.0
 11
59.57222222222222
 21
18.8
 31
0.0
  0
LINE
  5
169
330
130
100
AcDbEntity
  8
AM_4
100
AcDbLine
 10
49.8
 20
5.000000000000005
 30
0.0
 11
46.5
 21
5.000000000000004
 31
0.0
  0
ARC
  5
16A
330
130
100
AcDbEntity
  8
AM_4
100
AcDbCircle
 10
49.8
 20
0.0000000000000027
 30
0.0
 40
4.999999999999999
100
AcDbArc
 50
270.0
 51
90.0
  0
LINE
  5
16B
330
130
100
AcDbEntity
  8
AM_4
100
AcDbLine
 10
46.5
 20
-4.999999999999998
 30
0.0
 11
49.8
 21
-4.999999999999996
 31
0.0
  0
ARC
  5
16C
330
130
100
AcDbEntity
  8
AM_4
100
AcDbCircle
 10
46.5
 20
0.0000000000000031
 30
0.0
 40
5.0
100
AcDbArc
 50
90.0
 51
270.0
  0
LINE
  5
16D
330
130
100
AcDbEntity
  8
AM_4
100
AcDbLine
 10
59.57222222222223
 20
-18.8
 30
0.0
 11
31.46
 21
-18.8
 31
0.0
  0
LINE
  5
16E
330
130
100
AcDbEntity
  8
AM_4
100
AcDbLine
 10
59.57222222222222
 20
18.8
 30
0.0
 11
31.46000000000002
 21
18.8
 31
0.0
  0
LINE
  5
16F
330
130
100
AcDbEntity
  8
AM_4
100
AcDbLine
 10
63.75
 20
-14.62222222222223
 30
0.0
 11
63.75
 21
14.62222222222222
 31
0.0
  0
LINE
  5
170
330
130
100
AcDbEntity
  8
AM_4
100
AcDbLine
 10
62.24999999999998
 20
-16.12222222222224
 30
0.0
 11
62.24999999999999
 21
16.12222222222223
 31
0.0
  0
LWPOLYLINE
  5
171
330
130
100
AcDbEntity
  8
AM_4
100
AcDbPolyline
 90
       32
 70
     0
 43
0.0
 10
-42.77999999999999
 20
-14.57268678041219
 10
-41.5240623829229
 20
-14.193013944577
 10
-40.30599465566504
 20
-13.70532370264745
 10
-39.13506704912025
 20
-13.11332767184005
 10
-38.02019102939976
 20
-12.4215312994062
 10
-36.96985147619419
 20
-11.63519957345821
 10
-35.9920421077158
 20
-10.76031695323062
 10
-35.09420464367613
 20
-9.80354182373192
 10
-34.28317216930562
 20
-8.772155821414223
 10
-33.56511713144904
 20
-7.67400841652306
 10
-32.94550436251793
 20
-6.517457173889187
 10
-32.4290494898163
 20
-5.311304146813779
 10
-32.01968304676939
 20
-4.06472888812799
 10
-31.72052055919099
 20
-2.78721858825314
 10
-31.53383883425083
 20
-1.488495871953087
 10
-31.4610586325972
 20
-0.1784448032890888
 10
-31.50273385551058
 20
1.132964338075857
 10
-31.65854732938042
 20
2.435750936725474
 10
-31.92731321958781
 20
3.719999999999983
 10
-32.306986055423
 20
4.975937617077079
 10
-32.79467629735254
 20
6.194005344334938
 10
-33.38667232815995
 20
7.364932950879725
 10
-34.07846870059379
 20
8.479808970600216
 10
-34.86480042654178
 20
9.530148523805787
 10
-35.73968304676936
 20
10.50795789228419
 10
-36.69645817626807
 20
11.40579535632386
 10
-37.72784417858576
 20
12.21682783069436
 10
-38.82599158347692
 20
12.93488286855096
 10
-39.98254282611079
 20
13.55449563748206
 10
-41.1886958531862
 20
14.07095051018369
 10
-42.43527111187199
 20
14.48031695323061
 10
-42.77999999999999
 20
14.57268678041218
  0
LINE
  5
172
330
130
100
AcDbEntity
  8
AM_4
100
AcDbLine
 10
-42.78000000000001
 20
-18.8
 30
0.0
 11
-42.78
 21
-14.57268678041219
 31
0.0
  0
LINE
  5
173
330
130
100
AcDbEntity
  8
AM_4
100
AcDbLine
 10
-42.78
 20
14.57268678041218
 30
0.0
 11
-42.77999999999999
 21
18.8
 31
0.0
  0
LWPOLYLINE
  5
174
330
130
100
AcDbEntity
  8
AM_4
100
AcDbPolyline
 90
       32
 70
     0
 43
0.0
 10
42.78
 20
14.57268678041219
 10
41.5240623829229
 20
14.19301394457701
 10
40.30599465566505
 20
13.70532370264746
 10
39.13506704912026
 20
13.11332767184005
 10
38.02019102939977
 20
12.42153129940621
 10
36.9698514761942
 20
11.63519957345822
 10
35.9920421077158
 20
10.76031695323062
 10
35.09420464367614
 20
9.803541823731928
 10
34.28317216930562
 20
8.772155821414234
 10
33.56511713144904
 20
7.674008416523072
 10
32.94550436251793
 20
6.517457173889199
 10
32.42904948981631
 20
5.311304146813789
 10
32.01968304676939
 20
4.064728888128002
 10
31.72052055919099
 20
2.787218588253153
 10
31.53383883425083
 20
1.488495871953099
 10
31.4610586325972
 20
0.1784448032891014
 10
31.50273385551058
 20
-1.132964338075844
 10
31.65854732938042
 20
-2.435750936725461
 10
31.92731321958781
 20
-3.719999999999971
 10
32.306986055423
 20
-4.975937617077066
 10
32.79467629735254
 20
-6.194005344334927
 10
33.38667232815995
 20
-7.364932950879714
 10
34.07846870059379
 20
-8.479808970600205
 10
34.86480042654177
 20
-9.530148523805776
 10
35.73968304676936
 20
-10.50795789228417
 10
36.69645817626806
 20
-11.40579535632384
 10
37.72784417858576
 20
-12.21682783069435
 10
38.82599158347691
 20
-12.93488286855095
 10
39.98254282611079
 20
-13.55449563748205
 10
41.18869585318619
 20
-14.07095051018368
 10
42.43527111187198
 20
-14.4803169532306
 10
42.77999999999999
 20
-14.57268678041218
  0
LINE
  5
175
330
130
100
AcDbEntity
  8
AM_4
100
AcDbLine
 10
42.78
 20
14.57268678041219
 30
0.0
 11
42.78
 21
18.8
 31
0.0
  0
LINE
  5
176
330
130
100
AcDbEntity
  8
AM_4
100
AcDbLine
 10
42.78
 20
-18.8
 30
0.0
 11
42.78
 21
-14.57268678041218
 31
0.0
  0
LINE
  5
177
330
130
100
AcDbEntity
  8
AM_4
100
AcDbLine
 10
-21.69999999999999
 20
-16.71111111111111
 30
0.0
 11
-24.90909090909091
 21
-16.71111111111111
 31
0.0
  0
LINE
  5
178
330
130
100
AcDbEntity
  8
AM_4
100
AcDbLine
 10
24.90909090909091
 20
-16.71111111111111
 30
0.0
 11
21.69999999999999
 21
-16.71111111111111
 31
0.0
  0
LWPOLYLINE
  5
179
330
130
100
AcDbEntity
  8
AM_4
100
AcDbPolyline
 90
       37
 70
     0
 43
0.0
 10
-23.5
 20
16.00434419381788
 10
-23.41057540515602
 20
15.6826615944368
 10
-23.14298219578689
 20
15.36342719387428
 10
-22.69925691779311
 20
15.04907055867759
 10
-22.08277658846885
 20
14.74198413265431
 10
-21.29823299536128
 20
14.44450502893032
 10
-20.35159698893431
 20
14.15889724310778
 10
-19.25007304079132
 20
13.88733442289147
 10
-18.002044413296
 20
13.63188332531736
 10
-16.61700935788388
 20
13.39448808748358
 10
-15.10550882763369
 20
13.17695543049321
 10
-13.4790462542496
 20
12.98094090921574
 10
-11.75000000000003
 20
12.80793631251492
 10
-9.931529150906467
 20
12.65925830983466
 10
-8.037473368153249
 20
12.5360384305496
 10
-6.082247559909274
 20
12.43921445234328
 10
-4.080732175172902
 20
12.36952326415378
 10
-2.048159954570009
 20
12.32749525800391
 10
-0.0000000000000446
 20
12.31345029239767
 10
2.048159954569921
 20
12.32749525800391
 10
4.080732175172815
 20
12.36952326415378
 10
6.082247559909187
 20
12.43921445234327
 10
8.037473368153163
 20
12.53603843054959
 10
9.931529150906385
 20
12.65925830983466
 10
11.74999999999995
 20
12.80793631251491
 10
13.47904625424953
 20
12.98094090921573
 10
15.10550882763362
 20
13.17695543049319
 10
16.61700935788382
 20
13.39448808748357
 10
18.00204441329594
 20
13.63188332531735
 10
19.25007304079126
 20
13.88733442289146
 10
20.35159698893427
 20
14.15889724310776
 10
21.29823299536124
 20
14.44450502893031
 10
22.08277658846882
 20
14.74198413265429
 10
22.69925691779309
 20
15.04907055867757
 10
23.14298219578687
 20
15.36342719387426
 10
23.41057540515601
 20
15.68266159443679
 10
23.5
 20
16.00434419381787
  0
LWPOLYLINE
  5
17A
330
130
100
AcDbEntity
  8
AM_4
100
AcDbPolyline
 90
        4
 70
     0
 43
0.0
 10
23.5
 20
16.00434419381788
 10
23.41057540515602
 20
16.32602679319896
 10
23.14298219578689
 20
16.64526119376149
 10
23.06512518934158
 20
16.71111111111112
  0
LWPOLYLINE
  5
17B
330
130
100
AcDbEntity
  8
AM_4
100
AcDbPolyline
 90
       37
 70
     0
 43
0.0
 10
23.5
 20
-16.00434419381788
 10
23.41057540515602
 20
-15.6826615944368
 10
23.14298219578689
 20
-15.36342719387427
 10
22.69925691779311
 20
-15.04907055867758
 10
22.08277658846885
 20
-14.7419841326543
 10
21.29823299536128
 20
-14.44450502893032
 10
20.35159698893431
 20
-14.15889724310777
 10
19.25007304079132
 20
-13.88733442289146
 10
18.002044413296
 20
-13.63188332531735
 10
16.61700935788389
 20
-13.39448808748357
 10
15.1055088276337
 20
-13.1769554304932
 10
13.47904625424961
 20
-12.98094090921573
 10
11.75000000000003
 20
-12.80793631251491
 10
9.931529150906469
 20
-12.65925830983465
 10
8.03747336815325
 20
-12.53603843054959
 10
6.082247559909277
 20
-12.43921445234327
 10
4.080732175172905
 20
-12.36952326415377
 10
2.048159954570012
 20
-12.3274952580039
 10
0.0000000000000475
 20
-12.31345029239766
 10
-2.048159954569917
 20
-12.32749525800389
 10
-4.080732175172813
 20
-12.36952326415377
 10
-6.082247559909185
 20
-12.43921445234327
 10
-8.03747336815316
 20
-12.53603843054958
 10
-9.931529150906382
 20
-12.65925830983465
 10
-11.74999999999995
 20
-12.8079363125149
 10
-13.47904625424953
 20
-12.98094090921573
 10
-15.10550882763362
 20
-13.17695543049319
 10
-16.61700935788382
 20
-13.39448808748356
 10
-18.00204441329594
 20
-13.63188332531734
 10
-19.25007304079126
 20
-13.88733442289145
 10
-20.35159698893427
 20
-14.15889724310776
 10
-21.29823299536124
 20
-14.4445050289303
 10
-22.08277658846882
 20
-14.74198413265428
 10
-22.69925691779308
 20
-15.04907055867756
 10
-23.14298219578687
 20
-15.36342719387425
 10
-23.41057540515601
 20
-15.68266159443678
 10
-23.5
 20
-16.00434419381786
  0
LWPOLYLINE
  5
17C
330
130
100
AcDbEntity
  8
AM_4
100
AcDbPolyline
 90
        4
 70
     0
 43
0.0
 10
-23.5
 20
-16.00434419381788
 10
-23.41057540515602
 20
-16.32602679319896
 10
-23.14298219578689
 20
-16.64526119376148
 10
-23.06512518934159
 20
-16.71111111111111
  0
LINE
  5
17D
330
130
100
AcDbEntity
  8
AM_4
100
AcDbLine
 10
-42.77999999999999
 20
18.8
 30
0.0
 11
-30.36400000000001
 21
13.1559164578112
 31
0.0
  0
LINE
  5
17E
330
130
100
AcDbEntity
  8
AM_4
100
AcDbLine
 10
30.36400000000001
 20
13.15591645781119
 30
0.0
 11
42.78
 21
18.8
 31
0.0
  0
LINE
  5
17F
330
130
100
AcDbEntity
  8
AM_4
100
AcDbLine
 10
31.46000000000002
 20
18.8
 30
0.0
 11
24.9090909090909
 21
16.71111111111112
 31
0.0
  0
LINE
  5
180
330
130
100
AcDbEntity
  8
AM_4
100
AcDbLine
 10
24.9090909090909
 20
16.71111111111112
 30
0.0
 11
-24.90909090909091
 21
16.71111111111112
 31
0.0
  0
LWPOLYLINE
  5
181
330
130
100
AcDbEntity
  8
AM_4
100
AcDbPolyline
 90
        4
 70
     0
 43
0.0
 10
-23.06512518934158
 20
16.71111111111112
 10
-23.36955626680892
 20
16.39269188680536
 10
-23.49613091016196
 20
16.0713171020652
 10
-23.5
 20
16.00434419381788
  0
LINE
  5
182
330
130
100
AcDbEntity
  8
AM_4
100
AcDbLine
 10
-24.90909090909091
 20
16.71111111111112
 30
0.0
 11
-31.45999999999999
 21
18.8
 31
0.0
  0
LINE
  5
183
330
130
100
AcDbEntity
  8
AM_4
100
AcDbLine
 10
-30.364
 20
-13.15591645781119
 30
0.0
 11
-42.78000000000001
 21
-18.8
 31
0.0
  0
LINE
  5
184
330
130
100
AcDbEntity
  8
AM_4
100
AcDbLine
 10
-31.46000000000003
 20
-18.8
 30
0.0
 11
-24.90909090909091
 21
-16.71111111111111
 31
0.0
  0
LWPOLYLINE
  5
185
330
130
100
AcDbEntity
  8
AM_4
100
AcDbPolyline
 90
        4
 70
     0
 43
0.0
 10
23.06512518934159
 20
-16.71111111111111
 10
23.36955626680892
 20
-16.39269188680534
 10
23.49613091016196
 20
-16.07131710206519
 10
23.5
 20
-16.00434419381788
  0
LINE
  5
186
330
130
100
AcDbEntity
  8
AM_4
100
AcDbLine
 10
24.90909090909091
 20
-16.71111111111111
 30
0.0
 11
31.46
 21
-18.8
 31
0.0
  0
LINE
  5
187
330
130
100
AcDbEntity
  8
AM_4
100
AcDbLine
 10
42.78
 20
-18.8
 30
0.0
 11
30.364
 21
-13.15591645781119
 31
0.0
  0
LINE
  5
188
330
130
100
AcDbEntity
  8
AM_4
100
AcDbLine
 10
30.364
 20
-13.15591645781119
 30
0.0
 11
15.00000000000003
 21
-10.74285714285714
 31
0.0
  0
LINE
  5
189
330
130
100
AcDbEntity
  8
AM_4
100
AcDbLine
 10
30.36400000000001
 20
-1.390019828722884
 30
0.0
 11
30.36400000000001
 21
13.15591645781119
 31
0.0
  0
LINE
  5
18A
330
130
100
AcDbEntity
  8
AM_4
100
AcDbLine
 10
30.364
 20
-13.15591645781119
 30
0.0
 11
30.364
 21
-6.609980171277108
 31
0.0
  0
LINE
  5
18B
330
130
100
AcDbEntity
  8
AM_4
100
AcDbLine
 10
15.00000000000005
 20
10.74285714285715
 30
0.0
 11
30.36400000000001
 21
13.15591645781119
 31
0.0
  0
LINE
  5
18C
330
130
100
AcDbEntity
  8
AM_4
100
AcDbLine
 10
15.00000000000003
 20
-10.74285714285714
 30
0.0
 11
-14.99999999999999
 21
-10.74285714285714
 31
0.0
  0
LINE
  5
18D
330
130
100
AcDbEntity
  8
AM_4
100
AcDbLine
 10
15.00000000000003
 20
-10.74285714285714
 30
0.0
 11
15.00000000000005
 21
10.74285714285715
 31
0.0
  0
LINE
  5
18E
330
130
100
AcDbEntity
  8
AM_4
100
AcDbLine
 10
15.00000000000005
 20
10.74285714285715
 30
0.0
 11
-14.99999999999999
 21
10.74285714285715
 31
0.0
  0
LINE
  5
18F
330
130
100
AcDbEntity
  8
AM_4
100
AcDbLine
 10
-14.99999999999999
 20
-10.74285714285714
 30
0.0
 11
-30.364
 21
-13.15591645781119
 31
0.0
  0
LINE
  5
190
330
130
100
AcDbEntity
  8
AM_4
100
AcDbLine
 10
-14.99999999999999
 20
-10.74285714285714
 30
0.0
 11
-14.99999999999999
 21
10.74285714285715
 31
0.0
  0
LINE
  5
191
330
130
100
AcDbEntity
  8
AM_4
100
AcDbLine
 10
-30.36400000000001
 20
13.1559164578112
 30
0.0
 11
-14.99999999999999
 21
10.74285714285715
 31
0.0
  0
LINE
  5
192
330
130
100
AcDbEntity
  8
AM_4
100
AcDbLine
 10
-30.364
 20
-13.15591645781119
 30
0.0
 11
-30.36400000000001
 21
13.1559164578112
 31
0.0
  0
ENDBLK
  5
133
330
130
100
AcDbEntity
  8
0
100
AcDbBlockEnd
  0
ENDSEC
  0
SECTION
  2
ENTITIES
  0
INSERT
  5
6F
330
1F
100
AcDbEntity
  8
0
100
AcDbBlockReference
  2
1_127623_4
 10
0.0
 20
0.0
 30
0.0
  0
POINT
  5
194
330
1F
100
AcDbEntity
  8
ConnectionPoints
100
AcDbPoint
 10
24.04163056034261
 20
-3.999999999999996
 30
57.34163056034261
  0
POINT
  5
195
330
1F
100
AcDbEntity
  8
ConnectionPoints
100
AcDbPoint
 10
0.0
 20
0.000000000000002
 30
33.3
  0
POINT
  5
196
330
1F
100
AcDbEntity
  8
ConnectionPoints
100
AcDbPoint
 10
0.0
 20
-19.8
 30
33.3
  0
POINT
  5
197
330
1F
100
AcDbEntity
  8
ConnectionPoints
100
AcDbPoint
 10
24.04163056034261
 20
-3.999999999999996
 30
57.34163056034261
  0
ENDSEC
  0
SECTION
  2
OBJECTS
  0
DICTIONARY
  5
C
330
0
100
AcDbDictionary
281
     1
  3
ACAD_DETAILVIEWSTYLE
350
19F
  3
ACAD_GROUP
350
D
  3
ACAD_LAYOUT
350
1A
  3
ACAD_MATERIAL
350
43
  3
ACAD_MLEADERSTYLE
350
6B
  3
ACAD_MLINESTYLE
350
17
  3
ACAD_PLOTSETTINGS
350
19
  3
ACAD_PLOTSTYLENAME
350
E
  3
ACAD_SCALELIST
350
47
  3
ACAD_SECTIONVIEWSTYLE
350
1A0
  3
ACAD_TABLESTYLE
350
69
  3
ACAD_VISUALSTYLE
350
2A
  3
ACDB_RECOMPOSE_DATA
350
19C
  3
AcDbVariableDictionary
350
198
  0
SUN
  5
6D
330
29
100
AcDbSun
 90
        1
290
     0
 63
     7
421
 16777215
 40
1.0
291
     1
 91
  2455826
 92
 54000000
292
     0
 70
     2
 71
   256
280
     1
  0
DICTIONARY
  5
19F
102
{ACAD_REACTORS
330
C
102
}
330
C
100
AcDbDictionary
281
     1
  0
DICTIONARY
  5
D
102
{ACAD_REACTORS
330
C
102
}
330
C
100
AcDbDictionary
281
     1
  0
DICTIONARY
  5
1A
102
{ACAD_REACTORS
330
C
102
}
330
C
100
AcDbDictionary
281
     1
  3
Layout1
350
1E
  3
Layout2
350
26
  3
Model
350
22
  0
DICTIONARY
  5
43
102
{ACAD_REACTORS
330
C
102
}
330
C
100
AcDbDictionary
281
     1
  3
ByBlock
350
45
  3
ByLayer
350
44
  3
Global
350
46
  0
DICTIONARY
  5
6B
102
{ACAD_REACTORS
330
C
102
}
330
C
100
AcDbDictionary
281
     1
  3
Standard
350
6C
  0
DICTIONARY
  5
17
102
{ACAD_REACTORS
330
C
102
}
330
C
100
AcDbDictionary
281
     1
  3
Standard
350
18
  0
DICTIONARY
  5
19
102
{ACAD_REACTORS
330
C
102
}
330
C
100
AcDbDictionary
281
     1
  0
ACDBDICTIONARYWDFLT
  5
E
102
{ACAD_REACTORS
330
C
102
}
330
C
100
AcDbDictionary
281
     1
  3
Normal
350
F
100
AcDbDictionaryWithDefault
340
F
  0
DICTIONARY
  5
47
102
{ACAD_REACTORS
330
C
102
}
330
C
100
AcDbDictionary
281
     1
  3
A0
350
48
  3
A1
350
49
  3
A2
350
4A
  3
A3
350
4B
  3
A4
350
4C
  3
A5
350
4D
  3
A6
350
4E
  3
A7
350
4F
  3
A8
350
50
  3
A9
350
51
  3
B0
350
52
  3
B1
350
53
  3
B2
350
54
  3
B3
350
55
  3
B4
350
56
  3
B5
350
57
  3
B6
350
58
  3
B7
350
59
  3
B8
350
5A
  3
B9
350
5B
  3
C0
350
5C
  3
C1
350
5D
  3
C2
350
5E
  3
C3
350
5F
  3
C4
350
60
  3
C5
350
61
  3
C6
350
62
  3
C7
350
63
  3
C8
350
64
  3
C9
350
65
  3
D0
350
66
  3
D1
350
67
  3
D2
350
68
  0
DICTIONARY
  5
1A0
102
{ACAD_REACTORS
330
C
102
}
330
C
100
AcDbDictionary
281
     1
  0
DICTIONARY
  5
69
102
{ACAD_REACTORS
330
C
102
}
330
C
100
AcDbDictionary
281
     1
  3
Standard
350
6A
  0
DICTIONARY
  5
2A
102
{ACAD_REACTORS
330
C
102
}
330
C
100
AcDbDictionary
281
     1
  3
2dWireframe
350
2F
  3
Basic
350
32
  3
Brighten
350
36
  3
ColorChange
350
3A
  3
Conceptual
350
34
  3
Dim
350
35
  3
EdgeColorOff
350
3D
  3
Facepattern
350
39
  3
Flat
350
2B
  3
FlatWithEdges
350
2C
  3
Gouraud
350
2D
  3
GouraudWithEdges
350
2E
  3
Hidden
350
31
  3
JitterOff
350
3B
  3
Linepattern
350
38
  3
OverhangOff
350
3C
  3
Realistic
350
33
  3
Shaded
350
42
  3
Shaded with edges
350
41
  3
Shades of Gray
350
3E
  3
Sketchy
350
3F
  3
Thicken
350
37
  3
Wireframe
350
30
  3
X-Ray
350
40
  0
XRECORD
  5
19C
102
{ACAD_REACTORS
330
C
102
}
330
C
100
AcDbXrecord
280
     1
 90
        1
330
6A
  0
DICTIONARY
  5
198
102
{ACAD_REACTORS
330
C
102
}
330
C
100
AcDbDictionary
281
     1
  3
CANNOSCALE
350
199
  3
CMLEADERSTYLE
350
19E
  3
CTABLESTYLE
350
19D
  0
LAYOUT
  5
1E
102
{ACAD_REACTORS
330
1A
102
}
330
1A
100
AcDbPlotSettings
  1

  2
none_device
  4

  6

 40
0.0
 41
0.0
 42
0.0
 43
0.0
 44
0.0
 45
0.0
 46
0.0
 47
0.0
 48
0.0
 49
0.0
140
0.0
141
0.0
142
1.0
143
1.0
 70
   688
 72
     1
 73
     0
 74
     5
  7

 75
    16
 76
     0
 77
     2
 78
   300
147
1.0
148
0.0
149
0.0
100
AcDbLayout
  1
Layout1
 70
     1
 71
     1
 10
0.0
 20
0.0
 11
420.0
 21
297.0
 12
0.0
 22
0.0
 32
0.0
 14
1.000000000000000E+20
 24
1.000000000000000E+20
 34
1.000000000000000E+20
 15
-1.000000000000000E+20
 25
-1.000000000000000E+20
 35
-1.000000000000000E+20
146
0.0
 13
0.0
 23
0.0
 33
0.0
 16
1.0
 26
0.0
 36
0.0
 17
0.0
 27
1.0
 37
0.0
 76
     0
330
1B
  0
LAYOUT
  5
26
102
{ACAD_REACTORS
330
1A
102
}
330
1A
100
AcDbPlotSettings
  1

  2
none_device
  4

  6

 40
0.0
 41
0.0
 42
0.0
 43
0.0
 44
0.0
 45
0.0
 46
0.0
 47
0.0
 48
0.0
 49
0.0
140
0.0
141
0.0
142
1.0
143
1.0
 70
   688
 72
     1
 73
     0
 74
     5
  7

 75
    16
 76
     0
 77
     2
 78
   300
147
1.0
148
0.0
149
0.0
100
AcDbLayout
  1
Layout2
 70
     1
 71
     2
 10
0.0
 20
0.0
 11
0.0
 21
0.0
 12
0.0
 22
0.0
 32
0.0
 14
0.0
 24
0.0
 34
0.0
 15
0.0
 25
0.0
 35
0.0
146
0.0
 13
0.0
 23
0.0
 33
0.0
 16
1.0
 26
0.0
 36
0.0
 17
0.0
 27
1.0
 37
0.0
 76
     0
330
23
  0
LAYOUT
  5
22
102
{ACAD_REACTORS
330
1A
102
}
330
1A
100
AcDbPlotSettings
  1

  2
none_device
  4
Letter_(8.50_x_11.00_Inches)
  6

 40
6.35
 41
6.35
 42
6.35000508
 43
6.35000508
 44
215.9
 45
279.4
 46
0.0
 47
0.0
 48
0.0
 49
0.0
140
0.0
141
0.0
142
1.0
143
1.0
 70
  1712
 72
     1
 73
     0
 74
     0
  7

 75
     0
 76
     0
 77
     2
 78
   300
147
1.0
148
0.0
149
0.0
100
AcDbLayout
  1
Model
 70
     1
 71
     0
 10
0.0
 20
0.0
 11
420.0
 21
297.0
 12
0.0
 22
0.0
 32
0.0
 14
1.000000000000000E+20
 24
1.000000000000000E+20
 34
1.000000000000000E+20
 15
-1.000000000000000E+20
 25
-1.000000000000000E+20
 35
-1.000000000000000E+20
146
0.0
 13
0.0
 23
0.0
 33
0.0
 16
1.0
 26
0.0
 36
0.0
 17
0.0
 27
1.0
 37
0.0
 76
     0
330
1F
331
29
  0
MATERIAL
  5
45
102
{ACAD_REACTORS
330
43
102
}
330
43
100
AcDbMaterial
  1
ByBlock
 72
     1
 94
      127
  0
MATERIAL
  5
44
102
{ACAD_REACTORS
330
43
102
}
330
43
100
AcDbMaterial
  1
ByLayer
 72
     1
 94
      127
  0
MATERIAL
  5
46
102
{ACAD_REACTORS
330
43
102
}
330
43
100
AcDbMaterial
  1
Global
 72
     1
 94
      127
  0
MLEADERSTYLE
  5
6C
102
{ACAD_REACTORS
330
6B
102
}
330
6B
100
AcDbMLeaderStyle
179
     2
170
     2
171
     1
172
     0
 90
        2
 40
0.0
 41
0.0
173
     1
 91
-1056964608
340
14
 92
       -2
290
     1
 42
2.0
291
     1
 43
8.0
  3
Standard
341
0
 44
4.0
300

342
11
174
     1
178
     6
175
     1
176
     0
 93
-1056964608
 45
4.0
292
     0
297
     0
 46
4.0
343
0
 94
-1056964608
 47
1.0
 49
1.0
140
1.0
293
     1
141
0.0
294
     1
177
     0
142
1.0
295
     0
296
     0
143
3.75
271
     0
272
     9
273
     9
298
     0
  0
MLINESTYLE
  5
18
102
{ACAD_REACTORS
330
17
102
}
330
17
100
AcDbMlineStyle
  2
Standard
 70
     0
  3

 62
   256
 51
90.0
 52
90.0
 71
     2
 49
0.5
 62
   256
  6
BYLAYER
 49
-0.5
 62
   256
  6
BYLAYER
  0
ACDBPLACEHOLDER
  5
F
102
{ACAD_REACTORS
330
E
102
}
330
E
  0
SCALE
  5
48
102
{ACAD_REACTORS
330
47
102
}
330
47
100
AcDbScale
 70
     0
300
1:1
140
1.0
141
1.0
290
     1
  0
SCALE
  5
49
102
{ACAD_REACTORS
330
47
102
}
330
47
100
AcDbScale
 70
     0
300
1:2
140
1.0
141
2.0
290
     0
  0
SCALE
  5
4A
102
{ACAD_REACTORS
330
47
102
}
330
47
100
AcDbScale
 70
     0
300
1:4
140
1.0
141
4.0
290
     0
  0
SCALE
  5
4B
102
{ACAD_REACTORS
330
47
102
}
330
47
100
AcDbScale
 70
     0
300
1:5
140
1.0
141
5.0
290
     0
  0
SCALE
  5
4C
102
{ACAD_REACTORS
330
47
102
}
330
47
100
AcDbScale
 70
     0
300
1:8
140
1.0
141
8.0
290
     0
  0
SCALE
  5
4D
102
{ACAD_REACTORS
330
47
102
}
330
47
100
AcDbScale
 70
     0
300
1:10
140
1.0
141
10.0
290
     0
  0
SCALE
  5
4E
102
{ACAD_REACTORS
330
47
102
}
330
47
100
AcDbScale
 70
     0
300
1:16
140
1.0
141
16.0
290
     0
  0
SCALE
  5
4F
102
{ACAD_REACTORS
330
47
102
}
330
47
100
AcDbScale
 70
     0
300
1:20
140
1.0
141
20.0
290
     0
  0
SCALE
  5
50
102
{ACAD_REACTORS
330
47
102
}
330
47
100
AcDbScale
 70
     0
300
1:30
140
1.0
141
30.0
290
     0
  0
SCALE
  5
51
102
{ACAD_REACTORS
330
47
102
}
330
47
100
AcDbScale
 70
     0
300
1:40
140
1.0
141
40.0
290
     0
  0
SCALE
  5
52
102
{ACAD_REACTORS
330
47
102
}
330
47
100
AcDbScale
 70
     0
300
1:50
140
1.0
141
50.0
290
     0
  0
SCALE
  5
53
102
{ACAD_REACTORS
330
47
102
}
330
47
100
AcDbScale
 70
     0
300
1:100
140
1.0
141
100.0
290
     0
  0
SCALE
  5
54
102
{ACAD_REACTORS
330
47
102
}
330
47
100
AcDbScale
 70
     0
300
2:1
140
2.0
141
1.0
290
     0
  0
SCALE
  5
55
102
{ACAD_REACTORS
330
47
102
}
330
47
100
AcDbScale
 70
     0
300
4:1
140
4.0
141
1.0
290
     0
  0
SCALE
  5
56
102
{ACAD_REACTORS
330
47
102
}
330
47
100
AcDbScale
 70
     0
300
8:1
140
8.0
141
1.0
290
     0
  0
SCALE
  5
57
102
{ACAD_REACTORS
330
47
102
}
330
47
100
AcDbScale
 70
     0
300
10:1
140
10.0
141
1.0
290
     0
  0
SCALE
  5
58
102
{ACAD_REACTORS
330
47
102
}
330
47
100
AcDbScale
 70
     0
300
100:1
140
100.0
141
1.0
290
     0
  0
SCALE
  5
59
102
{ACAD_REACTORS
330
47
102
}
330
47
100
AcDbScale
 70
     0
300
1/128" = 1'-0"
140
0.0078125
141
12.0
290
     0
  0
SCALE
  5
5A
102
{ACAD_REACTORS
330
47
102
}
330
47
100
AcDbScale
 70
     0
300
1/64" = 1'-0"
140
0.015625
141
12.0
290
     0
  0
SCALE
  5
5B
102
{ACAD_REACTORS
330
47
102
}
330
47
100
AcDbScale
 70
     0
300
1/32" = 1'-0"
140
0.03125
141
12.0
290
     0
  0
SCALE
  5
5C
102
{ACAD_REACTORS
330
47
102
}
330
47
100
AcDbScale
 70
     0
300
1/16" = 1'-0"
140
0.0625
141
12.0
290
     0
  0
SCALE
  5
5D
102
{ACAD_REACTORS
330
47
102
}
330
47
100
AcDbScale
 70
     0
300
3/32" = 1'-0"
140
0.09375
141
12.0
290
     0
  0
SCALE
  5
5E
102
{ACAD_REACTORS
330
47
102
}
330
47
100
AcDbScale
 70
     0
300
1/8" = 1'-0"
140
0.125
141
12.0
290
     0
  0
SCALE
  5
5F
102
{ACAD_REACTORS
330
47
102
}
330
47
100
AcDbScale
 70
     0
300
3/16" = 1'-0"
140
0.1875
141
12.0
290
     0
  0
SCALE
  5
60
102
{ACAD_REACTORS
330
47
102
}
330
47
100
AcDbScale
 70
     0
300
1/4" = 1'-0"
140
0.25
141
12.0
290
     0
  0
SCALE
  5
61
102
{ACAD_REACTORS
330
47
102
}
330
47
100
AcDbScale
 70
     0
300
3/8" = 1'-0"
140
0.375
141
12.0
290
     0
  0
SCALE
  5
62
102
{ACAD_REACTORS
330
47
102
}
330
47
100
AcDbScale
 70
     0
300
1/2" = 1'-0"
140
0.5
141
12.0
290
     0
  0
SCALE
  5
63
102
{ACAD_REACTORS
330
47
102
}
330
47
100
AcDbScale
 70
     0
300
3/4" = 1'-0"
140
0.75
141
12.0
290
     0
  0
SCALE
  5
64
102
{ACAD_REACTORS
330
47
102
}
330
47
100
AcDbScale
 70
     0
300
1" = 1'-0"
140
1.0
141
12.0
290
     0
  0
SCALE
  5
65
102
{ACAD_REACTORS
330
47
102
}
330
47
100
AcDbScale
 70
     0
300
1-1/2" = 1'-0"
140
1.5
141
12.0
290
     0
  0
SCALE
  5
66
102
{ACAD_REACTORS
330
47
102
}
330
47
100
AcDbScale
 70
     0
300
3" = 1'-0"
140
3.0
141
12.0
290
     0
  0
SCALE
  5
67
102
{ACAD_REACTORS
330
47
102
}
330
47
100
AcDbScale
 70
     0
300
6" = 1'-0"
140
6.0
141
12.0
290
     0
  0
SCALE
  5
68
102
{ACAD_REACTORS
330
47
102
}
330
47
100
AcDbScale
 70
     0
300
1'-0" = 1'-0"
140
12.0
141
12.0
290
     0
  0
TABLESTYLE
  5
6A
102
{ACAD_REACTORS
330
69
102
}
102
{ACAD_XDICTIONARY
360
19A
102
}
330
69
100
AcDbTableStyle
  3
Standard
 70
     0
 71
     0
 40
0.06
 41
0.06
280
     0
281
     0
  7
Standard
140
4.5
170
     2
 62
     0
 63
   257
283
     0
 90
        4
 91
        0
  1

274
    -2
284
     1
 64
     0
275
    -2
285
     1
 65
     0
276
    -2
286
     1
 66
     0
277
    -2
287
     1
 67
     0
278
    -2
288
     1
 68
     0
279
    -2
289
     1
 69
     0
  7
Standard
140
6.0
170
     5
 62
     0
 63
   257
283
     0
 90
        4
 91
        0
  1

274
    -2
284
     1
 64
     0
275
    -2
285
     1
 65
     0
276
    -2
286
     1
 66
     0
277
    -2
287
     1
 67
     0
278
    -2
288
     1
 68
     0
279
    -2
289
     1
 69
     0
  7
Standard
140
4.5
170
     5
 62
     0
 63
   257
283
     0
 90
        4
 91
        0
  1

274
    -2
284
     1
 64
     0
275
    -2
285
     1
 65
     0
276
    -2
286
     1
 66
     0
277
    -2
287
     1
 67
     0
278
    -2
288
     1
 68
     0
279
    -2
289
     1
 69
     0
  0
VISUALSTYLE
  5
2F
102
{ACAD_REACTORS
330
2A
102
}
330
2A
100
AcDbVisualStyle
  2
2dWireframe
 70
     4
177
     3
291
     0
 70
    58
 90
        0
176
     1
 90
        2
176
     1
 90
        0
176
     1
 90
        0
176
     1
 40
0.6
176
     1
 40
30.0
176
     1
 62
     7
420
 16777215
176
     1
 90
        1
176
     1
 90
        4
176
     1
 62
     7
176
     1
 62
   257
176
     1
 90
        1
176
     1
 90
        1
176
     1
 40
1.0
176
     1
 90
        0
176
     1
 62
   257
176
     1
 40
1.0
176
     1
 90
        1
176
     1
 90
        6
176
     1
 90
        2
176
     1
 62
     7
176
     1
 90
        5
176
     1
 90
        0
176
     1
 90
        0
176
     1
290
     0
176
     1
 90
        1
176
     1
 40
0.0
176
     1
 90
        0
176
     1
290
     1
176
     1
290
     1
176
     1
290
     0
176
     1
290
     0
176
     1
290
     0
176
     1
290
     0
176
     1
290
     0
176
     1
290
     0
176
     1
290
     0
176
     1
 90
       50
176
     1
 40
0.0
176
     1
 40
1.0
176
     1
 90
        0
176
     1
 62
    18
420
        0
176
     1
 90
       50
176
     1
 90
        3
176
     1
 62
     5
420
      255
176
     1
290
     0
176
     1
 90
       50
176
     1
 90
       50
176
     1
 90
       50
176
     1
290
     0
176
     1
 90
       50
176
     1
 62
   256
176
     0
 40
1.0
176
     0
 90
        2
176
     1
  1
strokes_ogs.tif
176
     1
290
     0
176
     1
 40
1.0
176
     1
 40
1.0
176
     1
  0
VISUALSTYLE
  5
32
102
{ACAD_REACTORS
330
2A
102
}
330
2A
100
AcDbVisualStyle
  2
Basic
 70
     7
177
     3
291
     1
 70
    58
 90
        1
176
     1
 90
        0
176
     1
 90
        1
176
     1
 90
        0
176
     1
 40
0.6
176
     1
 40
30.0
176
     1
 62
     7
420
 16777215
176
     1
 90
        0
176
     1
 90
        4
176
     1
 62
     7
176
     1
 62
   257
176
     1
 90
        1
176
     1
 90
        1
176
     1
 40
1.0
176
     1
 90
        8
176
     1
 62
     7
176
     1
 40
1.0
176
     1
 90
        1
176
     1
 90
        6
176
     1
 90
        2
176
     1
 62
     7
176
     1
 90
        5
176
     1
 90
        0
176
     1
 90
        0
176
     1
290
     0
176
     1
 90
        1
176
     1
 40
0.0
176
     1
 90
        0
176
     1
290
     0
176
     1
290
     1
176
     1
290
     1
176
     1
290
     0
176
     1
290
     0
176
     1
290
     0
176
     1
290
     0
176
     1
290
     0
176
     1
290
     0
176
     1
 90
       50
176
     1
 40
0.0
176
     1
 40
1.0
176
     1
 90
        0
176
     1
 62
    18
420
        0
176
     1
 90
       50
176
     1
 90
        3
176
     1
 62
     5
420
      255
176
     1
290
     0
176
     1
 90
       50
176
     1
 90
       50
176
     1
 90
       50
176
     1
290
     0
176
     1
 90
       50
176
     1
 62
   256
176
     0
 40
1.0
176
     0
 90
        2
176
     1
  1
strokes_ogs.tif
176
     1
290
     0
176
     1
 40
1.0
176
     1
 40
1.0
176
     1
  0
VISUALSTYLE
  5
36
102
{ACAD_REACTORS
330
2A
102
}
330
2A
100
AcDbVisualStyle
  2
Brighten
 70
    12
177
     3
291
     1
 70
    58
 90
        2
176
     1
 90
        2
176
     1
 90
        0
176
     1
 90
        0
176
     1
 40
0.6
176
     1
 40
30.0
176
     1
 62
     7
420
 16777215
176
     1
 90
        1
176
     1
 90
        4
176
     1
 62
     7
176
     1
 62
   257
176
     1
 90
        1
176
     1
 90
        1
176
     1
 40
1.0
176
     1
 90
        8
176
     1
 62
     7
176
     1
 40
1.0
176
     1
 90
        1
176
     1
 90
        6
176
     1
 90
        2
176
     1
 62
     7
176
     1
 90
        5
176
     1
 90
        0
176
     1
 90
        0
176
     1
290
     0
176
     1
 90
        1
176
     1
 40
50.0
176
     1
 90
        0
176
     1
290
     0
176
     1
290
     1
176
     1
290
     1
176
     1
290
     0
176
     1
290
     0
176
     1
290
     0
176
     1
290
     0
176
     1
290
     0
176
     1
290
     0
176
     1
 90
       50
176
     1
 40
0.0
176
     1
 40
1.0
176
     1
 90
        0
176
     1
 62
    18
420
        0
176
     1
 90
       50
176
     1
 90
        3
176
     1
 62
     5
420
      255
176
     1
290
     0
176
     1
 90
       50
176
     1
 90
       50
176
     1
 90
       50
176
     1
290
     0
176
     1
 90
       50
176
     1
 62
   256
176
     0
 40
1.0
176
     0
 90
        2
176
     1
  1
strokes_ogs.tif
176
     1
290
     0
176
     1
 40
1.0
176
     1
 40
1.0
176
     1
  0
VISUALSTYLE
  5
3A
102
{ACAD_REACTORS
330
2A
102
}
330
2A
100
AcDbVisualStyle
  2
ColorChange
 70
    16
177
     3
291
     1
 70
    58
 90
        2
176
     1
 90
        2
176
     1
 90
        3
176
     1
 90
        0
176
     1
 40
0.6
176
     1
 40
30.0
176
     1
 62
     8
420
  8421504
176
     1
 90
        1
176
     1
 90
        4
176
     1
 62
     7
176
     1
 62
   257
176
     1
 90
        1
176
     1
 90
        1
176
     1
 40
1.0
176
     1
 90
        8
176
     1
 62
     8
420
  8421504
176
     1
 40
1.0
176
     1
 90
        1
176
     1
 90
        6
176
     1
 90
        2
176
     1
 62
     7
176
     1
 90
        5
176
     1
 90
        0
176
     1
 90
        0
176
     1
290
     0
176
     1
 90
        1
176
     1
 40
0.0
176
     1
 90
        0
176
     1
290
     0
176
     1
290
     1
176
     1
290
     1
176
     1
290
     0
176
     1
290
     0
176
     1
290
     0
176
     1
290
     0
176
     1
290
     0
176
     1
290
     0
176
     1
 90
       50
176
     1
 40
0.0
176
     1
 40
1.0
176
     1
 90
        0
176
     1
 62
    18
420
        0
176
     1
 90
       50
176
     1
 90
        3
176
     1
 62
     5
420
      255
176
     1
290
     0
176
     1
 90
       50
176
     1
 90
       50
176
     1
 90
       50
176
     1
290
     0
176
     1
 90
       50
176
     1
 62
   256
176
     0
 40
1.0
176
     0
 90
        2
176
     1
  1
strokes_ogs.tif
176
     1
290
     0
176
     1
 40
1.0
176
     1
 40
1.0
176
     1
  0
VISUALSTYLE
  5
34
102
{ACAD_REACTORS
330
2A
102
}
330
2A
100
AcDbVisualStyle
  2
Conceptual
 70
     9
177
     3
291
     0
 70
    58
 90
        3
176
     1
 90
        2
176
     1
 90
        0
176
     1
 90
        0
176
     1
 40
0.6
176
     1
 40
30.0
176
     1
 62
     7
420
 16777215
176
     1
 90
        2
176
     1
 90
        2
176
     1
 62
     7
176
     1
 62
   257
176
     1
 90
        1
176
     1
 90
        1
176
     1
 40
179.0
176
     1
 90
        8
176
     1
 62
     7
176
     1
 40
1.0
176
     1
 90
        1
176
     1
 90
        6
176
     1
 90
        2
176
     1
 62
     7
176
     1
 90
        3
176
     1
 90
        0
176
     1
 90
        0
176
     1
290
     0
176
     1
 90
        1
176
     1
 40
0.0
176
     1
 90
        0
176
     1
290
     0
176
     1
290
     1
176
     1
290
     1
176
     1
290
     0
176
     1
290
     0
176
     1
290
     0
176
     1
290
     0
176
     1
290
     0
176
     1
290
     0
176
     1
 90
       50
176
     1
 40
0.0
176
     1
 40
1.0
176
     1
 90
        0
176
     1
 62
    18
420
        0
176
     1
 90
       50
176
     1
 90
        3
176
     1
 62
     5
420
      255
176
     1
290
     0
176
     1
 90
       50
176
     1
 90
       50
176
     1
 90
       50
176
     1
290
     0
176
     1
 90
       50
176
     1
 62
   256
176
     0
 40
1.0
176
     0
 90
        2
176
     1
  1
strokes_ogs.tif
176
     1
290
     0
176
     1
 40
1.0
176
     1
 40
1.0
176
     1
  0
VISUALSTYLE
  5
35
102
{ACAD_REACTORS
330
2A
102
}
330
2A
100
AcDbVisualStyle
  2
Dim
 70
    11
177
     3
291
     1
 70
    58
 90
        2
176
     1
 90
        2
176
     1
 90
        0
176
     1
 90
        0
176
     1
 40
0.6
176
     1
 40
30.0
176
     1
 62
     7
420
 16777215
176
     1
 90
        1
176
     1
 90
        4
176
     1
 62
     7
176
     1
 62
   257
176
     1
 90
        1
176
     1
 90
        1
176
     1
 40
1.0
176
     1
 90
        8
176
     1
 62
     7
176
     1
 40
1.0
176
     1
 90
        1
176
     1
 90
        6
176
     1
 90
        2
176
     1
 62
     7
176
     1
 90
        5
176
     1
 90
        0
176
     1
 90
        0
176
     1
290
     0
176
     1
 90
        1
176
     1
 40
-50.0
176
     1
 90
        0
176
     1
290
     0
176
     1
290
     1
176
     1
290
     1
176
     1
290
     0
176
     1
290
     0
176
     1
290
     0
176
     1
290
     0
176
     1
290
     0
176
     1
290
     0
176
     1
 90
       50
176
     1
 40
0.0
176
     1
 40
1.0
176
     1
 90
        0
176
     1
 62
    18
420
        0
176
     1
 90
       50
176
     1
 90
        3
176
     1
 62
     5
420
      255
176
     1
290
     0
176
     1
 90
       50
176
     1
 90
       50
176
     1
 90
       50
176
     1
290
     0
176
     1
 90
       50
176
     1
 62
   256
176
     0
 40
1.0
176
     0
 90
        2
176
     1
  1
strokes_ogs.tif
176
     1
290
     0
176
     1
 40
1.0
176
     1
 40
1.0
176
     1
  0
VISUALSTYLE
  5
3D
102
{ACAD_REACTORS
330
2A
102
}
330
2A
100
AcDbVisualStyle
  2
EdgeColorOff
 70
    22
177
     3
291
     1
 70
    58
 90
        2
176
     0
 90
        2
176
     0
 90
        0
176
     0
 90
        0
176
     0
 40
0.6
176
     0
 40
30.0
176
     0
 62
     7
420
 16777215
176
     0
 90
        1
176
     0
 90
        4
176
     0
 62
     7
176
     0
 62
   257
176
     0
 90
        1
176
     0
 90
        1
176
     0
 40
1.0
176
     0
 90
        8
176
     2
 62
     7
176
     0
 40
1.0
176
     0
 90
        1
176
     0
 90
        6
176
     0
 90
        2
176
     0
 62
     7
176
     0
 90
        5
176
     0
 90
        0
176
     0
 90
        0
176
     0
290
     0
176
     0
 90
        1
176
     0
 40
0.0
176
     0
 90
        0
176
     0
290
     0
176
     0
290
     1
176
     0
290
     1
176
     0
290
     0
176
     0
290
     0
176
     0
290
     0
176
     0
290
     0
176
     0
290
     0
176
     0
290
     0
176
     0
 90
       50
176
     0
 40
0.0
176
     0
 40
1.0
176
     0
 90
        0
176
     0
 62
    18
420
        0
176
     0
 90
       50
176
     0
 90
        3
176
     0
 62
     5
420
      255
176
     0
290
     0
176
     0
 90
       50
176
     0
 90
       50
176
     0
 90
       50
176
     0
290
     0
176
     0
 90
       50
176
     0
 62
   256
176
     0
 40
1.0
176
     0
 90
        2
176
     0
  1
strokes_ogs.tif
176
     0
290
     0
176
     0
 40
1.0
176
     0
 40
1.0
176
     0
  0
VISUALSTYLE
  5
39
102
{ACAD_REACTORS
330
2A
102
}
330
2A
100
AcDbVisualStyle
  2
Facepattern
 70
    15
177
     3
291
     1
 70
    58
 90
        2
176
     1
 90
        2
176
     1
 90
        0
176
     1
 90
        0
176
     1
 40
0.6
176
     1
 40
30.0
176
     1
 62
     7
420
 16777215
176
     1
 90
        1
176
     1
 90
        4
176
     1
 62
     7
176
     1
 62
   257
176
     1
 90
        1
176
     1
 90
        1
176
     1
 40
1.0
176
     1
 90
        8
176
     1
 62
     7
176
     1
 40
1.0
176
     1
 90
        1
176
     1
 90
        6
176
     1
 90
        2
176
     1
 62
     7
176
     1
 90
        5
176
     1
 90
        0
176
     1
 90
        0
176
     1
290
     0
176
     1
 90
        1
176
     1
 40
0.0
176
     1
 90
        0
176
     1
290
     0
176
     1
290
     1
176
     1
290
     1
176
     1
290
     0
176
     1
290
     0
176
     1
290
     0
176
     1
290
     0
176
     1
290
     0
176
     1
290
     0
176
     1
 90
       50
176
     1
 40
0.0
176
     1
 40
1.0
176
     1
 90
        0
176
     1
 62
    18
420
        0
176
     1
 90
       50
176
     1
 90
        3
176
     1
 62
     5
420
      255
176
     1
290
     0
176
     1
 90
       50
176
     1
 90
       50
176
     1
 90
       50
176
     1
290
     0
176
     1
 90
       50
176
     1
 62
   256
176
     0
 40
1.0
176
     0
 90
        2
176
     1
  1
strokes_ogs.tif
176
     1
290
     0
176
     1
 40
1.0
176
     1
 40
1.0
176
     1
  0
VISUALSTYLE
  5
2B
102
{ACAD_REACTORS
330
2A
102
}
330
2A
100
AcDbVisualStyle
  2
Flat
 70
     0
177
     3
291
     1
 70
    58
 90
        2
176
     1
 90
        1
176
     1
 90
        1
176
     1
 90
        2
176
     1
 40
0.6
176
     1
 40
30.0
176
     1
 62
     7
420
 16777215
176
     1
 90
        0
176
     1
 90
        0
176
     1
 62
     7
176
     1
 62
   257
176
     1
 90
        1
176
     1
 90
        1
176
     1
 40
1.0
176
     1
 90
        8
176
     1
 62
     7
176
     1
 40
1.0
176
     1
 90
        1
176
     1
 90
        6
176
     1
 90
        2
176
     1
 62
     7
176
     1
 90
        5
176
     1
 90
        0
176
     1
 90
        0
176
     1
290
     0
176
     1
 90
       13
176
     1
 40
0.0
176
     1
 90
        0
176
     1
290
     0
176
     1
290
     1
176
     1
290
     1
176
     1
290
     0
176
     1
290
     0
176
     1
290
     0
176
     1
290
     0
176
     1
290
     0
176
     1
290
     0
176
     1
 90
       50
176
     1
 40
0.0
176
     1
 40
1.0
176
     1
 90
        0
176
     1
 62
    18
420
        0
176
     1
 90
       50
176
     1
 90
        3
176
     1
 62
     5
420
      255
176
     1
290
     0
176
     1
 90
       50
176
     1
 90
       50
176
     1
 90
       50
176
     1
290
     0
176
     1
 90
       50
176
     1
 62
   256
176
     0
 40
1.0
176
     0
 90
        2
176
     1
  1
strokes_ogs.tif
176
     1
290
     0
176
     1
 40
1.0
176
     1
 40
1.0
176
     1
  0
VISUALSTYLE
  5
2C
102
{ACAD_REACTORS
330
2A
102
}
330
2A
100
AcDbVisualStyle
  2
FlatWithEdges
 70
     1
177
     3
291
     1
 70
    58
 90
        2
176
     1
 90
        1
176
     1
 90
        1
176
     1
 90
        2
176
     1
 40
0.6
176
     1
 40
30.0
176
     1
 62
     7
420
 16777215
176
     1
 90
        1
176
     1
 90
        0
176
     1
 62
     7
176
     1
 62
   257
176
     1
 90
        1
176
     1
 90
        1
176
     1
 40
1.0
176
     1
 90
        0
176
     1
 62
   257
176
     1
 40
1.0
176
     1
 90
        1
176
     1
 90
        6
176
     1
 90
        2
176
     1
 62
     7
176
     1
 90
        5
176
     1
 90
        0
176
     1
 90
        0
176
     1
290
     0
176
     1
 90
       13
176
     1
 40
0.0
176
     1
 90
        0
176
     1
290
     0
176
     1
290
     1
176
     1
290
     1
176
     1
290
     0
176
     1
290
     0
176
     1
290
     0
176
     1
290
     0
176
     1
290
     0
176
     1
290
     0
176
     1
 90
       50
176
     1
 40
0.0
176
     1
 40
1.0
176
     1
 90
        0
176
     1
 62
    18
420
        0
176
     1
 90
       50
176
     1
 90
        3
176
     1
 62
     5
420
      255
176
     1
290
     0
176
     1
 90
       50
176
     1
 90
       50
176
     1
 90
       50
176
     1
290
     0
176
     1
 90
       50
176
     1
 62
   256
176
     0
 40
1.0
176
     0
 90
        2
176
     1
  1
strokes_ogs.tif
176
     1
290
     0
176
     1
 40
1.0
176
     1
 40
1.0
176
     1
  0
VISUALSTYLE
  5
2D
102
{ACAD_REACTORS
330
2A
102
}
330
2A
100
AcDbVisualStyle
  2
Gouraud
 70
     2
177
     3
291
     1
 70
    58
 90
        2
176
     1
 90
        2
176
     1
 90
        1
176
     1
 90
        2
176
     1
 40
0.6
176
     1
 40
30.0
176
     1
 62
     7
420
 16777215
176
     1
 90
        0
176
     1
 90
        0
176
     1
 62
     7
176
     1
 62
   257
176
     1
 90
        1
176
     1
 90
        1
176
     1
 40
1.0
176
     1
 90
        0
176
     1
 62
     7
176
     1
 40
1.0
176
     1
 90
        1
176
     1
 90
        6
176
     1
 90
        2
176
     1
 62
     7
176
     1
 90
        5
176
     1
 90
        0
176
     1
 90
        0
176
     1
290
     0
176
     1
 90
       13
176
     1
 40
0.0
176
     1
 90
        0
176
     1
290
     0
176
     1
290
     1
176
     1
290
     1
176
     1
290
     0
176
     1
290
     0
176
     1
290
     0
176
     1
290
     0
176
     1
290
     0
176
     1
290
     0
176
     1
 90
       50
176
     1
 40
0.0
176
     1
 40
1.0
176
     1
 90
        0
176
     1
 62
    18
420
        0
176
     1
 90
       50
176
     1
 90
        3
176
     1
 62
     5
420
      255
176
     1
290
     0
176
     1
 90
       50
176
     1
 90
       50
176
     1
 90
       50
176
     1
290
     0
176
     1
 90
       50
176
     1
 62
   256
176
     0
 40
1.0
176
     0
 90
        2
176
     1
  1
strokes_ogs.tif
176
     1
290
     0
176
     1
 40
1.0
176
     1
 40
1.0
176
     1
  0
VISUALSTYLE
  5
2E
102
{ACAD_REACTORS
330
2A
102
}
330
2A
100
AcDbVisualStyle
  2
GouraudWithEdges
 70
     3
177
     3
291
     1
 70
    58
 90
        2
176
     1
 90
        2
176
     1
 90
        1
176
     1
 90
        2
176
     1
 40
0.6
176
     1
 40
30.0
176
     1
 62
     7
420
 16777215
176
     1
 90
        1
176
     1
 90
        0
176
     1
 62
     7
176
     1
 62
   257
176
     1
 90
        1
176
     1
 90
        1
176
     1
 40
1.0
176
     1
 90
        0
176
     1
 62
   257
176
     1
 40
1.0
176
     1
 90
        1
176
     1
 90
        6
176
     1
 90
        2
176
     1
 62
     7
176
     1
 90
        5
176
     1
 90
        0
176
     1
 90
        0
176
     1
290
     0
176
     1
 90
       13
176
     1
 40
0.0
176
     1
 90
        0
176
     1
290
     0
176
     1
290
     1
176
     1
290
     1
176
     1
290
     0
176
     1
290
     0
176
     1
290
     0
176
     1
290
     0
176
     1
290
     0
176
     1
290
     0
176
     1
 90
       50
176
     1
 40
0.0
176
     1
 40
1.0
176
     1
 90
        0
176
     1
 62
    18
420
        0
176
     1
 90
       50
176
     1
 90
        3
176
     1
 62
     5
420
      255
176
     1
290
     0
176
     1
 90
       50
176
     1
 90
       50
176
     1
 90
       50
176
     1
290
     0
176
     1
 90
       50
176
     1
 62
   256
176
     0
 40
1.0
176
     0
 90
        2
176
     1
  1
strokes_ogs.tif
176
     1
290
     0
176
     1
 40
1.0
176
     1
 40
1.0
176
     1
  0
VISUALSTYLE
  5
31
102
{ACAD_REACTORS
330
2A
102
}
330
2A
100
AcDbVisualStyle
  2
Hidden
 70
     6
177
     3
291
     0
 70
    58
 90
        1
176
     1
 90
        2
176
     1
 90
        2
176
     1
 90
        0
176
     1
 40
0.6
176
     1
 40
30.0
176
     1
 62
     7
420
 16777215
176
     1
 90
        2
176
     1
 90
        2
176
     1
 62
     7
176
     1
 62
   257
176
     1
 90
        2
176
     1
 90
        1
176
     1
 40
40.0
176
     1
 90
        0
176
     1
 62
   257
176
     1
 40
1.0
176
     1
 90
        1
176
     1
 90
        6
176
     1
 90
        2
176
     1
 62
     7
176
     1
 90
        3
176
     1
 90
        0
176
     1
 90
        0
176
     1
290
     0
176
     1
 90
        1
176
     1
 40
0.0
176
     1
 90
        0
176
     1
290
     0
176
     1
290
     1
176
     1
290
     1
176
     1
290
     0
176
     1
290
     0
176
     1
290
     0
176
     1
290
     0
176
     1
290
     0
176
     1
290
     0
176
     1
 90
       50
176
     1
 40
0.0
176
     1
 40
1.0
176
     1
 90
        0
176
     1
 62
    18
420
        0
176
     1
 90
       50
176
     1
 90
        3
176
     1
 62
     5
420
      255
176
     1
290
     0
176
     1
 90
       50
176
     1
 90
       50
176
     1
 90
       50
176
     1
290
     0
176
     1
 90
       50
176
     1
 62
   256
176
     0
 40
1.0
176
     0
 90
        2
176
     1
  1
strokes_ogs.tif
176
     1
290
     0
176
     1
 40
1.0
176
     1
 40
1.0
176
     1
  0
VISUALSTYLE
  5
3B
102
{ACAD_REACTORS
330
2A
102
}
330
2A
100
AcDbVisualStyle
  2
JitterOff
 70
    20
177
     3
291
     1
 70
    58
 90
        2
176
     0
 90
        2
176
     0
 90
        0
176
     0
 90
        0
176
     0
 40
0.6
176
     0
 40
30.0
176
     0
 62
     7
420
 16777215
176
     0
 90
        1
176
     0
 90
        4
176
     0
 62
     7
176
     0
 62
   257
176
     0
 90
        1
176
     0
 90
        1
176
     0
 40
1.0
176
     0
 90
       10
176
     2
 62
     7
176
     0
 40
1.0
176
     0
 90
        1
176
     0
 90
        6
176
     0
 90
        2
176
     0
 62
     7
176
     0
 90
        5
176
     0
 90
        0
176
     0
 90
        0
176
     0
290
     0
176
     0
 90
        1
176
     0
 40
0.0
176
     0
 90
        0
176
     0
290
     0
176
     0
290
     1
176
     0
290
     1
176
     0
290
     0
176
     0
290
     0
176
     0
290
     0
176
     0
290
     0
176
     0
290
     0
176
     0
290
     0
176
     0
 90
       50
176
     0
 40
0.0
176
     0
 40
1.0
176
     0
 90
        0
176
     0
 62
    18
420
        0
176
     0
 90
       50
176
     0
 90
        3
176
     0
 62
     5
420
      255
176
     0
290
     0
176
     0
 90
       50
176
     0
 90
       50
176
     0
 90
       50
176
     0
290
     0
176
     0
 90
       50
176
     0
 62
   256
176
     0
 40
1.0
176
     0
 90
        2
176
     0
  1
strokes_ogs.tif
176
     0
290
     0
176
     0
 40
1.0
176
     0
 40
1.0
176
     0
  0
VISUALSTYLE
  5
38
102
{ACAD_REACTORS
330
2A
102
}
330
2A
100
AcDbVisualStyle
  2
Linepattern
 70
    14
177
     3
291
     1
 70
    58
 90
        2
176
     1
 90
        2
176
     1
 90
        0
176
     1
 90
        0
176
     1
 40
0.6
176
     1
 40
30.0
176
     1
 62
     7
420
 16777215
176
     1
 90
        1
176
     1
 90
        4
176
     1
 62
     7
176
     1
 62
   257
176
     1
 90
        7
176
     1
 90
        7
176
     1
 40
1.0
176
     1
 90
        8
176
     1
 62
     7
176
     1
 40
1.0
176
     1
 90
        1
176
     1
 90
        6
176
     1
 90
        2
176
     1
 62
     7
176
     1
 90
        5
176
     1
 90
        0
176
     1
 90
        0
176
     1
290
     0
176
     1
 90
        1
176
     1
 40
0.0
176
     1
 90
        0
176
     1
290
     0
176
     1
290
     1
176
     1
290
     1
176
     1
290
     0
176
     1
290
     0
176
     1
290
     0
176
     1
290
     0
176
     1
290
     0
176
     1
290
     0
176
     1
 90
       50
176
     1
 40
0.0
176
     1
 40
1.0
176
     1
 90
        0
176
     1
 62
    18
420
        0
176
     1
 90
       50
176
     1
 90
        3
176
     1
 62
     5
420
      255
176
     1
290
     0
176
     1
 90
       50
176
     1
 90
       50
176
     1
 90
       50
176
     1
290
     0
176
     1
 90
       50
176
     1
 62
   256
176
     0
 40
1.0
176
     0
 90
        2
176
     1
  1
strokes_ogs.tif
176
     1
290
     0
176
     1
 40
1.0
176
     1
 40
1.0
176
     1
  0
VISUALSTYLE
  5
3C
102
{ACAD_REACTORS
330
2A
102
}
330
2A
100
AcDbVisualStyle
  2
OverhangOff
 70
    21
177
     3
291
     1
 70
    58
 90
        2
176
     0
 90
        2
176
     0
 90
        0
176
     0
 90
        0
176
     0
 40
0.6
176
     0
 40
30.0
176
     0
 62
     7
420
 16777215
176
     0
 90
        1
176
     0
 90
        4
176
     0
 62
     7
176
     0
 62
   257
176
     0
 90
        1
176
     0
 90
        1
176
     0
 40
1.0
176
     0
 90
        9
176
     2
 62
     7
176
     0
 40
1.0
176
     0
 90
        1
176
     0
 90
        6
176
     0
 90
        2
176
     0
 62
     7
176
     0
 90
        5
176
     0
 90
        0
176
     0
 90
        0
176
     0
290
     0
176
     0
 90
        1
176
     0
 40
0.0
176
     0
 90
        0
176
     0
290
     0
176
     0
290
     1
176
     0
290
     1
176
     0
290
     0
176
     0
290
     0
176
     0
290
     0
176
     0
290
     0
176
     0
290
     0
176
     0
290
     0
176
     0
 90
       50
176
     0
 40
0.0
176
     0
 40
1.0
176
     0
 90
        0
176
     0
 62
    18
420
        0
176
     0
 90
       50
176
     0
 90
        3
176
     0
 62
     5
420
      255
176
     0
290
     0
176
     0
 90
       50
176
     0
 90
       50
176
     0
 90
       50
176
     0
290
     0
176
     0
 90
       50
176
     0
 62
   256
176
     0
 40
1.0
176
     0
 90
        2
176
     0
  1
strokes_ogs.tif
176
     0
290
     0
176
     0
 40
1.0
176
     0
 40
1.0
176
     0
  0
VISUALSTYLE
  5
33
102
{ACAD_REACTORS
330
2A
102
}
330
2A
100
AcDbVisualStyle
  2
Realistic
 70
     8
177
     3
291
     0
 70
    58
 90
        2
176
     1
 90
        3
176
     1
 90
        0
176
     1
 90
        2
176
     1
 40
0.6
176
     1
 40
30.0
176
     1
 62
     7
420
 16777215
176
     1
 90
        0
176
     1
 90
        0
176
     1
 62
     7
176
     1
 62
   257
176
     1
 90
        1
176
     1
 90
        1
176
     1
 40
1.0
176
     1
 90
        8
176
     1
 62
   257
176
     1
 40
1.0
176
     1
 90
        1
176
     1
 90
        6
176
     1
 90
        2
176
     1
 62
     7
176
     1
 90
        3
176
     1
 90
        0
176
     1
 90
        0
176
     1
290
     0
176
     1
 90
       13
176
     1
 40
0.0
176
     1
 90
        0
176
     1
290
     0
176
     1
290
     1
176
     1
290
     1
176
     1
290
     0
176
     1
290
     0
176
     1
290
     0
176
     1
290
     0
176
     1
290
     0
176
     1
290
     0
176
     1
 90
       50
176
     1
 40
0.0
176
     1
 40
1.0
176
     1
 90
        0
176
     1
 62
    18
420
        0
176
     1
 90
       50
176
     1
 90
        3
176
     1
 62
     5
420
      255
176
     1
290
     0
176
     1
 90
       50
176
     1
 90
       50
176
     1
 90
       50
176
     1
290
     0
176
     1
 90
       50
176
     1
 62
   256
176
     0
 40
1.0
176
     0
 90
        2
176
     1
  1
strokes_ogs.tif
176
     1
290
     0
176
     1
 40
1.0
176
     1
 40
1.0
176
     1
  0
VISUALSTYLE
  5
42
102
{ACAD_REACTORS
330
2A
102
}
330
2A
100
AcDbVisualStyle
  2
Shaded
 70
    27
177
     3
291
     0
 70
    58
 90
        2
176
     1
 90
        2
176
     1
 90
        1
176
     1
 90
        2
176
     1
 40
0.6
176
     1
 40
30.0
176
     1
 62
     7
420
 16777215
176
     1
 90
        0
176
     1
 90
        4
176
     1
 62
     7
176
     1
 62
   257
176
     1
 90
        1
176
     1
 90
        1
176
     1
 40
1.0
176
     1
 90
        8
176
     1
 62
   257
176
     1
 40
1.0
176
     1
 90
        1
176
     1
 90
        6
176
     1
 90
        2
176
     1
 62
     8
420
  7895160
176
     1
 90
        3
176
     1
 90
        0
176
     1
 90
        0
176
     1
290
     0
176
     1
 90
        5
176
     1
 40
0.0
176
     1
 90
        0
176
     1
290
     0
176
     1
290
     1
176
     1
290
     1
176
     1
290
     0
176
     1
290
     0
176
     1
290
     0
176
     1
290
     0
176
     1
290
     0
176
     1
290
     0
176
     1
 90
       50
176
     1
 40
0.0
176
     1
 40
1.0
176
     1
 90
        0
176
     1
 62
    18
420
        0
176
     1
 90
       50
176
     1
 90
        3
176
     1
 62
     5
420
      255
176
     1
290
     0
176
     1
 90
       50
176
     1
 90
       50
176
     1
 90
       50
176
     1
290
     0
176
     1
 90
       50
176
     1
 62
   256
176
     0
 40
1.0
176
     0
 90
        2
176
     1
  1
strokes_ogs.tif
176
     1
290
     0
176
     1
 40
1.0
176
     1
 40
1.0
176
     1
  0
VISUALSTYLE
  5
41
102
{ACAD_REACTORS
330
2A
102
}
330
2A
100
AcDbVisualStyle
  2
Shaded with edges
 70
    26
177
     3
291
     0
 70
    58
 90
        2
176
     1
 90
        2
176
     1
 90
        1
176
     1
 90
        2
176
     1
 40
0.6
176
     1
 40
30.0
176
     1
 62
     7
420
 16777215
176
     1
 90
        1
176
     1
 90
       10
176
     1
 62
     7
176
     1
 62
   257
176
     1
 90
        2
176
     1
 90
        1
176
     1
 40
1.0
176
     1
 90
        8
176
     1
 62
   257
176
     1
 40
1.0
176
     1
 90
        1
176
     1
 90
        6
176
     1
 90
        2
176
     1
 62
     7
176
     1
 90
        3
176
     1
 90
        0
176
     1
 90
        0
176
     1
290
     0
176
     1
 90
        5
176
     1
 40
0.0
176
     1
 90
        0
176
     1
290
     0
176
     1
290
     1
176
     1
290
     1
176
     1
290
     0
176
     1
290
     0
176
     1
290
     0
176
     1
290
     0
176
     1
290
     0
176
     1
290
     0
176
     1
 90
       50
176
     1
 40
0.0
176
     1
 40
1.0
176
     1
 90
        0
176
     1
 62
    18
420
        0
176
     1
 90
       50
176
     1
 90
        3
176
     1
 62
     5
420
      255
176
     1
290
     0
176
     1
 90
       50
176
     1
 90
       50
176
     1
 90
       50
176
     1
290
     0
176
     1
 90
       50
176
     1
 62
   256
176
     0
 40
1.0
176
     0
 90
        2
176
     1
  1
strokes_ogs.tif
176
     1
290
     0
176
     1
 40
1.0
176
     1
 40
1.0
176
     1
  0
VISUALSTYLE
  5
3E
102
{ACAD_REACTORS
330
2A
102
}
330
2A
100
AcDbVisualStyle
  2
Shades of Gray
 70
    23
177
     3
291
     0
 70
    58
 90
        2
176
     1
 90
        2
176
     1
 90
        3
176
     1
 90
        0
176
     1
 40
0.6
176
     1
 40
30.0
176
     1
 62
     7
420
 16777215
176
     1
 90
        2
176
     1
 90
        2
176
     1
 62
     7
176
     1
 62
     7
176
     1
 90
        1
176
     1
 90
        1
176
     1
 40
40.0
176
     1
 90
        8
176
     1
 62
     7
176
     1
 40
1.0
176
     1
 90
        1
176
     1
 90
        6
176
     1
 90
        2
176
     1
 62
     7
176
     1
 90
        3
176
     1
 90
        0
176
     1
 90
        0
176
     1
290
     0
176
     1
 90
        1
176
     1
 40
0.0
176
     1
 90
        0
176
     1
290
     0
176
     1
290
     1
176
     1
290
     1
176
     1
290
     0
176
     1
290
     0
176
     1
290
     0
176
     1
290
     0
176
     1
290
     0
176
     1
290
     0
176
     1
 90
       50
176
     1
 40
0.0
176
     1
 40
1.0
176
     1
 90
        0
176
     1
 62
    18
420
        0
176
     1
 90
       50
176
     1
 90
        3
176
     1
 62
     5
420
      255
176
     1
290
     0
176
     1
 90
       50
176
     1
 90
       50
176
     1
 90
       50
176
     1
290
     0
176
     1
 90
       50
176
     1
 62
   256
176
     0
 40
1.0
176
     0
 90
        2
176
     1
  1
strokes_ogs.tif
176
     1
290
     0
176
     1
 40
1.0
176
     1
 40
1.0
176
     1
  0
VISUALSTYLE
  5
3F
102
{ACAD_REACTORS
330
2A
102
}
330
2A
100
AcDbVisualStyle
  2
Sketchy
 70
    24
177
     3
291
     0
 70
    58
 90
        1
176
     1
 90
        2
176
     1
 90
        2
176
     1
 90
        0
176
     1
 40
0.6
176
     1
 40
30.0
176
     1
 62
     7
420
 16777215
176
     1
 90
        2
176
     1
 90
        2
176
     1
 62
     7
176
     1
 62
     7
176
     1
 90
        1
176
     1
 90
        1
176
     1
 40
40.0
176
     1
 90
       11
176
     1
 62
     7
176
     1
 40
1.0
176
     1
 90
        1
176
     1
 90
        6
176
     1
 90
        2
176
     1
 62
     7
176
     1
 90
        6
176
     1
 90
        0
176
     1
 90
        0
176
     1
290
     0
176
     1
 90
        1
176
     1
 40
0.0
176
     1
 90
        0
176
     1
290
     0
176
     1
290
     1
176
     1
290
     1
176
     1
290
     0
176
     1
290
     0
176
     1
290
     0
176
     1
290
     0
176
     1
290
     0
176
     1
290
     0
176
     1
 90
       50
176
     1
 40
0.0
176
     1
 40
1.0
176
     1
 90
        0
176
     1
 62
    18
420
        0
176
     1
 90
       50
176
     1
 90
        3
176
     1
 62
     5
420
      255
176
     1
290
     0
176
     1
 90
       50
176
     1
 90
       50
176
     1
 90
       50
176
     1
290
     0
176
     1
 90
       50
176
     1
 62
   256
176
     0
 40
1.0
176
     0
 90
        2
176
     1
  1
strokes_ogs.tif
176
     1
290
     0
176
     1
 40
1.0
176
     1
 40
1.0
176
     1
  0
VISUALSTYLE
  5
37
102
{ACAD_REACTORS
330
2A
102
}
330
2A
100
AcDbVisualStyle
  2
Thicken
 70
    13
177
     3
291
     1
 70
    58
 90
        2
176
     1
 90
        2
176
     1
 90
        0
176
     1
 90
        0
176
     1
 40
0.6
176
     1
 40
30.0
176
     1
 62
     7
420
 16777215
176
     1
 90
        1
176
     1
 90
        4
176
     1
 62
     7
176
     1
 62
   257
176
     1
 90
        1
176
     1
 90
        1
176
     1
 40
1.0
176
     1
 90
       12
176
     1
 62
     7
176
     1
 40
1.0
176
     1
 90
        1
176
     1
 90
        6
176
     1
 90
        2
176
     1
 62
     7
176
     1
 90
        5
176
     1
 90
        0
176
     1
 90
        0
176
     1
290
     0
176
     1
 90
        1
176
     1
 40
0.0
176
     1
 90
        0
176
     1
290
     0
176
     1
290
     1
176
     1
290
     1
176
     1
290
     0
176
     1
290
     0
176
     1
290
     0
176
     1
290
     0
176
     1
290
     0
176
     1
290
     0
176
     1
 90
       50
176
     1
 40
0.0
176
     1
 40
1.0
176
     1
 90
        0
176
     1
 62
    18
420
        0
176
     1
 90
       50
176
     1
 90
        3
176
     1
 62
     5
420
      255
176
     1
290
     0
176
     1
 90
       50
176
     1
 90
       50
176
     1
 90
       50
176
     1
290
     0
176
     1
 90
       50
176
     1
 62
   256
176
     0
 40
1.0
176
     0
 90
        2
176
     1
  1
strokes_ogs.tif
176
     1
290
     0
176
     1
 40
1.0
176
     1
 40
1.0
176
     1
  0
VISUALSTYLE
  5
30
102
{ACAD_REACTORS
330
2A
102
}
330
2A
100
AcDbVisualStyle
  2
Wireframe
 70
     5
177
     3
291
     0
 70
    58
 90
        0
176
     1
 90
        2
176
     1
 90
        0
176
     1
 90
        0
176
     1
 40
0.6
176
     1
 40
30.0
176
     1
 62
     7
420
 16777215
176
     1
 90
        1
176
     1
 90
        4
176
     1
 62
     7
176
     1
 62
   257
176
     1
 90
        1
176
     1
 90
        1
176
     1
 40
1.0
176
     1
 90
        0
176
     1
 62
   257
176
     1
 40
1.0
176
     1
 90
        1
176
     1
 90
        6
176
     1
 90
        2
176
     1
 62
     7
176
     1
 90
        3
176
     1
 90
        0
176
     1
 90
        0
176
     1
290
     0
176
     1
 90
        1
176
     1
 40
0.0
176
     1
 90
        0
176
     1
290
     0
176
     1
290
     1
176
     1
290
     1
176
     1
290
     0
176
     1
290
     0
176
     1
290
     0
176
     1
290
     0
176
     1
290
     0
176
     1
290
     0
176
     1
 90
       50
176
     1
 40
0.0
176
     1
 40
1.0
176
     1
 90
        0
176
     1
 62
    18
420
        0
176
     1
 90
       50
176
     1
 90
        3
176
     1
 62
     5
420
      255
176
     1
290
     0
176
     1
 90
       50
176
     1
 90
       50
176
     1
 90
       50
176
     1
290
     0
176
     1
 90
       50
176
     1
 62
   256
176
     0
 40
1.0
176
     0
 90
        2
176
     1
  1
strokes_ogs.tif
176
     1
290
     0
176
     1
 40
1.0
176
     1
 40
1.0
176
     1
  0
VISUALSTYLE
  5
40
102
{ACAD_REACTORS
330
2A
102
}
330
2A
100
AcDbVisualStyle
  2
X-Ray
 70
    25
177
     3
291
     0
 70
    58
 90
        2
176
     1
 90
        2
176
     1
 90
        1
176
     1
 90
        1
176
     1
 40
0.5
176
     1
 40
30.0
176
     1
 62
     7
420
 16777215
176
     1
 90
        1
176
     1
 90
        0
176
     1
 62
     7
176
     1
 62
   257
176
     1
 90
        1
176
     1
 90
        1
176
     1
 40
1.0
176
     1
 90
        8
176
     1
 62
     7
176
     1
 40
1.0
176
     1
 90
        1
176
     1
 90
        6
176
     1
 90
        2
176
     1
 62
     7
176
     1
 90
        3
176
     1
 90
        0
176
     1
 90
        0
176
     1
290
     0
176
     1
 90
       13
176
     1
 40
0.0
176
     1
 90
        0
176
     1
290
     0
176
     1
290
     1
176
     1
290
     1
176
     1
290
     0
176
     1
290
     0
176
     1
290
     0
176
     1
290
     0
176
     1
290
     0
176
     1
290
     0
176
     1
 90
       50
176
     1
 40
0.0
176
     1
 40
1.0
176
     1
 90
        0
176
     1
 62
    18
420
        0
176
     1
 90
       50
176
     1
 90
        3
176
     1
 62
     5
420
      255
176
     1
290
     0
176
     1
 90
       50
176
     1
 90
       50
176
     1
 90
       50
176
     1
290
     0
176
     1
 90
       50
176
     1
 62
   256
176
     0
 40
1.0
176
     0
 90
        2
176
     1
  1
strokes_ogs.tif
176
     1
290
     0
176
     1
 40
1.0
176
     1
 40
1.0
176
     1
  0
DICTIONARYVAR
  5
199
102
{ACAD_REACTORS
330
198
102
}
330
198
100
DictionaryVariables
280
     0
  1
1:1
  0
DICTIONARYVAR
  5
19E
102
{ACAD_REACTORS
330
198
102
}
330
198
100
DictionaryVariables
280
     0
  1
Standard
  0
DICTIONARYVAR
  5
19D
102
{ACAD_REACTORS
330
198
102
}
330
198
100
DictionaryVariables
280
     0
  1
Standard
  0
DICTIONARY
  5
19A
330
6A
100
AcDbDictionary
280
     1
281
     1
  3
ACAD_ROUNDTRIP_2008_TABLESTYLE_CELLSTYLEMAP
360
19B
  0
CELLSTYLEMAP
  5
19B
102
{ACAD_REACTORS
330
19A
102
}
330
19A
100
AcDbCellStyleMap
 90
        3
300
CELLSTYLE
  1
TABLEFORMAT_BEGIN
 90
        5
170
     1
 91
        0
 92
    32768
 62
   257
 93
        1
300
CONTENTFORMAT
  1
CONTENTFORMAT_BEGIN
 90
        0
 91
        0
 92
        4
 93
        0
300

 40
0.0
140
1.0
 94
        5
 62
     0
340
11
144
6.0
309
CONTENTFORMAT_END
171
     1
301
MARGIN
  1
CELLMARGIN_BEGIN
 40
1.5
 40
1.5
 40
1.5
 40
1.5
 40
1.5
 40
1.5
309
CELLMARGIN_END
 94
        6
 95
        1
302
GRIDFORMAT
  1
GRIDFORMAT_BEGIN
 90
        0
 91
        1
 62
     0
 92
       -2
340
14
 93
        0
 40
0.045
309
GRIDFORMAT_END
 95
        2
302
GRIDFORMAT
  1
GRIDFORMAT_BEGIN
 90
        0
 91
        1
 62
     0
 92
       -2
340
14
 93
        0
 40
0.045
309
GRIDFORMAT_END
 95
        4
302
GRIDFORMAT
  1
GRIDFORMAT_BEGIN
 90
        0
 91
        1
 62
     0
 92
       -2
340
14
 93
        0
 40
0.045
309
GRIDFORMAT_END
 95
        8
302
GRIDFORMAT
  1
GRIDFORMAT_BEGIN
 90
        0
 91
        1
 62
     0
 92
       -2
340
14
 93
        0
 40
0.045
309
GRIDFORMAT_END
 95
       16
302
GRIDFORMAT
  1
GRIDFORMAT_BEGIN
 90
        0
 91
        1
 62
     0
 92
       -2
340
14
 93
        0
 40
0.045
309
GRIDFORMAT_END
 95
       32
302
GRIDFORMAT
  1
GRIDFORMAT_BEGIN
 90
        0
 91
        1
 62
     0
 92
       -2
340
14
 93
        0
 40
0.045
309
GRIDFORMAT_END
309
TABLEFORMAT_END
  1
CELLSTYLE_BEGIN
 90
        1
 91
        1
300
_TITLE
309
CELLSTYLE_END
300
CELLSTYLE
  1
TABLEFORMAT_BEGIN
 90
        5
170
     1
 91
        0
 92
        0
 62
   257
 93
        1
300
CONTENTFORMAT
  1
CONTENTFORMAT_BEGIN
 90
        0
 91
        0
 92
        4
 93
        0
300

 40
0.0
140
1.0
 94
        5
 62
     0
340
11
144
4.5
309
CONTENTFORMAT_END
171
     1
301
MARGIN
  1
CELLMARGIN_BEGIN
 40
1.5
 40
1.5
 40
1.5
 40
1.5
 40
1.5
 40
1.5
309
CELLMARGIN_END
 94
        6
 95
        1
302
GRIDFORMAT
  1
GRIDFORMAT_BEGIN
 90
        0
 91
        1
 62
     0
 92
       -2
340
14
 93
        0
 40
0.045
309
GRIDFORMAT_END
 95
        2
302
GRIDFORMAT
  1
GRIDFORMAT_BEGIN
 90
        0
 91
        1
 62
     0
 92
       -2
340
14
 93
        0
 40
0.045
309
GRIDFORMAT_END
 95
        4
302
GRIDFORMAT
  1
GRIDFORMAT_BEGIN
 90
        0
 91
        1
 62
     0
 92
       -2
340
14
 93
        0
 40
0.045
309
GRIDFORMAT_END
 95
        8
302
GRIDFORMAT
  1
GRIDFORMAT_BEGIN
 90
        0
 91
        1
 62
     0
 92
       -2
340
14
 93
        0
 40
0.045
309
GRIDFORMAT_END
 95
       16
302
GRIDFORMAT
  1
GRIDFORMAT_BEGIN
 90
        0
 91
        1
 62
     0
 92
       -2
340
14
 93
        0
 40
0.045
309
GRIDFORMAT_END
 95
       32
302
GRIDFORMAT
  1
GRIDFORMAT_BEGIN
 90
        0
 91
        1
 62
     0
 92
       -2
340
14
 93
        0
 40
0.045
309
GRIDFORMAT_END
309
TABLEFORMAT_END
  1
CELLSTYLE_BEGIN
 90
        2
 91
        1
300
_HEADER
309
CELLSTYLE_END
300
CELLSTYLE
  1
TABLEFORMAT_BEGIN
 90
        5
170
     1
 91
        0
 92
        0
 62
   257
 93
        1
300
CONTENTFORMAT
  1
CONTENTFORMAT_BEGIN
 90
        0
 91
        0
 92
        4
 93
        0
300

 40
0.0
140
1.0
 94
        2
 62
     0
340
11
144
4.5
309
CONTENTFORMAT_END
171
     1
301
MARGIN
  1
CELLMARGIN_BEGIN
 40
1.5
 40
1.5
 40
1.5
 40
1.5
 40
1.5
 40
1.5
309
CELLMARGIN_END
 94
        6
 95
        1
302
GRIDFORMAT
  1
GRIDFORMAT_BEGIN
 90
        0
 91
        1
 62
     0
 92
       -2
340
14
 93
        0
 40
0.045
309
GRIDFORMAT_END
 95
        2
302
GRIDFORMAT
  1
GRIDFORMAT_BEGIN
 90
        0
 91
        1
 62
     0
 92
       -2
340
14
 93
        0
 40
0.045
309
GRIDFORMAT_END
 95
        4
302
GRIDFORMAT
  1
GRIDFORMAT_BEGIN
 90
        0
 91
        1
 62
     0
 92
       -2
340
14
 93
        0
 40
0.045
309
GRIDFORMAT_END
 95
        8
302
GRIDFORMAT
  1
GRIDFORMAT_BEGIN
 90
        0
 91
        1
 62
     0
 92
       -2
340
14
 93
        0
 40
0.045
309
GRIDFORMAT_END
 95
       16
302
GRIDFORMAT
  1
GRIDFORMAT_BEGIN
 90
        0
 91
        1
 62
     0
 92
       -2
340
14
 93
        0
 40
0.045
309
GRIDFORMAT_END
 95
       32
302
GRIDFORMAT
  1
GRIDFORMAT_BEGIN
 90
        0
 91
        1
 62
     0
 92
       -2
340
14
 93
        0
 40
0.045
309
GRIDFORMAT_END
309
TABLEFORMAT_END
  1
CELLSTYLE_BEGIN
 90
        3
 91
        2
300
_DATA
309
CELLSTYLE_END
  0
ENDSEC
  0
EOF