0
SECTION
  2
HEADER
  9
$ACADVER
  1
AC1027
  9
$ACADMAINTVER
 70
     8
  9
$DWGCODEPAGE
  3
ANSI_1252
  9
$REQUIREDVERSIONS
160
                 0
  9
$COMMENTS
  1
File was created by Cadenas
  9
$CUSTOMPROPERTYTAG
  1
NN
  9
$CUSTOMPROPERTY
  1
D-Lok Tapped Base Inch Bore - Polymer Housing, Corrosion Resistant Insert
  9
$CUSTOMPROPERTYTAG
  1
NT
  9
$CUSTOMPROPERTY
  1
DLEZ Normal Duty Polymer Housed Tapped Base Pillow Blocks
  9
$CUSTOMPROPERTYTAG
  1
NB
  9
$CUSTOMPROPERTY
  1
127588
  9
$CUSTOMPROPERTYTAG
  1
NBSYN
  9
$CUSTOMPROPERTY
  1
$PN.
  9
$CUSTOMPROPERTYTAG
  1
LINA
  9
$CUSTOMPROPERTY
  1
127588
  9
$CUSTOMPROPERTYTAG
  1
SERIES
  9
$CUSTOMPROPERTY
  1
205
  9
$CUSTOMPROPERTYTAG
  1
SS
  9
$CUSTOMPROPERTY
  1
1
  9
$CUSTOMPROPERTYTAG
  1
PN
  9
$CUSTOMPROPERTY
  1
127588
  9
$CUSTOMPROPERTYTAG
  1
DESCRIPTION
  9
$CUSTOMPROPERTY
  1
TB-DLEZ-100-PCR
  9
$CUSTOMPROPERTYTAG
  1
W
  9
$CUSTOMPROPERTY
  1
1.01
  9
$CUSTOMPROPERTYTAG
  1
A
  9
$CUSTOMPROPERTY
  1
1.44
  9
$CUSTOMPROPERTYTAG
  1
B
  9
$CUSTOMPROPERTY
  1
3.25
  9
$CUSTOMPROPERTYTAG
  1
C
  9
$CUSTOMPROPERTY
  1
1.49
  9
$CUSTOMPROPERTYTAG
  1
D
  9
$CUSTOMPROPERTY
  1
2.00
  9
$CUSTOMPROPERTYTAG
  1
J
  9
$CUSTOMPROPERTY
  1
2.89
  9
$CUSTOMPROPERTYTAG
  1
L
  9
$CUSTOMPROPERTY
  1
1.99
  9
$CUSTOMPROPERTYTAG
  1
M
  9
$CUSTOMPROPERTY
  1
1.44
  9
$CUSTOMPROPERTYTAG
  1
N
  9
$CUSTOMPROPERTY
  1
0.40
  9
$CUSTOMPROPERTYTAG
  1
R
  9
$CUSTOMPROPERTY
  1
3/8-16
  9
$CUSTOMPROPERTYTAG
  1
S
  9
$CUSTOMPROPERTY
  1
0.88
  9
$CUSTOMPROPERTYTAG
  1
COMPANY
  9
$CUSTOMPROPERTY
  1
baldor
  9
$INSBASE
 10
0.0
 20
0.0
 30
0.0
  9
$EXTMIN
 10
1.000000000000000E+20
 20
1.000000000000000E+20
 30
1.000000000000000E+20
  9
$EXTMAX
 10
-1.000000000000000E+20
 20
-1.000000000000000E+20
 30
-1.000000000000000E+20
  9
$LIMMIN
 10
0.0
 20
0.0
  9
$LIMMAX
 10
12.0
 20
9.0
  9
$ORTHOMODE
 70
     0
  9
$REGENMODE
 70
     1
  9
$FILLMODE
 70
     1
  9
$QTEXTMODE
 70
     0
  9
$MIRRTEXT
 70
     1
  9
$LTSCALE
 40
1.0
  9
$ATTMODE
 70
     1
  9
$TEXTSIZE
 40
0.2
  9
$TRACEWID
 40
0.05
  9
$TEXTSTYLE
  7
Standard
  9
$CLAYER
  8
0
  9
$CELTYPE
  6
ByLayer
  9
$CECOLOR
 62
   256
  9
$CELTSCALE
 40
1.0
  9
$DISPSILH
 70
     0
  9
$DIMSCALE
 40
1.0
  9
$DIMASZ
 40
0.18
  9
$DIMEXO
 40
0.0625
  9
$DIMDLI
 40
0.38
  9
$DIMRND
 40
0.0
  9
$DIMDLE
 40
0.0
  9
$DIMEXE
 40
0.18
  9
$DIMTP
 40
0.0
  9
$DIMTM
 40
0.0
  9
$DIMTXT
 40
0.18
  9
$DIMCEN
 40
0.09
  9
$DIMTSZ
 40
0.0
  9
$DIMTOL
 70
     0
  9
$DIMLIM
 70
     0
  9
$DIMTIH
 70
     1
  9
$DIMTOH
 70
     1
  9
$DIMSE1
 70
     0
  9
$DIMSE2
 70
     0
  9
$DIMTAD
 70
     0
  9
$DIMZIN
 70
     0
  9
$DIMBLK
  1

  9
$DIMASO
 70
     1
  9
$DIMSHO
 70
     1
  9
$DIMPOST
  1

  9
$DIMAPOST
  1

  9
$DIMALT
 70
     0
  9
$DIMALTD
 70
     2
  9
$DIMALTF
 40
25.4
  9
$DIMLFAC
 40
1.0
  9
$DIMTOFL
 70
     0
  9
$DIMTVP
 40
0.0
  9
$DIMTIX
 70
     0
  9
$DIMSOXD
 70
     0
  9
$DIMSAH
 70
     0
  9
$DIMBLK1
  1

  9
$DIMBLK2
  1

  9
$DIMSTYLE
  2
Standard
  9
$DIMCLRD
 70
     0
  9
$DIMCLRE
 70
     0
  9
$DIMCLRT
 70
     0
  9
$DIMTFAC
 40
1.0
  9
$DIMGAP
 40
0.09
  9
$DIMJUST
 70
     0
  9
$DIMSD1
 70
     0
  9
$DIMSD2
 70
     0
  9
$DIMTOLJ
 70
     1
  9
$DIMTZIN
 70
     0
  9
$DIMALTZ
 70
     0
  9
$DIMALTTZ
 70
     0
  9
$DIMUPT
 70
     0
  9
$DIMDEC
 70
     4
  9
$DIMTDEC
 70
     4
  9
$DIMALTU
 70
     2
  9
$DIMALTTD
 70
     2
  9
$DIMTXSTY
  7
Standard
  9
$DIMAUNIT
 70
     0
  9
$DIMADEC
 70
     0
  9
$DIMALTRND
 40
0.0
  9
$DIMAZIN
 70
     0
  9
$DIMDSEP
 70
    46
  9
$DIMATFIT
 70
     3
  9
$DIMFRAC
 70
     0
  9
$DIMLDRBLK
  1

  9
$DIMLUNIT
 70
     2
  9
$DIMLWD
 70
    -2
  9
$DIMLWE
 70
    -2
  9
$DIMTMOVE
 70
     0
  9
$DIMFXL
 40
1.0
  9
$DIMFXLON
 70
     0
  9
$DIMJOGANG
 40
0.7853981633974483
  9
$DIMTFILL
 70
     0
  9
$DIMTFILLCLR
 70
     0
  9
$DIMARCSYM
 70
     0
  9
$DIMLTYPE
  6

  9
$DIMLTEX1
  6

  9
$DIMLTEX2
  6

  9
$DIMTXTDIRECTION
 70
     0
  9
$LUNITS
 70
     2
  9
$LUPREC
 70
     4
  9
$SKETCHINC
 40
0.1
  9
$FILLETRAD
 40
0.5
  9
$AUNITS
 70
     0
  9
$AUPREC
 70
     0
  9
$MENU
  1
.
  9
$ELEVATION
 40
0.0
  9
$PELEVATION
 40
0.0
  9
$THICKNESS
 40
0.0
  9
$LIMCHECK
 70
     0
  9
$CHAMFERA
 40
0.0
  9
$CHAMFERB
 40
0.0
  9
$CHAMFERC
 40
0.0
  9
$CHAMFERD
 40
0.0
  9
$SKPOLY
 70
     0
  9
$TDCREATE
 40
2458168.977398762
  9
$TDUCREATE
 40
2458168.935732095
  9
$TDUPDATE
 40
2458168.977398947
  9
$TDUUPDATE
 40
2458168.93573228
  9
$TDINDWG
 40
0.0000000116
  9
$TDUSRTIMER
 40
0.0000000116
  9
$USRTIMER
 70
     1
  9
$ANGBASE
 50
0.0
  9
$ANGDIR
 70
     0
  9
$PDMODE
 70
     0
  9
$PDSIZE
 40
0.0
  9
$PLINEWID
 40
0.0
  9
$SPLFRAME
 70
     0
  9
$SPLINETYPE
 70
     6
  9
$SPLINESEGS
 70
     8
  9
$HANDSEED
  5
1A0
  9
$SURFTAB1
 70
     6
  9
$SURFTAB2
 70
     6
  9
$SURFTYPE
 70
     6
  9
$SURFU
 70
     6
  9
$SURFV
 70
     6
  9
$UCSBASE
  2

  9
$UCSNAME
  2

  9
$UCSORG
 10
0.0
 20
0.0
 30
0.0
  9
$UCSXDIR
 10
1.0
 20
0.0
 30
0.0
  9
$UCSYDIR
 10
0.0
 20
1.0
 30
0.0
  9
$UCSORTHOREF
  2

  9
$UCSORTHOVIEW
 70
     0
  9
$UCSORGTOP
 10
0.0
 20
0.0
 30
0.0
  9
$UCSORGBOTTOM
 10
0.0
 20
0.0
 30
0.0
  9
$UCSORGLEFT
 10
0.0
 20
0.0
 30
0.0
  9
$UCSORGRIGHT
 10
0.0
 20
0.0
 30
0.0
  9
$UCSORGFRONT
 10
0.0
 20
0.0
 30
0.0
  9
$UCSORGBACK
 10
0.0
 20
0.0
 30
0.0
  9
$PUCSBASE
  2

  9
$PUCSNAME
  2

  9
$PUCSORG
 10
0.0
 20
0.0
 30
0.0
  9
$PUCSXDIR
 10
1.0
 20
0.0
 30
0.0
  9
$PUCSYDIR
 10
0.0
 20
1.0
 30
0.0
  9
$PUCSORTHOREF
  2

  9
$PUCSORTHOVIEW
 70
     0
  9
$PUCSORGTOP
 10
0.0
 20
0.0
 30
0.0
  9
$PUCSORGBOTTOM
 10
0.0
 20
0.0
 30
0.0
  9
$PUCSORGLEFT
 10
0.0
 20
0.0
 30
0.0
  9
$PUCSORGRIGHT
 10
0.0
 20
0.0
 30
0.0
  9
$PUCSORGFRONT
 10
0.0
 20
0.0
 30
0.0
  9
$PUCSORGBACK
 10
0.0
 20
0.0
 30
0.0
  9
$USERI1
 70
     0
  9
$USERI2
 70
     0
  9
$USERI3
 70
     0
  9
$USERI4
 70
     0
  9
$USERI5
 70
     0
  9
$USERR1
 40
0.0
  9
$USERR2
 40
0.0
  9
$USERR3
 40
0.0
  9
$USERR4
 40
0.0
  9
$USERR5
 40
0.0
  9
$WORLDVIEW
 70
     1
  9
$SHADEDGE
 70
     3
  9
$SHADEDIF
 70
    70
  9
$TILEMODE
 70
     1
  9
$MAXACTVP
 70
    64
  9
$PINSBASE
 10
0.0
 20
0.0
 30
0.0
  9
$PLIMCHECK
 70
     0
  9
$PEXTMIN
 10
1.000000000000000E+20
 20
1.000000000000000E+20
 30
1.000000000000000E+20
  9
$PEXTMAX
 10
-1.000000000000000E+20
 20
-1.000000000000000E+20
 30
-1.000000000000000E+20
  9
$PLIMMIN
 10
0.0
 20
0.0
  9
$PLIMMAX
 10
12.0
 20
9.0
  9
$UNITMODE
 70
     0
  9
$VISRETAIN
 70
     1
  9
$PLINEGEN
 70
     0
  9
$PSLTSCALE
 70
     1
  9
$TREEDEPTH
 70
  3020
  9
$CMLSTYLE
  2
Standard
  9
$CMLJUST
 70
     0
  9
$CMLSCALE
 40
1.0
  9
$PROXYGRAPHICS
 70
     1
  9
$MEASUREMENT
 70
     0
  9
$CELWEIGHT
370
    -1
  9
$ENDCAPS
280
     0
  9
$JOINSTYLE
280
     0
  9
$LWDISPLAY
290
     0
  9
$INSUNITS
 70
     1
  9
$HYPERLINKBASE
  1

  9
$STYLESHEET
  1

  9
$XEDIT
290
     1
  9
$CEPSNTYPE
380
     0
  9
$PSTYLEMODE
290
     1
  9
$FINGERPRINTGUID
  2
{69A548CF-59D0-40B0-A39F-B1D502348DC4}
  9
$VERSIONGUID
  2
{FAEB1C32-E019-11D5-929B-00C0DF256EC4}
  9
$EXTNAMES
290
     1
  9
$PSVPSCALE
 40
0.0
  9
$OLESTARTUP
290
     0
  9
$SORTENTS
280
   127
  9
$INDEXCTL
280
     0
  9
$HIDETEXT
280
     1
  9
$XCLIPFRAME
280
     2
  9
$HALOGAP
280
     0
  9
$OBSCOLOR
 70
   257
  9
$OBSLTYPE
280
     0
  9
$INTERSECTIONDISPLAY
280
     0
  9
$INTERSECTIONCOLOR
 70
   257
  9
$DIMASSOC
280
     2
  9
$PROJECTNAME
  1

  9
$CAMERADISPLAY
290
     0
  9
$LENSLENGTH
 40
50.0
  9
$CAMERAHEIGHT
 40
0.0
  9
$STEPSPERSEC
 40
2.0
  9
$STEPSIZE
 40
6.0
  9
$3DDWFPREC
 40
2.0
  9
$PSOLWIDTH
 40
0.25
  9
$PSOLHEIGHT
 40
4.0
  9
$LOFTANG1
 40
1.570796326794897
  9
$LOFTANG2
 40
1.570796326794897
  9
$LOFTMAG1
 40
0.0
  9
$LOFTMAG2
 40
0.0
  9
$LOFTPARAM
 70
     7
  9
$LOFTNORMALS
280
     1
  9
$LATITUDE
 40
37.795
  9
$LONGITUDE
 40
-122.394
  9
$NORTHDIRECTION
 40
0.0
  9
$TIMEZONE
 70
 -8000
  9
$LIGHTGLYPHDISPLAY
280
     1
  9
$TILEMODELIGHTSYNCH
280
     1
  9
$CMATERIAL
347
44
  9
$SOLIDHIST
280
     0
  9
$SHOWHIST
280
     1
  9
$DWFFRAME
280
     2
  9
$DGNFRAME
280
     2
  9
$REALWORLDSCALE
290
     1
  9
$INTERFERECOLOR
 62
   256
  9
$CSHADOW
280
     0
  9
$SHADOWPLANELOCATION
 40
0.0
  0
ENDSEC
  0
SECTION
  2
CLASSES
  0
CLASS
  1
ACDBDICTIONARYWDFLT
  2
AcDbDictionaryWithDefault
  3
ObjectDBX Classes
 90
        0
 91
        4
280
     0
281
     0
  0
CLASS
  1
VISUALSTYLE
  2
AcDbVisualStyle
  3
ObjectDBX Classes
 90
     4095
 91
        4
280
     0
281
     0
  0
CLASS
  1
MATERIAL
  2
AcDbMaterial
  3
ObjectDBX Classes
 90
     1153
 91
        4
280
     0
281
     0
  0
CLASS
  1
SCALE
  2
AcDbScale
  3
ObjectDBX Classes
 90
     1153
 91
        4
280
     0
281
     0
  0
CLASS
  1
TABLESTYLE
  2
AcDbTableStyle
  3
ObjectDBX Classes
 90
     4095
 91
        4
280
     0
281
     0
  0
CLASS
  1
MLEADERSTYLE
  2
AcDbMLeaderStyle
  3
ACDB_MLEADERSTYLE_CLASS
 90
     4095
 91
        4
280
     0
281
     0
  0
CLASS
  1
SUN
  2
AcDbSun
  3
SCENEOE
 90
     1153
 91
        4
280
     0
281
     0
  0
CLASS
  1
DICTIONARYVAR
  2
AcDbDictionaryVar
  3
ObjectDBX Classes
 90
        0
 91
        4
280
     0
281
     0
  0
CLASS
  1
CELLSTYLEMAP
  2
AcDbCellStyleMap
  3
ObjectDBX Classes
 90
     1152
 91
        4
280
     0
281
     0
  0
ENDSEC
  0
SECTION
  2
TABLES
  0
TABLE
  2
VPORT
  5
8
330
0
100
AcDbSymbolTable
 70
     1
  0
VPORT
  5
29
330
8
100
AcDbSymbolTableRecord
100
AcDbViewportTableRecord
  2
*Active
 70
     0
 10
0.0
 20
0.0
 11
1.0
 21
1.0
 12
0.0
 22
-0.0662500000000001
 13
0.0
 23
0.0
 14
0.5
 24
0.5
 15
0.5
 25
0.5
 16
0.0
 26
0.0
 36
1.0
 17
0.0
 27
0.0
 37
0.0
 40
1.80693
 41
1.83460344340954
 42
50.0
 43
0.0
 44
0.0
 50
0.0
 51
0.0
 71
     0
 72
   100
 73
     1
 74
     3
 75
     0
 76
     0
 77
     0
 78
     0
281
     0
 65
     1
110
0.0
120
0.0
130
0.0
111
1.0
121
0.0
131
0.0
112
0.0
122
1.0
132
0.0
 79
     0
146
0.0
348
2F
 60
     3
 61
     5
292
     1
282
     1
141
0.0
142
0.0
 63
   250
361
6D
  0
ENDTAB
  0
TABLE
  2
LTYPE
  5
5
330
0
100
AcDbSymbolTable
 70
     3
  0
LTYPE
  5
14
330
5
100
AcDbSymbolTableRecord
100
AcDbLinetypeTableRecord
  2
ByBlock
 70
     0
  3

 72
    65
 73
     0
 40
0.0
  0
LTYPE
  5
15
330
5
100
AcDbSymbolTableRecord
100
AcDbLinetypeTableRecord
  2
ByLayer
 70
     0
  3

 72
    65
 73
     0
 40
0.0
  0
LTYPE
  5
16
330
5
100
AcDbSymbolTableRecord
100
AcDbLinetypeTableRecord
  2
Continuous
 70
     0
  3
Solid line
 72
    65
 73
     0
 40
0.0
  0
LTYPE
  5
A0
330
5
100
AcDbSymbolTableRecord
100
AcDbLinetypeTableRecord
  2
Dashed
 70
     0
  3

 72
    65
 73
     2
 40
2.0
 49
1.0
 74
     0
 49
-1.0
 74
     0
  0
LTYPE
  5
15F
330
5
100
AcDbSymbolTableRecord
100
AcDbLinetypeTableRecord
  2
Center
 70
     0
  3

 72
    65
 73
     4
 40
1.5
 49
0.45
 74
     0
 49
-0.5
 74
     0
 49
0.05
 74
     0
 49
-0.5
 74
     0
  0
ENDTAB
  0
TABLE
  2
LAYER
  5
2
330
0
100
AcDbSymbolTable
 70
     7
  0
LAYER
  5
10
330
2
100
AcDbSymbolTableRecord
100
AcDbLayerTableRecord
  2
0
 70
     0
 62
     7
  6
Continuous
370
    -3
390
F
347
46
348
0
  0
LAYER
  5
72
330
2
100
AcDbSymbolTableRecord
100
AcDbLayerTableRecord
  2
AM_6
 70
     0
 62
    -2
  6
Continuous
370
    35
390
F
347
46
348
0
  0
LAYER
  5
A1
330
2
100
AcDbSymbolTableRecord
100
AcDbLayerTableRecord
  2
AM_9
 70
     0
 62
     6
  6
Dashed
370
    25
390
F
347
46
348
0
  0
LAYER
  5
C4
330
2
100
AcDbSymbolTableRecord
100
AcDbLayerTableRecord
  2
AM_4
 70
     0
 62
     7
  6
Continuous
370
    50
390
F
347
46
348
0
  0
LAYER
  5
160
330
2
100
AcDbSymbolTableRecord
100
AcDbLayerTableRecord
  2
AM_7
 70
     0
 62
     7
  6
Center
370
    25
390
F
347
46
348
0
  0
LAYER
  5
18E
330
2
100
AcDbSymbolTableRecord
100
AcDbLayerTableRecord
  2
AM_5
 70
     0
 62
     3
  6
Continuous
370
    25
390
F
347
46
348
0
  0
LAYER
  5
191
330
2
100
AcDbSymbolTableRecord
100
AcDbLayerTableRecord
  2
ConnectionPoints
 70
     0
 62
     7
  6
Continuous
370
    50
390
F
347
46
348
0
  0
ENDTAB
  0
TABLE
  2
STYLE
  5
3
330
0
100
AcDbSymbolTable
 70
     1
  0
STYLE
  5
11
330
3
100
AcDbSymbolTableRecord
100
AcDbTextStyleTableRecord
  2
Standard
 70
     0
 40
0.0
 41
1.0
 50
0.0
 71
     0
 42
0.2
  3
txt
  4

  0
ENDTAB
  0
TABLE
  2
VIEW
  5
6
330
0
100
AcDbSymbolTable
 70
     0
  0
ENDTAB
  0
TABLE
  2
UCS
  5
7
330
0
100
AcDbSymbolTable
 70
     0
  0
ENDTAB
  0
TABLE
  2
APPID
  5
9
330
0
100
AcDbSymbolTable
 70
     1
  0
APPID
  5
12
330
9
100
AcDbSymbolTableRecord
100
AcDbRegAppTableRecord
  2
ACAD
 70
     0
  0
ENDTAB
  0
TABLE
  2
DIMSTYLE
  5
A
330
0
100
AcDbSymbolTable
 70
     1
100
AcDbDimStyleTable
  0
DIMSTYLE
105
27
330
A
100
AcDbSymbolTableRecord
100
AcDbDimStyleTableRecord
  2
Standard
 70
     0
178
     0
340
11
  0
ENDTAB
  0
TABLE
  2
BLOCK_RECORD
  5
1
330
0
100
AcDbSymbolTable
 70
     5
  0
BLOCK_RECORD
  5
1F
330
1
100
AcDbSymbolTableRecord
100
AcDbBlockTableRecord
  2
*Model_Space
340
22
 70
     0
280
     1
281
     0
  0
BLOCK_RECORD
  5
1B
330
1
100
AcDbSymbolTableRecord
100
AcDbBlockTableRecord
  2
*Paper_Space
340
1E
 70
     0
280
     1
281
     0
  0
BLOCK_RECORD
  5
23
330
1
100
AcDbSymbolTableRecord
100
AcDbBlockTableRecord
  2
*Paper_Space0
340
26
 70
     0
280
     1
281
     0
  0
BLOCK_RECORD
  5
6E
330
1
100
AcDbSymbolTableRecord
100
AcDbBlockTableRecord
  2
1_127588_4
340
0
102
{BLKREFS
331
6F
102
}
 70
     0
280
     1
281
     0
  0
BLOCK_RECORD
  5
88
330
1
100
AcDbSymbolTableRecord
100
AcDbBlockTableRecord
  2
2_128648_0_in_127588_4
340
0
102
{BLKREFS
331
89
102
}
 70
     0
280
     1
281
     0
  0
BLOCK_RECORD
  5
D5
330
1
100
AcDbSymbolTableRecord
100
AcDbBlockTableRecord
  2
3_405020c_Inch_0_in_127588_4
340
0
102
{BLKREFS
331
D6
102
}
 70
     0
280
     1
281
     0
  0
BLOCK_RECORD
  5
12C
330
1
100
AcDbSymbolTableRecord
100
AcDbBlockTableRecord
  2
4_127588h_0_in_127588_4
340
0
102
{BLKREFS
331
12D
102
}
 70
     0
280
     1
281
     0
  0
ENDTAB
  0
ENDSEC
  0
SECTION
  2
BLOCKS
  0
BLOCK
  5
20
330
1F
100
AcDbEntity
  8
0
100
AcDbBlockBegin
  2
*Model_Space
 70
     0
 10
0.0
 20
0.0
 30
0.0
  3
*Model_Space
  1

  0
ENDBLK
  5
21
330
1F
100
AcDbEntity
  8
0
100
AcDbBlockEnd
  0
BLOCK
  5
1C
330
1B
100
AcDbEntity
 67
     1
  8
0
100
AcDbBlockBegin
  2
*Paper_Space
 70
     0
 10
0.0
 20
0.0
 30
0.0
  3
*Paper_Space
  1

  0
ENDBLK
  5
1D
330
1B
100
AcDbEntity
 67
     1
  8
0
100
AcDbBlockEnd
  0
BLOCK
  5
24
330
23
100
AcDbEntity
  8
0
100
AcDbBlockBegin
  2
*Paper_Space0
 70
     0
 10
0.0
 20
0.0
 30
0.0
  3
*Paper_Space0
  1

  0
ENDBLK
  5
25
330
23
100
AcDbEntity
  8
0
100
AcDbBlockEnd
  0
BLOCK
  5
70
330
6E
100
AcDbEntity
  8
0
100
AcDbBlockBegin
  2
1_127588_4
 70
     2
 10
0.0
 20
0.0
 30
0.0
  3
1_127588_4
  1

  0
ATTDEF
  5
73
330
6E
100
AcDbEntity
  8
AM_6
100
AcDbText
 10
6.625
 20
0.8195
 30
0.0
 40
0.5
  1
D-Lok Tapped Base Inch Bore - Polymer Housing, Corrosion Resistant Insert
100
AcDbAttributeDefinition
  3

  2
NN
 70
     8
280
     0
  0
ATTDEF
  5
74
330
6E
100
AcDbEntity
  8
AM_6
100
AcDbText
 10
6.625
 20
0.3195
 30
0.0
 40
0.5
  1
DLEZ Normal Duty Polymer Housed Tapped Base Pillow Blocks
100
AcDbAttributeDefinition
  3

  2
NT
 70
     8
280
     0
  0
ATTDEF
  5
75
330
6E
100
AcDbEntity
  8
AM_6
100
AcDbText
 10
6.625
 20
-0.1805
 30
0.0
 40
0.5
  1
127588
100
AcDbAttributeDefinition
  3

  2
NB
 70
     8
280
     0
  0
ATTDEF
  5
76
330
6E
100
AcDbEntity
  8
AM_6
100
AcDbText
 10
6.625
 20
-0.6805
 30
0.0
 40
0.5
  1
$PN.
100
AcDbAttributeDefinition
  3

  2
NBSYN
 70
     8
280
     0
  0
ATTDEF
  5
77
330
6E
100
AcDbEntity
  8
AM_6
100
AcDbText
 10
6.625
 20
-1.1805
 30
0.0
 40
0.5
  1
127588
100
AcDbAttributeDefinition
  3

  2
LINA
 70
     8
280
     0
  0
ATTDEF
  5
78
330
6E
100
AcDbEntity
  8
AM_6
100
AcDbText
 10
6.625
 20
-1.6805
 30
0.0
 40
0.5
  1
205
100
AcDbAttributeDefinition
  3

  2
SERIES
 70
     8
280
     0
  0
ATTDEF
  5
79
330
6E
100
AcDbEntity
  8
AM_6
100
AcDbText
 10
6.625
 20
-2.1805
 30
0.0
 40
0.5
  1
1
100
AcDbAttributeDefinition
  3

  2
SS
 70
     8
280
     0
  0
ATTDEF
  5
7A
330
6E
100
AcDbEntity
  8
AM_6
100
AcDbText
 10
6.625
 20
-2.6805
 30
0.0
 40
0.5
  1
127588
100
AcDbAttributeDefinition
  3

  2
PN
 70
     8
280
     0
  0
ATTDEF
  5
7B
330
6E
100
AcDbEntity
  8
AM_6
100
AcDbText
 10
6.625
 20
-3.1805
 30
0.0
 40
0.5
  1
TB-DLEZ-100-PCR
100
AcDbAttributeDefinition
  3

  2
DESCRIPTION
 70
     8
280
     0
  0
ATTDEF
  5
7C
330
6E
100
AcDbEntity
  8
AM_6
100
AcDbText
 10
6.625
 20
-3.6805
 30
0.0
 40
0.5
  1
1.01
100
AcDbAttributeDefinition
  3

  2
W
 70
     8
280
     0
  0
ATTDEF
  5
7D
330
6E
100
AcDbEntity
  8
AM_6
100
AcDbText
 10
6.625
 20
-4.1805
 30
0.0
 40
0.5
  1
1.44
100
AcDbAttributeDefinition
  3

  2
A
 70
     8
280
     0
  0
ATTDEF
  5
7E
330
6E
100
AcDbEntity
  8
AM_6
100
AcDbText
 10
6.625
 20
-4.6805
 30
0.0
 40
0.5
  1
3.25
100
AcDbAttributeDefinition
  3

  2
B
 70
     8
280
     0
  0
ATTDEF
  5
7F
330
6E
100
AcDbEntity
  8
AM_6
100
AcDbText
 10
6.625
 20
-5.1805
 30
0.0
 40
0.5
  1
1.49
100
AcDbAttributeDefinition
  3

  2
C
 70
     8
280
     0
  0
ATTDEF
  5
80
330
6E
100
AcDbEntity
  8
AM_6
100
AcDbText
 10
6.625
 20
-5.6805
 30
0.0
 40
0.5
  1
2.00
100
AcDbAttributeDefinition
  3

  2
D
 70
     8
280
     0
  0
ATTDEF
  5
81
330
6E
100
AcDbEntity
  8
AM_6
100
AcDbText
 10
6.625
 20
-6.1805
 30
0.0
 40
0.5
  1
2.89
100
AcDbAttributeDefinition
  3

  2
J
 70
     8
280
     0
  0
ATTDEF
  5
82
330
6E
100
AcDbEntity
  8
AM_6
100
AcDbText
 10
6.625
 20
-6.6805
 30
0.0
 40
0.5
  1
1.99
100
AcDbAttributeDefinition
  3

  2
L
 70
     8
280
     0
  0
ATTDEF
  5
83
330
6E
100
AcDbEntity
  8
AM_6
100
AcDbText
 10
6.625
 20
-7.1805
 30
0.0
 40
0.5
  1
1.44
100
AcDbAttributeDefinition
  3

  2
M
 70
     8
280
     0
  0
ATTDEF
  5
84
330
6E
100
AcDbEntity
  8
AM_6
100
AcDbText
 10
6.625
 20
-7.6805
 30
0.0
 40
0.5
  1
0.40
100
AcDbAttributeDefinition
  3

  2
N
 70
     8
280
     0
  0
ATTDEF
  5
85
330
6E
100
AcDbEntity
  8
AM_6
100
AcDbText
 10
6.625
 20
-8.1805
 30
0.0
 40
0.5
  1
3/8-16
100
AcDbAttributeDefinition
  3

  2
R
 70
     8
280
     0
  0
ATTDEF
  5
86
330
6E
100
AcDbEntity
  8
AM_6
100
AcDbText
 10
6.625
 20
-8.6805
 30
0.0
 40
0.5
  1
0.88
100
AcDbAttributeDefinition
  3

  2
S
 70
     8
280
     0
  0
ATTDEF
  5
87
330
6E
100
AcDbEntity
  8
AM_6
100
AcDbText
 10
6.625
 20
-9.1805
 30
0.0
 40
0.5
  1
baldor
100
AcDbAttributeDefinition
  3

  2
COMPANY
 70
     8
280
     0
  0
INSERT
  5
89
330
6E
100
AcDbEntity
  8
0
100
AcDbBlockReference
  2
2_128648_0_in_127588_4
 10
0.0
 20
0.0
 30
0.0
  0
INSERT
  5
D6
330
6E
100
AcDbEntity
  8
0
100
AcDbBlockReference
  2
3_405020c_Inch_0_in_127588_4
 10
0.0
 20
0.0
 30
0.0
  0
INSERT
  5
12D
330
6E
100
AcDbEntity
  8
0
100
AcDbBlockReference
  2
4_127588h_0_in_127588_4
 10
0.0
 20
0.0
 30
0.0
  0
ENDBLK
  5
71
330
6E
100
AcDbEntity
  8
0
100
AcDbBlockEnd
  0
BLOCK
  5
8A
330
88
100
AcDbEntity
  8
0
100
AcDbBlockBegin
  2
2_128648_0_in_127588_4
 70
     2
 10
0.0
 20
0.0
 30
0.0
  3
2_128648_0_in_127588_4
  1

  0
ATTDEF
  5
8C
330
88
100
AcDbEntity
  8
AM_6
100
AcDbText
 10
6.023071041524601
 20
0.56
 30
0.0
 40
0.5
  1
D-Lok Insert Inch Bore
100
AcDbAttributeDefinition
  3

  2
NN
 70
     8
280
     0
  0
ATTDEF
  5
8D
330
88
100
AcDbEntity
  8
AM_6
100
AcDbText
 10
6.023071041524601
 20
0.0600000000000001
 30
0.0
 40
0.5
  1
D-LOK
100
AcDbAttributeDefinition
  3

  2
NT
 70
     8
280
     0
  0
ATTDEF
  5
8E
330
88
100
AcDbEntity
  8
AM_6
100
AcDbText
 10
6.023071041524601
 20
-0.4399999999999999
 30
0.0
 40
0.5
  1
128648
100
AcDbAttributeDefinition
  3

  2
NB
 70
     8
280
     0
  0
ATTDEF
  5
8F
330
88
100
AcDbEntity
  8
AM_6
100
AcDbText
 10
6.023071041524601
 20
-0.94
 30
0.0
 40
0.5
  1
$PN.
100
AcDbAttributeDefinition
  3

  2
NBSYN
 70
     8
280
     0
  0
ATTDEF
  5
90
330
88
100
AcDbEntity
  8
AM_6
100
AcDbText
 10
6.023071041524601
 20
-1.44
 30
0.0
 40
0.5
  1
128648
100
AcDbAttributeDefinition
  3

  2
LINA
 70
     8
280
     0
  0
ATTDEF
  5
91
330
88
100
AcDbEntity
  8
AM_6
100
AcDbText
 10
6.023071041524601
 20
-1.94
 30
0.0
 40
0.5
  1
205
100
AcDbAttributeDefinition
  3

  2
SERIES
 70
     8
280
     0
  0
ATTDEF
  5
92
330
88
100
AcDbEntity
  8
AM_6
100
AcDbText
 10
6.023071041524601
 20
-2.44
 30
0.0
 40
0.5
  1
1
100
AcDbAttributeDefinition
  3

  2
SS
 70
     8
280
     0
  0
ATTDEF
  5
93
330
88
100
AcDbEntity
  8
AM_6
100
AcDbText
 10
6.023071041524601
 20
-2.94
 30
0.0
 40
0.5
  1
128648
100
AcDbAttributeDefinition
  3

  2
PN
 70
     8
280
     0
  0
ATTDEF
  5
94
330
88
100
AcDbEntity
  8
AM_6
100
AcDbText
 10
6.023071041524601
 20
-3.44
 30
0.0
 40
0.5
  1
INS-DL-100
100
AcDbAttributeDefinition
  3

  2
DESCRIPTION
 70
     8
280
     0
  0
ATTDEF
  5
95
330
88
100
AcDbEntity
  8
AM_6
100
AcDbText
 10
6.023071041524601
 20
-3.94
 30
0.0
 40
0.5
  1
0.8
100
AcDbAttributeDefinition
  3

  2
WEIGHT
 70
     8
280
     0
  0
ATTDEF
  5
96
330
88
100
AcDbEntity
  8
AM_6
100
AcDbText
 10
6.023071041524601
 20
-4.44
 30
0.0
 40
0.5
  1
1.44
100
AcDbAttributeDefinition
  3

  2
A
 70
     8
280
     0
  0
ATTDEF
  5
97
330
88
100
AcDbEntity
  8
AM_6
100
AcDbText
 10
6.023071041524601
 20
-4.94
 30
0.0
 40
0.5
  1
0.59
100
AcDbAttributeDefinition
  3

  2
C
 70
     8
280
     0
  0
ATTDEF
  5
98
330
88
100
AcDbEntity
  8
AM_6
100
AcDbText
 10
6.023071041524601
 20
-5.44
 30
0.0
 40
0.5
  1
2.0472
100
AcDbAttributeDefinition
  3

  2
D
 70
     8
280
     0
  0
ATTDEF
  5
99
330
88
100
AcDbEntity
  8
AM_6
100
AcDbText
 10
6.023071041524601
 20
-5.94
 30
0.0
 40
0.5
  1
0.16
100
AcDbAttributeDefinition
  3

  2
J
 70
     8
280
     0
  0
ATTDEF
  5
9A
330
88
100
AcDbEntity
  8
AM_6
100
AcDbText
 10
6.023071041524601
 20
-6.44
 30
0.0
 40
0.5
  1
1.99
100
AcDbAttributeDefinition
  3

  2
L
 70
     8
280
     0
  0
ATTDEF
  5
9B
330
88
100
AcDbEntity
  8
AM_6
100
AcDbText
 10
6.023071041524601
 20
-6.94
 30
0.0
 40
0.5
  1
#10-32
100
AcDbAttributeDefinition
  3

  2
N
 70
     8
280
     0
  0
ATTDEF
  5
9C
330
88
100
AcDbEntity
  8
AM_6
100
AcDbText
 10
6.023071041524601
 20
-7.44
 30
0.0
 40
0.5
  1
0.56
100
AcDbAttributeDefinition
  3

  2
W
 70
     8
280
     0
  0
ATTDEF
  5
9D
330
88
100
AcDbEntity
  8
AM_6
100
AcDbText
 10
6.023071041524601
 20
-7.94
 30
0.0
 40
0.5
  1
0.88
100
AcDbAttributeDefinition
  3

  2
Y
 70
     8
280
     0
  0
ATTDEF
  5
9E
330
88
100
AcDbEntity
  8
AM_6
100
AcDbText
 10
6.023071041524601
 20
-8.44
 30
0.0
 40
0.5
  1
1.32
100
AcDbAttributeDefinition
  3

  2
Z
 70
     8
280
     0
  0
ATTDEF
  5
9F
330
88
100
AcDbEntity
  8
AM_6
100
AcDbText
 10
6.023071041524601
 20
-8.94
 30
0.0
 40
0.5
  1
baldor
100
AcDbAttributeDefinition
  3

  2
COMPANY
 70
     8
280
     0
  0
LINE
  5
A2
330
88
100
AcDbEntity
  8
AM_9
100
AcDbLine
 10
0.5
 20
-0.8402
 30
0.0
 11
0.5
 21
0.5202
 31
0.0
  0
LINE
  5
A3
330
88
100
AcDbEntity
  8
AM_9
100
AcDbLine
 10
-0.5
 20
0.5202
 30
0.0
 11
-0.5
 21
-0.8402
 31
0.0
  0
LINE
  5
A4
330
88
100
AcDbEntity
  8
AM_9
100
AcDbLine
 10
0.5
 20
0.5202
 30
0.0
 11
0.5398000000000001
 21
0.56
 31
0.0
  0
LINE
  5
A5
330
88
100
AcDbEntity
  8
AM_9
100
AcDbLine
 10
-0.5398000000000001
 20
0.56
 30
0.0
 11
-0.5
 21
0.5202
 31
0.0
  0
LINE
  5
A6
330
88
100
AcDbEntity
  8
AM_9
100
AcDbLine
 10
-0.5
 20
-0.8402
 30
0.0
 11
-0.5398000000000001
 21
-0.8799999999999999
 31
0.0
  0
LINE
  5
A7
330
88
100
AcDbEntity
  8
AM_9
100
AcDbLine
 10
0.5398000000000001
 20
-0.8799999999999999
 30
0.0
 11
0.5
 21
-0.8402
 31
0.0
  0
LINE
  5
A8
330
88
100
AcDbEntity
  8
AM_9
100
AcDbLine
 10
0.66
 20
0.295
 30
0.0
 11
0.66
 21
0.4326614022990248
 31
0.0
  0
LINE
  5
A9
330
88
100
AcDbEntity
  8
AM_9
100
AcDbLine
 10
-0.66
 20
0.4326614022990248
 30
0.0
 11
-0.66
 21
0.295
 31
0.0
  0
LINE
  5
AA
330
88
100
AcDbEntity
  8
AM_9
100
AcDbLine
 10
0.6600000000000003
 20
-0.4326614022990238
 30
0.0
 11
0.6600000000000003
 21
-0.295
 31
0.0
  0
LINE
  5
AB
330
88
100
AcDbEntity
  8
AM_9
100
AcDbLine
 10
-0.6600000000000003
 20
-0.295
 30
0.0
 11
-0.6600000000000003
 21
-0.4326614022990238
 31
0.0
  0
LINE
  5
AC
330
88
100
AcDbEntity
  8
AM_9
100
AcDbLine
 10
0.9702666666666667
 20
-0.1919999999999998
 30
0.0
 11
0.9702666666666667
 21
-0.128
 31
0.0
  0
LINE
  5
AD
330
88
100
AcDbEntity
  8
AM_9
100
AcDbLine
 10
-0.9702666666666667
 20
-0.128
 30
0.0
 11
-0.9702666666666667
 21
-0.1919999999999998
 31
0.0
  0
LINE
  5
AE
330
88
100
AcDbEntity
  8
AM_9
100
AcDbLine
 10
-0.9560865860370598
 20
0.295
 30
0.0
 11
0.9560865860359103
 21
0.295
 31
0.0
  0
ARC
  5
AF
330
88
100
AcDbEntity
  8
AM_9
100
AcDbCircle
 10
0.9560865860370601
 20
0.2630000000000001
 30
0.0
 40
0.0319999999999998
100
AcDbArc
 50
15.38049883735852
 51
90.0
  0
ARC
  5
B0
330
88
100
AcDbEntity
  8
AM_9
100
AcDbCircle
 10
-0.9560865860370601
 20
0.2630000000000001
 30
0.0
 40
0.0319999999999999
100
AcDbArc
 50
90.0
 51
164.6195011626415
  0
LINE
  5
B1
330
88
100
AcDbEntity
  8
AM_9
100
AcDbLine
 10
-0.9560865860370598
 20
-0.295
 30
0.0
 11
0.9560865860359103
 21
-0.295
 31
0.0
  0
ARC
  5
B2
330
88
100
AcDbEntity
  8
AM_9
100
AcDbCircle
 10
0.9560865860370595
 20
-0.2629999999999996
 30
0.0
 40
0.0320000000000004
100
AcDbArc
 50
270.0
 51
344.6195040508812
  0
ARC
  5
B3
330
88
100
AcDbEntity
  8
AM_9
100
AcDbCircle
 10
-0.9560865860370594
 20
-0.2629999999999994
 30
0.0
 40
0.0320000000000005
100
AcDbArc
 50
195.380495949119
 51
270.0
  0
LINE
  5
B4
330
88
100
AcDbEntity
  8
AM_9
100
AcDbLine
 10
0.7173442600080513
 20
-0.4399999999999999
 30
0.0
 11
0.9552
 21
-0.4399999999999999
 31
0.0
  0
LINE
  5
B5
330
88
100
AcDbEntity
  8
AM_9
100
AcDbLine
 10
-0.9552
 20
-0.4399999999999999
 30
0.0
 11
-0.7173442600080513
 21
-0.4399999999999999
 31
0.0
  0
LINE
  5
B6
330
88
100
AcDbEntity
  8
AM_9
100
AcDbLine
 10
-0.9552
 20
-0.4399999999999999
 30
0.0
 11
-0.995
 21
-0.4797999999999999
 31
0.0
  0
LINE
  5
B7
330
88
100
AcDbEntity
  8
AM_9
100
AcDbLine
 10
0.995
 20
-0.4797999999999999
 30
0.0
 11
0.9552
 21
-0.4399999999999999
 31
0.0
  0
LINE
  5
B8
330
88
100
AcDbEntity
  8
AM_9
100
AcDbLine
 10
0.9208428155488848
 20
-0.4797999999999999
 30
0.0
 11
0.995
 21
-0.4797999999999999
 31
0.0
  0
LINE
  5
B9
330
88
100
AcDbEntity
  8
AM_9
100
AcDbLine
 10
-0.995
 20
-0.4797999999999999
 30
0.0
 11
-0.9208428155488848
 21
-0.4797999999999999
 31
0.0
  0
LINE
  5
BA
330
88
100
AcDbEntity
  8
AM_9
100
AcDbLine
 10
0.995
 20
-0.5088527827859464
 30
0.0
 11
0.995
 21
-0.4797999999999999
 31
0.0
  0
LINE
  5
BB
330
88
100
AcDbEntity
  8
AM_9
100
AcDbLine
 10
-0.995
 20
-0.4797999999999999
 30
0.0
 11
-0.995
 21
-0.5088527827859464
 31
0.0
  0
LINE
  5
BC
330
88
100
AcDbEntity
  8
AM_9
100
AcDbLine
 10
-0.9869405299188527
 20
-0.2714872932634129
 30
0.0
 11
0.986940529918745
 21
-0.2714872932634129
 31
0.0
  0
LINE
  5
BD
330
88
100
AcDbEntity
  8
AM_9
100
AcDbLine
 10
-1.005431728164573
 20
-0.192
 30
0.0
 11
1.005431728164465
 21
-0.192
 31
0.0
  0
ARC
  5
BE
330
88
100
AcDbEntity
  8
AM_9
100
AcDbCircle
 10
-0.0000000001283054
 20
0.0000000000298182
 30
0.0
 40
1.023600000131515
100
AcDbArc
 50
344.6195040511763
 51
349.188803186854
  0
ARC
  5
BF
330
88
100
AcDbEntity
  8
AM_9
100
AcDbCircle
 10
0.000000000127987
 20
0.0000000000297438
 30
0.0
 40
1.023600000131188
100
AcDbArc
 50
190.8111968131453
 51
195.3804959488245
  0
LINE
  5
C0
330
88
100
AcDbEntity
  8
AM_9
100
AcDbLine
 10
-1.015565340093881
 20
-0.1279999999999998
 30
0.0
 11
1.015565340093876
 21
-0.1279999999999998
 31
0.0
  0
LINE
  5
C1
330
88
100
AcDbEntity
  8
AM_9
100
AcDbLine
 10
-0.9869405294910142
 20
0.2714872948187388
 30
0.0
 11
0.9869405294910095
 21
0.2714872948187388
 31
0.0
  0
ARC
  5
C2
330
88
100
AcDbEntity
  8
AM_9
100
AcDbCircle
 10
0.0000000000015725
 20
0.0000000000001128
 30
0.0
 40
1.02359999999845
100
AcDbArc
 50
352.816423346272
 51
15.38049603942781
  0
ARC
  5
C3
330
88
100
AcDbEntity
  8
AM_9
100
AcDbCircle
 10
-0.0000000000015714
 20
0.0000000000001128
 30
0.0
 40
1.023599999998451
100
AcDbArc
 50
164.6195039605722
 51
187.183576653728
  0
LINE
  5
C5
330
88
100
AcDbEntity
  8
AM_4
100
AcDbLine
 10
-0.6201999999999999
 20
0.56
 30
0.0
 11
0.6201999999999999
 21
0.56
 31
0.0
  0
LINE
  5
C6
330
88
100
AcDbEntity
  8
AM_4
100
AcDbLine
 10
-0.6201999999999999
 20
0.56
 30
0.0
 11
-0.6599999999999999
 21
0.5202
 31
0.0
  0
LINE
  5
C7
330
88
100
AcDbEntity
  8
AM_4
100
AcDbLine
 10
0.6599999999999999
 20
0.5202
 30
0.0
 11
0.6201999999999999
 21
0.56
 31
0.0
  0
LINE
  5
C8
330
88
100
AcDbEntity
  8
AM_4
100
AcDbLine
 10
-0.6599999999999999
 20
0.5202
 30
0.0
 11
0.66
 21
0.5202
 31
0.0
  0
LINE
  5
C9
330
88
100
AcDbEntity
  8
AM_4
100
AcDbLine
 10
0.66
 20
0.4326614022990248
 30
0.0
 11
0.66
 21
0.5202
 31
0.0
  0
LINE
  5
CA
330
88
100
AcDbEntity
  8
AM_4
100
AcDbLine
 10
-0.66
 20
0.5202
 30
0.0
 11
-0.66
 21
0.4326614022990248
 31
0.0
  0
LINE
  5
CB
330
88
100
AcDbEntity
  8
AM_4
100
AcDbLine
 10
0.6600000000000003
 20
-0.4399999999999999
 30
0.0
 11
0.6600000000000003
 21
-0.4326614022990238
 31
0.0
  0
LINE
  5
CC
330
88
100
AcDbEntity
  8
AM_4
100
AcDbLine
 10
-0.6600000000000003
 20
-0.4326614022990238
 30
0.0
 11
-0.6600000000000003
 21
-0.4399999999999999
 31
0.0
  0
LINE
  5
CD
330
88
100
AcDbEntity
  8
AM_4
100
AcDbLine
 10
-0.7173442600080513
 20
-0.4399999999999999
 30
0.0
 11
0.7173442600080513
 21
-0.4399999999999999
 31
0.0
  0
LINE
  5
CE
330
88
100
AcDbEntity
  8
AM_4
100
AcDbLine
 10
-0.9208428155488848
 20
-0.4797999999999999
 30
0.0
 11
0.9208428155488848
 21
-0.4797999999999999
 31
0.0
  0
LINE
  5
CF
330
88
100
AcDbEntity
  8
AM_4
100
AcDbLine
 10
0.995
 20
-0.8402
 30
0.0
 11
0.995
 21
-0.5088527827859464
 31
0.0
  0
LINE
  5
D0
330
88
100
AcDbEntity
  8
AM_4
100
AcDbLine
 10
-0.995
 20
-0.5088527827859464
 30
0.0
 11
-0.995
 21
-0.8402
 31
0.0
  0
LINE
  5
D1
330
88
100
AcDbEntity
  8
AM_4
100
AcDbLine
 10
-0.9552
 20
-0.8799999999999999
 30
0.0
 11
0.9552
 21
-0.8799999999999999
 31
0.0
  0
LINE
  5
D2
330
88
100
AcDbEntity
  8
AM_4
100
AcDbLine
 10
-0.995
 20
-0.8402
 30
0.0
 11
0.995
 21
-0.8402
 31
0.0
  0
LINE
  5
D3
330
88
100
AcDbEntity
  8
AM_4
100
AcDbLine
 10
0.9552
 20
-0.8799999999999999
 30
0.0
 11
0.995
 21
-0.8402
 31
0.0
  0
LINE
  5
D4
330
88
100
AcDbEntity
  8
AM_4
100
AcDbLine
 10
-0.995
 20
-0.8402
 30
0.0
 11
-0.9552
 21
-0.8799999999999999
 31
0.0
  0
ENDBLK
  5
8B
330
88
100
AcDbEntity
  8
0
100
AcDbBlockEnd
  0
BLOCK
  5
D7
330
D5
100
AcDbEntity
  8
0
100
AcDbBlockBegin
  2
3_405020c_Inch_0_in_127588_4
 70
     2
 10
0.0
 20
0.0
 30
0.0
  3
3_405020c_Inch_0_in_127588_4
  1

  0
ATTDEF
  5
D9
330
D5
100
AcDbEntity
  8
AM_6
100
AcDbText
 10
6.321358617317615
 20
0.1624086307230418
 30
0.0
 40
0.5
  1
405020C -Inch
100
AcDbAttributeDefinition
  3

  2
NN
 70
     8
280
     0
  0
ATTDEF
  5
DA
330
D5
100
AcDbEntity
  8
AM_6
100
AcDbText
 10
6.321358617317615
 20
-0.3375913692769582
 30
0.0
 40
0.5
  1
Grease fitting
100
AcDbAttributeDefinition
  3

  2
NT
 70
     8
280
     0
  0
ATTDEF
  5
DB
330
D5
100
AcDbEntity
  8
AM_6
100
AcDbText
 10
6.321358617317615
 20
-0.8375913692769582
 30
0.0
 40
0.5
  1
405020c-Inch
100
AcDbAttributeDefinition
  3

  2
NB
 70
     8
280
     0
  0
ATTDEF
  5
DC
330
D5
100
AcDbEntity
  8
AM_6
100
AcDbText
 10
6.321358617317615
 20
-1.337591369276958
 30
0.0
 40
0.5
  1
$MN.-Inch
100
AcDbAttributeDefinition
  3

  2
NBSYN
 70
     8
280
     0
  0
ATTDEF
  5
DD
330
D5
100
AcDbEntity
  8
AM_6
100
AcDbText
 10
6.321358617317615
 20
-1.837591369276958
 30
0.0
 40
0.5
  1
405020c
100
AcDbAttributeDefinition
  3

  2
LINA
 70
     8
280
     0
  0
ATTDEF
  5
DE
330
D5
100
AcDbEntity
  8
AM_6
100
AcDbText
 10
6.321358617317615
 20
-2.337591369276958
 30
0.0
 40
0.5
  1
405020c
100
AcDbAttributeDefinition
  3

  2
MN
 70
     8
280
     0
  0
ATTDEF
  5
DF
330
D5
100
AcDbEntity
  8
AM_6
100
AcDbText
 10
6.321358617317615
 20
-2.837591369276958
 30
0.0
 40
0.5
  1
0.230
100
AcDbAttributeDefinition
  3

  2
NDR
 70
     8
280
     0
  0
ATTDEF
  5
E0
330
D5
100
AcDbEntity
  8
AM_6
100
AcDbText
 10
6.321358617317615
 20
-3.337591369276958
 30
0.0
 40
0.5
  1
0.210
100
AcDbAttributeDefinition
  3

  2
KDR
 70
     8
280
     0
  0
ATTDEF
  5
E1
330
D5
100
AcDbEntity
  8
AM_6
100
AcDbText
 10
6.321358617317615
 20
-3.837591369276958
 30
0.0
 40
0.5
  1
0.157
100
AcDbAttributeDefinition
  3

  2
BZE
 70
     8
280
     0
  0
ATTDEF
  5
E2
330
D5
100
AcDbEntity
  8
AM_6
100
AcDbText
 10
6.321358617317615
 20
-4.337591369276958
 30
0.0
 40
0.5
  1
9/32
100
AcDbAttributeDefinition
  3

  2
WAF
 70
     8
280
     0
  0
ATTDEF
  5
E3
330
D5
100
AcDbEntity
  8
AM_6
100
AcDbText
 10
6.321358617317615
 20
-4.837591369276958
 30
0.0
 40
0.5
  1
0.2813
100
AcDbAttributeDefinition
  3

  2
WAF1
 70
     8
280
     0
  0
ATTDEF
  5
E4
330
D5
100
AcDbEntity
  8
AM_6
100
AcDbText
 10
6.321358617317615
 20
-5.337591369276958
 30
0.0
 40
0.5
  1
0.545
100
AcDbAttributeDefinition
  3

  2
BL
 70
     8
280
     0
  0
ATTDEF
  5
E5
330
D5
100
AcDbEntity
  8
AM_6
100
AcDbText
 10
6.321358617317615
 20
-5.837591369276958
 30
0.0
 40
0.5
  1
0.200
100
AcDbAttributeDefinition
  3

  2
TL
 70
     8
280
     0
  0
ATTDEF
  5
E6
330
D5
100
AcDbEntity
  8
AM_6
100
AcDbText
 10
6.321358617317615
 20
-6.337591369276958
 30
0.0
 40
0.5
  1
baldor
100
AcDbAttributeDefinition
  3

  2
COMPANY
 70
     8
280
     0
  0
ELLIPSE
  5
E7
330
D5
100
AcDbEntity
  8
AM_9
100
AcDbEllipse
 10
0.8715733611719827
 20
0.0000000000000001
 30
0.0
 11
-1.838598171376523E-17
 21
-0.1000886227036577
 31
0.0
210
0.0
220
0.0
230
1.0
 40
0.7071067811865474
 41
0.0
 42
6.283185307179586
  0
LINE
  5
E8
330
D5
100
AcDbEntity
  8
AM_9
100
AcDbLine
 10
1.155467158981639
 20
-0.0812043153615208
 30
0.0
 11
1.116571865463825
 21
-0.0812043153615208
 31
0.0
  0
LINE
  5
E9
330
D5
100
AcDbEntity
  8
AM_9
100
AcDbLine
 10
1.155467158981639
 20
0.0812043153615209
 30
0.0
 11
1.116571865463825
 21
0.0812043153615209
 31
0.0
  0
LWPOLYLINE
  5
EA
330
D5
100
AcDbEntity
  8
AM_9
100
AcDbPolyline
 90
        3
 70
     0
 43
0.0
 10
1.11244928618318
 20
0.0000000000000001
 10
1.113537435458094
 20
-0.0406021576807604
 10
1.116571865463825
 20
-0.0812043153615208
  0
LWPOLYLINE
  5
EB
330
D5
100
AcDbEntity
  8
AM_9
100
AcDbPolyline
 90
        4
 70
     0
 43
0.0
 10
1.116571865463825
 20
0.0812043153615209
 10
1.114946644807238
 20
0.0623017518439032
 10
1.113098828626212
 20
0.0312428256208205
 10
1.11244928618318
 20
0.0000000000000001
  0
LWPOLYLINE
  5
EC
330
D5
100
AcDbEntity
  8
AM_9
100
AcDbPolyline
 90
        3
 70
     0
 43
0.0
 10
1.062722001796236
 20
0.1218064730422814
 10
1.088673793264622
 20
0.1015053942019011
 10
1.116571865463825
 20
0.0812043153615209
  0
LWPOLYLINE
  5
ED
330
D5
100
AcDbEntity
  8
AM_9
100
AcDbPolyline
 90
        3
 70
     0
 43
0.0
 10
1.116571865463825
 20
-0.0812043153615208
 10
1.088795200077976
 20
-0.1014141150849085
 10
1.062722001796236
 20
-0.1218064730422812
  0
LWPOLYLINE
  5
EE
330
D5
100
AcDbEntity
  8
AM_9
100
AcDbPolyline
 90
        3
 70
     0
 43
0.0
 10
1.155467158981639
 20
0.0812043153615209
 10
1.133740127241347
 20
0.1014141150849086
 10
1.121827166327821
 20
0.1118189926816819
  0
LWPOLYLINE
  5
EF
330
D5
100
AcDbEntity
  8
AM_9
100
AcDbPolyline
 90
        4
 70
     0
 43
0.0
 10
1.159572657215843
 20
0.0050366637335523
 10
1.158943968327201
 20
0.0311508759219516
 10
1.157092379638226
 20
0.0623017518439032
 10
1.155467158981639
 20
0.0812043153615209
  0
LINE
  5
F0
330
D5
100
AcDbEntity
  8
AM_9
100
AcDbLine
 10
1.159589738262283
 20
0.0000000000000001
 30
0.0
 11
1.159576897643207
 21
0.0043667811767385
 31
0.0
  0
LWPOLYLINE
  5
F1
330
D5
100
AcDbEntity
  8
AM_9
100
AcDbPolyline
 90
        3
 70
     0
 43
0.0
 10
1.121826016356834
 20
-0.1118199743330277
 10
1.133637946793898
 20
-0.101505394201901
 10
1.155467158981639
 20
-0.0812043153615208
  0
LWPOLYLINE
  5
F2
330
D5
100
AcDbEntity
  8
AM_9
100
AcDbPolyline
 90
        3
 70
     0
 43
0.0
 10
1.155467158981639
 20
-0.0812043153615208
 10
1.158491975804417
 20
-0.0407847159147454
 10
1.159589738262283
 20
0.0000000000000001
  0
LWPOLYLINE
  5
F3
330
D5
100
AcDbEntity
  8
AM_9
100
AcDbPolyline
 90
        3
 70
     0
 43
0.0
 10
1.017117296689937
 20
0.1624086307230418
 10
1.038844328430229
 20
0.1421988309996541
 10
1.062722001796236
 20
0.1218064730422814
  0
LWPOLYLINE
  5
F4
330
D5
100
AcDbEntity
  8
AM_9
100
AcDbPolyline
 90
        3
 70
     0
 43
0.0
 10
1.062722001796236
 20
-0.1218064730422812
 10
1.038946508877678
 20
-0.1421075518826614
 10
1.017117296689937
 20
-0.1624086307230417
  0
LINE
  5
F5
330
D5
100
AcDbEntity
  8
AM_9
100
AcDbLine
 10
0.8764361036342682
 20
-0.1103623268442186
 30
0.0
 11
1.010378897325085
 21
-0.116285006703984
 31
0.0
  0
LINE
  5
F6
330
D5
100
AcDbEntity
  8
AM_9
100
AcDbLine
 10
1.010378897325085
 20
0.1162850067039842
 30
0.0
 11
0.8764361036342682
 21
0.1103623268442187
 31
0.0
  0
ELLIPSE
  5
F7
330
D5
100
AcDbEntity
  8
AM_9
100
AcDbEllipse
 10
1.060135169488396
 20
-0.0000000000000005
 30
0.0
 11
8.612328615003713E-18
 21
0.1406499999999992
 31
0.0
210
0.0
220
0.0
230
1.0
 40
0.7071067811865452
 41
3.798906696793619
 42
5.625871263975763
  0
ELLIPSE
  5
F8
330
D5
100
AcDbEntity
  8
AM_9
100
AcDbEllipse
 10
1.082282142373927
 20
0.0000000000000002
 30
0.0
 11
6.694498085252781E-18
 21
0.1093294505797713
 31
0.0
210
0.0
220
0.0
230
1.0
 40
0.7071067811865476
 41
5.36047662513579
 42
5.928986666165875
  0
ELLIPSE
  5
F9
330
D5
100
AcDbEntity
  8
AM_9
100
AcDbEllipse
 10
1.082282142373929
 20
-0.0000000000000008
 30
0.0
 11
6.694498085252718E-18
 21
0.1093294505797702
 31
0.0
210
0.0
220
0.0
230
1.0
 40
0.7071067811865419
 41
3.495791294603485
 42
4.137440550733769
  0
ELLIPSE
  5
FA
330
D5
100
AcDbEntity
  8
AM_9
100
AcDbEllipse
 10
1.082282142373455
 20
-0.0000000000000348
 30
0.0
 11
6.694498085247212E-18
 21
0.1093294505796803
 31
0.0
210
0.0
220
0.0
230
1.0
 40
0.7071067811910942
 41
4.329488202781221
 42
5.176913304078672
  0
LWPOLYLINE
  5
FB
330
D5
100
AcDbEntity
  8
AM_9
100
AcDbPolyline
 90
       14
 70
     0
 43
0.0
 10
1.107282142373927
 20
0.0946847896390988
 10
1.108781170025745
 20
0.0946345369450359
 10
1.113066455448061
 20
0.0939429795079204
 10
1.11712912639278
 20
0.0925637207881926
 10
1.121237819185521
 20
0.0904834409579855
 10
1.125440402736531
 20
0.0876523233163783
 10
1.130131514258653
 20
0.0836248904621757
 10
1.134749402546012
 20
0.0786865174201525
 10
1.139218151490125
 20
0.0728427856096867
 10
1.143451383998941
 20
0.0661176927670675
 10
1.147356838496425
 20
0.0585607049225756
 10
1.150842109470226
 20
0.050251581177996
 10
1.153827407309325
 20
0.0412817206678483
 10
1.154955146431703
 20
0.0371882139234516
  0
LWPOLYLINE
  5
FC
330
D5
100
AcDbEntity
  8
AM_9
100
AcDbPolyline
 90
        5
 70
     0
 43
0.0
 10
1.098199798823909
 20
-0.0928754980526038
 10
1.097791553737481
 20
-0.0927120106585187
 10
1.093690266994176
 20
-0.090695016116185
 10
1.089495669195809
 20
-0.0879317632634904
 10
1.089492374005687
 20
-0.0879293115541423
  0
LWPOLYLINE
  5
FD
330
D5
100
AcDbEntity
  8
AM_9
100
AcDbPolyline
 90
       16
 70
     0
 43
0.0
 10
1.155160707742885
 20
-0.0363835599346181
 10
1.154382223629936
 20
-0.0393307040394976
 10
1.151508936193516
 20
-0.0484306734700846
 10
1.148126390592881
 20
-0.0568754213563584
 10
1.14432055535078
 20
-0.0645633866227846
 10
1.140189457269993
 20
-0.0714125917318585
 10
1.135839748640293
 20
-0.0773646447174695
 10
1.131388500542499
 20
-0.0823813210928962
 10
1.126945984871645
 20
-0.0864620502220048
 10
1.122606727575314
 20
-0.08963970807958
 10
1.118432053770337
 20
-0.0919776822596537
 10
1.114421482132494
 20
-0.0935594364215956
 10
1.110459874951368
 20
-0.0944594900554136
 10
1.106210301339328
 20
-0.0946590888190142
 10
1.101856710542473
 20
-0.0940315060466137
 10
1.098199798823909
 20
-0.0928754980526038
  0
LWPOLYLINE
  5
FE
330
D5
100
AcDbEntity
  8
AM_9
100
AcDbPolyline
 90
        4
 70
     0
 43
0.0
 10
1.096790392351832
 20
0.0922823121142061
 10
1.099831381112673
 20
0.093460367173113
 10
1.103788476626787
 20
0.0944126293176653
 10
1.107282142373927
 20
0.0946847896390988
  0
LWPOLYLINE
  5
FF
330
D5
100
AcDbEntity
  8
AM_9
100
AcDbPolyline
 90
        4
 70
     0
 43
0.0
 10
1.089575629702733
 20
0.0879911192042939
 10
1.091621433926333
 20
0.0894210060063053
 10
1.095810093036051
 20
0.0918222044874995
 10
1.096790392351832
 20
0.0922823121142061
  0
ELLIPSE
  5
100
330
D5
100
AcDbEntity
  8
AM_9
100
AcDbEllipse
 10
1.122223954310433
 20
0.0
 30
0.0
 11
6.084620899749644E-18
 21
0.0993694002872664
 31
0.0
210
0.0
220
0.0
230
1.0
 40
0.7071067811865486
 41
2.656480407116019
 42
6.283185307179586
  0
ELLIPSE
  5
101
330
D5
100
AcDbEntity
  8
AM_9
100
AcDbEllipse
 10
1.170555283014922
 20
0.0000000000000366
 30
0.0
 11
8.036249332250023E-18
 21
0.1312419113469316
 31
0.0
210
0.0
220
0.0
230
1.0
 40
0.7071067811865477
 41
2.652342066240221
 42
6.283185307179586
  0
ELLIPSE
  5
102
330
D5
100
AcDbEntity
  8
AM_9
100
AcDbEllipse
 10
1.199311526480187
 20
0.0000000000000001
 30
0.0
 11
8.079715312105961E-18
 21
0.1319517646676801
 31
0.0
210
0.0
220
0.0
230
1.0
 40
0.7071067811865467
 41
3.579974428543801
 42
5.844803532225578
  0
ELLIPSE
  5
103
330
D5
100
AcDbEntity
  8
AM_9
100
AcDbEllipse
 10
1.246176103153373
 20
0.0
 30
0.0
 11
6.357083428130997E-18
 21
0.1038190510530391
 31
0.0
210
0.0
220
0.0
230
1.0
 40
0.7071067811865486
 41
3.608837619992357
 42
5.844803532225581
  0
ELLIPSE
  5
104
330
D5
100
AcDbEntity
  8
AM_9
100
AcDbEllipse
 10
1.012994717409292
 20
0.0
 30
0.0
 11
8.612328615003778E-18
 21
0.1406500000000003
 31
0.0
210
0.0
220
0.0
230
1.0
 40
0.7071067811865446
 41
0.0
 42
6.283185307179586
  0
ELLIPSE
  5
105
330
D5
100
AcDbEntity
  8
AM_9
100
AcDbEllipse
 10
1.012994717409292
 20
0.0000000000000001
 30
0.0
 11
7.124004163867293E-18
 21
0.1163438171532772
 31
0.0
210
0.0
220
0.0
230
1.0
 40
0.7071067811865467
 41
0.0
 42
6.283185307179586
  0
ELLIPSE
  5
106
330
D5
100
AcDbEntity
  8
AM_9
100
AcDbEllipse
 10
0.8788761032507684
 20
0.0000000000000001
 30
0.0
 11
6.761045944280095E-18
 21
0.110416259593989
 31
0.0
210
0.0
220
0.0
230
1.0
 40
0.7071067811865667
 41
0.0
 42
6.283185307179586
  0
LINE
  5
107
330
D5
100
AcDbEntity
  8
AM_4
100
AcDbLine
 10
1.121827166327821
 20
0.1118189926816819
 30
0.0
 11
1.109862453875339
 21
0.1218064730422814
 31
0.0
  0
LINE
  5
108
330
D5
100
AcDbEntity
  8
AM_4
100
AcDbLine
 10
1.109862453875339
 20
-0.1218064730422812
 30
0.0
 11
1.121826016356834
 21
-0.1118199743330277
 31
0.0
  0
LWPOLYLINE
  5
109
330
D5
100
AcDbEntity
  8
AM_4
100
AcDbPolyline
 90
        3
 70
     0
 43
0.0
 10
1.109862453875339
 20
0.1218064730422814
 10
1.083910662406954
 20
0.1421075518826616
 10
1.056012590207751
 20
0.1624086307230418
  0
LWPOLYLINE
  5
10A
330
D5
100
AcDbEntity
  8
AM_4
100
AcDbPolyline
 90
        3
 70
     0
 43
0.0
 10
1.056012590207751
 20
-0.1624086307230417
 10
1.083789255593599
 20
-0.142198830999654
 10
1.109862453875339
 20
-0.1218064730422812
  0
LWPOLYLINE
  5
10B
330
D5
100
AcDbEntity
  8
AM_4
100
AcDbPolyline
 90
        4
 70
     0
 43
0.0
 10
0.9135401486354043
 20
0.0000000000000001
 10
0.9141859185704861
 20
0.0311508759219516
 10
0.916037507259462
 20
0.0623017518439032
 10
0.917662727916049
 20
0.0812043153615209
  0
LWPOLYLINE
  5
10C
330
D5
100
AcDbEntity
  8
AM_4
100
AcDbPolyline
 90
        3
 70
     0
 43
0.0
 10
0.917662727916049
 20
-0.0812043153615208
 10
0.9146379110932705
 20
-0.0407847159147454
 10
0.9135401486354043
 20
0.0000000000000001
  0
LWPOLYLINE
  5
10D
330
D5
100
AcDbEntity
  8
AM_4
100
AcDbPolyline
 90
        3
 70
     0
 43
0.0
 10
0.9606806007145073
 20
0.0000000000000001
 10
0.9595924514395939
 20
-0.0406021576807604
 10
0.9565580214338627
 20
-0.0812043153615208
  0
LINE
  5
10E
330
D5
100
AcDbEntity
  8
AM_4
100
AcDbLine
 10
0.9565580214338627
 20
-0.0812043153615208
 30
0.0
 11
0.917662727916049
 21
-0.0812043153615208
 31
0.0
  0
LWPOLYLINE
  5
10F
330
D5
100
AcDbEntity
  8
AM_4
100
AcDbPolyline
 90
        3
 70
     0
 43
0.0
 10
0.9632674330223482
 20
-0.1218064730422812
 10
0.9394919401037897
 20
-0.101505394201901
 10
0.917662727916049
 20
-0.0812043153615208
  0
LWPOLYLINE
  5
110
330
D5
100
AcDbEntity
  8
AM_4
100
AcDbPolyline
 90
        3
 70
     0
 43
0.0
 10
1.017117296689937
 20
-0.1624086307230417
 10
0.9893406313040882
 20
-0.1421988309996539
 10
0.9632674330223482
 20
-0.1218064730422812
  0
LINE
  5
111
330
D5
100
AcDbEntity
  8
AM_4
100
AcDbLine
 10
1.056012590207751
 20
-0.1624086307230417
 30
0.0
 11
1.017117296689937
 21
-0.1624086307230417
 31
0.0
  0
LWPOLYLINE
  5
112
330
D5
100
AcDbEntity
  8
AM_4
100
AcDbPolyline
 90
        3
 70
     0
 43
0.0
 10
1.010407885101451
 20
-0.1218064730422812
 10
1.03418337802001
 20
-0.1421075518826614
 10
1.056012590207751
 20
-0.1624086307230417
  0
LWPOLYLINE
  5
113
330
D5
100
AcDbEntity
  8
AM_4
100
AcDbPolyline
 90
        3
 70
     0
 43
0.0
 10
0.9565580214338627
 20
-0.0812043153615208
 10
0.9843346868197113
 20
-0.1014141150849085
 10
1.010407885101451
 20
-0.1218064730422812
  0
LWPOLYLINE
  5
114
330
D5
100
AcDbEntity
  8
AM_4
100
AcDbPolyline
 90
        4
 70
     0
 43
0.0
 10
0.9565580214338627
 20
0.081204315361521
 10
0.9581832420904497
 20
0.0623017518439032
 10
0.9600310582714756
 20
0.0312428256208205
 10
0.9606806007145073
 20
0.0000000000000001
  0
LINE
  5
115
330
D5
100
AcDbEntity
  8
AM_4
100
AcDbLine
 10
1.056012590207751
 20
0.1624086307230418
 30
0.0
 11
1.017117296689937
 21
0.1624086307230418
 31
0.0
  0
LWPOLYLINE
  5
116
330
D5
100
AcDbEntity
  8
AM_4
100
AcDbPolyline
 90
        3
 70
     0
 43
0.0
 10
0.9632674330223482
 20
0.1218064730422813
 10
0.9892192244907336
 20
0.1421075518826616
 10
1.017117296689937
 20
0.1624086307230418
  0
LWPOLYLINE
  5
117
330
D5
100
AcDbEntity
  8
AM_4
100
AcDbPolyline
 90
        3
 70
     0
 43
0.0
 10
0.917662727916049
 20
0.0812043153615209
 10
0.9393897596563408
 20
0.1014141150849086
 10
0.9632674330223482
 20
0.1218064730422813
  0
LINE
  5
118
330
D5
100
AcDbEntity
  8
AM_4
100
AcDbLine
 10
0.9565580214338627
 20
0.081204315361521
 30
0.0
 11
0.917662727916049
 21
0.0812043153615209
 31
0.0
  0
LWPOLYLINE
  5
119
330
D5
100
AcDbEntity
  8
AM_4
100
AcDbPolyline
 90
        3
 70
     0
 43
0.0
 10
1.010407885101451
 20
0.1218064730422813
 10
0.9844560936330659
 20
0.1015053942019011
 10
0.9565580214338627
 20
0.081204315361521
  0
LWPOLYLINE
  5
11A
330
D5
100
AcDbEntity
  8
AM_4
100
AcDbPolyline
 90
        3
 70
     0
 43
0.0
 10
1.056012590207751
 20
0.1624086307230418
 10
1.034285558467459
 20
0.1421988309996541
 10
1.010407885101451
 20
0.1218064730422813
  0
ELLIPSE
  5
11B
330
D5
100
AcDbEntity
  8
AM_4
100
AcDbEllipse
 10
1.060135169488355
 20
-0.0000000000000074
 30
0.0
 11
8.612328615004291E-18
 21
0.1406500000000087
 31
0.0
210
0.0
220
0.0
230
1.0
 40
0.7071067811866982
 41
5.625871263975573
 42
10.08209200397346
  0
ELLIPSE
  5
11C
330
D5
100
AcDbEntity
  8
AM_4
100
AcDbEllipse
 10
1.08228214237392
 20
-0.0000000000000001
 30
0.0
 11
6.694498085252800E-18
 21
0.1093294505797716
 31
0.0
210
0.0
220
0.0
230
1.0
 40
0.7071067811865598
 41
5.928986666165796
 42
9.778976601783167
  0
LINE
  5
11D
330
D5
100
AcDbEntity
  8
AM_4
100
AcDbLine
 10
1.089458950796772
 20
-0.0879044185632922
 30
0.0
 11
1.127280978510814
 21
-0.116099562589007
 31
0.0
  0
LINE
  5
11E
330
D5
100
AcDbEntity
  8
AM_4
100
AcDbLine
 10
1.127280978510814
 20
0.1160995625890071
 30
0.0
 11
1.089458950796772
 21
0.0879044185632924
 31
0.0
  0
ELLIPSE
  5
11F
330
D5
100
AcDbEntity
  8
AM_4
100
AcDbEllipse
 10
1.122223954310433
 20
0.0000000000000001
 30
0.0
 11
6.084620899749634E-18
 21
0.09936940028726624
 31
0.0
210
0.0
220
0.0
230
1.0
 40
0.7071067811865452
 41
0.4851122464737774
 42
2.656480407116016
  0
LWPOLYLINE
  5
120
330
D5
100
AcDbEntity
  8
AM_4
100
AcDbPolyline
 90
        8
 70
     0
 43
0.0
 10
1.185497094951415
 20
0.1359265219950581
 10
1.177440150534065
 20
0.1355768767353617
 10
1.167131720097386
 20
0.1340986385175008
 10
1.157056312987775
 20
0.1314950934228846
 10
1.147281441952314
 20
0.1278004252391447
 10
1.13786814634962
 20
0.1230468460756747
 10
1.128874108101786
 20
0.1172645732919199
 10
1.126925682403536
 20
0.1158335605750397
  0
LINE
  5
121
330
D5
100
AcDbEntity
  8
AM_4
100
AcDbLine
 10
1.232326230314786
 20
-0.1234998319682183
 30
0.0
 11
1.239267883856797
 21
-0.1192405377854423
 31
0.0
  0
LWPOLYLINE
  5
122
330
D5
100
AcDbEntity
  8
AM_4
100
AcDbPolyline
 90
       13
 70
     0
 43
0.0
 10
1.126846012127935
 20
-0.1157735994352068
 10
1.129521860055644
 20
-0.117725511501306
 10
1.139148554329942
 20
-0.1237674726445902
 10
1.149167563253653
 20
-0.12860769804772
 10
1.159461257462623
 20
-0.1322241387665562
 10
1.169918151632223
 20
-0.1346140328842866
 10
1.180434383366232
 20
-0.1357885875248162
 10
1.190914319590676
 20
-0.1357685805619534
 10
1.201270570450828
 20
-0.1345808653260668
 10
1.211411731242391
 20
-0.1322590634720007
 10
1.221268698149548
 20
-0.1288376332228489
 10
1.230779112214962
 20
-0.1243493488096376
 10
1.232326230314786
 20
-0.1234998319682183
  0
LWPOLYLINE
  5
123
330
D5
100
AcDbEntity
  8
AM_4
100
AcDbPolyline
 90
        7
 70
     0
 43
0.0
 10
1.235226214243204
 20
0.1218115649369183
 10
1.234326347339546
 20
0.1223490590439039
 10
1.224395416408275
 20
0.1274967102773901
 10
1.214160488664339
 20
0.1314241146757409
 10
1.203734801254734
 20
0.1341241546170126
 10
1.193224225704123
 20
0.1356049538930854
 10
1.185497094951415
 20
0.1359265219950581
  0
LINE
  5
124
330
D5
100
AcDbEntity
  8
AM_4
100
AcDbLine
 10
1.239238143219631
 20
0.1192604204356837
 30
0.0
 11
1.235955166280469
 21
0.1213669997163242
 31
0.0
  0
ELLIPSE
  5
125
330
D5
100
AcDbEntity
  8
AM_4
100
AcDbEllipse
 10
1.170555283014909
 20
0.0000000000000002
 30
0.0
 11
8.036249332247502E-18
 21
0.1312419113468904
 31
0.0
210
0.0
220
0.0
230
1.0
 40
0.7071067811865496
 41
0.488455653717784
 42
2.652342066240218
  0
ELLIPSE
  5
126
330
D5
100
AcDbEntity
  8
AM_4
100
AcDbEllipse
 10
1.256946556918651
 20
0.0000000000000001
 30
0.0
 11
-1.484390032546748E-17
 21
-0.08080642971672804
 31
0.0
210
0.0
220
0.0
230
1.0
 40
0.7071067811865461
 41
0.0
 42
6.283185307179586
  0
LWPOLYLINE
  5
127
330
D5
100
AcDbEntity
  8
AM_4
100
AcDbPolyline
 90
       22
 70
     0
 43
0.0
 10
1.277519628053092
 20
-0.0938806320396719
 10
1.2823176743508
 20
-0.0904097640066042
 10
1.289412414328987
 20
-0.0841746611578039
 10
1.295972678522809
 20
-0.0769775571010484
 10
1.301919231339084
 20
-0.0688862860693344
 10
1.307175184981332
 20
-0.059990881463251
 10
1.311672829189353
 20
-0.050400011142803
 10
1.315358056404981
 20
-0.0402338123971222
 10
1.318190782237257
 20
-0.0296188208560321
 10
1.320144607658176
 20
-0.0186796159159545
 10
1.321203528587138
 20
-0.0075356815535548
 10
1.321358617317615
 20
0.0036955666921463
 10
1.320606646620645
 20
0.0148982994709034
 10
1.318949697069627
 20
0.0259556482215924
 10
1.31639461818517
 20
0.0367531406035426
 10
1.312952916617343
 20
0.0471765785680254
 10
1.3086418103125
 20
0.057110190690738
 10
1.303487359664654
 20
0.0664340006176947
 10
1.297531834443746
 20
0.075020097551431
 10
1.290835917305271
 20
0.08274227669677
 10
1.283484288630403
 20
0.0894800045832257
 10
1.277393684137578
 20
0.0939644702620509
  0
ELLIPSE
  5
128
330
D5
100
AcDbEntity
  8
AM_4
100
AcDbEllipse
 10
1.199311526480184
 20
-0.0000000000000007
 30
0.0
 11
8.079715312106008E-18
 21
0.1319517646676808
 31
0.0
210
0.0
220
0.0
230
1.0
 40
0.7071067811865495
 41
5.84480353222556
 42
9.863159735723409
  0
ELLIPSE
  5
129
330
D5
100
AcDbEntity
  8
AM_4
100
AcDbEllipse
 10
1.246176103153378
 20
0.0000000000000005
 30
0.0
 11
6.357083428130970E-18
 21
0.1038190510530386
 31
0.0
210
0.0
220
0.0
230
1.0
 40
0.7071067811865387
 41
5.844803532225631
 42
9.863159735723332
  0
LINE
  5
12A
330
D5
100
AcDbEntity
  8
AM_4
100
AcDbLine
 10
1.277337289686506
 20
0.0940018950300905
 30
0.0
 11
1.238916719462398
 21
0.1194743720494001
 31
0.0
  0
LINE
  5
12B
330
D5
100
AcDbEntity
  8
AM_4
100
AcDbLine
 10
1.238916719462398
 20
-0.1194743720493999
 30
0.0
 11
1.277337289686506
 21
-0.0940018950300903
 31
0.0
  0
ENDBLK
  5
D8
330
D5
100
AcDbEntity
  8
0
100
AcDbBlockEnd
  0
BLOCK
  5
12E
330
12C
100
AcDbEntity
  8
0
100
AcDbBlockBegin
  2
4_127588h_0_in_127588_4
 70
     2
 10
0.0
 20
0.0
 30
0.0
  3
4_127588h_0_in_127588_4
  1

  0
ATTDEF
  5
130
330
12C
100
AcDbEntity
  8
AM_6
100
AcDbText
 10
6.625
 20
0.8195
 30
0.0
 40
0.5
  1
TB-DLEZ-PCR - Inch - Housing
100
AcDbAttributeDefinition
  3

  2
NN
 70
     8
280
     0
  0
ATTDEF
  5
131
330
12C
100
AcDbEntity
  8
AM_6
100
AcDbText
 10
6.625
 20
0.3195
 30
0.0
 40
0.5
  1
DLEZ Normal Duty Polymer Housed Tapped Base Pillow Blocks
100
AcDbAttributeDefinition
  3

  2
NT
 70
     8
280
     0
  0
ATTDEF
  5
132
330
12C
100
AcDbEntity
  8
AM_6
100
AcDbText
 10
6.625
 20
-0.1805
 30
0.0
 40
0.5
  1
127588h
100
AcDbAttributeDefinition
  3

  2
NB
 70
     8
280
     0
  0
ATTDEF
  5
133
330
12C
100
AcDbEntity
  8
AM_6
100
AcDbText
 10
6.625
 20
-0.6805
 30
0.0
 40
0.5
  1
$PN.h
100
AcDbAttributeDefinition
  3

  2
NBSYN
 70
     8
280
     0
  0
ATTDEF
  5
134
330
12C
100
AcDbEntity
  8
AM_6
100
AcDbText
 10
6.625
 20
-1.1805
 30
0.0
 40
0.5
  1
127588
100
AcDbAttributeDefinition
  3

  2
LINA
 70
     8
280
     0
  0
ATTDEF
  5
135
330
12C
100
AcDbEntity
  8
AM_6
100
AcDbText
 10
6.625
 20
-1.6805
 30
0.0
 40
0.5
  1
205
100
AcDbAttributeDefinition
  3

  2
SERIES
 70
     8
280
     0
  0
ATTDEF
  5
136
330
12C
100
AcDbEntity
  8
AM_6
100
AcDbText
 10
6.625
 20
-2.1805
 30
0.0
 40
0.5
  1
1
100
AcDbAttributeDefinition
  3

  2
SS
 70
     8
280
     0
  0
ATTDEF
  5
137
330
12C
100
AcDbEntity
  8
AM_6
100
AcDbText
 10
6.625
 20
-2.6805
 30
0.0
 40
0.5
  1
1.00000
100
AcDbAttributeDefinition
  3

  2
SS1
 70
     8
280
     0
  0
ATTDEF
  5
138
330
12C
100
AcDbEntity
  8
AM_6
100
AcDbText
 10
6.625
 20
-3.1805
 30
0.0
 40
0.5
  1
127588
100
AcDbAttributeDefinition
  3

  2
PN
 70
     8
280
     0
  0
ATTDEF
  5
139
330
12C
100
AcDbEntity
  8
AM_6
100
AcDbText
 10
6.625
 20
-3.6805
 30
0.0
 40
0.5
  1
TB-DLEZ-100-PCR
100
AcDbAttributeDefinition
  3

  2
DESCRIPTION
 70
     8
280
     0
  0
ATTDEF
  5
13A
330
12C
100
AcDbEntity
  8
AM_6
100
AcDbText
 10
6.625
 20
-4.1805
 30
0.0
 40
0.5
  1
1.01
100
AcDbAttributeDefinition
  3

  2
W
 70
     8
280
     0
  0
ATTDEF
  5
13B
330
12C
100
AcDbEntity
  8
AM_6
100
AcDbText
 10
6.625
 20
-4.6805
 30
0.0
 40
0.5
  1
1.44
100
AcDbAttributeDefinition
  3

  2
A
 70
     8
280
     0
  0
ATTDEF
  5
13C
330
12C
100
AcDbEntity
  8
AM_6
100
AcDbText
 10
6.625
 20
-5.1805
 30
0.0
 40
0.5
  1
3.25
100
AcDbAttributeDefinition
  3

  2
B
 70
     8
280
     0
  0
ATTDEF
  5
13D
330
12C
100
AcDbEntity
  8
AM_6
100
AcDbText
 10
6.625
 20
-5.6805
 30
0.0
 40
0.5
  1
1.49
100
AcDbAttributeDefinition
  3

  2
C
 70
     8
280
     0
  0
ATTDEF
  5
13E
330
12C
100
AcDbEntity
  8
AM_6
100
AcDbText
 10
6.625
 20
-6.1805
 30
0.0
 40
0.5
  1
2.00
100
AcDbAttributeDefinition
  3

  2
D
 70
     8
280
     0
  0
ATTDEF
  5
13F
330
12C
100
AcDbEntity
  8
AM_6
100
AcDbText
 10
6.625
 20
-6.6805
 30
0.0
 40
0.5
  1
2.89
100
AcDbAttributeDefinition
  3

  2
J
 70
     8
280
     0
  0
ATTDEF
  5
140
330
12C
100
AcDbEntity
  8
AM_6
100
AcDbText
 10
6.625
 20
-7.1805
 30
0.0
 40
0.5
  1
1.99
100
AcDbAttributeDefinition
  3

  2
L
 70
     8
280
     0
  0
ATTDEF
  5
141
330
12C
100
AcDbEntity
  8
AM_6
100
AcDbText
 10
6.625
 20
-7.6805
 30
0.0
 40
0.5
  1
1.44
100
AcDbAttributeDefinition
  3

  2
M
 70
     8
280
     0
  0
ATTDEF
  5
142
330
12C
100
AcDbEntity
  8
AM_6
100
AcDbText
 10
6.625
 20
-8.1805
 30
0.0
 40
0.5
  1
0.40
100
AcDbAttributeDefinition
  3

  2
N
 70
     8
280
     0
  0
ATTDEF
  5
143
330
12C
100
AcDbEntity
  8
AM_6
100
AcDbText
 10
6.625
 20
-8.6805
 30
0.0
 40
0.5
  1
3/8-16
100
AcDbAttributeDefinition
  3

  2
R
 70
     8
280
     0
  0
ATTDEF
  5
144
330
12C
100
AcDbEntity
  8
AM_6
100
AcDbText
 10
6.625
 20
-9.1805
 30
0.0
 40
0.5
  1
0.88
100
AcDbAttributeDefinition
  3

  2
S
 70
     8
280
     0
  0
ATTDEF
  5
145
330
12C
100
AcDbEntity
  8
AM_6
100
AcDbText
 10
6.625
 20
-9.6805
 30
0.0
 40
0.5
  1
1565
100
AcDbAttributeDefinition
  3

  2
CAPS
 70
     8
280
     0
  0
ATTDEF
  5
146
330
12C
100
AcDbEntity
  8
AM_6
100
AcDbText
 10
6.625
 20
-10.1805
 30
0.0
 40
0.5
  1
3146
100
AcDbAttributeDefinition
  3

  2
CAPD
 70
     8
280
     0
  0
ATTDEF
  5
147
330
12C
100
AcDbEntity
  8
AM_6
100
AcDbText
 10
6.625
 20
-10.6805
 30
0.0
 40
0.5
  1
9
100
AcDbAttributeDefinition
  3

  2
BN
 70
     8
280
     0
  0
ATTDEF
  5
148
330
12C
100
AcDbEntity
  8
AM_6
100
AcDbText
 10
6.625
 20
-11.1805
 30
0.0
 40
0.5
  1
5/16
100
AcDbAttributeDefinition
  3

  2
BD
 70
     8
280
     0
  0
ATTDEF
  5
149
330
12C
100
AcDbEntity
  8
AM_6
100
AcDbText
 10
6.625
 20
-11.6805
 30
0.0
 40
0.5
  1
1.5325
100
AcDbAttributeDefinition
  3

  2
PDI
 70
     8
280
     0
  0
ATTDEF
  5
14A
330
12C
100
AcDbEntity
  8
AM_6
100
AcDbText
 10
6.625
 20
-12.1805
 30
0.0
 40
0.5
  1
5-11
100
AcDbAttributeDefinition
  3

  2
IC
 70
     8
280
     0
  0
ATTDEF
  5
14B
330
12C
100
AcDbEntity
  8
AM_6
100
AcDbText
 10
6.625
 20
-12.6805
 30
0.0
 40
0.5
  1
10-32
100
AcDbAttributeDefinition
  3

  2
CS
 70
     8
280
     0
  0
ATTDEF
  5
14C
330
12C
100
AcDbEntity
  8
AM_6
100
AcDbText
 10
6.625
 20
-13.1805
 30
0.0
 40
0.5
  1
90
100
AcDbAttributeDefinition
  3

  2
TC
 70
     8
280
     0
  0
ATTDEF
  5
14D
330
12C
100
AcDbEntity
  8
AM_6
100
AcDbText
 10
6.625
 20
-13.6805
 30
0.0
 40
0.5
  1
PBT 30GF
100
AcDbAttributeDefinition
  3

  2
MH
 70
     8
280
     0
  0
ATTDEF
  5
14E
330
12C
100
AcDbEntity
  8
AM_6
100
AcDbText
 10
6.625
 20
-14.1805
 30
0.0
 40
0.5
  1
52100
100
AcDbAttributeDefinition
  3

  2
IR
 70
     8
280
     0
  0
ATTDEF
  5
14F
330
12C
100
AcDbEntity
  8
AM_6
100
AcDbText
 10
6.625
 20
-14.6805
 30
0.0
 40
0.5
  1
52100
100
AcDbAttributeDefinition
  3

  2
OR
 70
     8
280
     0
  0
ATTDEF
  5
150
330
12C
100
AcDbEntity
  8
AM_6
100
AcDbText
 10
6.625
 20
-15.1805
 30
0.0
 40
0.5
  1
NYLON 6/6
100
AcDbAttributeDefinition
  3

  2
RE
 70
     8
280
     0
  0
ATTDEF
  5
151
330
12C
100
AcDbEntity
  8
AM_6
100
AcDbText
 10
6.625
 20
-15.6805
 30
0.0
 40
0.5
  1
52100
100
AcDbAttributeDefinition
  3

  2
BA
 70
     8
280
     0
  0
ATTDEF
  5
152
330
12C
100
AcDbEntity
  8
AM_6
100
AcDbText
 10
6.625
 20
-16.1805
 30
0.0
 40
0.5
  1
±2
100
AcDbAttributeDefinition
  3

  2
SM
 70
     8
280
     0
  0
ATTDEF
  5
153
330
12C
100
AcDbEntity
  8
AM_6
100
AcDbText
 10
6.625
 20
-16.6805
 30
0.0
 40
0.5
  1
0.375000
100
AcDbAttributeDefinition
  3

  2
NDM
 70
     8
280
     0
  0
ATTDEF
  5
154
330
12C
100
AcDbEntity
  8
AM_6
100
AcDbText
 10
6.625
 20
-17.1805
 30
0.0
 40
0.5
  1
0.310000
100
AcDbAttributeDefinition
  3

  2
KDM
 70
     8
280
     0
  0
ATTDEF
  5
155
330
12C
100
AcDbEntity
  8
AM_6
100
AcDbText
 10
6.625
 20
-17.6805
 30
0.0
 40
0.5
  1
2.047200
100
AcDbAttributeDefinition
  3

  2
BOD
 70
     8
280
     0
  0
ATTDEF
  5
156
330
12C
100
AcDbEntity
  8
AM_6
100
AcDbText
 10
6.625
 20
-18.1805
 30
0.0
 40
0.5
  1
baldor
100
AcDbAttributeDefinition
  3

  2
COMPANY
 70
     8
280
     0
  0
CIRCLE
  5
157
330
12C
100
AcDbEntity
  8
AM_9
100
AcDbCircle
 10
-1.0
 20
-0.0000000000000001
 30
0.0
 40
0.15365
  0
CIRCLE
  5
158
330
12C
100
AcDbEntity
  8
AM_9
100
AcDbCircle
 10
1.0
 20
-0.0000000000000001
 30
0.0
 40
0.15365
  0
LINE
  5
159
330
12C
100
AcDbEntity
  8
AM_9
100
AcDbLine
 10
1.239299157918138
 20
-0.1192208189470298
 30
0.0
 11
1.239299157918138
 21
0.1192208189470301
 31
0.0
  0
LINE
  5
15A
330
12C
100
AcDbEntity
  8
AM_9
100
AcDbLine
 10
1.0236
 20
-0.542621198028556
 30
0.0
 11
1.0236
 21
0.5426211980285567
 31
0.0
  0
LINE
  5
15B
330
12C
100
AcDbEntity
  8
AM_9
100
AcDbLine
 10
-1.0236
 20
0.5426211980285567
 30
0.0
 11
-1.0236
 21
-0.542621198028556
 31
0.0
  0
LWPOLYLINE
  5
15C
330
12C
100
AcDbEntity
  8
AM_9
100
AcDbPolyline
 90
       32
 70
     0
 43
0.0
 10
0.995
 20
-0.5763896132711657
 10
0.9702723994831224
 20
-0.5884488103868927
 10
0.9381604401396852
 20
-0.6001592317011039
 10
0.8989085133700234
 20
-0.6114317538366524
 10
0.8528153500378154
 20
-0.6221805860935516
 10
0.8002317469478318
 20
-0.6323239233680045
 10
0.7415578970704357
 20
-0.6417845687386374
 10
0.6772403438314332
 20
-0.6504905209816864
 10
0.6077685826469732
 20
-0.6583755225437842
 10
0.5336713355678658
 20
-0.6653795638019488
 10
0.4555125273855244
 20
-0.6714493397730502
 10
0.373886993823795
 20
-0.676538655796917
 10
0.2894159544799272
 20
-0.6806087791055949
 10
0.2027422849683359
 20
-0.683628733603097
 10
0.1145256242489969
 20
-0.685575535612199
 10
0.0254373543766603
 20
-0.6864343687941004
 10
-0.0638445091219771
 20
-0.6861986969097094
 10
-0.1526404773558277
 20
-0.6848703135643686
 10
-0.2402747593901603
 20
-0.6824593285574357
 10
-0.3260804054236673
 20
-0.6789840909406065
 10
-0.4094043826791682
 20
-0.6744710493705506
 10
-0.4896125453773557
 20
-0.6689545508186652
 10
-0.5660944609690834
 20
-0.6624765791698831
 10
-0.6382680558956553
 20
-0.6550864356999575
 10
-0.7055840455200721
 20
-0.6468403638629855
 10
-0.767530114514786
 20
-0.6378011212447605
 10
-0.8236348158906882
 20
-0.6280375019396514
 10
-0.873471158993363
 20
-0.6176238129860042
 10
-0.9166598591597924
 20
-0.6066393088447138
 10
-0.9528722243036599
 20
-0.5951675882249203
 10
-0.9818326564605966
 20
-0.5832959578473546
 10
-0.9949999999999999
 20
-0.5763896132711658
  0
LINE
  5
15D
330
12C
100
AcDbEntity
  8
AM_9
100
AcDbLine
 10
1.187894842558099
 20
-0.1357743449639081
 30
0.0
 11
1.187894842558099
 21
0.1358267386250638
 31
0.0
  0
LINE
  5
15E
330
12C
100
AcDbEntity
  8
AM_9
100
AcDbLine
 10
-0.9950000000000002
 20
-0.7450000000000001
 30
0.0
 11
0.9949999999999999
 21
-0.7450000000000001
 31
0.0
  0
LINE
  5
161
330
12C
100
AcDbEntity
  8
AM_7
100
AcDbLine
 10
-1.196875
 20
-0.0000000000000001
 30
0.0
 11
-0.8031250000000001
 21
-0.0000000000000001
 31
0.0
  0
LINE
  5
162
330
12C
100
AcDbEntity
  8
AM_7
100
AcDbLine
 10
-1.0
 20
-0.196875
 30
0.0
 11
-1.0
 21
0.1968749999999999
 31
0.0
  0
LINE
  5
163
330
12C
100
AcDbEntity
  8
AM_7
100
AcDbLine
 10
0.8031250000000001
 20
-0.0000000000000001
 30
0.0
 11
1.196875
 21
-0.0000000000000001
 31
0.0
  0
LINE
  5
164
330
12C
100
AcDbEntity
  8
AM_7
100
AcDbLine
 10
1.0
 20
-0.196875
 30
0.0
 11
1.0
 21
0.1968749999999999
 31
0.0
  0
LINE
  5
165
330
12C
100
AcDbEntity
  8
AM_7
100
AcDbLine
 10
0.0
 20
0.8195
 30
0.0
 11
0.0
 21
-0.952
 31
0.0
  0
LINE
  5
166
330
12C
100
AcDbEntity
  8
AM_4
100
AcDbLine
 10
1.625
 20
-0.7450000000000001
 30
0.0
 11
1.625
 21
0.7449999999999999
 31
0.0
  0
LINE
  5
167
330
12C
100
AcDbEntity
  8
AM_4
100
AcDbLine
 10
-1.625
 20
-0.7450000000000001
 30
0.0
 11
-1.625
 21
0.7449999999999999
 31
0.0
  0
LINE
  5
168
330
12C
100
AcDbEntity
  8
AM_4
100
AcDbLine
 10
1.239299157918138
 20
0.1195214673073025
 30
0.0
 11
1.239299157918138
 21
0.4375784240517103
 31
0.0
  0
LINE
  5
169
330
12C
100
AcDbEntity
  8
AM_4
100
AcDbLine
 10
1.239299157918138
 20
-0.4375784240517092
 30
0.0
 11
1.239299157918138
 21
-0.119591839181773
 31
0.0
  0
LINE
  5
16A
330
12C
100
AcDbEntity
  8
AM_4
100
AcDbLine
 10
-1.239299157918138
 20
-0.4375784240517091
 30
0.0
 11
-1.239299157918138
 21
0.4375784240517102
 31
0.0
  0
LWPOLYLINE
  5
16B
330
12C
100
AcDbEntity
  8
AM_4
100
AcDbPolyline
 90
        4
 70
     0
 43
0.0
 10
-0.9949999999999999
 20
-0.5763896132711658
 10
-1.012155049719451
 20
-0.5640734181255158
 10
-1.021606988354609
 20
-0.5515939586317233
 10
-1.0236
 20
-0.542621198028556
  0
LWPOLYLINE
  5
16C
330
12C
100
AcDbEntity
  8
AM_4
100
AcDbPolyline
 90
        4
 70
     0
 43
0.0
 10
1.0236
 20
-0.542621198028556
 10
1.019704892966711
 20
-0.5551592138671215
 10
1.008049215983296
 20
-0.5676018078344947
 10
0.995
 20
-0.5763896132711657
  0
LWPOLYLINE
  5
16D
330
12C
100
AcDbEntity
  8
AM_4
100
AcDbPolyline
 90
       19
 70
     0
 43
0.0
 10
-1.0236
 20
-0.542621198028556
 10
-1.019704892966711
 20
-0.5300831821899904
 10
-1.008049215983296
 20
-0.5176405882226173
 10
-0.9887216757894906
 20
-0.505388111779572
 10
-0.9618693666364561
 20
-0.4934190016048336
 10
-0.9276966508107154
 20
-0.4818243498539782
 10
-0.8864636033137518
 20
-0.4706923988278719
 10
-0.8384840325342128
 20
-0.4601078693954794
 10
-0.7841230919765867
 20
-0.4501513162168945
 10
-0.723794501222551
 20
-0.4408985146737376
 10
-0.6579573972751426
 20
-0.4324198841727464
 10
-0.587112840248932
 20
-0.4247799522115705
 10
-0.5118000000000013
 20
-0.4180368632855516
 10
-0.4325920527177814
 20
-0.4122419363730049
 10
-0.3500918187081561
 20
-0.4074392743668077
 10
-0.264927174566942
 20
-0.4036654284247536
 10
-0.1777462746598718
 20
-0.400949119793172
 10
-0.0892126182765049
 20
-0.3993110212209015
 10
-0.0000000000000021
 20
-0.3987635996271878
  0
LWPOLYLINE
  5
16E
330
12C
100
AcDbEntity
  8
AM_4
100
AcDbPolyline
 90
       37
 70
     0
 43
0.0
 10
1.0236
 20
0.5426211980285567
 10
1.019704892966711
 20
0.5300831821899912
 10
1.008049215983296
 20
0.517640588222618
 10
0.9887216757894906
 20
0.5053881117795728
 10
0.9618693666364561
 20
0.4934190016048344
 10
0.9276966508107153
 20
0.481824349853979
 10
0.8864636033137518
 20
0.4706923988278728
 10
0.8384840325342126
 20
0.4601078693954803
 10
0.7841230919765866
 20
0.4501513162168955
 10
0.7237945012225508
 20
0.4408985146737386
 10
0.6579573972751426
 20
0.4324198841727474
 10
0.5871128402489318
 20
0.4247799522115716
 10
0.5118000000000013
 20
0.4180368632855527
 10
0.4325920527177813
 20
0.412241936373006
 10
0.350091818708156
 20
0.4074392743668088
 10
0.2649271745669419
 20
0.4036654284247546
 10
0.1777462746598717
 20
0.4009491197931731
 10
0.0892126182765048
 20
0.3993110212209026
 10
0.0000000000000019
 20
0.3987635996271889
 10
-0.0892126182765009
 20
0.3993110212209025
 10
-0.1777462746598678
 20
0.400949119793173
 10
-0.2649271745669381
 20
0.4036654284247545
 10
-0.3500918187081523
 20
0.4074392743668086
 10
-0.4325920527177778
 20
0.4122419363730058
 10
-0.5117999999999979
 20
0.4180368632855524
 10
-0.5871128402489286
 20
0.4247799522115713
 10
-0.6579573972751396
 20
0.4324198841727471
 10
-0.7237945012225482
 20
0.4408985146737382
 10
-0.7841230919765841
 20
0.450151316216895
 10
-0.8384840325342102
 20
0.4601078693954798
 10
-0.8864636033137498
 20
0.4706923988278724
 10
-0.9276966508107136
 20
0.4818243498539786
 10
-0.9618693666364546
 20
0.4934190016048339
 10
-0.9887216757894896
 20
0.5053881117795722
 10
-1.008049215983296
 20
0.5176405882226175
 10
-1.019704892966711
 20
0.5300831821899906
 10
-1.0236
 20
0.5426211980285561
  0
LWPOLYLINE
  5
16F
330
12C
100
AcDbEntity
  8
AM_4
100
AcDbPolyline
 90
       19
 70
     0
 43
0.0
 10
-1.0236
 20
0.5426211980285567
 10
-1.019704892966711
 20
0.5551592138671221
 10
-1.008049215983296
 20
0.5676018078344952
 10
-0.9887216757894906
 20
0.5798542842775405
 10
-0.9618693666364561
 20
0.5918233944522788
 10
-0.9276966508107154
 20
0.6034180462031342
 10
-0.8864636033137518
 20
0.6145499972292404
 10
-0.8384840325342128
 20
0.625134526661633
 10
-0.7841230919765867
 20
0.6350910798402177
 10
-0.723794501222551
 20
0.6443438813833747
 10
-0.6579573972751426
 20
0.6528225118843658
 10
-0.587112840248932
 20
0.6604624438455418
 10
-0.5118000000000013
 20
0.6672055327715607
 10
-0.4325920527177814
 20
0.6730004596841073
 10
-0.3500918187081561
 20
0.6778031216903044
 10
-0.264927174566942
 20
0.6815769676323586
 10
-0.1777462746598718
 20
0.6842932762639402
 10
-0.0892126182765049
 20
0.6859313748362108
 10
-0.0000000000000021
 20
0.6864787964299244
  0
LINE
  5
170
330
12C
100
AcDbEntity
  8
AM_4
100
AcDbLine
 10
-1.187894842558099
 20
-0.4239912936420976
 30
0.0
 11
-1.187894842558099
 21
0.4239912936420988
 31
0.0
  0
LINE
  5
171
330
12C
100
AcDbEntity
  8
AM_4
100
AcDbLine
 10
1.187894842558099
 20
0.1358267386250638
 30
0.0
 11
1.187894842558099
 21
0.4239912936420987
 31
0.0
  0
LINE
  5
172
330
12C
100
AcDbEntity
  8
AM_4
100
AcDbLine
 10
1.187894842558099
 20
-0.4239912936420976
 30
0.0
 11
1.187894842558099
 21
-0.1357743449639081
 31
0.0
  0
LWPOLYLINE
  5
173
330
12C
100
AcDbEntity
  8
AM_4
100
AcDbPolyline
 90
       19
 70
     0
 43
0.0
 10
0.0000000152528286
 20
-0.3987635996271878
 10
0.0892126334712899
 20
-0.3993110214077324
 10
0.1777462896809738
 20
-0.4009491201654121
 10
0.2649271893000413
 20
-0.4036654289795697
 10
0.350091833041125
 20
-0.4074392750999775
 10
0.4325920665415373
 20
-0.4122419372789485
 10
0.511800013209337
 20
-0.4180368643573741
 10
0.5871128527433165
 20
-0.4247799534411149
 10
0.6579574089594861
 20
-0.4324198855506549
 10
0.7237945120079285
 20
-0.4408985161895236
 10
0.7841231017809152
 20
-0.450151317859022
 10
0.838484041282875
 20
-0.4601078711514507
 10
0.8864636109401656
 20
-0.4706924006843231
 10
0.9276966572568387
 20
-0.4818243517967805
 10
0.9618693718532303
 20
-0.4934190036192012
 10
0.9887216797372127
 20
-0.5053881138501742
 10
1.008049218631922
 20
-0.5176405903336957
 10
1.019704894296082
 20
-0.5300831843254783
 10
1.0236
 20
-0.542621198028556
  0
LWPOLYLINE
  5
174
330
12C
100
AcDbEntity
  8
AM_4
100
AcDbPolyline
 90
        9
 70
     0
 43
0.0
 10
1.187894842558099
 20
-0.4239912936420977
 10
1.198533815135898
 20
-0.4255669163143285
 10
1.208155188164168
 20
-0.4272668594122472
 10
1.21668573718462
 20
-0.4290781853424249
 10
1.224060539568322
 20
-0.4309871088208245
 10
1.230223468616107
 20
-0.4329791017871357
 10
1.235127620716642
 20
-0.4350390039720868
 10
1.238735672311235
 20
-0.4371511382762473
 10
1.239299157918138
 20
-0.4375784240517092
  0
LINE
  5
175
330
12C
100
AcDbEntity
  8
AM_4
100
AcDbLine
 10
0.6119523439022826
 20
-0.3458251227210599
 30
0.0
 11
1.187894842558099
 21
-0.4239912936420976
 31
0.0
  0
LINE
  5
176
330
12C
100
AcDbEntity
  8
AM_4
100
AcDbLine
 10
-1.187894842558099
 20
-0.4239912936420976
 30
0.0
 11
-0.6119523439022826
 21
-0.3458251227210599
 31
0.0
  0
LWPOLYLINE
  5
177
330
12C
100
AcDbEntity
  8
AM_4
100
AcDbPolyline
 90
        9
 70
     0
 43
0.0
 10
-1.239299157918138
 20
-0.4375784240517091
 10
-1.235953941370233
 20
-0.4354577616943115
 10
-1.231306335517266
 20
-0.4333861444570045
 10
-1.225391711446078
 20
-0.4313793385978404
 10
-1.2182550830172
 20
-0.4294526171211502
 10
-1.209950764282189
 20
-0.4276206435407576
 10
-1.200541956120904
 20
-0.4258973602817854
 10
-1.190100265244645
 20
-0.4242958825703811
 10
-1.187894842558099
 20
-0.4239912936420976
  0
LINE
  5
178
330
12C
100
AcDbEntity
  8
AM_4
100
AcDbLine
 10
-1.625
 20
-0.7450000000000001
 30
0.0
 11
-1.239299157918138
 21
-0.4375784240517091
 31
0.0
  0
LINE
  5
179
330
12C
100
AcDbEntity
  8
AM_4
100
AcDbLine
 10
0.9949999999999999
 20
-0.7450000000000001
 30
0.0
 11
1.625
 21
-0.7450000000000001
 31
0.0
  0
LINE
  5
17A
330
12C
100
AcDbEntity
  8
AM_4
100
AcDbLine
 10
-1.625
 20
-0.7450000000000001
 30
0.0
 11
-0.9950000000000002
 21
-0.7450000000000001
 31
0.0
  0
LINE
  5
17B
330
12C
100
AcDbEntity
  8
AM_4
100
AcDbLine
 10
1.239299157918138
 20
-0.4375784240517092
 30
0.0
 11
1.625
 21
-0.7450000000000001
 31
0.0
  0
LINE
  5
17C
330
12C
100
AcDbEntity
  8
AM_4
100
AcDbLine
 10
-0.6119523439022826
 20
-0.3458251227210599
 30
0.0
 11
-0.6119523439022826
 21
0.3458251227210611
 31
0.0
  0
LWPOLYLINE
  5
17D
330
12C
100
AcDbEntity
  8
AM_4
100
AcDbPolyline
 90
       10
 70
     0
 43
0.0
 10
-0.6119523439022827
 20
-0.3458251227210599
 10
-0.6003767407802588
 20
-0.3443858119144394
 10
-0.5879526044433091
 20
-0.3430937669977476
 10
-0.5747744900708565
 20
-0.3419588212129583
 10
-0.5609426910704383
 20
-0.3409896121827929
 10
-0.5465624757843162
 20
-0.3401935161731953
 10
-0.5317432863338292
 20
-0.3395765919554945
 10
-0.5165979056987664
 20
-0.3391435346954961
 10
-0.5012415993707918
 20
-0.3388976402204361
 10
-0.4888831936999141
 20
-0.3388369877100879
  0
LWPOLYLINE
  5
17E
330
12C
100
AcDbEntity
  8
AM_4
100
AcDbPolyline
 90
       19
 70
     0
 43
0.0
 10
0.0
 20
0.6864787964299244
 10
0.0892126182765029
 20
0.6859313748362108
 10
0.1777462746598699
 20
0.6842932762639402
 10
0.2649271745669403
 20
0.6815769676323586
 10
0.3500918187081545
 20
0.6778031216903047
 10
0.43259205271778
 20
0.6730004596841073
 10
0.5118
 20
0.6672055327715608
 10
0.5871128402489308
 20
0.6604624438455418
 10
0.6579573972751417
 20
0.6528225118843659
 10
0.7237945012225501
 20
0.6443438813833748
 10
0.784123091976586
 20
0.635091079840218
 10
0.838484032534212
 20
0.6251345266616332
 10
0.8864636033137515
 20
0.6145499972292405
 10
0.9276966508107148
 20
0.6034180462031343
 10
0.961869366636456
 20
0.5918233944522789
 10
0.9887216757894903
 20
0.5798542842775406
 10
1.008049215983296
 20
0.5676018078344953
 10
1.019704892966711
 20
0.5551592138671223
 10
1.0236
 20
0.5426211980285568
  0
LINE
  5
17F
330
12C
100
AcDbEntity
  8
AM_4
100
AcDbLine
 10
-1.625
 20
0.7449999999999999
 30
0.0
 11
1.625
 21
0.7449999999999999
 31
0.0
  0
LINE
  5
180
330
12C
100
AcDbEntity
  8
AM_4
100
AcDbLine
 10
-1.239299157918138
 20
0.4375784240517102
 30
0.0
 11
-1.625
 21
0.7449999999999999
 31
0.0
  0
LWPOLYLINE
  5
181
330
12C
100
AcDbEntity
  8
AM_4
100
AcDbPolyline
 90
        9
 70
     0
 43
0.0
 10
-1.187894842558099
 20
0.4239912936420988
 10
-1.198533815135898
 20
0.4255669163143296
 10
-1.208155188164168
 20
0.4272668594122485
 10
-1.21668573718462
 20
0.4290781853424263
 10
-1.224060539568322
 20
0.4309871088208258
 10
-1.230223468616107
 20
0.4329791017871371
 10
-1.235127620716643
 20
0.4350390039720883
 10
-1.238735672311236
 20
0.4371511382762488
 10
-1.239299157918138
 20
0.4375784240517102
  0
LINE
  5
182
330
12C
100
AcDbEntity
  8
AM_4
100
AcDbLine
 10
-0.6119523439022826
 20
0.3458251227210611
 30
0.0
 11
-1.187894842558099
 21
0.4239912936420988
 31
0.0
  0
LWPOLYLINE
  5
183
330
12C
100
AcDbEntity
  8
AM_4
100
AcDbPolyline
 90
       10
 70
     0
 43
0.0
 10
-0.4888831936999141
 20
0.3388369877100892
 10
-0.504324140863803
 20
0.3389317356063869
 10
-0.5196475730962758
 20
0.3392152582065787
 10
-0.5347368698255023
 20
0.3396853977324815
 10
-0.5494771923922064
 20
0.3403385761384253
 10
-0.5637563580412054
 20
0.3411698223423408
 10
-0.5774656936999144
 20
0.3421728100586962
 10
-0.5905008630460475
 20
0.3433399059453492
 10
-0.6027626605700303
 20
0.344662227697891
 10
-0.6119523439022826
 20
0.3458251227210611
  0
LINE
  5
184
330
12C
100
AcDbEntity
  8
AM_4
100
AcDbLine
 10
1.187894842558099
 20
0.4239912936420987
 30
0.0
 11
0.6119523439022826
 21
0.3458251227210611
 31
0.0
  0
LWPOLYLINE
  5
185
330
12C
100
AcDbEntity
  8
AM_4
100
AcDbPolyline
 90
        9
 70
     0
 43
0.0
 10
1.239299157918138
 20
0.4375784240517103
 10
1.235953941370233
 20
0.4354577616943129
 10
1.231306335517266
 20
0.4333861444570059
 10
1.225391711446079
 20
0.4313793385978418
 10
1.218255083017202
 20
0.4294526171211517
 10
1.209950764282191
 20
0.4276206435407592
 10
1.200541956120906
 20
0.425897360281787
 10
1.190100265244647
 20
0.4242958825703827
 10
1.187894842558099
 20
0.4239912936420988
  0
LINE
  5
186
330
12C
100
AcDbEntity
  8
AM_4
100
AcDbLine
 10
1.625
 20
0.7449999999999999
 30
0.0
 11
1.239299157918138
 21
0.4375784240517103
 31
0.0
  0
LWPOLYLINE
  5
187
330
12C
100
AcDbEntity
  8
AM_4
100
AcDbPolyline
 90
       10
 70
     0
 43
0.0
 10
0.488883189966441
 20
-0.3388369877100879
 10
0.5043241371445368
 20
-0.3389317355606544
 10
0.5196475694195226
 20
-0.3392152581154632
 10
0.5347368662192441
 20
-0.3396853975966764
 10
0.5494771888838892
 20
-0.3403385759589641
 10
0.5637563546575295
 20
-0.3411698221205893
 10
0.5774656904666318
 20
-0.3421728097963421
 10
0.5905008599877652
 20
-0.3433399056443893
 10
0.6027626577100238
 20
-0.3446622273606155
 10
0.6119523439022826
 20
-0.3458251227210599
  0
LINE
  5
188
330
12C
100
AcDbEntity
  8
AM_4
100
AcDbLine
 10
0.6119523439022826
 20
-0.3458251227210599
 30
0.0
 11
0.6119523439022826
 21
0.3458251227210611
 31
0.0
  0
LWPOLYLINE
  5
189
330
12C
100
AcDbEntity
  8
AM_4
100
AcDbPolyline
 90
       10
 70
     0
 43
0.0
 10
0.6119523439022826
 20
0.3458251227210611
 10
0.6003767407802588
 20
0.3443858119144407
 10
0.5879526044433091
 20
0.3430937669977488
 10
0.5747744900708565
 20
0.3419588212129596
 10
0.5609426910704383
 20
0.3409896121827942
 10
0.5465624757843163
 20
0.3401935161731966
 10
0.5317432863338292
 20
0.3395765919554957
 10
0.5165979056987665
 20
0.3391435346954975
 10
0.5012415993707919
 20
0.3388976402204374
 10
0.4888831899664409
 20
0.3388369877100891
  0
LINE
  5
18A
330
12C
100
AcDbEntity
  8
AM_4
100
AcDbLine
 10
-0.4888831936999141
 20
-0.3388369877100879
 30
0.0
 11
-0.4888831936999141
 21
0.3388369877100892
 31
0.0
  0
LINE
  5
18B
330
12C
100
AcDbEntity
  8
AM_4
100
AcDbLine
 10
0.4888831936999141
 20
-0.3388369877100879
 30
0.0
 11
-0.4888831936999141
 21
-0.3388369877100879
 31
0.0
  0
LINE
  5
18C
330
12C
100
AcDbEntity
  8
AM_4
100
AcDbLine
 10
0.4888831936999141
 20
-0.3388369877100879
 30
0.0
 11
0.4888831936999141
 21
0.3388369877100892
 31
0.0
  0
LINE
  5
18D
330
12C
100
AcDbEntity
  8
AM_4
100
AcDbLine
 10
0.4888831936999141
 20
0.3388369877100892
 30
0.0
 11
-0.4888831936999141
 21
0.3388369877100892
 31
0.0
  0
ARC
  5
18F
330
12C
100
AcDbEntity
  8
AM_5
100
AcDbCircle
 10
1.0
 20
-0.0000000000000001
 30
0.0
 40
0.1875
100
AcDbArc
 50
75.0
 51
15.00000000000004
  0
ARC
  5
190
330
12C
100
AcDbEntity
  8
AM_5
100
AcDbCircle
 10
-1.0
 20
-0.0000000000000001
 30
0.0
 40
0.1875
100
AcDbArc
 50
75.0
 51
15.0
  0
ENDBLK
  5
12F
330
12C
100
AcDbEntity
  8
0
100
AcDbBlockEnd
  0
ENDSEC
  0
SECTION
  2
ENTITIES
  0
INSERT
  5
6F
330
1F
100
AcDbEntity
  8
0
100
AcDbBlockReference
  2
1_127588_4
 10
0.0
 20
0.0
 30
0.0
  0
POINT
  5
192
330
1F
100
AcDbEntity
  8
ConnectionPoints
100
AcDbPoint
 10
1.012994717409292
 20
0.0000000000000001
 30
1.012994717409292
  0
POINT
  5
193
330
1F
100
AcDbEntity
  8
ConnectionPoints
100
AcDbPoint
 10
0.0
 20
0.0
 30
0.0
  0
POINT
  5
194
330
1F
100
AcDbEntity
  8
ConnectionPoints
100
AcDbPoint
 10
0.0
 20
0.0
 30
0.0
  0
POINT
  5
195
330
1F
100
AcDbEntity
  8
ConnectionPoints
100
AcDbPoint
 10
1.012994717409292
 20
0.0000000000000001
 30
1.012994717409292
  0
POINT
  5
196
330
1F
100
AcDbEntity
  8
ConnectionPoints
100
AcDbPoint
 10
0.0
 20
-0.88
 30
0.0000000000000001
  0
ENDSEC
  0
SECTION
  2
OBJECTS
  0
DICTIONARY
  5
C
330
0
100
AcDbDictionary
281
     1
  3
ACAD_DETAILVIEWSTYLE
350
19E
  3
ACAD_GROUP
350
D
  3
ACAD_LAYOUT
350
1A
  3
ACAD_MATERIAL
350
43
  3
ACAD_MLEADERSTYLE
350
6B
  3
ACAD_MLINESTYLE
350
17
  3
ACAD_PLOTSETTINGS
350
19
  3
ACAD_PLOTSTYLENAME
350
E
  3
ACAD_SCALELIST
350
47
  3
ACAD_SECTIONVIEWSTYLE
350
19F
  3
ACAD_TABLESTYLE
350
69
  3
ACAD_VISUALSTYLE
350
2A
  3
ACDB_RECOMPOSE_DATA
350
19B
  3
AcDbVariableDictionary
350
197
  0
SUN
  5
6D
330
29
100
AcDbSun
 90
        1
290
     0
 63
     7
421
 16777215
 40
1.0
291
     1
 91
  2455826
 92
 54000000
292
     0
 70
     2
 71
   256
280
     1
  0
DICTIONARY
  5
19E
102
{ACAD_REACTORS
330
C
102
}
330
C
100
AcDbDictionary
281
     1
  0
DICTIONARY
  5
D
102
{ACAD_REACTORS
330
C
102
}
330
C
100
AcDbDictionary
281
     1
  0
DICTIONARY
  5
1A
102
{ACAD_REACTORS
330
C
102
}
330
C
100
AcDbDictionary
281
     1
  3
Layout1
350
1E
  3
Layout2
350
26
  3
Model
350
22
  0
DICTIONARY
  5
43
102
{ACAD_REACTORS
330
C
102
}
330
C
100
AcDbDictionary
281
     1
  3
ByBlock
350
45
  3
ByLayer
350
44
  3
Global
350
46
  0
DICTIONARY
  5
6B
102
{ACAD_REACTORS
330
C
102
}
330
C
100
AcDbDictionary
281
     1
  3
Standard
350
6C
  0
DICTIONARY
  5
17
102
{ACAD_REACTORS
330
C
102
}
330
C
100
AcDbDictionary
281
     1
  3
Standard
350
18
  0
DICTIONARY
  5
19
102
{ACAD_REACTORS
330
C
102
}
330
C
100
AcDbDictionary
281
     1
  0
ACDBDICTIONARYWDFLT
  5
E
102
{ACAD_REACTORS
330
C
102
}
330
C
100
AcDbDictionary
281
     1
  3
Normal
350
F
100
AcDbDictionaryWithDefault
340
F
  0
DICTIONARY
  5
47
102
{ACAD_REACTORS
330
C
102
}
330
C
100
AcDbDictionary
281
     1
  3
A0
350
48
  3
A1
350
49
  3
A2
350
4A
  3
A3
350
4B
  3
A4
350
4C
  3
A5
350
4D
  3
A6
350
4E
  3
A7
350
4F
  3
A8
350
50
  3
A9
350
51
  3
B0
350
52
  3
B1
350
53
  3
B2
350
54
  3
B3
350
55
  3
B4
350
56
  3
B5
350
57
  3
B6
350
58
  3
B7
350
59
  3
B8
350
5A
  3
B9
350
5B
  3
C0
350
5C
  3
C1
350
5D
  3
C2
350
5E
  3
C3
350
5F
  3
C4
350
60
  3
C5
350
61
  3
C6
350
62
  3
C7
350
63
  3
C8
350
64
  3
C9
350
65
  3
D0
350
66
  3
D1
350
67
  3
D2
350
68
  0
DICTIONARY
  5
19F
102
{ACAD_REACTORS
330
C
102
}
330
C
100
AcDbDictionary
281
     1
  0
DICTIONARY
  5
69
102
{ACAD_REACTORS
330
C
102
}
330
C
100
AcDbDictionary
281
     1
  3
Standard
350
6A
  0
DICTIONARY
  5
2A
102
{ACAD_REACTORS
330
C
102
}
330
C
100
AcDbDictionary
281
     1
  3
2dWireframe
350
2F
  3
Basic
350
32
  3
Brighten
350
36
  3
ColorChange
350
3A
  3
Conceptual
350
34
  3
Dim
350
35
  3
EdgeColorOff
350
3D
  3
Facepattern
350
39
  3
Flat
350
2B
  3
FlatWithEdges
350
2C
  3
Gouraud
350
2D
  3
GouraudWithEdges
350
2E
  3
Hidden
350
31
  3
JitterOff
350
3B
  3
Linepattern
350
38
  3
OverhangOff
350
3C
  3
Realistic
350
33
  3
Shaded
350
42
  3
Shaded with edges
350
41
  3
Shades of Gray
350
3E
  3
Sketchy
350
3F
  3
Thicken
350
37
  3
Wireframe
350
30
  3
X-Ray
350
40
  0
XRECORD
  5
19B
102
{ACAD_REACTORS
330
C
102
}
330
C
100
AcDbXrecord
280
     1
 90
        1
330
6A
  0
DICTIONARY
  5
197
102
{ACAD_REACTORS
330
C
102
}
330
C
100
AcDbDictionary
281
     1
  3
CANNOSCALE
350
198
  3
CMLEADERSTYLE
350
19D
  3
CTABLESTYLE
350
19C
  0
LAYOUT
  5
1E
102
{ACAD_REACTORS
330
1A
102
}
330
1A
100
AcDbPlotSettings
  1

  2
none_device
  4

  6

 40
0.0
 41
0.0
 42
0.0
 43
0.0
 44
0.0
 45
0.0
 46
0.0
 47
0.0
 48
0.0
 49
0.0
140
0.0
141
0.0
142
1.0
143
1.0
 70
   688
 72
     0
 73
     0
 74
     5
  7

 75
    16
 76
     0
 77
     2
 78
   300
147
1.0
148
0.0
149
0.0
100
AcDbLayout
  1
Layout1
 70
     1
 71
     1
 10
0.0
 20
0.0
 11
12.0
 21
9.0
 12
0.0
 22
0.0
 32
0.0
 14
1.000000000000000E+20
 24
1.000000000000000E+20
 34
1.000000000000000E+20
 15
-1.000000000000000E+20
 25
-1.000000000000000E+20
 35
-1.000000000000000E+20
146
0.0
 13
0.0
 23
0.0
 33
0.0
 16
1.0
 26
0.0
 36
0.0
 17
0.0
 27
1.0
 37
0.0
 76
     0
330
1B
  0
LAYOUT
  5
26
102
{ACAD_REACTORS
330
1A
102
}
330
1A
100
AcDbPlotSettings
  1

  2
none_device
  4

  6

 40
0.0
 41
0.0
 42
0.0
 43
0.0
 44
0.0
 45
0.0
 46
0.0
 47
0.0
 48
0.0
 49
0.0
140
0.0
141
0.0
142
1.0
143
1.0
 70
   688
 72
     0
 73
     0
 74
     5
  7

 75
    16
 76
     0
 77
     2
 78
   300
147
1.0
148
0.0
149
0.0
100
AcDbLayout
  1
Layout2
 70
     1
 71
     2
 10
0.0
 20
0.0
 11
0.0
 21
0.0
 12
0.0
 22
0.0
 32
0.0
 14
0.0
 24
0.0
 34
0.0
 15
0.0
 25
0.0
 35
0.0
146
0.0
 13
0.0
 23
0.0
 33
0.0
 16
1.0
 26
0.0
 36
0.0
 17
0.0
 27
1.0
 37
0.0
 76
     0
330
23
  0
LAYOUT
  5
22
102
{ACAD_REACTORS
330
1A
102
}
330
1A
100
AcDbPlotSettings
  1

  2
none_device
  4
Letter_(8.50_x_11.00_Inches)
  6

 40
6.35
 41
6.35
 42
6.35000508
 43
6.35000508
 44
215.9
 45
279.4
 46
0.0
 47
0.0
 48
0.0
 49
0.0
140
0.0
141
0.0
142
1.0
143
1.0
 70
  1712
 72
     0
 73
     0
 74
     0
  7

 75
     0
 76
     0
 77
     2
 78
   300
147
1.0
148
0.0
149
0.0
100
AcDbLayout
  1
Model
 70
     1
 71
     0
 10
0.0
 20
0.0
 11
12.0
 21
9.0
 12
0.0
 22
0.0
 32
0.0
 14
1.000000000000000E+20
 24
1.000000000000000E+20
 34
1.000000000000000E+20
 15
-1.000000000000000E+20
 25
-1.000000000000000E+20
 35
-1.000000000000000E+20
146
0.0
 13
0.0
 23
0.0
 33
0.0
 16
1.0
 26
0.0
 36
0.0
 17
0.0
 27
1.0
 37
0.0
 76
     0
330
1F
331
29
  0
MATERIAL
  5
45
102
{ACAD_REACTORS
330
43
102
}
330
43
100
AcDbMaterial
  1
ByBlock
 72
     1
 94
      127
  0
MATERIAL
  5
44
102
{ACAD_REACTORS
330
43
102
}
330
43
100
AcDbMaterial
  1
ByLayer
 72
     1
 94
      127
  0
MATERIAL
  5
46
102
{ACAD_REACTORS
330
43
102
}
330
43
100
AcDbMaterial
  1
Global
 72
     1
 94
      127
  0
MLEADERSTYLE
  5
6C
102
{ACAD_REACTORS
330
6B
102
}
330
6B
100
AcDbMLeaderStyle
179
     2
170
     2
171
     1
172
     0
 90
        2
 40
0.0
 41
0.0
173
     1
 91
-1056964608
340
14
 92
       -2
290
     1
 42
0.09
291
     1
 43
0.36
  3
Standard
341
0
 44
0.18
300

342
11
174
     1
178
     6
175
     1
176
     0
 93
-1056964608
 45
0.18
292
     0
297
     0
 46
0.18
343
0
 94
-1056964608
 47
1.0
 49
1.0
140
1.0
293
     1
141
0.0
294
     1
177
     0
142
1.0
295
     0
296
     0
143
0.125
271
     0
272
     9
273
     9
298
     0
  0
MLINESTYLE
  5
18
102
{ACAD_REACTORS
330
17
102
}
330
17
100
AcDbMlineStyle
  2
Standard
 70
     0
  3

 62
   256
 51
90.0
 52
90.0
 71
     2
 49
0.5
 62
   256
  6
BYLAYER
 49
-0.5
 62
   256
  6
BYLAYER
  0
ACDBPLACEHOLDER
  5
F
102
{ACAD_REACTORS
330
E
102
}
330
E
  0
SCALE
  5
48
102
{ACAD_REACTORS
330
47
102
}
330
47
100
AcDbScale
 70
     0
300
1:1
140
1.0
141
1.0
290
     1
  0
SCALE
  5
49
102
{ACAD_REACTORS
330
47
102
}
330
47
100
AcDbScale
 70
     0
300
1:2
140
1.0
141
2.0
290
     0
  0
SCALE
  5
4A
102
{ACAD_REACTORS
330
47
102
}
330
47
100
AcDbScale
 70
     0
300
1:4
140
1.0
141
4.0
290
     0
  0
SCALE
  5
4B
102
{ACAD_REACTORS
330
47
102
}
330
47
100
AcDbScale
 70
     0
300
1:5
140
1.0
141
5.0
290
     0
  0
SCALE
  5
4C
102
{ACAD_REACTORS
330
47
102
}
330
47
100
AcDbScale
 70
     0
300
1:8
140
1.0
141
8.0
290
     0
  0
SCALE
  5
4D
102
{ACAD_REACTORS
330
47
102
}
330
47
100
AcDbScale
 70
     0
300
1:10
140
1.0
141
10.0
290
     0
  0
SCALE
  5
4E
102
{ACAD_REACTORS
330
47
102
}
330
47
100
AcDbScale
 70
     0
300
1:16
140
1.0
141
16.0
290
     0
  0
SCALE
  5
4F
102
{ACAD_REACTORS
330
47
102
}
330
47
100
AcDbScale
 70
     0
300
1:20
140
1.0
141
20.0
290
     0
  0
SCALE
  5
50
102
{ACAD_REACTORS
330
47
102
}
330
47
100
AcDbScale
 70
     0
300
1:30
140
1.0
141
30.0
290
     0
  0
SCALE
  5
51
102
{ACAD_REACTORS
330
47
102
}
330
47
100
AcDbScale
 70
     0
300
1:40
140
1.0
141
40.0
290
     0
  0
SCALE
  5
52
102
{ACAD_REACTORS
330
47
102
}
330
47
100
AcDbScale
 70
     0
300
1:50
140
1.0
141
50.0
290
     0
  0
SCALE
  5
53
102
{ACAD_REACTORS
330
47
102
}
330
47
100
AcDbScale
 70
     0
300
1:100
140
1.0
141
100.0
290
     0
  0
SCALE
  5
54
102
{ACAD_REACTORS
330
47
102
}
330
47
100
AcDbScale
 70
     0
300
2:1
140
2.0
141
1.0
290
     0
  0
SCALE
  5
55
102
{ACAD_REACTORS
330
47
102
}
330
47
100
AcDbScale
 70
     0
300
4:1
140
4.0
141
1.0
290
     0
  0
SCALE
  5
56
102
{ACAD_REACTORS
330
47
102
}
330
47
100
AcDbScale
 70
     0
300
8:1
140
8.0
141
1.0
290
     0
  0
SCALE
  5
57
102
{ACAD_REACTORS
330
47
102
}
330
47
100
AcDbScale
 70
     0
300
10:1
140
10.0
141
1.0
290
     0
  0
SCALE
  5
58
102
{ACAD_REACTORS
330
47
102
}
330
47
100
AcDbScale
 70
     0
300
100:1
140
100.0
141
1.0
290
     0
  0
SCALE
  5
59
102
{ACAD_REACTORS
330
47
102
}
330
47
100
AcDbScale
 70
     0
300
1/128" = 1'-0"
140
0.0078125
141
12.0
290
     0
  0
SCALE
  5
5A
102
{ACAD_REACTORS
330
47
102
}
330
47
100
AcDbScale
 70
     0
300
1/64" = 1'-0"
140
0.015625
141
12.0
290
     0
  0
SCALE
  5
5B
102
{ACAD_REACTORS
330
47
102
}
330
47
100
AcDbScale
 70
     0
300
1/32" = 1'-0"
140
0.03125
141
12.0
290
     0
  0
SCALE
  5
5C
102
{ACAD_REACTORS
330
47
102
}
330
47
100
AcDbScale
 70
     0
300
1/16" = 1'-0"
140
0.0625
141
12.0
290
     0
  0
SCALE
  5
5D
102
{ACAD_REACTORS
330
47
102
}
330
47
100
AcDbScale
 70
     0
300
3/32" = 1'-0"
140
0.09375
141
12.0
290
     0
  0
SCALE
  5
5E
102
{ACAD_REACTORS
330
47
102
}
330
47
100
AcDbScale
 70
     0
300
1/8" = 1'-0"
140
0.125
141
12.0
290
     0
  0
SCALE
  5
5F
102
{ACAD_REACTORS
330
47
102
}
330
47
100
AcDbScale
 70
     0
300
3/16" = 1'-0"
140
0.1875
141
12.0
290
     0
  0
SCALE
  5
60
102
{ACAD_REACTORS
330
47
102
}
330
47
100
AcDbScale
 70
     0
300
1/4" = 1'-0"
140
0.25
141
12.0
290
     0
  0
SCALE
  5
61
102
{ACAD_REACTORS
330
47
102
}
330
47
100
AcDbScale
 70
     0
300
3/8" = 1'-0"
140
0.375
141
12.0
290
     0
  0
SCALE
  5
62
102
{ACAD_REACTORS
330
47
102
}
330
47
100
AcDbScale
 70
     0
300
1/2" = 1'-0"
140
0.5
141
12.0
290
     0
  0
SCALE
  5
63
102
{ACAD_REACTORS
330
47
102
}
330
47
100
AcDbScale
 70
     0
300
3/4" = 1'-0"
140
0.75
141
12.0
290
     0
  0
SCALE
  5
64
102
{ACAD_REACTORS
330
47
102
}
330
47
100
AcDbScale
 70
     0
300
1" = 1'-0"
140
1.0
141
12.0
290
     0
  0
SCALE
  5
65
102
{ACAD_REACTORS
330
47
102
}
330
47
100
AcDbScale
 70
     0
300
1-1/2" = 1'-0"
140
1.5
141
12.0
290
     0
  0
SCALE
  5
66
102
{ACAD_REACTORS
330
47
102
}
330
47
100
AcDbScale
 70
     0
300
3" = 1'-0"
140
3.0
141
12.0
290
     0
  0
SCALE
  5
67
102
{ACAD_REACTORS
330
47
102
}
330
47
100
AcDbScale
 70
     0
300
6" = 1'-0"
140
6.0
141
12.0
290
     0
  0
SCALE
  5
68
102
{ACAD_REACTORS
330
47
102
}
330
47
100
AcDbScale
 70
     0
300
1'-0" = 1'-0"
140
12.0
141
12.0
290
     0
  0
TABLESTYLE
  5
6A
102
{ACAD_REACTORS
330
69
102
}
102
{ACAD_XDICTIONARY
360
199
102
}
330
69
100
AcDbTableStyle
  3
Standard
 70
     0
 71
     0
 40
0.06
 41
0.06
280
     0
281
     0
  7
Standard
140
0.18
170
     2
 62
     0
 63
   257
283
     0
 90
        4
 91
        0
  1

274
    -2
284
     1
 64
     0
275
    -2
285
     1
 65
     0
276
    -2
286
     1
 66
     0
277
    -2
287
     1
 67
     0
278
    -2
288
     1
 68
     0
279
    -2
289
     1
 69
     0
  7
Standard
140
0.25
170
     5
 62
     0
 63
   257
283
     0
 90
        4
 91
        0
  1

274
    -2
284
     1
 64
     0
275
    -2
285
     1
 65
     0
276
    -2
286
     1
 66
     0
277
    -2
287
     1
 67
     0
278
    -2
288
     1
 68
     0
279
    -2
289
     1
 69
     0
  7
Standard
140
0.18
170
     5
 62
     0
 63
   257
283
     0
 90
        4
 91
        0
  1

274
    -2
284
     1
 64
     0
275
    -2
285
     1
 65
     0
276
    -2
286
     1
 66
     0
277
    -2
287
     1
 67
     0
278
    -2
288
     1
 68
     0
279
    -2
289
     1
 69
     0
  0
VISUALSTYLE
  5
2F
102
{ACAD_REACTORS
330
2A
102
}
330
2A
100
AcDbVisualStyle
  2
2dWireframe
 70
     4
177
     3
291
     0
 70
    58
 90
        0
176
     1
 90
        2
176
     1
 90
        0
176
     1
 90
        0
176
     1
 40
0.6
176
     1
 40
30.0
176
     1
 62
     7
420
 16777215
176
     1
 90
        1
176
     1
 90
        4
176
     1
 62
     7
176
     1
 62
   257
176
     1
 90
        1
176
     1
 90
        1
176
     1
 40
1.0
176
     1
 90
        0
176
     1
 62
   257
176
     1
 40
1.0
176
     1
 90
        1
176
     1
 90
        6
176
     1
 90
        2
176
     1
 62
     7
176
     1
 90
        5
176
     1
 90
        0
176
     1
 90
        0
176
     1
290
     0
176
     1
 90
        1
176
     1
 40
0.0
176
     1
 90
        0
176
     1
290
     1
176
     1
290
     1
176
     1
290
     0
176
     1
290
     0
176
     1
290
     0
176
     1
290
     0
176
     1
290
     0
176
     1
290
     0
176
     1
290
     0
176
     1
 90
       50
176
     1
 40
0.0
176
     1
 40
1.0
176
     1
 90
        0
176
     1
 62
    18
420
        0
176
     1
 90
       50
176
     1
 90
        3
176
     1
 62
     5
420
      255
176
     1
290
     0
176
     1
 90
       50
176
     1
 90
       50
176
     1
 90
       50
176
     1
290
     0
176
     1
 90
       50
176
     1
 62
   256
176
     0
 40
1.0
176
     0
 90
        2
176
     1
  1
strokes_ogs.tif
176
     1
290
     0
176
     1
 40
1.0
176
     1
 40
1.0
176
     1
  0
VISUALSTYLE
  5
32
102
{ACAD_REACTORS
330
2A
102
}
330
2A
100
AcDbVisualStyle
  2
Basic
 70
     7
177
     3
291
     1
 70
    58
 90
        1
176
     1
 90
        0
176
     1
 90
        1
176
     1
 90
        0
176
     1
 40
0.6
176
     1
 40
30.0
176
     1
 62
     7
420
 16777215
176
     1
 90
        0
176
     1
 90
        4
176
     1
 62
     7
176
     1
 62
   257
176
     1
 90
        1
176
     1
 90
        1
176
     1
 40
1.0
176
     1
 90
        8
176
     1
 62
     7
176
     1
 40
1.0
176
     1
 90
        1
176
     1
 90
        6
176
     1
 90
        2
176
     1
 62
     7
176
     1
 90
        5
176
     1
 90
        0
176
     1
 90
        0
176
     1
290
     0
176
     1
 90
        1
176
     1
 40
0.0
176
     1
 90
        0
176
     1
290
     0
176
     1
290
     1
176
     1
290
     1
176
     1
290
     0
176
     1
290
     0
176
     1
290
     0
176
     1
290
     0
176
     1
290
     0
176
     1
290
     0
176
     1
 90
       50
176
     1
 40
0.0
176
     1
 40
1.0
176
     1
 90
        0
176
     1
 62
    18
420
        0
176
     1
 90
       50
176
     1
 90
        3
176
     1
 62
     5
420
      255
176
     1
290
     0
176
     1
 90
       50
176
     1
 90
       50
176
     1
 90
       50
176
     1
290
     0
176
     1
 90
       50
176
     1
 62
   256
176
     0
 40
1.0
176
     0
 90
        2
176
     1
  1
strokes_ogs.tif
176
     1
290
     0
176
     1
 40
1.0
176
     1
 40
1.0
176
     1
  0
VISUALSTYLE
  5
36
102
{ACAD_REACTORS
330
2A
102
}
330
2A
100
AcDbVisualStyle
  2
Brighten
 70
    12
177
     3
291
     1
 70
    58
 90
        2
176
     1
 90
        2
176
     1
 90
        0
176
     1
 90
        0
176
     1
 40
0.6
176
     1
 40
30.0
176
     1
 62
     7
420
 16777215
176
     1
 90
        1
176
     1
 90
        4
176
     1
 62
     7
176
     1
 62
   257
176
     1
 90
        1
176
     1
 90
        1
176
     1
 40
1.0
176
     1
 90
        8
176
     1
 62
     7
176
     1
 40
1.0
176
     1
 90
        1
176
     1
 90
        6
176
     1
 90
        2
176
     1
 62
     7
176
     1
 90
        5
176
     1
 90
        0
176
     1
 90
        0
176
     1
290
     0
176
     1
 90
        1
176
     1
 40
50.0
176
     1
 90
        0
176
     1
290
     0
176
     1
290
     1
176
     1
290
     1
176
     1
290
     0
176
     1
290
     0
176
     1
290
     0
176
     1
290
     0
176
     1
290
     0
176
     1
290
     0
176
     1
 90
       50
176
     1
 40
0.0
176
     1
 40
1.0
176
     1
 90
        0
176
     1
 62
    18
420
        0
176
     1
 90
       50
176
     1
 90
        3
176
     1
 62
     5
420
      255
176
     1
290
     0
176
     1
 90
       50
176
     1
 90
       50
176
     1
 90
       50
176
     1
290
     0
176
     1
 90
       50
176
     1
 62
   256
176
     0
 40
1.0
176
     0
 90
        2
176
     1
  1
strokes_ogs.tif
176
     1
290
     0
176
     1
 40
1.0
176
     1
 40
1.0
176
     1
  0
VISUALSTYLE
  5
3A
102
{ACAD_REACTORS
330
2A
102
}
330
2A
100
AcDbVisualStyle
  2
ColorChange
 70
    16
177
     3
291
     1
 70
    58
 90
        2
176
     1
 90
        2
176
     1
 90
        3
176
     1
 90
        0
176
     1
 40
0.6
176
     1
 40
30.0
176
     1
 62
     8
420
  8421504
176
     1
 90
        1
176
     1
 90
        4
176
     1
 62
     7
176
     1
 62
   257
176
     1
 90
        1
176
     1
 90
        1
176
     1
 40
1.0
176
     1
 90
        8
176
     1
 62
     8
420
  8421504
176
     1
 40
1.0
176
     1
 90
        1
176
     1
 90
        6
176
     1
 90
        2
176
     1
 62
     7
176
     1
 90
        5
176
     1
 90
        0
176
     1
 90
        0
176
     1
290
     0
176
     1
 90
        1
176
     1
 40
0.0
176
     1
 90
        0
176
     1
290
     0
176
     1
290
     1
176
     1
290
     1
176
     1
290
     0
176
     1
290
     0
176
     1
290
     0
176
     1
290
     0
176
     1
290
     0
176
     1
290
     0
176
     1
 90
       50
176
     1
 40
0.0
176
     1
 40
1.0
176
     1
 90
        0
176
     1
 62
    18
420
        0
176
     1
 90
       50
176
     1
 90
        3
176
     1
 62
     5
420
      255
176
     1
290
     0
176
     1
 90
       50
176
     1
 90
       50
176
     1
 90
       50
176
     1
290
     0
176
     1
 90
       50
176
     1
 62
   256
176
     0
 40
1.0
176
     0
 90
        2
176
     1
  1
strokes_ogs.tif
176
     1
290
     0
176
     1
 40
1.0
176
     1
 40
1.0
176
     1
  0
VISUALSTYLE
  5
34
102
{ACAD_REACTORS
330
2A
102
}
330
2A
100
AcDbVisualStyle
  2
Conceptual
 70
     9
177
     3
291
     0
 70
    58
 90
        3
176
     1
 90
        2
176
     1
 90
        0
176
     1
 90
        0
176
     1
 40
0.6
176
     1
 40
30.0
176
     1
 62
     7
420
 16777215
176
     1
 90
        2
176
     1
 90
        2
176
     1
 62
     7
176
     1
 62
   257
176
     1
 90
        1
176
     1
 90
        1
176
     1
 40
179.0
176
     1
 90
        8
176
     1
 62
     7
176
     1
 40
1.0
176
     1
 90
        1
176
     1
 90
        6
176
     1
 90
        2
176
     1
 62
     7
176
     1
 90
        3
176
     1
 90
        0
176
     1
 90
        0
176
     1
290
     0
176
     1
 90
        1
176
     1
 40
0.0
176
     1
 90
        0
176
     1
290
     0
176
     1
290
     1
176
     1
290
     1
176
     1
290
     0
176
     1
290
     0
176
     1
290
     0
176
     1
290
     0
176
     1
290
     0
176
     1
290
     0
176
     1
 90
       50
176
     1
 40
0.0
176
     1
 40
1.0
176
     1
 90
        0
176
     1
 62
    18
420
        0
176
     1
 90
       50
176
     1
 90
        3
176
     1
 62
     5
420
      255
176
     1
290
     0
176
     1
 90
       50
176
     1
 90
       50
176
     1
 90
       50
176
     1
290
     0
176
     1
 90
       50
176
     1
 62
   256
176
     0
 40
1.0
176
     0
 90
        2
176
     1
  1
strokes_ogs.tif
176
     1
290
     0
176
     1
 40
1.0
176
     1
 40
1.0
176
     1
  0
VISUALSTYLE
  5
35
102
{ACAD_REACTORS
330
2A
102
}
330
2A
100
AcDbVisualStyle
  2
Dim
 70
    11
177
     3
291
     1
 70
    58
 90
        2
176
     1
 90
        2
176
     1
 90
        0
176
     1
 90
        0
176
     1
 40
0.6
176
     1
 40
30.0
176
     1
 62
     7
420
 16777215
176
     1
 90
        1
176
     1
 90
        4
176
     1
 62
     7
176
     1
 62
   257
176
     1
 90
        1
176
     1
 90
        1
176
     1
 40
1.0
176
     1
 90
        8
176
     1
 62
     7
176
     1
 40
1.0
176
     1
 90
        1
176
     1
 90
        6
176
     1
 90
        2
176
     1
 62
     7
176
     1
 90
        5
176
     1
 90
        0
176
     1
 90
        0
176
     1
290
     0
176
     1
 90
        1
176
     1
 40
-50.0
176
     1
 90
        0
176
     1
290
     0
176
     1
290
     1
176
     1
290
     1
176
     1
290
     0
176
     1
290
     0
176
     1
290
     0
176
     1
290
     0
176
     1
290
     0
176
     1
290
     0
176
     1
 90
       50
176
     1
 40
0.0
176
     1
 40
1.0
176
     1
 90
        0
176
     1
 62
    18
420
        0
176
     1
 90
       50
176
     1
 90
        3
176
     1
 62
     5
420
      255
176
     1
290
     0
176
     1
 90
       50
176
     1
 90
       50
176
     1
 90
       50
176
     1
290
     0
176
     1
 90
       50
176
     1
 62
   256
176
     0
 40
1.0
176
     0
 90
        2
176
     1
  1
strokes_ogs.tif
176
     1
290
     0
176
     1
 40
1.0
176
     1
 40
1.0
176
     1
  0
VISUALSTYLE
  5
3D
102
{ACAD_REACTORS
330
2A
102
}
330
2A
100
AcDbVisualStyle
  2
EdgeColorOff
 70
    22
177
     3
291
     1
 70
    58
 90
        2
176
     0
 90
        2
176
     0
 90
        0
176
     0
 90
        0
176
     0
 40
0.6
176
     0
 40
30.0
176
     0
 62
     7
420
 16777215
176
     0
 90
        1
176
     0
 90
        4
176
     0
 62
     7
176
     0
 62
   257
176
     0
 90
        1
176
     0
 90
        1
176
     0
 40
1.0
176
     0
 90
        8
176
     2
 62
     7
176
     0
 40
1.0
176
     0
 90
        1
176
     0
 90
        6
176
     0
 90
        2
176
     0
 62
     7
176
     0
 90
        5
176
     0
 90
        0
176
     0
 90
        0
176
     0
290
     0
176
     0
 90
        1
176
     0
 40
0.0
176
     0
 90
        0
176
     0
290
     0
176
     0
290
     1
176
     0
290
     1
176
     0
290
     0
176
     0
290
     0
176
     0
290
     0
176
     0
290
     0
176
     0
290
     0
176
     0
290
     0
176
     0
 90
       50
176
     0
 40
0.0
176
     0
 40
1.0
176
     0
 90
        0
176
     0
 62
    18
420
        0
176
     0
 90
       50
176
     0
 90
        3
176
     0
 62
     5
420
      255
176
     0
290
     0
176
     0
 90
       50
176
     0
 90
       50
176
     0
 90
       50
176
     0
290
     0
176
     0
 90
       50
176
     0
 62
   256
176
     0
 40
1.0
176
     0
 90
        2
176
     0
  1
strokes_ogs.tif
176
     0
290
     0
176
     0
 40
1.0
176
     0
 40
1.0
176
     0
  0
VISUALSTYLE
  5
39
102
{ACAD_REACTORS
330
2A
102
}
330
2A
100
AcDbVisualStyle
  2
Facepattern
 70
    15
177
     3
291
     1
 70
    58
 90
        2
176
     1
 90
        2
176
     1
 90
        0
176
     1
 90
        0
176
     1
 40
0.6
176
     1
 40
30.0
176
     1
 62
     7
420
 16777215
176
     1
 90
        1
176
     1
 90
        4
176
     1
 62
     7
176
     1
 62
   257
176
     1
 90
        1
176
     1
 90
        1
176
     1
 40
1.0
176
     1
 90
        8
176
     1
 62
     7
176
     1
 40
1.0
176
     1
 90
        1
176
     1
 90
        6
176
     1
 90
        2
176
     1
 62
     7
176
     1
 90
        5
176
     1
 90
        0
176
     1
 90
        0
176
     1
290
     0
176
     1
 90
        1
176
     1
 40
0.0
176
     1
 90
        0
176
     1
290
     0
176
     1
290
     1
176
     1
290
     1
176
     1
290
     0
176
     1
290
     0
176
     1
290
     0
176
     1
290
     0
176
     1
290
     0
176
     1
290
     0
176
     1
 90
       50
176
     1
 40
0.0
176
     1
 40
1.0
176
     1
 90
        0
176
     1
 62
    18
420
        0
176
     1
 90
       50
176
     1
 90
        3
176
     1
 62
     5
420
      255
176
     1
290
     0
176
     1
 90
       50
176
     1
 90
       50
176
     1
 90
       50
176
     1
290
     0
176
     1
 90
       50
176
     1
 62
   256
176
     0
 40
1.0
176
     0
 90
        2
176
     1
  1
strokes_ogs.tif
176
     1
290
     0
176
     1
 40
1.0
176
     1
 40
1.0
176
     1
  0
VISUALSTYLE
  5
2B
102
{ACAD_REACTORS
330
2A
102
}
330
2A
100
AcDbVisualStyle
  2
Flat
 70
     0
177
     3
291
     1
 70
    58
 90
        2
176
     1
 90
        1
176
     1
 90
        1
176
     1
 90
        2
176
     1
 40
0.6
176
     1
 40
30.0
176
     1
 62
     7
420
 16777215
176
     1
 90
        0
176
     1
 90
        0
176
     1
 62
     7
176
     1
 62
   257
176
     1
 90
        1
176
     1
 90
        1
176
     1
 40
1.0
176
     1
 90
        8
176
     1
 62
     7
176
     1
 40
1.0
176
     1
 90
        1
176
     1
 90
        6
176
     1
 90
        2
176
     1
 62
     7
176
     1
 90
        5
176
     1
 90
        0
176
     1
 90
        0
176
     1
290
     0
176
     1
 90
       13
176
     1
 40
0.0
176
     1
 90
        0
176
     1
290
     0
176
     1
290
     1
176
     1
290
     1
176
     1
290
     0
176
     1
290
     0
176
     1
290
     0
176
     1
290
     0
176
     1
290
     0
176
     1
290
     0
176
     1
 90
       50
176
     1
 40
0.0
176
     1
 40
1.0
176
     1
 90
        0
176
     1
 62
    18
420
        0
176
     1
 90
       50
176
     1
 90
        3
176
     1
 62
     5
420
      255
176
     1
290
     0
176
     1
 90
       50
176
     1
 90
       50
176
     1
 90
       50
176
     1
290
     0
176
     1
 90
       50
176
     1
 62
   256
176
     0
 40
1.0
176
     0
 90
        2
176
     1
  1
strokes_ogs.tif
176
     1
290
     0
176
     1
 40
1.0
176
     1
 40
1.0
176
     1
  0
VISUALSTYLE
  5
2C
102
{ACAD_REACTORS
330
2A
102
}
330
2A
100
AcDbVisualStyle
  2
FlatWithEdges
 70
     1
177
     3
291
     1
 70
    58
 90
        2
176
     1
 90
        1
176
     1
 90
        1
176
     1
 90
        2
176
     1
 40
0.6
176
     1
 40
30.0
176
     1
 62
     7
420
 16777215
176
     1
 90
        1
176
     1
 90
        0
176
     1
 62
     7
176
     1
 62
   257
176
     1
 90
        1
176
     1
 90
        1
176
     1
 40
1.0
176
     1
 90
        0
176
     1
 62
   257
176
     1
 40
1.0
176
     1
 90
        1
176
     1
 90
        6
176
     1
 90
        2
176
     1
 62
     7
176
     1
 90
        5
176
     1
 90
        0
176
     1
 90
        0
176
     1
290
     0
176
     1
 90
       13
176
     1
 40
0.0
176
     1
 90
        0
176
     1
290
     0
176
     1
290
     1
176
     1
290
     1
176
     1
290
     0
176
     1
290
     0
176
     1
290
     0
176
     1
290
     0
176
     1
290
     0
176
     1
290
     0
176
     1
 90
       50
176
     1
 40
0.0
176
     1
 40
1.0
176
     1
 90
        0
176
     1
 62
    18
420
        0
176
     1
 90
       50
176
     1
 90
        3
176
     1
 62
     5
420
      255
176
     1
290
     0
176
     1
 90
       50
176
     1
 90
       50
176
     1
 90
       50
176
     1
290
     0
176
     1
 90
       50
176
     1
 62
   256
176
     0
 40
1.0
176
     0
 90
        2
176
     1
  1
strokes_ogs.tif
176
     1
290
     0
176
     1
 40
1.0
176
     1
 40
1.0
176
     1
  0
VISUALSTYLE
  5
2D
102
{ACAD_REACTORS
330
2A
102
}
330
2A
100
AcDbVisualStyle
  2
Gouraud
 70
     2
177
     3
291
     1
 70
    58
 90
        2
176
     1
 90
        2
176
     1
 90
        1
176
     1
 90
        2
176
     1
 40
0.6
176
     1
 40
30.0
176
     1
 62
     7
420
 16777215
176
     1
 90
        0
176
     1
 90
        0
176
     1
 62
     7
176
     1
 62
   257
176
     1
 90
        1
176
     1
 90
        1
176
     1
 40
1.0
176
     1
 90
        0
176
     1
 62
     7
176
     1
 40
1.0
176
     1
 90
        1
176
     1
 90
        6
176
     1
 90
        2
176
     1
 62
     7
176
     1
 90
        5
176
     1
 90
        0
176
     1
 90
        0
176
     1
290
     0
176
     1
 90
       13
176
     1
 40
0.0
176
     1
 90
        0
176
     1
290
     0
176
     1
290
     1
176
     1
290
     1
176
     1
290
     0
176
     1
290
     0
176
     1
290
     0
176
     1
290
     0
176
     1
290
     0
176
     1
290
     0
176
     1
 90
       50
176
     1
 40
0.0
176
     1
 40
1.0
176
     1
 90
        0
176
     1
 62
    18
420
        0
176
     1
 90
       50
176
     1
 90
        3
176
     1
 62
     5
420
      255
176
     1
290
     0
176
     1
 90
       50
176
     1
 90
       50
176
     1
 90
       50
176
     1
290
     0
176
     1
 90
       50
176
     1
 62
   256
176
     0
 40
1.0
176
     0
 90
        2
176
     1
  1
strokes_ogs.tif
176
     1
290
     0
176
     1
 40
1.0
176
     1
 40
1.0
176
     1
  0
VISUALSTYLE
  5
2E
102
{ACAD_REACTORS
330
2A
102
}
330
2A
100
AcDbVisualStyle
  2
GouraudWithEdges
 70
     3
177
     3
291
     1
 70
    58
 90
        2
176
     1
 90
        2
176
     1
 90
        1
176
     1
 90
        2
176
     1
 40
0.6
176
     1
 40
30.0
176
     1
 62
     7
420
 16777215
176
     1
 90
        1
176
     1
 90
        0
176
     1
 62
     7
176
     1
 62
   257
176
     1
 90
        1
176
     1
 90
        1
176
     1
 40
1.0
176
     1
 90
        0
176
     1
 62
   257
176
     1
 40
1.0
176
     1
 90
        1
176
     1
 90
        6
176
     1
 90
        2
176
     1
 62
     7
176
     1
 90
        5
176
     1
 90
        0
176
     1
 90
        0
176
     1
290
     0
176
     1
 90
       13
176
     1
 40
0.0
176
     1
 90
        0
176
     1
290
     0
176
     1
290
     1
176
     1
290
     1
176
     1
290
     0
176
     1
290
     0
176
     1
290
     0
176
     1
290
     0
176
     1
290
     0
176
     1
290
     0
176
     1
 90
       50
176
     1
 40
0.0
176
     1
 40
1.0
176
     1
 90
        0
176
     1
 62
    18
420
        0
176
     1
 90
       50
176
     1
 90
        3
176
     1
 62
     5
420
      255
176
     1
290
     0
176
     1
 90
       50
176
     1
 90
       50
176
     1
 90
       50
176
     1
290
     0
176
     1
 90
       50
176
     1
 62
   256
176
     0
 40
1.0
176
     0
 90
        2
176
     1
  1
strokes_ogs.tif
176
     1
290
     0
176
     1
 40
1.0
176
     1
 40
1.0
176
     1
  0
VISUALSTYLE
  5
31
102
{ACAD_REACTORS
330
2A
102
}
330
2A
100
AcDbVisualStyle
  2
Hidden
 70
     6
177
     3
291
     0
 70
    58
 90
        1
176
     1
 90
        2
176
     1
 90
        2
176
     1
 90
        0
176
     1
 40
0.6
176
     1
 40
30.0
176
     1
 62
     7
420
 16777215
176
     1
 90
        2
176
     1
 90
        2
176
     1
 62
     7
176
     1
 62
   257
176
     1
 90
        2
176
     1
 90
        1
176
     1
 40
40.0
176
     1
 90
        0
176
     1
 62
   257
176
     1
 40
1.0
176
     1
 90
        1
176
     1
 90
        6
176
     1
 90
        2
176
     1
 62
     7
176
     1
 90
        3
176
     1
 90
        0
176
     1
 90
        0
176
     1
290
     0
176
     1
 90
        1
176
     1
 40
0.0
176
     1
 90
        0
176
     1
290
     0
176
     1
290
     1
176
     1
290
     1
176
     1
290
     0
176
     1
290
     0
176
     1
290
     0
176
     1
290
     0
176
     1
290
     0
176
     1
290
     0
176
     1
 90
       50
176
     1
 40
0.0
176
     1
 40
1.0
176
     1
 90
        0
176
     1
 62
    18
420
        0
176
     1
 90
       50
176
     1
 90
        3
176
     1
 62
     5
420
      255
176
     1
290
     0
176
     1
 90
       50
176
     1
 90
       50
176
     1
 90
       50
176
     1
290
     0
176
     1
 90
       50
176
     1
 62
   256
176
     0
 40
1.0
176
     0
 90
        2
176
     1
  1
strokes_ogs.tif
176
     1
290
     0
176
     1
 40
1.0
176
     1
 40
1.0
176
     1
  0
VISUALSTYLE
  5
3B
102
{ACAD_REACTORS
330
2A
102
}
330
2A
100
AcDbVisualStyle
  2
JitterOff
 70
    20
177
     3
291
     1
 70
    58
 90
        2
176
     0
 90
        2
176
     0
 90
        0
176
     0
 90
        0
176
     0
 40
0.6
176
     0
 40
30.0
176
     0
 62
     7
420
 16777215
176
     0
 90
        1
176
     0
 90
        4
176
     0
 62
     7
176
     0
 62
   257
176
     0
 90
        1
176
     0
 90
        1
176
     0
 40
1.0
176
     0
 90
       10
176
     2
 62
     7
176
     0
 40
1.0
176
     0
 90
        1
176
     0
 90
        6
176
     0
 90
        2
176
     0
 62
     7
176
     0
 90
        5
176
     0
 90
        0
176
     0
 90
        0
176
     0
290
     0
176
     0
 90
        1
176
     0
 40
0.0
176
     0
 90
        0
176
     0
290
     0
176
     0
290
     1
176
     0
290
     1
176
     0
290
     0
176
     0
290
     0
176
     0
290
     0
176
     0
290
     0
176
     0
290
     0
176
     0
290
     0
176
     0
 90
       50
176
     0
 40
0.0
176
     0
 40
1.0
176
     0
 90
        0
176
     0
 62
    18
420
        0
176
     0
 90
       50
176
     0
 90
        3
176
     0
 62
     5
420
      255
176
     0
290
     0
176
     0
 90
       50
176
     0
 90
       50
176
     0
 90
       50
176
     0
290
     0
176
     0
 90
       50
176
     0
 62
   256
176
     0
 40
1.0
176
     0
 90
        2
176
     0
  1
strokes_ogs.tif
176
     0
290
     0
176
     0
 40
1.0
176
     0
 40
1.0
176
     0
  0
VISUALSTYLE
  5
38
102
{ACAD_REACTORS
330
2A
102
}
330
2A
100
AcDbVisualStyle
  2
Linepattern
 70
    14
177
     3
291
     1
 70
    58
 90
        2
176
     1
 90
        2
176
     1
 90
        0
176
     1
 90
        0
176
     1
 40
0.6
176
     1
 40
30.0
176
     1
 62
     7
420
 16777215
176
     1
 90
        1
176
     1
 90
        4
176
     1
 62
     7
176
     1
 62
   257
176
     1
 90
        7
176
     1
 90
        7
176
     1
 40
1.0
176
     1
 90
        8
176
     1
 62
     7
176
     1
 40
1.0
176
     1
 90
        1
176
     1
 90
        6
176
     1
 90
        2
176
     1
 62
     7
176
     1
 90
        5
176
     1
 90
        0
176
     1
 90
        0
176
     1
290
     0
176
     1
 90
        1
176
     1
 40
0.0
176
     1
 90
        0
176
     1
290
     0
176
     1
290
     1
176
     1
290
     1
176
     1
290
     0
176
     1
290
     0
176
     1
290
     0
176
     1
290
     0
176
     1
290
     0
176
     1
290
     0
176
     1
 90
       50
176
     1
 40
0.0
176
     1
 40
1.0
176
     1
 90
        0
176
     1
 62
    18
420
        0
176
     1
 90
       50
176
     1
 90
        3
176
     1
 62
     5
420
      255
176
     1
290
     0
176
     1
 90
       50
176
     1
 90
       50
176
     1
 90
       50
176
     1
290
     0
176
     1
 90
       50
176
     1
 62
   256
176
     0
 40
1.0
176
     0
 90
        2
176
     1
  1
strokes_ogs.tif
176
     1
290
     0
176
     1
 40
1.0
176
     1
 40
1.0
176
     1
  0
VISUALSTYLE
  5
3C
102
{ACAD_REACTORS
330
2A
102
}
330
2A
100
AcDbVisualStyle
  2
OverhangOff
 70
    21
177
     3
291
     1
 70
    58
 90
        2
176
     0
 90
        2
176
     0
 90
        0
176
     0
 90
        0
176
     0
 40
0.6
176
     0
 40
30.0
176
     0
 62
     7
420
 16777215
176
     0
 90
        1
176
     0
 90
        4
176
     0
 62
     7
176
     0
 62
   257
176
     0
 90
        1
176
     0
 90
        1
176
     0
 40
1.0
176
     0
 90
        9
176
     2
 62
     7
176
     0
 40
1.0
176
     0
 90
        1
176
     0
 90
        6
176
     0
 90
        2
176
     0
 62
     7
176
     0
 90
        5
176
     0
 90
        0
176
     0
 90
        0
176
     0
290
     0
176
     0
 90
        1
176
     0
 40
0.0
176
     0
 90
        0
176
     0
290
     0
176
     0
290
     1
176
     0
290
     1
176
     0
290
     0
176
     0
290
     0
176
     0
290
     0
176
     0
290
     0
176
     0
290
     0
176
     0
290
     0
176
     0
 90
       50
176
     0
 40
0.0
176
     0
 40
1.0
176
     0
 90
        0
176
     0
 62
    18
420
        0
176
     0
 90
       50
176
     0
 90
        3
176
     0
 62
     5
420
      255
176
     0
290
     0
176
     0
 90
       50
176
     0
 90
       50
176
     0
 90
       50
176
     0
290
     0
176
     0
 90
       50
176
     0
 62
   256
176
     0
 40
1.0
176
     0
 90
        2
176
     0
  1
strokes_ogs.tif
176
     0
290
     0
176
     0
 40
1.0
176
     0
 40
1.0
176
     0
  0
VISUALSTYLE
  5
33
102
{ACAD_REACTORS
330
2A
102
}
330
2A
100
AcDbVisualStyle
  2
Realistic
 70
     8
177
     3
291
     0
 70
    58
 90
        2
176
     1
 90
        3
176
     1
 90
        0
176
     1
 90
        2
176
     1
 40
0.6
176
     1
 40
30.0
176
     1
 62
     7
420
 16777215
176
     1
 90
        0
176
     1
 90
        0
176
     1
 62
     7
176
     1
 62
   257
176
     1
 90
        1
176
     1
 90
        1
176
     1
 40
1.0
176
     1
 90
        8
176
     1
 62
   257
176
     1
 40
1.0
176
     1
 90
        1
176
     1
 90
        6
176
     1
 90
        2
176
     1
 62
     7
176
     1
 90
        3
176
     1
 90
        0
176
     1
 90
        0
176
     1
290
     0
176
     1
 90
       13
176
     1
 40
0.0
176
     1
 90
        0
176
     1
290
     0
176
     1
290
     1
176
     1
290
     1
176
     1
290
     0
176
     1
290
     0
176
     1
290
     0
176
     1
290
     0
176
     1
290
     0
176
     1
290
     0
176
     1
 90
       50
176
     1
 40
0.0
176
     1
 40
1.0
176
     1
 90
        0
176
     1
 62
    18
420
        0
176
     1
 90
       50
176
     1
 90
        3
176
     1
 62
     5
420
      255
176
     1
290
     0
176
     1
 90
       50
176
     1
 90
       50
176
     1
 90
       50
176
     1
290
     0
176
     1
 90
       50
176
     1
 62
   256
176
     0
 40
1.0
176
     0
 90
        2
176
     1
  1
strokes_ogs.tif
176
     1
290
     0
176
     1
 40
1.0
176
     1
 40
1.0
176
     1
  0
VISUALSTYLE
  5
42
102
{ACAD_REACTORS
330
2A
102
}
330
2A
100
AcDbVisualStyle
  2
Shaded
 70
    27
177
     3
291
     0
 70
    58
 90
        2
176
     1
 90
        2
176
     1
 90
        1
176
     1
 90
        2
176
     1
 40
0.6
176
     1
 40
30.0
176
     1
 62
     7
420
 16777215
176
     1
 90
        0
176
     1
 90
        4
176
     1
 62
     7
176
     1
 62
   257
176
     1
 90
        1
176
     1
 90
        1
176
     1
 40
1.0
176
     1
 90
        8
176
     1
 62
   257
176
     1
 40
1.0
176
     1
 90
        1
176
     1
 90
        6
176
     1
 90
        2
176
     1
 62
     8
420
  7895160
176
     1
 90
        3
176
     1
 90
        0
176
     1
 90
        0
176
     1
290
     0
176
     1
 90
        5
176
     1
 40
0.0
176
     1
 90
        0
176
     1
290
     0
176
     1
290
     1
176
     1
290
     1
176
     1
290
     0
176
     1
290
     0
176
     1
290
     0
176
     1
290
     0
176
     1
290
     0
176
     1
290
     0
176
     1
 90
       50
176
     1
 40
0.0
176
     1
 40
1.0
176
     1
 90
        0
176
     1
 62
    18
420
        0
176
     1
 90
       50
176
     1
 90
        3
176
     1
 62
     5
420
      255
176
     1
290
     0
176
     1
 90
       50
176
     1
 90
       50
176
     1
 90
       50
176
     1
290
     0
176
     1
 90
       50
176
     1
 62
   256
176
     0
 40
1.0
176
     0
 90
        2
176
     1
  1
strokes_ogs.tif
176
     1
290
     0
176
     1
 40
1.0
176
     1
 40
1.0
176
     1
  0
VISUALSTYLE
  5
41
102
{ACAD_REACTORS
330
2A
102
}
330
2A
100
AcDbVisualStyle
  2
Shaded with edges
 70
    26
177
     3
291
     0
 70
    58
 90
        2
176
     1
 90
        2
176
     1
 90
        1
176
     1
 90
        2
176
     1
 40
0.6
176
     1
 40
30.0
176
     1
 62
     7
420
 16777215
176
     1
 90
        1
176
     1
 90
       10
176
     1
 62
     7
176
     1
 62
   257
176
     1
 90
        2
176
     1
 90
        1
176
     1
 40
1.0
176
     1
 90
        8
176
     1
 62
   257
176
     1
 40
1.0
176
     1
 90
        1
176
     1
 90
        6
176
     1
 90
        2
176
     1
 62
     7
176
     1
 90
        3
176
     1
 90
        0
176
     1
 90
        0
176
     1
290
     0
176
     1
 90
        5
176
     1
 40
0.0
176
     1
 90
        0
176
     1
290
     0
176
     1
290
     1
176
     1
290
     1
176
     1
290
     0
176
     1
290
     0
176
     1
290
     0
176
     1
290
     0
176
     1
290
     0
176
     1
290
     0
176
     1
 90
       50
176
     1
 40
0.0
176
     1
 40
1.0
176
     1
 90
        0
176
     1
 62
    18
420
        0
176
     1
 90
       50
176
     1
 90
        3
176
     1
 62
     5
420
      255
176
     1
290
     0
176
     1
 90
       50
176
     1
 90
       50
176
     1
 90
       50
176
     1
290
     0
176
     1
 90
       50
176
     1
 62
   256
176
     0
 40
1.0
176
     0
 90
        2
176
     1
  1
strokes_ogs.tif
176
     1
290
     0
176
     1
 40
1.0
176
     1
 40
1.0
176
     1
  0
VISUALSTYLE
  5
3E
102
{ACAD_REACTORS
330
2A
102
}
330
2A
100
AcDbVisualStyle
  2
Shades of Gray
 70
    23
177
     3
291
     0
 70
    58
 90
        2
176
     1
 90
        2
176
     1
 90
        3
176
     1
 90
        0
176
     1
 40
0.6
176
     1
 40
30.0
176
     1
 62
     7
420
 16777215
176
     1
 90
        2
176
     1
 90
        2
176
     1
 62
     7
176
     1
 62
     7
176
     1
 90
        1
176
     1
 90
        1
176
     1
 40
40.0
176
     1
 90
        8
176
     1
 62
     7
176
     1
 40
1.0
176
     1
 90
        1
176
     1
 90
        6
176
     1
 90
        2
176
     1
 62
     7
176
     1
 90
        3
176
     1
 90
        0
176
     1
 90
        0
176
     1
290
     0
176
     1
 90
        1
176
     1
 40
0.0
176
     1
 90
        0
176
     1
290
     0
176
     1
290
     1
176
     1
290
     1
176
     1
290
     0
176
     1
290
     0
176
     1
290
     0
176
     1
290
     0
176
     1
290
     0
176
     1
290
     0
176
     1
 90
       50
176
     1
 40
0.0
176
     1
 40
1.0
176
     1
 90
        0
176
     1
 62
    18
420
        0
176
     1
 90
       50
176
     1
 90
        3
176
     1
 62
     5
420
      255
176
     1
290
     0
176
     1
 90
       50
176
     1
 90
       50
176
     1
 90
       50
176
     1
290
     0
176
     1
 90
       50
176
     1
 62
   256
176
     0
 40
1.0
176
     0
 90
        2
176
     1
  1
strokes_ogs.tif
176
     1
290
     0
176
     1
 40
1.0
176
     1
 40
1.0
176
     1
  0
VISUALSTYLE
  5
3F
102
{ACAD_REACTORS
330
2A
102
}
330
2A
100
AcDbVisualStyle
  2
Sketchy
 70
    24
177
     3
291
     0
 70
    58
 90
        1
176
     1
 90
        2
176
     1
 90
        2
176
     1
 90
        0
176
     1
 40
0.6
176
     1
 40
30.0
176
     1
 62
     7
420
 16777215
176
     1
 90
        2
176
     1
 90
        2
176
     1
 62
     7
176
     1
 62
     7
176
     1
 90
        1
176
     1
 90
        1
176
     1
 40
40.0
176
     1
 90
       11
176
     1
 62
     7
176
     1
 40
1.0
176
     1
 90
        1
176
     1
 90
        6
176
     1
 90
        2
176
     1
 62
     7
176
     1
 90
        6
176
     1
 90
        0
176
     1
 90
        0
176
     1
290
     0
176
     1
 90
        1
176
     1
 40
0.0
176
     1
 90
        0
176
     1
290
     0
176
     1
290
     1
176
     1
290
     1
176
     1
290
     0
176
     1
290
     0
176
     1
290
     0
176
     1
290
     0
176
     1
290
     0
176
     1
290
     0
176
     1
 90
       50
176
     1
 40
0.0
176
     1
 40
1.0
176
     1
 90
        0
176
     1
 62
    18
420
        0
176
     1
 90
       50
176
     1
 90
        3
176
     1
 62
     5
420
      255
176
     1
290
     0
176
     1
 90
       50
176
     1
 90
       50
176
     1
 90
       50
176
     1
290
     0
176
     1
 90
       50
176
     1
 62
   256
176
     0
 40
1.0
176
     0
 90
        2
176
     1
  1
strokes_ogs.tif
176
     1
290
     0
176
     1
 40
1.0
176
     1
 40
1.0
176
     1
  0
VISUALSTYLE
  5
37
102
{ACAD_REACTORS
330
2A
102
}
330
2A
100
AcDbVisualStyle
  2
Thicken
 70
    13
177
     3
291
     1
 70
    58
 90
        2
176
     1
 90
        2
176
     1
 90
        0
176
     1
 90
        0
176
     1
 40
0.6
176
     1
 40
30.0
176
     1
 62
     7
420
 16777215
176
     1
 90
        1
176
     1
 90
        4
176
     1
 62
     7
176
     1
 62
   257
176
     1
 90
        1
176
     1
 90
        1
176
     1
 40
1.0
176
     1
 90
       12
176
     1
 62
     7
176
     1
 40
1.0
176
     1
 90
        1
176
     1
 90
        6
176
     1
 90
        2
176
     1
 62
     7
176
     1
 90
        5
176
     1
 90
        0
176
     1
 90
        0
176
     1
290
     0
176
     1
 90
        1
176
     1
 40
0.0
176
     1
 90
        0
176
     1
290
     0
176
     1
290
     1
176
     1
290
     1
176
     1
290
     0
176
     1
290
     0
176
     1
290
     0
176
     1
290
     0
176
     1
290
     0
176
     1
290
     0
176
     1
 90
       50
176
     1
 40
0.0
176
     1
 40
1.0
176
     1
 90
        0
176
     1
 62
    18
420
        0
176
     1
 90
       50
176
     1
 90
        3
176
     1
 62
     5
420
      255
176
     1
290
     0
176
     1
 90
       50
176
     1
 90
       50
176
     1
 90
       50
176
     1
290
     0
176
     1
 90
       50
176
     1
 62
   256
176
     0
 40
1.0
176
     0
 90
        2
176
     1
  1
strokes_ogs.tif
176
     1
290
     0
176
     1
 40
1.0
176
     1
 40
1.0
176
     1
  0
VISUALSTYLE
  5
30
102
{ACAD_REACTORS
330
2A
102
}
330
2A
100
AcDbVisualStyle
  2
Wireframe
 70
     5
177
     3
291
     0
 70
    58
 90
        0
176
     1
 90
        2
176
     1
 90
        0
176
     1
 90
        0
176
     1
 40
0.6
176
     1
 40
30.0
176
     1
 62
     7
420
 16777215
176
     1
 90
        1
176
     1
 90
        4
176
     1
 62
     7
176
     1
 62
   257
176
     1
 90
        1
176
     1
 90
        1
176
     1
 40
1.0
176
     1
 90
        0
176
     1
 62
   257
176
     1
 40
1.0
176
     1
 90
        1
176
     1
 90
        6
176
     1
 90
        2
176
     1
 62
     7
176
     1
 90
        3
176
     1
 90
        0
176
     1
 90
        0
176
     1
290
     0
176
     1
 90
        1
176
     1
 40
0.0
176
     1
 90
        0
176
     1
290
     0
176
     1
290
     1
176
     1
290
     1
176
     1
290
     0
176
     1
290
     0
176
     1
290
     0
176
     1
290
     0
176
     1
290
     0
176
     1
290
     0
176
     1
 90
       50
176
     1
 40
0.0
176
     1
 40
1.0
176
     1
 90
        0
176
     1
 62
    18
420
        0
176
     1
 90
       50
176
     1
 90
        3
176
     1
 62
     5
420
      255
176
     1
290
     0
176
     1
 90
       50
176
     1
 90
       50
176
     1
 90
       50
176
     1
290
     0
176
     1
 90
       50
176
     1
 62
   256
176
     0
 40
1.0
176
     0
 90
        2
176
     1
  1
strokes_ogs.tif
176
     1
290
     0
176
     1
 40
1.0
176
     1
 40
1.0
176
     1
  0
VISUALSTYLE
  5
40
102
{ACAD_REACTORS
330
2A
102
}
330
2A
100
AcDbVisualStyle
  2
X-Ray
 70
    25
177
     3
291
     0
 70
    58
 90
        2
176
     1
 90
        2
176
     1
 90
        1
176
     1
 90
        1
176
     1
 40
0.5
176
     1
 40
30.0
176
     1
 62
     7
420
 16777215
176
     1
 90
        1
176
     1
 90
        0
176
     1
 62
     7
176
     1
 62
   257
176
     1
 90
        1
176
     1
 90
        1
176
     1
 40
1.0
176
     1
 90
        8
176
     1
 62
     7
176
     1
 40
1.0
176
     1
 90
        1
176
     1
 90
        6
176
     1
 90
        2
176
     1
 62
     7
176
     1
 90
        3
176
     1
 90
        0
176
     1
 90
        0
176
     1
290
     0
176
     1
 90
       13
176
     1
 40
0.0
176
     1
 90
        0
176
     1
290
     0
176
     1
290
     1
176
     1
290
     1
176
     1
290
     0
176
     1
290
     0
176
     1
290
     0
176
     1
290
     0
176
     1
290
     0
176
     1
290
     0
176
     1
 90
       50
176
     1
 40
0.0
176
     1
 40
1.0
176
     1
 90
        0
176
     1
 62
    18
420
        0
176
     1
 90
       50
176
     1
 90
        3
176
     1
 62
     5
420
      255
176
     1
290
     0
176
     1
 90
       50
176
     1
 90
       50
176
     1
 90
       50
176
     1
290
     0
176
     1
 90
       50
176
     1
 62
   256
176
     0
 40
1.0
176
     0
 90
        2
176
     1
  1
strokes_ogs.tif
176
     1
290
     0
176
     1
 40
1.0
176
     1
 40
1.0
176
     1
  0
DICTIONARYVAR
  5
198
102
{ACAD_REACTORS
330
197
102
}
330
197
100
DictionaryVariables
280
     0
  1
1:1
  0
DICTIONARYVAR
  5
19D
102
{ACAD_REACTORS
330
197
102
}
330
197
100
DictionaryVariables
280
     0
  1
Standard
  0
DICTIONARYVAR
  5
19C
102
{ACAD_REACTORS
330
197
102
}
330
197
100
DictionaryVariables
280
     0
  1
Standard
  0
DICTIONARY
  5
199
330
6A
100
AcDbDictionary
280
     1
281
     1
  3
ACAD_ROUNDTRIP_2008_TABLESTYLE_CELLSTYLEMAP
360
19A
  0
CELLSTYLEMAP
  5
19A
102
{ACAD_REACTORS
330
199
102
}
330
199
100
AcDbCellStyleMap
 90
        3
300
CELLSTYLE
  1
TABLEFORMAT_BEGIN
 90
        5
170
     1
 91
        0
 92
    32768
 62
   257
 93
        1
300
CONTENTFORMAT
  1
CONTENTFORMAT_BEGIN
 90
        0
 91
        0
 92
        4
 93
        0
300

 40
0.0
140
1.0
 94
        5
 62
     0
340
11
144
0.25
309
CONTENTFORMAT_END
171
     1
301
MARGIN
  1
CELLMARGIN_BEGIN
 40
0.06
 40
0.06
 40
0.06
 40
0.06
 40
0.06
 40
0.06
309
CELLMARGIN_END
 94
        6
 95
        1
302
GRIDFORMAT
  1
GRIDFORMAT_BEGIN
 90
        0
 91
        1
 62
     0
 92
       -2
340
14
 93
        0
 40
0.045
309
GRIDFORMAT_END
 95
        2
302
GRIDFORMAT
  1
GRIDFORMAT_BEGIN
 90
        0
 91
        1
 62
     0
 92
       -2
340
14
 93
        0
 40
0.045
309
GRIDFORMAT_END
 95
        4
302
GRIDFORMAT
  1
GRIDFORMAT_BEGIN
 90
        0
 91
        1
 62
     0
 92
       -2
340
14
 93
        0
 40
0.045
309
GRIDFORMAT_END
 95
        8
302
GRIDFORMAT
  1
GRIDFORMAT_BEGIN
 90
        0
 91
        1
 62
     0
 92
       -2
340
14
 93
        0
 40
0.045
309
GRIDFORMAT_END
 95
       16
302
GRIDFORMAT
  1
GRIDFORMAT_BEGIN
 90
        0
 91
        1
 62
     0
 92
       -2
340
14
 93
        0
 40
0.045
309
GRIDFORMAT_END
 95
       32
302
GRIDFORMAT
  1
GRIDFORMAT_BEGIN
 90
        0
 91
        1
 62
     0
 92
       -2
340
14
 93
        0
 40
0.045
309
GRIDFORMAT_END
309
TABLEFORMAT_END
  1
CELLSTYLE_BEGIN
 90
        1
 91
        1
300
_TITLE
309
CELLSTYLE_END
300
CELLSTYLE
  1
TABLEFORMAT_BEGIN
 90
        5
170
     1
 91
        0
 92
        0
 62
   257
 93
        1
300
CONTENTFORMAT
  1
CONTENTFORMAT_BEGIN
 90
        0
 91
        0
 92
        4
 93
        0
300

 40
0.0
140
1.0
 94
        5
 62
     0
340
11
144
0.18
309
CONTENTFORMAT_END
171
     1
301
MARGIN
  1
CELLMARGIN_BEGIN
 40
0.06
 40
0.06
 40
0.06
 40
0.06
 40
0.06
 40
0.06
309
CELLMARGIN_END
 94
        6
 95
        1
302
GRIDFORMAT
  1
GRIDFORMAT_BEGIN
 90
        0
 91
        1
 62
     0
 92
       -2
340
14
 93
        0
 40
0.045
309
GRIDFORMAT_END
 95
        2
302
GRIDFORMAT
  1
GRIDFORMAT_BEGIN
 90
        0
 91
        1
 62
     0
 92
       -2
340
14
 93
        0
 40
0.045
309
GRIDFORMAT_END
 95
        4
302
GRIDFORMAT
  1
GRIDFORMAT_BEGIN
 90
        0
 91
        1
 62
     0
 92
       -2
340
14
 93
        0
 40
0.045
309
GRIDFORMAT_END
 95
        8
302
GRIDFORMAT
  1
GRIDFORMAT_BEGIN
 90
        0
 91
        1
 62
     0
 92
       -2
340
14
 93
        0
 40
0.045
309
GRIDFORMAT_END
 95
       16
302
GRIDFORMAT
  1
GRIDFORMAT_BEGIN
 90
        0
 91
        1
 62
     0
 92
       -2
340
14
 93
        0
 40
0.045
309
GRIDFORMAT_END
 95
       32
302
GRIDFORMAT
  1
GRIDFORMAT_BEGIN
 90
        0
 91
        1
 62
     0
 92
       -2
340
14
 93
        0
 40
0.045
309
GRIDFORMAT_END
309
TABLEFORMAT_END
  1
CELLSTYLE_BEGIN
 90
        2
 91
        1
300
_HEADER
309
CELLSTYLE_END
300
CELLSTYLE
  1
TABLEFORMAT_BEGIN
 90
        5
170
     1
 91
        0
 92
        0
 62
   257
 93
        1
300
CONTENTFORMAT
  1
CONTENTFORMAT_BEGIN
 90
        0
 91
        0
 92
        4
 93
        0
300

 40
0.0
140
1.0
 94
        2
 62
     0
340
11
144
0.18
309
CONTENTFORMAT_END
171
     1
301
MARGIN
  1
CELLMARGIN_BEGIN
 40
0.06
 40
0.06
 40
0.06
 40
0.06
 40
0.06
 40
0.06
309
CELLMARGIN_END
 94
        6
 95
        1
302
GRIDFORMAT
  1
GRIDFORMAT_BEGIN
 90
        0
 91
        1
 62
     0
 92
       -2
340
14
 93
        0
 40
0.045
309
GRIDFORMAT_END
 95
        2
302
GRIDFORMAT
  1
GRIDFORMAT_BEGIN
 90
        0
 91
        1
 62
     0
 92
       -2
340
14
 93
        0
 40
0.045
309
GRIDFORMAT_END
 95
        4
302
GRIDFORMAT
  1
GRIDFORMAT_BEGIN
 90
        0
 91
        1
 62
     0
 92
       -2
340
14
 93
        0
 40
0.045
309
GRIDFORMAT_END
 95
        8
302
GRIDFORMAT
  1
GRIDFORMAT_BEGIN
 90
        0
 91
        1
 62
     0
 92
       -2
340
14
 93
        0
 40
0.045
309
GRIDFORMAT_END
 95
       16
302
GRIDFORMAT
  1
GRIDFORMAT_BEGIN
 90
        0
 91
        1
 62
     0
 92
       -2
340
14
 93
        0
 40
0.045
309
GRIDFORMAT_END
 95
       32
302
GRIDFORMAT
  1
GRIDFORMAT_BEGIN
 90
        0
 91
        1
 62
     0
 92
       -2
340
14
 93
        0
 40
0.045
309
GRIDFORMAT_END
309
TABLEFORMAT_END
  1
CELLSTYLE_BEGIN
 90
        3
 91
        2
300
_DATA
309
CELLSTYLE_END
  0
ENDSEC
  0
EOF