0
SECTION
  2
HEADER
  9
$ACADVER
  1
AC1027
  9
$ACADMAINTVER
 70
     8
  9
$DWGCODEPAGE
  3
ANSI_1252
  9
$REQUIREDVERSIONS
160
                 0
  9
$COMMENTS
  1
File was created by Cadenas
  9
$CUSTOMPROPERTYTAG
  1
NN
  9
$CUSTOMPROPERTY
  1
Set Screw Wide Slot Take Up Metric Bore - Polymer Housing, Corrosion Resistant Insert
  9
$CUSTOMPROPERTYTAG
  1
NT
  9
$CUSTOMPROPERTY
  1
SC Take-Up Bearings -Wide Slot -(Normal Duty) -Polymer Housed -Corrosion Resistant Insert -E-Z KLEEN
  9
$CUSTOMPROPERTYTAG
  1
NB
  9
$CUSTOMPROPERTY
  1
127576
  9
$CUSTOMPROPERTYTAG
  1
NBSYN
  9
$CUSTOMPROPERTY
  1
$PN.
  9
$CUSTOMPROPERTYTAG
  1
LINA
  9
$CUSTOMPROPERTY
  1
127576
  9
$CUSTOMPROPERTYTAG
  1
SERIES
  9
$CUSTOMPROPERTY
  1
206
  9
$CUSTOMPROPERTYTAG
  1
SS
  9
$CUSTOMPROPERTY
  1
30
  9
$CUSTOMPROPERTYTAG
  1
PN
  9
$CUSTOMPROPERTY
  1
127576
  9
$CUSTOMPROPERTYTAG
  1
DESCRIPTION
  9
$CUSTOMPROPERTY
  1
WSTU-SCEZ-30M-PCR
  9
$CUSTOMPROPERTYTAG
  1
W
  9
$CUSTOMPROPERTY
  1
0.49
  9
$CUSTOMPROPERTYTAG
  1
FS
  9
$CUSTOMPROPERTY
  1
WS308
  9
$CUSTOMPROPERTYTAG
  1
A
  9
$CUSTOMPROPERTY
  1
38.6
  9
$CUSTOMPROPERTYTAG
  1
B
  9
$CUSTOMPROPERTY
  1
114.0
  9
$CUSTOMPROPERTYTAG
  1
C
  9
$CUSTOMPROPERTY
  1
13.84/13.08
  9
$CUSTOMPROPERTYTAG
  1
D
  9
$CUSTOMPROPERTY
  1
58.2
  9
$CUSTOMPROPERTYTAG
  1
E
  9
$CUSTOMPROPERTY
  1
72.6
  9
$CUSTOMPROPERTYTAG
  1
F
  9
$CUSTOMPROPERTY
  1
19.1
  9
$CUSTOMPROPERTYTAG
  1
G
  9
$CUSTOMPROPERTY
  1
14.2
  9
$CUSTOMPROPERTYTAG
  1
H
  9
$CUSTOMPROPERTY
  1
16.5
  9
$CUSTOMPROPERTYTAG
  1
J
  9
$CUSTOMPROPERTY
  1
61.2
  9
$CUSTOMPROPERTYTAG
  1
K
  9
$CUSTOMPROPERTY
  1
20.6
  9
$CUSTOMPROPERTYTAG
  1
L
  9
$CUSTOMPROPERTY
  1
39.9
  9
$CUSTOMPROPERTYTAG
  1
M
  9
$CUSTOMPROPERTY
  1
89.54/88.77
  9
$CUSTOMPROPERTYTAG
  1
N
  9
$CUSTOMPROPERTY
  1
106.7
  9
$CUSTOMPROPERTYTAG
  1
R
  9
$CUSTOMPROPERTY
  1
14.7
  9
$CUSTOMPROPERTYTAG
  1
S
  9
$CUSTOMPROPERTY
  1
23.9
  9
$CUSTOMPROPERTYTAG
  1
T
  9
$CUSTOMPROPERTY
  1
41.1
  9
$CUSTOMPROPERTYTAG
  1
COMPANY
  9
$CUSTOMPROPERTY
  1
baldor
  9
$INSBASE
 10
0.0
 20
0.0
 30
0.0
  9
$EXTMIN
 10
1.000000000000000E+20
 20
1.000000000000000E+20
 30
1.000000000000000E+20
  9
$EXTMAX
 10
-1.000000000000000E+20
 20
-1.000000000000000E+20
 30
-1.000000000000000E+20
  9
$LIMMIN
 10
0.0
 20
0.0
  9
$LIMMAX
 10
420.0
 20
297.0
  9
$ORTHOMODE
 70
     0
  9
$REGENMODE
 70
     1
  9
$FILLMODE
 70
     1
  9
$QTEXTMODE
 70
     0
  9
$MIRRTEXT
 70
     1
  9
$LTSCALE
 40
1.0
  9
$ATTMODE
 70
     1
  9
$TEXTSIZE
 40
2.5
  9
$TRACEWID
 40
1.0
  9
$TEXTSTYLE
  7
Standard
  9
$CLAYER
  8
0
  9
$CELTYPE
  6
ByLayer
  9
$CECOLOR
 62
   256
  9
$CELTSCALE
 40
1.0
  9
$DISPSILH
 70
     0
  9
$DIMSCALE
 40
1.0
  9
$DIMASZ
 40
2.5
  9
$DIMEXO
 40
0.625
  9
$DIMDLI
 40
3.75
  9
$DIMRND
 40
0.0
  9
$DIMDLE
 40
0.0
  9
$DIMEXE
 40
1.25
  9
$DIMTP
 40
0.0
  9
$DIMTM
 40
0.0
  9
$DIMTXT
 40
2.5
  9
$DIMCEN
 40
2.5
  9
$DIMTSZ
 40
0.0
  9
$DIMTOL
 70
     0
  9
$DIMLIM
 70
     0
  9
$DIMTIH
 70
     0
  9
$DIMTOH
 70
     0
  9
$DIMSE1
 70
     0
  9
$DIMSE2
 70
     0
  9
$DIMTAD
 70
     1
  9
$DIMZIN
 70
     8
  9
$DIMBLK
  1

  9
$DIMASO
 70
     1
  9
$DIMSHO
 70
     1
  9
$DIMPOST
  1

  9
$DIMAPOST
  1

  9
$DIMALT
 70
     0
  9
$DIMALTD
 70
     3
  9
$DIMALTF
 40
0.03937007874016
  9
$DIMLFAC
 40
1.0
  9
$DIMTOFL
 70
     1
  9
$DIMTVP
 40
0.0
  9
$DIMTIX
 70
     0
  9
$DIMSOXD
 70
     0
  9
$DIMSAH
 70
     0
  9
$DIMBLK1
  1

  9
$DIMBLK2
  1

  9
$DIMSTYLE
  2
ISO-25
  9
$DIMCLRD
 70
     0
  9
$DIMCLRE
 70
     0
  9
$DIMCLRT
 70
     0
  9
$DIMTFAC
 40
1.0
  9
$DIMGAP
 40
0.625
  9
$DIMJUST
 70
     0
  9
$DIMSD1
 70
     0
  9
$DIMSD2
 70
     0
  9
$DIMTOLJ
 70
     0
  9
$DIMTZIN
 70
     8
  9
$DIMALTZ
 70
     0
  9
$DIMALTTZ
 70
     0
  9
$DIMUPT
 70
     0
  9
$DIMDEC
 70
     2
  9
$DIMTDEC
 70
     2
  9
$DIMALTU
 70
     2
  9
$DIMALTTD
 70
     3
  9
$DIMTXSTY
  7
Standard
  9
$DIMAUNIT
 70
     0
  9
$DIMADEC
 70
     0
  9
$DIMALTRND
 40
0.0
  9
$DIMAZIN
 70
     0
  9
$DIMDSEP
 70
    44
  9
$DIMATFIT
 70
     3
  9
$DIMFRAC
 70
     0
  9
$DIMLDRBLK
  1

  9
$DIMLUNIT
 70
     2
  9
$DIMLWD
 70
    -2
  9
$DIMLWE
 70
    -2
  9
$DIMTMOVE
 70
     0
  9
$DIMFXL
 40
1.0
  9
$DIMFXLON
 70
     0
  9
$DIMJOGANG
 40
0.7853981633974483
  9
$DIMTFILL
 70
     0
  9
$DIMTFILLCLR
 70
     0
  9
$DIMARCSYM
 70
     0
  9
$DIMLTYPE
  6

  9
$DIMLTEX1
  6

  9
$DIMLTEX2
  6

  9
$DIMTXTDIRECTION
 70
     0
  9
$LUNITS
 70
     2
  9
$LUPREC
 70
     4
  9
$SKETCHINC
 40
1.0
  9
$FILLETRAD
 40
10.0
  9
$AUNITS
 70
     0
  9
$AUPREC
 70
     0
  9
$MENU
  1
.
  9
$ELEVATION
 40
0.0
  9
$PELEVATION
 40
0.0
  9
$THICKNESS
 40
0.0
  9
$LIMCHECK
 70
     0
  9
$CHAMFERA
 40
0.0
  9
$CHAMFERB
 40
0.0
  9
$CHAMFERC
 40
0.0
  9
$CHAMFERD
 40
0.0
  9
$SKPOLY
 70
     0
  9
$TDCREATE
 40
2458168.996859363
  9
$TDUCREATE
 40
2458168.955192697
  9
$TDUPDATE
 40
2458168.996859549
  9
$TDUUPDATE
 40
2458168.955192882
  9
$TDINDWG
 40
0.0000000116
  9
$TDUSRTIMER
 40
0.0000000116
  9
$USRTIMER
 70
     1
  9
$ANGBASE
 50
0.0
  9
$ANGDIR
 70
     0
  9
$PDMODE
 70
     0
  9
$PDSIZE
 40
0.0
  9
$PLINEWID
 40
0.0
  9
$SPLFRAME
 70
     0
  9
$SPLINETYPE
 70
     6
  9
$SPLINESEGS
 70
     8
  9
$HANDSEED
  5
1A9
  9
$SURFTAB1
 70
     6
  9
$SURFTAB2
 70
     6
  9
$SURFTYPE
 70
     6
  9
$SURFU
 70
     6
  9
$SURFV
 70
     6
  9
$UCSBASE
  2

  9
$UCSNAME
  2

  9
$UCSORG
 10
0.0
 20
0.0
 30
0.0
  9
$UCSXDIR
 10
1.0
 20
0.0
 30
0.0
  9
$UCSYDIR
 10
0.0
 20
1.0
 30
0.0
  9
$UCSORTHOREF
  2

  9
$UCSORTHOVIEW
 70
     0
  9
$UCSORGTOP
 10
0.0
 20
0.0
 30
0.0
  9
$UCSORGBOTTOM
 10
0.0
 20
0.0
 30
0.0
  9
$UCSORGLEFT
 10
0.0
 20
0.0
 30
0.0
  9
$UCSORGRIGHT
 10
0.0
 20
0.0
 30
0.0
  9
$UCSORGFRONT
 10
0.0
 20
0.0
 30
0.0
  9
$UCSORGBACK
 10
0.0
 20
0.0
 30
0.0
  9
$PUCSBASE
  2

  9
$PUCSNAME
  2

  9
$PUCSORG
 10
0.0
 20
0.0
 30
0.0
  9
$PUCSXDIR
 10
1.0
 20
0.0
 30
0.0
  9
$PUCSYDIR
 10
0.0
 20
1.0
 30
0.0
  9
$PUCSORTHOREF
  2

  9
$PUCSORTHOVIEW
 70
     0
  9
$PUCSORGTOP
 10
0.0
 20
0.0
 30
0.0
  9
$PUCSORGBOTTOM
 10
0.0
 20
0.0
 30
0.0
  9
$PUCSORGLEFT
 10
0.0
 20
0.0
 30
0.0
  9
$PUCSORGRIGHT
 10
0.0
 20
0.0
 30
0.0
  9
$PUCSORGFRONT
 10
0.0
 20
0.0
 30
0.0
  9
$PUCSORGBACK
 10
0.0
 20
0.0
 30
0.0
  9
$USERI1
 70
     0
  9
$USERI2
 70
     0
  9
$USERI3
 70
     0
  9
$USERI4
 70
     0
  9
$USERI5
 70
     0
  9
$USERR1
 40
0.0
  9
$USERR2
 40
0.0
  9
$USERR3
 40
0.0
  9
$USERR4
 40
0.0
  9
$USERR5
 40
0.0
  9
$WORLDVIEW
 70
     1
  9
$SHADEDGE
 70
     3
  9
$SHADEDIF
 70
    70
  9
$TILEMODE
 70
     1
  9
$MAXACTVP
 70
    64
  9
$PINSBASE
 10
0.0
 20
0.0
 30
0.0
  9
$PLIMCHECK
 70
     0
  9
$PEXTMIN
 10
1.000000000000000E+20
 20
1.000000000000000E+20
 30
1.000000000000000E+20
  9
$PEXTMAX
 10
-1.000000000000000E+20
 20
-1.000000000000000E+20
 30
-1.000000000000000E+20
  9
$PLIMMIN
 10
0.0
 20
0.0
  9
$PLIMMAX
 10
420.0
 20
297.0
  9
$UNITMODE
 70
     0
  9
$VISRETAIN
 70
     1
  9
$PLINEGEN
 70
     0
  9
$PSLTSCALE
 70
     1
  9
$TREEDEPTH
 70
  3020
  9
$CMLSTYLE
  2
Standard
  9
$CMLJUST
 70
     0
  9
$CMLSCALE
 40
20.0
  9
$PROXYGRAPHICS
 70
     1
  9
$MEASUREMENT
 70
     1
  9
$CELWEIGHT
370
    -1
  9
$ENDCAPS
280
     0
  9
$JOINSTYLE
280
     0
  9
$LWDISPLAY
290
     0
  9
$INSUNITS
 70
     4
  9
$HYPERLINKBASE
  1

  9
$STYLESHEET
  1

  9
$XEDIT
290
     1
  9
$CEPSNTYPE
380
     0
  9
$PSTYLEMODE
290
     1
  9
$FINGERPRINTGUID
  2
{F52431A9-5EC4-4D1A-89FF-19B39D9147C0}
  9
$VERSIONGUID
  2
{FAEB1C32-E019-11D5-929B-00C0DF256EC4}
  9
$EXTNAMES
290
     1
  9
$PSVPSCALE
 40
0.0
  9
$OLESTARTUP
290
     0
  9
$SORTENTS
280
   127
  9
$INDEXCTL
280
     0
  9
$HIDETEXT
280
     1
  9
$XCLIPFRAME
280
     2
  9
$HALOGAP
280
     0
  9
$OBSCOLOR
 70
   257
  9
$OBSLTYPE
280
     0
  9
$INTERSECTIONDISPLAY
280
     0
  9
$INTERSECTIONCOLOR
 70
   257
  9
$DIMASSOC
280
     2
  9
$PROJECTNAME
  1

  9
$CAMERADISPLAY
290
     0
  9
$LENSLENGTH
 40
50.0
  9
$CAMERAHEIGHT
 40
0.0
  9
$STEPSPERSEC
 40
2.0
  9
$STEPSIZE
 40
6.0
  9
$3DDWFPREC
 40
2.0
  9
$PSOLWIDTH
 40
5.0
  9
$PSOLHEIGHT
 40
80.0
  9
$LOFTANG1
 40
1.570796326794897
  9
$LOFTANG2
 40
1.570796326794897
  9
$LOFTMAG1
 40
0.0
  9
$LOFTMAG2
 40
0.0
  9
$LOFTPARAM
 70
     7
  9
$LOFTNORMALS
280
     1
  9
$LATITUDE
 40
37.795
  9
$LONGITUDE
 40
-122.394
  9
$NORTHDIRECTION
 40
0.0
  9
$TIMEZONE
 70
 -8000
  9
$LIGHTGLYPHDISPLAY
280
     1
  9
$TILEMODELIGHTSYNCH
280
     1
  9
$CMATERIAL
347
44
  9
$SOLIDHIST
280
     0
  9
$SHOWHIST
280
     1
  9
$DWFFRAME
280
     2
  9
$DGNFRAME
280
     2
  9
$REALWORLDSCALE
290
     1
  9
$INTERFERECOLOR
 62
   256
  9
$CSHADOW
280
     0
  9
$SHADOWPLANELOCATION
 40
0.0
  0
ENDSEC
  0
SECTION
  2
CLASSES
  0
CLASS
  1
ACDBDICTIONARYWDFLT
  2
AcDbDictionaryWithDefault
  3
ObjectDBX Classes
 90
        0
 91
        4
280
     0
281
     0
  0
CLASS
  1
VISUALSTYLE
  2
AcDbVisualStyle
  3
ObjectDBX Classes
 90
     4095
 91
        4
280
     0
281
     0
  0
CLASS
  1
MATERIAL
  2
AcDbMaterial
  3
ObjectDBX Classes
 90
     1153
 91
        4
280
     0
281
     0
  0
CLASS
  1
SCALE
  2
AcDbScale
  3
ObjectDBX Classes
 90
     1153
 91
        4
280
     0
281
     0
  0
CLASS
  1
TABLESTYLE
  2
AcDbTableStyle
  3
ObjectDBX Classes
 90
     4095
 91
        4
280
     0
281
     0
  0
CLASS
  1
MLEADERSTYLE
  2
AcDbMLeaderStyle
  3
ACDB_MLEADERSTYLE_CLASS
 90
     4095
 91
        4
280
     0
281
     0
  0
CLASS
  1
SUN
  2
AcDbSun
  3
SCENEOE
 90
     1153
 91
        4
280
     0
281
     0
  0
CLASS
  1
DICTIONARYVAR
  2
AcDbDictionaryVar
  3
ObjectDBX Classes
 90
        0
 91
        4
280
     0
281
     0
  0
CLASS
  1
CELLSTYLEMAP
  2
AcDbCellStyleMap
  3
ObjectDBX Classes
 90
     1152
 91
        4
280
     0
281
     0
  0
ENDSEC
  0
SECTION
  2
TABLES
  0
TABLE
  2
VPORT
  5
8
330
0
100
AcDbSymbolTable
 70
     1
  0
VPORT
  5
29
330
8
100
AcDbSymbolTableRecord
100
AcDbViewportTableRecord
  2
*Active
 70
     0
 10
0.0
 20
0.0
 11
1.0
 21
1.0
 12
11.22742499999998
 22
-4.314999999999998
 13
0.0
 23
0.0
 14
10.0
 24
10.0
 15
10.0
 25
10.0
 16
0.0
 26
0.0
 36
1.0
 17
0.0
 27
0.0
 37
0.0
 40
43.89059999999997
 41
2.885548454566584
 42
50.0
 43
0.0
 44
0.0
 50
0.0
 51
0.0
 71
     0
 72
   100
 73
     1
 74
     3
 75
     0
 76
     0
 77
     0
 78
     0
281
     0
 65
     1
110
0.0
120
0.0
130
0.0
111
1.0
121
0.0
131
0.0
112
0.0
122
1.0
132
0.0
 79
     0
146
0.0
348
2F
 60
     3
 61
     5
292
     1
282
     1
141
0.0
142
0.0
 63
   250
361
6D
  0
ENDTAB
  0
TABLE
  2
LTYPE
  5
5
330
0
100
AcDbSymbolTable
 70
     3
  0
LTYPE
  5
14
330
5
100
AcDbSymbolTableRecord
100
AcDbLinetypeTableRecord
  2
ByBlock
 70
     0
  3

 72
    65
 73
     0
 40
0.0
  0
LTYPE
  5
15
330
5
100
AcDbSymbolTableRecord
100
AcDbLinetypeTableRecord
  2
ByLayer
 70
     0
  3

 72
    65
 73
     0
 40
0.0
  0
LTYPE
  5
16
330
5
100
AcDbSymbolTableRecord
100
AcDbLinetypeTableRecord
  2
Continuous
 70
     0
  3
Solid line
 72
    65
 73
     0
 40
0.0
  0
LTYPE
  5
A5
330
5
100
AcDbSymbolTableRecord
100
AcDbLinetypeTableRecord
  2
Dashed
 70
     0
  3

 72
    65
 73
     2
 40
2.0
 49
1.0
 74
     0
 49
-1.0
 74
     0
  0
LTYPE
  5
ED
330
5
100
AcDbSymbolTableRecord
100
AcDbLinetypeTableRecord
  2
Center
 70
     0
  3

 72
    65
 73
     4
 40
1.5
 49
0.45
 74
     0
 49
-0.5
 74
     0
 49
0.05
 74
     0
 49
-0.5
 74
     0
  0
ENDTAB
  0
TABLE
  2
LAYER
  5
2
330
0
100
AcDbSymbolTable
 70
     7
  0
LAYER
  5
10
330
2
100
AcDbSymbolTableRecord
100
AcDbLayerTableRecord
  2
0
 70
     0
 62
     7
  6
Continuous
370
    -3
390
F
347
46
348
0
  0
LAYER
  5
72
330
2
100
AcDbSymbolTableRecord
100
AcDbLayerTableRecord
  2
AM_6
 70
     0
 62
    -2
  6
Continuous
370
    35
390
F
347
46
348
0
  0
LAYER
  5
A6
330
2
100
AcDbSymbolTableRecord
100
AcDbLayerTableRecord
  2
AM_9
 70
     0
 62
     6
  6
Dashed
370
    25
390
F
347
46
348
0
  0
LAYER
  5
EA
330
2
100
AcDbSymbolTableRecord
100
AcDbLayerTableRecord
  2
AM_5
 70
     0
 62
     3
  6
Continuous
370
    25
390
F
347
46
348
0
  0
LAYER
  5
EE
330
2
100
AcDbSymbolTableRecord
100
AcDbLayerTableRecord
  2
AM_7
 70
     0
 62
     7
  6
Center
370
    25
390
F
347
46
348
0
  0
LAYER
  5
F2
330
2
100
AcDbSymbolTableRecord
100
AcDbLayerTableRecord
  2
AM_4
 70
     0
 62
     7
  6
Continuous
370
    50
390
F
347
46
348
0
  0
LAYER
  5
19C
330
2
100
AcDbSymbolTableRecord
100
AcDbLayerTableRecord
  2
ConnectionPoints
 70
     0
 62
     7
  6
Continuous
370
    50
390
F
347
46
348
0
  0
ENDTAB
  0
TABLE
  2
STYLE
  5
3
330
0
100
AcDbSymbolTable
 70
     1
  0
STYLE
  5
11
330
3
100
AcDbSymbolTableRecord
100
AcDbTextStyleTableRecord
  2
Standard
 70
     0
 40
0.0
 41
1.0
 50
0.0
 71
     0
 42
2.5
  3
txt
  4

  0
ENDTAB
  0
TABLE
  2
VIEW
  5
6
330
0
100
AcDbSymbolTable
 70
     0
  0
ENDTAB
  0
TABLE
  2
UCS
  5
7
330
0
100
AcDbSymbolTable
 70
     0
  0
ENDTAB
  0
TABLE
  2
APPID
  5
9
330
0
100
AcDbSymbolTable
 70
     1
  0
APPID
  5
12
330
9
100
AcDbSymbolTableRecord
100
AcDbRegAppTableRecord
  2
ACAD
 70
     0
  0
ENDTAB
  0
TABLE
  2
DIMSTYLE
  5
A
330
0
100
AcDbSymbolTable
 70
     1
100
AcDbDimStyleTable
  0
DIMSTYLE
105
27
330
A
100
AcDbSymbolTableRecord
100
AcDbDimStyleTableRecord
  2
ISO-25
 70
     0
 41
2.5
 42
0.625
 43
3.75
 44
1.25
 73
     0
 74
     0
 77
     1
 78
     8
140
2.5
141
2.5
143
0.03937007874016
147
0.625
171
     3
172
     1
178
     0
271
     2
272
     2
274
     3
278
    44
283
     0
284
     8
340
11
  0
ENDTAB
  0
TABLE
  2
BLOCK_RECORD
  5
1
330
0
100
AcDbSymbolTable
 70
     5
  0
BLOCK_RECORD
  5
1F
330
1
100
AcDbSymbolTableRecord
100
AcDbBlockTableRecord
  2
*Model_Space
340
22
 70
     0
280
     1
281
     0
  0
BLOCK_RECORD
  5
1B
330
1
100
AcDbSymbolTableRecord
100
AcDbBlockTableRecord
  2
*Paper_Space
340
1E
 70
     0
280
     1
281
     0
  0
BLOCK_RECORD
  5
23
330
1
100
AcDbSymbolTableRecord
100
AcDbBlockTableRecord
  2
*Paper_Space0
340
26
 70
     0
280
     1
281
     0
  0
BLOCK_RECORD
  5
6E
330
1
100
AcDbSymbolTableRecord
100
AcDbBlockTableRecord
  2
1_127576_4
340
0
102
{BLKREFS
331
6F
102
}
 70
     0
280
     1
281
     0
  0
BLOCK_RECORD
  5
8F
330
1
100
AcDbSymbolTableRecord
100
AcDbBlockTableRecord
  2
2_125874_0_in_127576_4
340
0
102
{BLKREFS
331
90
102
}
 70
     0
280
     1
281
     0
  0
BLOCK_RECORD
  5
109
330
1
100
AcDbSymbolTableRecord
100
AcDbBlockTableRecord
  2
3_405020c_M_0_in_127576_4
340
0
102
{BLKREFS
331
10A
102
}
 70
     0
280
     1
281
     0
  0
BLOCK_RECORD
  5
145
330
1
100
AcDbSymbolTableRecord
100
AcDbBlockTableRecord
  2
4_127576H_0_in_127576_4
340
0
102
{BLKREFS
331
146
102
}
 70
     0
280
     1
281
     0
  0
ENDTAB
  0
ENDSEC
  0
SECTION
  2
BLOCKS
  0
BLOCK
  5
20
330
1F
100
AcDbEntity
  8
0
100
AcDbBlockBegin
  2
*Model_Space
 70
     0
 10
0.0
 20
0.0
 30
0.0
  3
*Model_Space
  1

  0
ENDBLK
  5
21
330
1F
100
AcDbEntity
  8
0
100
AcDbBlockEnd
  0
BLOCK
  5
1C
330
1B
100
AcDbEntity
 67
     1
  8
0
100
AcDbBlockBegin
  2
*Paper_Space
 70
     0
 10
0.0
 20
0.0
 30
0.0
  3
*Paper_Space
  1

  0
ENDBLK
  5
1D
330
1B
100
AcDbEntity
 67
     1
  8
0
100
AcDbBlockEnd
  0
BLOCK
  5
24
330
23
100
AcDbEntity
  8
0
100
AcDbBlockBegin
  2
*Paper_Space0
 70
     0
 10
0.0
 20
0.0
 30
0.0
  3
*Paper_Space0
  1

  0
ENDBLK
  5
25
330
23
100
AcDbEntity
  8
0
100
AcDbBlockEnd
  0
BLOCK
  5
70
330
6E
100
AcDbEntity
  8
0
100
AcDbBlockBegin
  2
1_127576_4
 70
     2
 10
0.0
 20
0.0
 30
0.0
  3
1_127576_4
  1

  0
ATTDEF
  5
73
330
6E
100
AcDbEntity
  8
AM_6
100
AcDbText
 10
78.30999999999999
 20
17.20000000000001
 30
0.0
 40
0.5
  1
Set Screw Wide Slot Take Up Metric Bore - Polymer Housing, Corrosion Resistant Insert
100
AcDbAttributeDefinition
  3

  2
NN
 70
     8
280
     0
  0
ATTDEF
  5
74
330
6E
100
AcDbEntity
  8
AM_6
100
AcDbText
 10
78.30999999999999
 20
16.70000000000001
 30
0.0
 40
0.5
  1
SC Take-Up Bearings -Wide Slot -(Normal Duty) -Polymer Housed -Corrosion Resistant Insert -E-Z KLEEN
100
AcDbAttributeDefinition
  3

  2
NT
 70
     8
280
     0
  0
ATTDEF
  5
75
330
6E
100
AcDbEntity
  8
AM_6
100
AcDbText
 10
78.30999999999999
 20
16.20000000000001
 30
0.0
 40
0.5
  1
127576
100
AcDbAttributeDefinition
  3

  2
NB
 70
     8
280
     0
  0
ATTDEF
  5
76
330
6E
100
AcDbEntity
  8
AM_6
100
AcDbText
 10
78.30999999999999
 20
15.70000000000001
 30
0.0
 40
0.5
  1
$PN.
100
AcDbAttributeDefinition
  3

  2
NBSYN
 70
     8
280
     0
  0
ATTDEF
  5
77
330
6E
100
AcDbEntity
  8
AM_6
100
AcDbText
 10
78.30999999999999
 20
15.20000000000001
 30
0.0
 40
0.5
  1
127576
100
AcDbAttributeDefinition
  3

  2
LINA
 70
     8
280
     0
  0
ATTDEF
  5
78
330
6E
100
AcDbEntity
  8
AM_6
100
AcDbText
 10
78.30999999999999
 20
14.70000000000001
 30
0.0
 40
0.5
  1
206
100
AcDbAttributeDefinition
  3

  2
SERIES
 70
     8
280
     0
  0
ATTDEF
  5
79
330
6E
100
AcDbEntity
  8
AM_6
100
AcDbText
 10
78.30999999999999
 20
14.20000000000001
 30
0.0
 40
0.5
  1
30
100
AcDbAttributeDefinition
  3

  2
SS
 70
     8
280
     0
  0
ATTDEF
  5
7A
330
6E
100
AcDbEntity
  8
AM_6
100
AcDbText
 10
78.30999999999999
 20
13.70000000000001
 30
0.0
 40
0.5
  1
127576
100
AcDbAttributeDefinition
  3

  2
PN
 70
     8
280
     0
  0
ATTDEF
  5
7B
330
6E
100
AcDbEntity
  8
AM_6
100
AcDbText
 10
78.30999999999999
 20
13.20000000000001
 30
0.0
 40
0.5
  1
WSTU-SCEZ-30M-PCR
100
AcDbAttributeDefinition
  3

  2
DESCRIPTION
 70
     8
280
     0
  0
ATTDEF
  5
7C
330
6E
100
AcDbEntity
  8
AM_6
100
AcDbText
 10
78.30999999999999
 20
12.70000000000001
 30
0.0
 40
0.5
  1
0.49
100
AcDbAttributeDefinition
  3

  2
W
 70
     8
280
     0
  0
ATTDEF
  5
7D
330
6E
100
AcDbEntity
  8
AM_6
100
AcDbText
 10
78.30999999999999
 20
12.20000000000001
 30
0.0
 40
0.5
  1
WS308
100
AcDbAttributeDefinition
  3

  2
FS
 70
     8
280
     0
  0
ATTDEF
  5
7E
330
6E
100
AcDbEntity
  8
AM_6
100
AcDbText
 10
78.30999999999999
 20
11.70000000000001
 30
0.0
 40
0.5
  1
38.6
100
AcDbAttributeDefinition
  3

  2
A
 70
     8
280
     0
  0
ATTDEF
  5
7F
330
6E
100
AcDbEntity
  8
AM_6
100
AcDbText
 10
78.30999999999999
 20
11.20000000000001
 30
0.0
 40
0.5
  1
114.0
100
AcDbAttributeDefinition
  3

  2
B
 70
     8
280
     0
  0
ATTDEF
  5
80
330
6E
100
AcDbEntity
  8
AM_6
100
AcDbText
 10
78.30999999999999
 20
10.70000000000001
 30
0.0
 40
0.5
  1
13.84/13.08
100
AcDbAttributeDefinition
  3

  2
C
 70
     8
280
     0
  0
ATTDEF
  5
81
330
6E
100
AcDbEntity
  8
AM_6
100
AcDbText
 10
78.30999999999999
 20
10.20000000000001
 30
0.0
 40
0.5
  1
58.2
100
AcDbAttributeDefinition
  3

  2
D
 70
     8
280
     0
  0
ATTDEF
  5
82
330
6E
100
AcDbEntity
  8
AM_6
100
AcDbText
 10
78.30999999999999
 20
9.700000000000006
 30
0.0
 40
0.5
  1
72.6
100
AcDbAttributeDefinition
  3

  2
E
 70
     8
280
     0
  0
ATTDEF
  5
83
330
6E
100
AcDbEntity
  8
AM_6
100
AcDbText
 10
78.30999999999999
 20
9.200000000000006
 30
0.0
 40
0.5
  1
19.1
100
AcDbAttributeDefinition
  3

  2
F
 70
     8
280
     0
  0
ATTDEF
  5
84
330
6E
100
AcDbEntity
  8
AM_6
100
AcDbText
 10
78.30999999999999
 20
8.700000000000006
 30
0.0
 40
0.5
  1
14.2
100
AcDbAttributeDefinition
  3

  2
G
 70
     8
280
     0
  0
ATTDEF
  5
85
330
6E
100
AcDbEntity
  8
AM_6
100
AcDbText
 10
78.30999999999999
 20
8.200000000000006
 30
0.0
 40
0.5
  1
16.5
100
AcDbAttributeDefinition
  3

  2
H
 70
     8
280
     0
  0
ATTDEF
  5
86
330
6E
100
AcDbEntity
  8
AM_6
100
AcDbText
 10
78.30999999999999
 20
7.700000000000006
 30
0.0
 40
0.5
  1
61.2
100
AcDbAttributeDefinition
  3

  2
J
 70
     8
280
     0
  0
ATTDEF
  5
87
330
6E
100
AcDbEntity
  8
AM_6
100
AcDbText
 10
78.30999999999999
 20
7.200000000000006
 30
0.0
 40
0.5
  1
20.6
100
AcDbAttributeDefinition
  3

  2
K
 70
     8
280
     0
  0
ATTDEF
  5
88
330
6E
100
AcDbEntity
  8
AM_6
100
AcDbText
 10
78.30999999999999
 20
6.700000000000006
 30
0.0
 40
0.5
  1
39.9
100
AcDbAttributeDefinition
  3

  2
L
 70
     8
280
     0
  0
ATTDEF
  5
89
330
6E
100
AcDbEntity
  8
AM_6
100
AcDbText
 10
78.30999999999999
 20
6.200000000000006
 30
0.0
 40
0.5
  1
89.54/88.77
100
AcDbAttributeDefinition
  3

  2
M
 70
     8
280
     0
  0
ATTDEF
  5
8A
330
6E
100
AcDbEntity
  8
AM_6
100
AcDbText
 10
78.30999999999999
 20
5.700000000000006
 30
0.0
 40
0.5
  1
106.7
100
AcDbAttributeDefinition
  3

  2
N
 70
     8
280
     0
  0
ATTDEF
  5
8B
330
6E
100
AcDbEntity
  8
AM_6
100
AcDbText
 10
78.30999999999999
 20
5.200000000000006
 30
0.0
 40
0.5
  1
14.7
100
AcDbAttributeDefinition
  3

  2
R
 70
     8
280
     0
  0
ATTDEF
  5
8C
330
6E
100
AcDbEntity
  8
AM_6
100
AcDbText
 10
78.30999999999999
 20
4.700000000000006
 30
0.0
 40
0.5
  1
23.9
100
AcDbAttributeDefinition
  3

  2
S
 70
     8
280
     0
  0
ATTDEF
  5
8D
330
6E
100
AcDbEntity
  8
AM_6
100
AcDbText
 10
78.30999999999999
 20
4.200000000000006
 30
0.0
 40
0.5
  1
41.1
100
AcDbAttributeDefinition
  3

  2
T
 70
     8
280
     0
  0
ATTDEF
  5
8E
330
6E
100
AcDbEntity
  8
AM_6
100
AcDbText
 10
78.30999999999999
 20
3.700000000000006
 30
0.0
 40
0.5
  1
baldor
100
AcDbAttributeDefinition
  3

  2
COMPANY
 70
     8
280
     0
  0
INSERT
  5
90
330
6E
100
AcDbEntity
  8
0
100
AcDbBlockReference
  2
2_125874_0_in_127576_4
 10
0.0
 20
0.0
 30
0.0
  0
INSERT
  5
10A
330
6E
100
AcDbEntity
  8
0
100
AcDbBlockReference
  2
3_405020c_M_0_in_127576_4
 10
0.0
 20
0.0
 30
0.0
  0
INSERT
  5
146
330
6E
100
AcDbEntity
  8
0
100
AcDbBlockReference
  2
4_127576H_0_in_127576_4
 10
0.0
 20
0.0
 30
0.0
  0
ENDBLK
  5
71
330
6E
100
AcDbEntity
  8
0
100
AcDbBlockEnd
  0
BLOCK
  5
91
330
8F
100
AcDbEntity
  8
0
100
AcDbBlockBegin
  2
2_125874_0_in_127576_4
 70
     2
 10
0.0
 20
0.0
 30
0.0
  3
2_125874_0_in_127576_4
  1

  0
ATTDEF
  5
93
330
8F
100
AcDbEntity
  8
AM_6
100
AcDbText
 10
35.98953406218504
 20
16.63000000000001
 30
0.0
 40
0.5
  1
Set Screw Insert Metric Bore - Corrosion Resistant
100
AcDbAttributeDefinition
  3

  2
NN
 70
     8
280
     0
  0
ATTDEF
  5
94
330
8F
100
AcDbEntity
  8
AM_6
100
AcDbText
 10
35.98953406218504
 20
16.13000000000001
 30
0.0
 40
0.5
  1
SC Bearing Insert -Metric
100
AcDbAttributeDefinition
  3

  2
NT
 70
     8
280
     0
  0
ATTDEF
  5
95
330
8F
100
AcDbEntity
  8
AM_6
100
AcDbText
 10
35.98953406218504
 20
15.63000000000001
 30
0.0
 40
0.5
  1
125874
100
AcDbAttributeDefinition
  3

  2
NB
 70
     8
280
     0
  0
ATTDEF
  5
96
330
8F
100
AcDbEntity
  8
AM_6
100
AcDbText
 10
35.98953406218504
 20
15.13000000000001
 30
0.0
 40
0.5
  1
$PN.
100
AcDbAttributeDefinition
  3

  2
NBSYN
 70
     8
280
     0
  0
ATTDEF
  5
97
330
8F
100
AcDbEntity
  8
AM_6
100
AcDbText
 10
35.98953406218504
 20
14.63000000000001
 30
0.0
 40
0.5
  1
125874
100
AcDbAttributeDefinition
  3

  2
LINA
 70
     8
280
     0
  0
ATTDEF
  5
98
330
8F
100
AcDbEntity
  8
AM_6
100
AcDbText
 10
35.98953406218504
 20
14.13000000000001
 30
0.0
 40
0.5
  1
206
100
AcDbAttributeDefinition
  3

  2
SERIES
 70
     8
280
     0
  0
ATTDEF
  5
99
330
8F
100
AcDbEntity
  8
AM_6
100
AcDbText
 10
35.98953406218504
 20
13.63000000000001
 30
0.0
 40
0.5
  1
30
100
AcDbAttributeDefinition
  3

  2
SS
 70
     8
280
     0
  0
ATTDEF
  5
9A
330
8F
100
AcDbEntity
  8
AM_6
100
AcDbText
 10
35.98953406218504
 20
13.13000000000001
 30
0.0
 40
0.5
  1
125874
100
AcDbAttributeDefinition
  3

  2
PN
 70
     8
280
     0
  0
ATTDEF
  5
9B
330
8F
100
AcDbEntity
  8
AM_6
100
AcDbText
 10
35.98953406218504
 20
12.63000000000001
 30
0.0
 40
0.5
  1
INS-SC-30M-CR
100
AcDbAttributeDefinition
  3

  2
DESCRIPTION
 70
     8
280
     0
  0
ATTDEF
  5
9C
330
8F
100
AcDbEntity
  8
AM_6
100
AcDbText
 10
35.98953406218504
 20
12.13000000000001
 30
0.0
 40
0.5
  1
38.6
100
AcDbAttributeDefinition
  3

  2
A
 70
     8
280
     0
  0
ATTDEF
  5
9D
330
8F
100
AcDbEntity
  8
AM_6
100
AcDbText
 10
35.98953406218504
 20
11.63000000000001
 30
0.0
 40
0.5
  1
17.5
100
AcDbAttributeDefinition
  3

  2
C
 70
     8
280
     0
  0
ATTDEF
  5
9E
330
8F
100
AcDbEntity
  8
AM_6
100
AcDbText
 10
35.98953406218504
 20
11.13000000000001
 30
0.0
 40
0.5
  1
62
100
AcDbAttributeDefinition
  3

  2
D
 70
     8
280
     0
  0
ATTDEF
  5
9F
330
8F
100
AcDbEntity
  8
AM_6
100
AcDbText
 10
35.98953406218504
 20
10.63000000000001
 30
0.0
 40
0.5
  1
4.1
100
AcDbAttributeDefinition
  3

  2
J
 70
     8
280
     0
  0
ATTDEF
  5
A0
330
8F
100
AcDbEntity
  8
AM_6
100
AcDbText
 10
35.98953406218504
 20
10.13000000000001
 30
0.0
 40
0.5
  1
39.9
100
AcDbAttributeDefinition
  3

  2
L
 70
     8
280
     0
  0
ATTDEF
  5
A1
330
8F
100
AcDbEntity
  8
AM_6
100
AcDbText
 10
35.98953406218504
 20
9.630000000000006
 30
0.0
 40
0.5
  1
M8 x 1.25
100
AcDbAttributeDefinition
  3

  2
N
 70
     8
280
     0
  0
ATTDEF
  5
A2
330
8F
100
AcDbEntity
  8
AM_6
100
AcDbText
 10
35.98953406218504
 20
9.130000000000006
 30
0.0
 40
0.5
  1
14.7
100
AcDbAttributeDefinition
  3

  2
W
 70
     8
280
     0
  0
ATTDEF
  5
A3
330
8F
100
AcDbEntity
  8
AM_6
100
AcDbText
 10
35.98953406218504
 20
8.630000000000006
 30
0.0
 40
0.5
  1
23.9
100
AcDbAttributeDefinition
  3

  2
Y
 70
     8
280
     0
  0
ATTDEF
  5
A4
330
8F
100
AcDbEntity
  8
AM_6
100
AcDbText
 10
35.98953406218504
 20
8.130000000000006
 30
0.0
 40
0.5
  1
baldor
100
AcDbAttributeDefinition
  3

  2
COMPANY
 70
     8
280
     0
  0
ARC
  5
A7
330
8F
100
AcDbEntity
  8
AM_9
100
AcDbCircle
 10
-0.0000000000001658
 20
4.099999999987077
 30
0.0
 40
1.750000000012925
100
AcDbArc
 50
88.79503760361905
 51
90.0
  0
ARC
  5
A8
330
8F
100
AcDbEntity
  8
AM_9
100
AcDbCircle
 10
-0.0000000000000056
 20
4.099999999999985
 30
0.0
 40
1.750000000000017
100
AcDbArc
 50
42.38288660004469
 51
55.47407048687077
  0
ARC
  5
A9
330
8F
100
AcDbEntity
  8
AM_9
100
AcDbCircle
 10
-0.0000000000008631
 20
4.1
 30
0.0
 40
1.749999999999138
100
AcDbArc
 50
180.0
 51
180.7194743001091
  0
CIRCLE
  5
AA
330
8F
100
AcDbEntity
  8
AM_9
100
AcDbCircle
 10
0.000000000000002
 20
4.099999999999998
 30
0.0
 40
0.1590909090909108
  0
LINE
  5
AB
330
8F
100
AcDbEntity
  8
AM_9
100
AcDbLine
 10
-19.81538424115118
 20
-12.325
 30
0.0
 11
-19.95000000000003
 21
-12.325
 31
0.0
  0
LINE
  5
AC
330
8F
100
AcDbEntity
  8
AM_9
100
AcDbLine
 10
-19.95000000000003
 20
-20.325
 30
0.0
 11
-19.81538424115118
 21
-20.325
 31
0.0
  0
LINE
  5
AD
330
8F
100
AcDbEntity
  8
AM_9
100
AcDbLine
 10
-14.86283229480097
 20
-18.96117830834307
 30
0.0
 11
-14.86283229480097
 21
-13.68882169165694
 31
0.0
  0
LINE
  5
AE
330
8F
100
AcDbEntity
  8
AM_9
100
AcDbLine
 10
-15.0
 20
-13.0015
 30
0.0
 11
-19.13888424115118
 21
-13.0015
 31
0.0
  0
LINE
  5
AF
330
8F
100
AcDbEntity
  8
AM_9
100
AcDbLine
 10
-19.13888424115118
 20
-19.6485
 30
0.0
 11
-15.0
 21
-19.6485
 31
0.0
  0
LINE
  5
B0
330
8F
100
AcDbEntity
  8
AM_9
100
AcDbLine
 10
-19.81538424115118
 20
-13.06203315608915
 30
0.0
 11
-19.81538424115118
 21
-12.325
 31
0.0
  0
LINE
  5
B1
330
8F
100
AcDbEntity
  8
AM_9
100
AcDbLine
 10
-19.13888424115118
 20
-13.0015
 30
0.0
 11
-19.81538424115118
 21
-12.325
 31
0.0
  0
LINE
  5
B2
330
8F
100
AcDbEntity
  8
AM_9
100
AcDbLine
 10
-19.81538424115118
 20
-20.325
 30
0.0
 11
-19.13888424115118
 21
-19.6485
 31
0.0
  0
LINE
  5
B3
330
8F
100
AcDbEntity
  8
AM_9
100
AcDbLine
 10
-19.81538424115118
 20
-20.325
 30
0.0
 11
-19.81538424115118
 21
-19.58796684391085
 31
0.0
  0
LINE
  5
B4
330
8F
100
AcDbEntity
  8
AM_9
100
AcDbLine
 10
-19.13888424115118
 20
-19.6485
 30
0.0
 11
-19.13888424115118
 21
-13.0015
 31
0.0
  0
LWPOLYLINE
  5
B5
330
8F
100
AcDbEntity
  8
AM_9
100
AcDbPolyline
 90
       15
 70
     0
 43
0.0
 10
-14.86283229480097
 20
-18.96117830834307
 10
-14.78499867950614
 20
-18.59772002576934
 10
-14.73002804524678
 20
-18.30462214526603
 10
-14.67669738333639
 20
-17.97483897876605
 10
-14.6290046780513
 20
-17.61432449109472
 10
-14.58699710779424
 20
-17.18131772034825
 10
-14.56069761936972
 20
-16.72392601119556
 10
-14.55382353104161
 20
-16.25266882664069
 10
-14.56681799143723
 20
-15.78364042641333
 10
-14.5964757575403
 20
-15.35421551363033
 10
-14.63938417130165
 20
-14.94935109648117
 10
-14.6956074473184
 20
-14.55141705710398
 10
-14.75707929193117
 20
-14.19634657916436
 10
-14.8113806693722
 20
-13.92344176580038
 10
-14.86283229480097
 20
-13.68882169165694
  0
LWPOLYLINE
  5
B6
330
8F
100
AcDbEntity
  8
AM_9
100
AcDbPolyline
 90
        5
 70
     0
 43
0.0
 10
-14.86283229480097
 20
-13.68882169165694
 10
-14.91815717924133
 20
-13.39292464719105
 10
-14.96337477331264
 20
-13.17091743028036
 10
-14.99116817084873
 20
-13.04159089106033
 10
-14.99999999999424
 20
-13.00150000002599
  0
LWPOLYLINE
  5
B7
330
8F
100
AcDbEntity
  8
AM_9
100
AcDbPolyline
 90
       15
 70
     0
 43
0.0
 10
-4.447017950730298
 20
-18.96117830834307
 10
-3.962780439498807
 20
-18.60457732117618
 10
-3.664458407414419
 20
-18.31197617398768
 10
-3.400922414000469
 20
-17.98252933626532
 10
-3.181720846043442
 20
-17.62217445447875
 10
-2.999129152056485
 20
-17.1893254490454
 10
-2.888819904162083
 20
-16.73185244381185
 10
-2.859246038778809
 20
-16.26022953917602
 10
-2.911301458354266
 20
-15.79060635884639
 10
-3.034116514152948
 20
-15.3608764516428
 10
-3.220419259939262
 20
-14.95556664501404
 10
-3.498671203381149
 20
-14.53494376685728
 10
-3.834658062668538
 20
-14.16254375978711
 10
-4.12956882426253
 20
-13.90865876438211
 10
-4.447017950730298
 20
-13.68882169165694
  0
LWPOLYLINE
  5
B8
330
8F
100
AcDbEntity
  8
AM_9
100
AcDbPolyline
 90
       16
 70
     0
 43
0.0
 10
-8.115590747214341
 20
-13.68882169165695
 10
-8.169707491009138
 20
-13.72773745170499
 10
-8.465319758834516
 20
-13.97672166251924
 10
-8.731358808369126
 20
-14.26671790330106
 10
-8.961634235753944
 20
-14.59328169434319
 10
-9.178395180816683
 20
-15.01510663075443
 10
-9.33502419427014
 20
-15.47557049978468
 10
-9.423792070683932
 20
-15.96706560831285
 10
-9.439949782880198
 20
-16.47093478404434
 10
-9.390343307379963
 20
-16.91998442468742
 10
-9.283429115349925
 20
-17.35266961494458
 10
-9.120656144268349
 20
-17.76329218020041
 10
-8.90928106400145
 20
-18.13928138952621
 10
-8.619400592293971
 20
-18.51479372580513
 10
-8.282530879012931
 20
-18.83497065711838
 10
-8.115590747214341
 20
-18.96117830834306
  0
LINE
  5
B9
330
8F
100
AcDbEntity
  8
AM_9
100
AcDbLine
 10
15.0
 20
-23.102
 30
0.0
 11
15.0
 21
13.90200000000001
 31
0.0
  0
LINE
  5
BA
330
8F
100
AcDbEntity
  8
AM_9
100
AcDbLine
 10
-15.0
 20
13.90200000000001
 30
0.0
 11
-15.0
 21
-13.00534092899673
 31
0.0
  0
LINE
  5
BB
330
8F
100
AcDbEntity
  8
AM_9
100
AcDbLine
 10
-15.0
 20
-19.64465907100327
 30
0.0
 11
-15.0
 21
-23.102
 31
0.0
  0
LWPOLYLINE
  5
BC
330
8F
100
AcDbEntity
  8
AM_9
100
AcDbPolyline
 90
        6
 70
     0
 43
0.0
 10
-14.99999999999424
 20
-19.64849999997401
 10
-14.99991883503968
 20
-19.64813365782634
 10
-14.9884723912491
 20
-19.59607885463445
 10
-14.95774202500191
 20
-19.45225098713041
 10
-14.91565572611422
 20
-19.2443214947936
 10
-14.86283229480096
 20
-18.96117830834305
  0
LINE
  5
BD
330
8F
100
AcDbEntity
  8
AM_9
100
AcDbLine
 10
-15.0
 20
-23.102
 30
0.0
 11
-15.79800000000003
 21
-23.9
 31
0.0
  0
LINE
  5
BE
330
8F
100
AcDbEntity
  8
AM_9
100
AcDbLine
 10
15.79800000000003
 20
-23.9
 30
0.0
 11
15.0
 21
-23.102
 31
0.0
  0
LINE
  5
BF
330
8F
100
AcDbEntity
  8
AM_9
100
AcDbLine
 10
15.0
 20
13.90200000000001
 30
0.0
 11
15.79800000000003
 21
14.7
 31
0.0
  0
LINE
  5
C0
330
8F
100
AcDbEntity
  8
AM_9
100
AcDbLine
 10
-15.79800000000003
 20
14.7
 30
0.0
 11
-15.0
 21
13.90200000000001
 31
0.0
  0
ELLIPSE
  5
C1
330
8F
100
AcDbEntity
  8
AM_9
100
AcDbEllipse
 10
-6.281304348972311
 20
-16.325
 30
0.0
 11
2.035056818483112E-16
 21
3.323499999999996
 31
0.0
210
0.0
220
0.0
230
1.0
 40
0.9063077870366497
 41
3.796353787320744
 42
5.628424173448637
  0
LWPOLYLINE
  5
C2
330
8F
100
AcDbEntity
  8
AM_9
100
AcDbPolyline
 90
        3
 70
     0
 43
0.0
 10
-7.225181299889882
 20
-19.49674132042297
 10
-6.801983523266561
 20
-19.60840910893968
 10
-6.339029601055447
 20
-19.64849998906663
  0
ELLIPSE
  5
C3
330
8F
100
AcDbEntity
  8
AM_9
100
AcDbEllipse
 10
-6.281304348973443
 20
-16.32499999999835
 30
0.0
 11
2.035056818481805E-16
 21
3.323499999997862
 31
0.0
210
0.0
220
0.0
230
1.0
 40
0.90630778703667
 41
0.6547611337309505
 42
0.7261960676535549
  0
LWPOLYLINE
  5
C4
330
8F
100
AcDbEntity
  8
AM_9
100
AcDbPolyline
 90
        5
 70
     0
 43
0.0
 10
-4.447017950730298
 20
-13.68882169165694
 10
-4.88649889787028
 20
-13.39292464719105
 10
-5.374369185797031
 20
-13.17091743028036
 10
-5.869099344386632
 20
-13.04159089106033
 10
-6.339518249117975
 20
-13.00150001093338
  0
LINE
  5
C5
330
8F
100
AcDbEntity
  8
AM_9
100
AcDbLine
 10
-6.338917834106217
 20
-13.0015
 30
0.0
 11
-8.08844198965178
 21
-13.0015
 31
0.0
  0
LINE
  5
C6
330
8F
100
AcDbEntity
  8
AM_9
100
AcDbLine
 10
-8.08844198965178
 20
-19.6485
 30
0.0
 11
-6.338917834106217
 21
-19.6485
 31
0.0
  0
ELLIPSE
  5
C7
330
8F
100
AcDbEntity
  8
AM_9
100
AcDbEllipse
 10
-8.088441989651786
 20
-16.32500000000003
 30
0.0
 11
2.035056818483137E-16
 21
3.323500000000037
 31
0.0
210
0.0
220
0.0
230
1.0
 40
0.9063077870366482
 41
5.556989239526072
 42
7.009381374833092
  0
LWPOLYLINE
  5
C8
330
8F
100
AcDbEntity
  8
AM_9
100
AcDbPolyline
 90
        6
 70
     0
 43
0.0
 10
-6.339029601055447
 20
-19.64849998906663
 10
-6.294517745373943
 20
-19.64813365782634
 10
-5.801530643142425
 20
-19.59607885463445
 10
-5.30168635597015
 20
-19.45225098713041
 10
-4.863992235561465
 20
-19.2443214947936
 10
-4.447017950730269
 20
-18.96117830834305
  0
LWPOLYLINE
  5
C9
330
8F
100
AcDbEntity
  8
AM_9
100
AcDbPolyline
 90
        4
 70
     0
 43
0.0
 10
-7.210741132907253
 20
-13.14816015217709
 10
-7.34114351237409
 20
-13.1977490128696
 10
-7.743264755824748
 20
-13.40567850520641
 10
-8.115590747214368
 20
-13.68882169165696
  0
LWPOLYLINE
  5
CA
330
8F
100
AcDbEntity
  8
AM_9
100
AcDbPolyline
 90
        4
 70
     0
 43
0.0
 10
-6.339518249117975
 20
-13.00150001093338
 10
-6.383961503258164
 20
-13.00186634217367
 10
-6.867273653133908
 20
-13.05392114536556
 10
-7.210741132907253
 20
-13.14816015217709
  0
LINE
  5
CB
330
8F
100
AcDbEntity
  8
AM_9
100
AcDbLine
 10
-8.374343243719364
 20
-12.325
 30
0.0
 11
-8.430191196484916
 21
-12.325
 31
0.0
  0
ELLIPSE
  5
CC
330
8F
100
AcDbEntity
  8
AM_9
100
AcDbEllipse
 10
-8.374343243719364
 20
-16.32500000000185
 30
0.0
 11
2.449293598295839E-16
 21
4.000000000001849
 31
0.0
210
0.0
220
0.0
230
1.0
 40
0.906307787036652
 41
6.233776658959844
 42
6.382872465957592
  0
LWPOLYLINE
  5
CD
330
8F
100
AcDbEntity
  8
AM_9
100
AcDbPolyline
 90
        6
 70
     0
 43
0.0
 10
-8.430880214990237
 20
-12.32500001908196
 10
-8.240059709491705
 20
-12.33053842595622
 10
-7.63797849134268
 20
-12.4203664347085
 10
-7.049665123208246
 20
-12.61614323015017
 10
-6.652867736634738
 20
-12.81551388314834
 10
-6.277450315766265
 20
-13.06203315608914
  0
LINE
  5
CE
330
8F
100
AcDbEntity
  8
AM_9
100
AcDbLine
 10
-8.430191196484916
 20
-20.325
 30
0.0
 11
-8.374343243719364
 21
-20.325
 31
0.0
  0
ELLIPSE
  5
CF
330
8F
100
AcDbEntity
  8
AM_9
100
AcDbEllipse
 10
-8.37434324371938
 20
-16.32499999999997
 30
0.0
 11
2.449293598294724E-16
 21
4.000000000000028
 31
0.0
210
0.0
220
0.0
230
1.0
 40
0.9063077870366502
 41
3.141592653589793
 42
3.758378629178541
  0
LWPOLYLINE
  5
D0
330
8F
100
AcDbEntity
  8
AM_9
100
AcDbPolyline
 90
        4
 70
     0
 43
0.0
 10
-19.81538424115118
 20
-13.06203315608915
 10
-19.78103961293381
 20
-13.32275905427234
 10
-19.72368981703946
 20
-13.8162655048459
 10
-19.72126378744776
 20
-13.83870950927387
  0
LWPOLYLINE
  5
D1
330
8F
100
AcDbEntity
  8
AM_9
100
AcDbPolyline
 90
        4
 70
     0
 43
0.0
 10
-6.277450315766265
 20
-13.06203315608914
 10
-6.154521405406085
 20
-13.17651341940865
 10
-5.769725973940242
 20
-13.60898112175268
 10
-5.607635958888652
 20
-13.83395254679082
  0
LWPOLYLINE
  5
D2
330
8F
100
AcDbEntity
  8
AM_9
100
AcDbPolyline
 90
        4
 70
     0
 43
0.0
 10
-11.06307756995279
 20
-13.835943877661
 10
-10.90749629192648
 20
-13.58907843416746
 10
-10.70048381900921
 20
-13.31366465289465
 10
-10.47123617167247
 20
-13.06203315608914
  0
LWPOLYLINE
  5
D3
330
8F
100
AcDbEntity
  8
AM_9
100
AcDbPolyline
 90
        5
 70
     0
 43
0.0
 10
-10.47123617167248
 20
-13.06203315608915
 10
-9.975249500264578
 20
-12.72327115684561
 10
-9.429059522689407
 20
-12.48369995246901
 10
-8.845083037968658
 20
-12.35186519169713
 10
-8.430880214990237
 20
-12.32500001908196
  0
LINE
  5
D4
330
8F
100
AcDbEntity
  8
AM_9
100
AcDbLine
 10
19.95000000000003
 20
-13.84000000000001
 30
0.0
 11
19.95000000000003
 21
-8.750000000000002
 31
0.0
  0
LINE
  5
D5
330
8F
100
AcDbEntity
  8
AM_9
100
AcDbLine
 10
-19.95000000000003
 20
-8.750000000000002
 30
0.0
 11
-19.95000000000003
 21
-12.33736718595232
 31
0.0
  0
LWPOLYLINE
  5
D6
330
8F
100
AcDbEntity
  8
AM_9
100
AcDbPolyline
 90
        6
 70
     0
 43
0.0
 10
-19.94999999999355
 20
-12.32500000003233
 10
-19.9488902765671
 20
-12.33053842595622
 10
-19.93157137329549
 20
-12.4179502935372
 10
-19.89367031342538
 20
-12.61614323015016
 10
-19.85775061703455
 20
-12.81390906293576
 10
-19.81538424115118
 20
-13.06203315608915
  0
LINE
  5
D7
330
8F
100
AcDbEntity
  8
AM_9
100
AcDbLine
 10
19.95000000000003
 20
8.75
 30
0.0
 11
19.95000000000003
 21
13.83999999999999
 31
0.0
  0
LINE
  5
D8
330
8F
100
AcDbEntity
  8
AM_9
100
AcDbLine
 10
-19.95000000000003
 20
13.83999999999999
 30
0.0
 11
-19.95000000000003
 21
8.75
 31
0.0
  0
LINE
  5
D9
330
8F
100
AcDbEntity
  8
AM_9
100
AcDbLine
 10
29.25
 20
-4.856666666666664
 30
0.0
 11
29.25
 21
-2.523333333333331
 31
0.0
  0
LINE
  5
DA
330
8F
100
AcDbEntity
  8
AM_9
100
AcDbLine
 10
-29.25
 20
-2.523333333333331
 30
0.0
 11
-29.25
 21
-4.856666666666664
 31
0.0
  0
LINE
  5
DB
330
8F
100
AcDbEntity
  8
AM_9
100
AcDbLine
 10
-28.77802961806125
 20
8.75
 30
0.0
 11
28.77802961806125
 21
8.75
 31
0.0
  0
ARC
  5
DC
330
8F
100
AcDbEntity
  8
AM_9
100
AcDbCircle
 10
28.77802961806125
 20
8.04999999999999
 30
0.0
 40
0.7000000000000096
100
AcDbArc
 50
21.41247027384557
 51
90.0
  0
ARC
  5
DD
330
8F
100
AcDbEntity
  8
AM_9
100
AcDbCircle
 10
-28.77802961806125
 20
8.04999999999999
 30
0.0
 40
0.70000000000001
100
AcDbArc
 50
90.0
 51
158.5875297261544
  0
LINE
  5
DE
330
8F
100
AcDbEntity
  8
AM_9
100
AcDbLine
 10
-28.77802961806126
 20
-8.749999999999998
 30
0.0
 11
28.77802961806126
 21
-8.749999999999998
 31
0.0
  0
ARC
  5
DF
330
8F
100
AcDbEntity
  8
AM_9
100
AcDbCircle
 10
28.77802961806126
 20
-8.050000000000015
 30
0.0
 40
0.6999999999999833
100
AcDbArc
 50
270.0
 51
338.5875329531169
  0
ARC
  5
E0
330
8F
100
AcDbEntity
  8
AM_9
100
AcDbCircle
 10
-28.77802961806128
 20
-8.05000000000004
 30
0.0
 40
0.6999999999999578
100
AcDbArc
 50
201.4124670468817
 51
270.0
  0
ARC
  5
E1
330
8F
100
AcDbEntity
  8
AM_9
100
AcDbCircle
 10
8.250000000001894
 20
-0.0000000000006093
 30
0.0
 40
22.74999999999802
100
AcDbArc
 50
338.5875329531156
 51
347.6736410797011
  0
ARC
  5
E2
330
8F
100
AcDbEntity
  8
AM_9
100
AcDbCircle
 10
-8.250000000002082
 20
-0.0000000000006661
 30
0.0
 40
22.74999999999782
100
AcDbArc
 50
192.3263589202988
 51
201.4124670468844
  0
LINE
  5
E3
330
8F
100
AcDbEntity
  8
AM_9
100
AcDbLine
 10
-29.42971309799971
 20
-8.305555555555555
 30
0.0
 11
29.42971309799971
 21
-8.305555555555555
 31
0.0
  0
LINE
  5
E4
330
8F
100
AcDbEntity
  8
AM_9
100
AcDbLine
 10
-30.47555486121525
 20
-4.856666666666664
 30
0.0
 11
30.47555486121525
 21
-4.856666666666664
 31
0.0
  0
LWPOLYLINE
  5
E5
330
8F
100
AcDbEntity
  8
AM_9
100
AcDbPolyline
 90
       38
 70
     0
 43
0.0
 10
1.22589234835216
 20
5.348874673556812
 10
1.005095801628227
 20
5.532578943566222
 10
0.7489694292088335
 20
5.681627261433804
 10
0.4785552525912907
 20
5.78329583562049
 10
0.1859937755855657
 20
5.840088019452874
 10
-0.1001311339482447
 20
5.84713301039567
 10
-0.3916723324553932
 20
5.805606280473002
 10
-0.6626043412400151
 20
5.719708457399011
 10
-0.9223793145530604
 20
5.587184050507745
 10
-1.151888188024226
 20
5.417442067906692
 10
-1.355267136113347
 20
5.207136391674993
 10
-1.519041174015654
 20
4.968915365064479
 10
-1.643944602035468
 20
4.699955119520154
 10
-1.721019232671618
 20
4.417163681360886
 10
-1.749915620655377
 20
4.117184894131348
 10
-1.727848624236906
 20
3.822440759976124
 10
-1.65353014580163
 20
3.526992096978375
 10
-1.533500538191234
 20
3.256865313625873
 10
-1.363736388862443
 20
3.00331268736598
 10
-1.161181819444093
 20
2.790741896266244
 10
-0.9178275159586116
 20
2.610002466126452
 10
-0.6583810117441705
 20
2.478570247166183
 10
-0.3718390743799638
 20
2.389960321289514
 10
-0.0859649737410275
 20
2.352112697199926
 10
0.2107210544802442
 20
2.362732997723508
 10
0.4917613368547297
 20
2.420514725406958
 10
0.7667495998540559
 20
2.52691543421097
 10
1.013393911036109
 20
2.673279010782081
 10
1.238163723828685
 20
2.863290416874398
 10
1.424270702697837
 20
3.083165222154246
 10
1.575028776067379
 20
3.337252102880835
 10
1.679497125533981
 20
3.608279138816433
 10
1.738585676054084
 20
3.900450890707134
 10
1.747492068649928
 20
4.19365612636452
 10
1.705459673156494
 20
4.492310213016378
 10
1.615128869792018
 20
4.773690384349046
 10
1.473833117525363
 20
5.043565547106017
 10
1.22589234835216
 20
5.348874673556812
  0
ARC
  5
E6
330
8F
100
AcDbEntity
  8
AM_9
100
AcDbCircle
 10
8.250000000000007
 20
0.0000000000000057
 30
0.0
 40
22.74999999999999
100
AcDbArc
 50
353.6318927234946
 51
21.41246714617516
  0
ARC
  5
E7
330
8F
100
AcDbEntity
  8
AM_9
100
AcDbCircle
 10
-8.25000000000082
 20
0.0000000000001128
 30
0.0
 40
22.7499999999992
100
AcDbArc
 50
158.5875328538243
 51
186.3681072765059
  0
LINE
  5
E8
330
8F
100
AcDbEntity
  8
AM_9
100
AcDbLine
 10
-30.85962823420343
 20
-2.523333333333331
 30
0.0
 11
30.85962823420343
 21
-2.523333333333331
 31
0.0
  0
LINE
  5
E9
330
8F
100
AcDbEntity
  8
AM_9
100
AcDbLine
 10
-29.42971308360654
 20
8.305555592259081
 30
0.0
 11
29.42971308360654
 21
8.305555592259081
 31
0.0
  0
LINE
  5
EB
330
8F
100
AcDbEntity
  8
AM_5
100
AcDbLine
 10
-15.0
 20
-12.325
 30
0.0
 11
-19.81538424115118
 21
-12.325
 31
0.0
  0
LINE
  5
EC
330
8F
100
AcDbEntity
  8
AM_5
100
AcDbLine
 10
-15.0
 20
-20.325
 30
0.0
 11
-19.81538424115118
 21
-20.325
 31
0.0
  0
LINE
  5
EF
330
8F
100
AcDbEntity
  8
AM_7
100
AcDbLine
 10
-0.1670454545454544
 20
4.099999999999998
 30
0.0
 11
0.1670454545454584
 21
4.099999999999998
 31
0.0
  0
LINE
  5
F0
330
8F
100
AcDbEntity
  8
AM_7
100
AcDbLine
 10
0.0
 20
-25.83
 30
0.0
 11
0.0
 21
16.63000000000001
 31
0.0
  0
LINE
  5
F1
330
8F
100
AcDbEntity
  8
AM_7
100
AcDbLine
 10
-20.62183683846871
 20
-16.325
 30
0.0
 11
-13.87987969748345
 21
-16.325
 31
0.0
  0
LWPOLYLINE
  5
F3
330
8F
100
AcDbEntity
  8
AM_4
100
AcDbPolyline
 90
        4
 70
     0
 43
0.0
 10
-8.11559074721434
 20
-18.96117830834306
 10
-7.722872413060744
 20
-19.25707535280895
 10
-7.273221687147026
 20
-19.47908256971964
 10
-7.225181299889882
 20
-19.49674132042297
  0
ELLIPSE
  5
F4
330
8F
100
AcDbEntity
  8
AM_4
100
AcDbEllipse
 10
-6.281304348972316
 20
-16.32500000000001
 30
0.0
 11
2.035056818483112E-16
 21
3.323499999999996
 31
0.0
210
0.0
220
0.0
230
1.0
 40
0.9063077870366504
 41
0.7261960676535146
 42
2.486831519858838
  0
ELLIPSE
  5
F5
330
8F
100
AcDbEntity
  8
AM_4
100
AcDbEllipse
 10
-8.088441989651784
 20
-16.325
 30
0.0
 11
2.035056818483116E-16
 21
3.323500000000003
 31
0.0
210
0.0
220
0.0
230
1.0
 40
0.9063077870366489
 41
0.726196067653512
 42
5.556989239526067
  0
LWPOLYLINE
  5
F6
330
8F
100
AcDbEntity
  8
AM_4
100
AcDbPolyline
 90
        6
 70
     0
 43
0.0
 10
-8.431588425229862
 20
-20.32499998091804
 10
-8.62147095518577
 20
-20.31946157404378
 10
-9.208461701990332
 20
-20.2296335652915
 10
-9.765191611796544
 20
-20.03385676984983
 10
-10.13138360662903
 20
-19.83448611685166
 10
-10.47123617167248
 20
-19.58796684391086
  0
ELLIPSE
  5
F7
330
8F
100
AcDbEntity
  8
AM_4
100
AcDbEllipse
 10
-8.37434324371937
 20
-16.32500000000001
 30
0.0
 11
2.449293598294700E-16
 21
3.999999999999989
 31
0.0
210
0.0
220
0.0
230
1.0
 40
0.9063077870366498
 41
2.52480667800104
 42
3.141592653589793
  0
LINE
  5
F8
330
8F
100
AcDbEntity
  8
AM_4
100
AcDbLine
 10
19.152
 20
-23.9
 30
0.0
 11
19.95000000000003
 21
-23.102
 31
0.0
  0
LINE
  5
F9
330
8F
100
AcDbEntity
  8
AM_4
100
AcDbLine
 10
-19.95000000000003
 20
-23.102
 30
0.0
 11
-19.152
 21
-23.9
 31
0.0
  0
LINE
  5
FA
330
8F
100
AcDbEntity
  8
AM_4
100
AcDbLine
 10
-19.152
 20
-23.9
 30
0.0
 11
19.152
 21
-23.9
 31
0.0
  0
LWPOLYLINE
  5
FB
330
8F
100
AcDbEntity
  8
AM_4
100
AcDbPolyline
 90
       11
 70
     0
 43
0.0
 10
-19.72126378744776
 20
-13.83870950927387
 10
-19.67150078888483
 20
-14.36666445244928
 10
-19.62651305059608
 20
-15.01477360273536
 10
-19.59817659383239
 20
-15.69607728094645
 10
-19.59011024373673
 20
-16.42903420378577
 10
-19.60459509679675
 20
-17.15912697947502
 10
-19.6267786631462
 20
-17.64001893176426
 10
-19.65748265590998
 20
-18.10561622551758
 10
-19.69486215017465
 20
-18.54658591123144
 10
-19.75386570631517
 20
-19.10379284168346
 10
-19.81538424115118
 20
-19.58796684391085
  0
LWPOLYLINE
  5
FC
330
8F
100
AcDbEntity
  8
AM_4
100
AcDbPolyline
 90
        5
 70
     0
 43
0.0
 10
-19.81538424115118
 20
-19.58796684391085
 10
-19.87329061382517
 20
-19.92294105309558
 10
-19.91878726366549
 20
-20.16630004753099
 10
-19.94448670097913
 20
-20.29741107710824
 10
-19.94999999999355
 20
-20.32499999996767
  0
LWPOLYLINE
  5
FD
330
8F
100
AcDbEntity
  8
AM_4
100
AcDbPolyline
 90
       13
 70
     0
 43
0.0
 10
-5.607635958888652
 20
-13.83395254679082
 10
-5.445940343806153
 20
-14.09473782966535
 10
-5.154237888521207
 20
-14.71290413842123
 10
-4.959313729088027
 20
-15.37111363966577
 10
-4.864563484469642
 20
-16.0929691394905
 10
-4.885356784904805
 20
-16.82111501337262
 10
-4.96637666344443
 20
-17.30971871086655
 10
-5.100248257566736
 20
-17.78737130514195
 10
-5.2845739406612
 20
-18.24475767294994
 10
-5.516222137042203
 20
-18.6730969368796
 10
-5.79400677958607
 20
-19.07195737858463
 10
-6.112614310037736
 20
-19.43213466308408
 10
-6.277450315766265
 20
-19.58796684391087
  0
LWPOLYLINE
  5
FE
330
8F
100
AcDbEntity
  8
AM_4
100
AcDbPolyline
 90
        5
 70
     0
 43
0.0
 10
-6.277450315766265
 20
-19.58796684391087
 10
-6.822933460826677
 20
-19.9267288431544
 10
-7.407026976016798
 20
-20.166300047531
 10
-8.012786879360771
 20
-20.29813480830287
 10
-8.431588425229862
 20
-20.32499998091804
  0
LWPOLYLINE
  5
FF
330
8F
100
AcDbEntity
  8
AM_4
100
AcDbPolyline
 90
       12
 70
     0
 43
0.0
 10
-10.47123617167247
 20
-19.58796684391086
 10
-10.75067886960401
 20
-19.27419537632984
 10
-10.99607570755334
 20
-18.92528687347815
 10
-11.29112674973653
 20
-18.36092268985494
 10
-11.50777494455124
 20
-17.74812781765146
 10
-11.65048216053678
 20
-17.05283444023296
 10
-11.69966017219844
 20
-16.33833927839843
 10
-11.65077631055076
 20
-15.59959280257893
 10
-11.5019814606574
 20
-14.88129109658302
 10
-11.34708629306503
 20
-14.42423068654697
 10
-11.14817378946807
 20
-13.99039006585562
 10
-11.06307756995279
 20
-13.835943877661
  0
LINE
  5
100
330
8F
100
AcDbEntity
  8
AM_4
100
AcDbLine
 10
19.95000000000003
 20
-23.102
 30
0.0
 11
19.95000000000003
 21
-13.84000000000001
 31
0.0
  0
LINE
  5
101
330
8F
100
AcDbEntity
  8
AM_4
100
AcDbLine
 10
-19.95000000000003
 20
-20.31263281404768
 30
0.0
 11
-19.95000000000003
 21
-23.102
 31
0.0
  0
LINE
  5
102
330
8F
100
AcDbEntity
  8
AM_4
100
AcDbLine
 10
-19.95000000000003
 20
-23.102
 30
0.0
 11
19.95000000000003
 21
-23.102
 31
0.0
  0
LINE
  5
103
330
8F
100
AcDbEntity
  8
AM_4
100
AcDbLine
 10
-19.152
 20
14.7
 30
0.0
 11
-19.95000000000003
 21
13.902
 31
0.0
  0
LINE
  5
104
330
8F
100
AcDbEntity
  8
AM_4
100
AcDbLine
 10
19.95000000000003
 20
13.902
 30
0.0
 11
19.152
 21
14.7
 31
0.0
  0
LINE
  5
105
330
8F
100
AcDbEntity
  8
AM_4
100
AcDbLine
 10
-19.152
 20
14.7
 30
0.0
 11
19.152
 21
14.7
 31
0.0
  0
LINE
  5
106
330
8F
100
AcDbEntity
  8
AM_4
100
AcDbLine
 10
19.95000000000003
 20
13.83999999999999
 30
0.0
 11
19.95000000000003
 21
13.902
 31
0.0
  0
LINE
  5
107
330
8F
100
AcDbEntity
  8
AM_4
100
AcDbLine
 10
-19.95000000000003
 20
13.902
 30
0.0
 11
-19.95000000000003
 21
13.83999999999999
 31
0.0
  0
LINE
  5
108
330
8F
100
AcDbEntity
  8
AM_4
100
AcDbLine
 10
-19.95000000000003
 20
13.902
 30
0.0
 11
19.95000000000003
 21
13.902
 31
0.0
  0
ENDBLK
  5
92
330
8F
100
AcDbEntity
  8
0
100
AcDbBlockEnd
  0
BLOCK
  5
10B
330
109
100
AcDbEntity
  8
0
100
AcDbBlockBegin
  2
3_405020c_M_0_in_127576_4
 70
     2
 10
0.0
 20
0.0
 30
0.0
  3
3_405020c_M_0_in_127576_4
  1

  0
ATTDEF
  5
10D
330
109
100
AcDbEntity
  8
AM_6
100
AcDbText
 10
-30.62785000000001
 20
3.5
 30
0.0
 40
0.5
  1
405020C -Metric
100
AcDbAttributeDefinition
  3

  2
NN
 70
     8
280
     0
  0
ATTDEF
  5
10E
330
109
100
AcDbEntity
  8
AM_6
100
AcDbText
 10
-30.62785000000001
 20
3.0
 30
0.0
 40
0.5
  1
Grease fitting
100
AcDbAttributeDefinition
  3

  2
NT
 70
     8
280
     0
  0
ATTDEF
  5
10F
330
109
100
AcDbEntity
  8
AM_6
100
AcDbText
 10
-30.62785000000001
 20
2.5
 30
0.0
 40
0.5
  1
405020c-M
100
AcDbAttributeDefinition
  3

  2
NB
 70
     8
280
     0
  0
ATTDEF
  5
110
330
109
100
AcDbEntity
  8
AM_6
100
AcDbText
 10
-30.62785000000001
 20
2.0
 30
0.0
 40
0.5
  1
$MN.-M
100
AcDbAttributeDefinition
  3

  2
NBSYN
 70
     8
280
     0
  0
ATTDEF
  5
111
330
109
100
AcDbEntity
  8
AM_6
100
AcDbText
 10
-30.62785000000001
 20
1.5
 30
0.0
 40
0.5
  1
405020c
100
AcDbAttributeDefinition
  3

  2
LINA
 70
     8
280
     0
  0
ATTDEF
  5
112
330
109
100
AcDbEntity
  8
AM_6
100
AcDbText
 10
-30.62785000000001
 20
1.0
 30
0.0
 40
0.5
  1
405020c
100
AcDbAttributeDefinition
  3

  2
MN
 70
     8
280
     0
  0
ATTDEF
  5
113
330
109
100
AcDbEntity
  8
AM_6
100
AcDbText
 10
-30.62785000000001
 20
0.5
 30
0.0
 40
0.5
  1
5.842
100
AcDbAttributeDefinition
  3

  2
NDR
 70
     8
280
     0
  0
ATTDEF
  5
114
330
109
100
AcDbEntity
  8
AM_6
100
AcDbText
 10
-30.62785000000001
 20
0.0
 30
0.0
 40
0.5
  1
5.359
100
AcDbAttributeDefinition
  3

  2
KDR
 70
     8
280
     0
  0
ATTDEF
  5
115
330
109
100
AcDbEntity
  8
AM_6
100
AcDbText
 10
-30.62785000000001
 20
-0.5
 30
0.0
 40
0.5
  1
4.000
100
AcDbAttributeDefinition
  3

  2
BZE
 70
     8
280
     0
  0
ATTDEF
  5
116
330
109
100
AcDbEntity
  8
AM_6
100
AcDbText
 10
-30.62785000000001
 20
-1.0
 30
0.0
 40
0.5
  1
7
100
AcDbAttributeDefinition
  3

  2
WAF
 70
     8
280
     0
  0
ATTDEF
  5
117
330
109
100
AcDbEntity
  8
AM_6
100
AcDbText
 10
-30.62785000000001
 20
-1.5
 30
0.0
 40
0.5
  1
7.0000
100
AcDbAttributeDefinition
  3

  2
WAF1
 70
     8
280
     0
  0
ATTDEF
  5
118
330
109
100
AcDbEntity
  8
AM_6
100
AcDbText
 10
-30.62785000000001
 20
-2.0
 30
0.0
 40
0.5
  1
13.843
100
AcDbAttributeDefinition
  3

  2
BL
 70
     8
280
     0
  0
ATTDEF
  5
119
330
109
100
AcDbEntity
  8
AM_6
100
AcDbText
 10
-30.62785000000001
 20
-2.5
 30
0.0
 40
0.5
  1
5.080
100
AcDbAttributeDefinition
  3

  2
TL
 70
     8
280
     0
  0
ATTDEF
  5
11A
330
109
100
AcDbEntity
  8
AM_6
100
AcDbText
 10
-30.62785000000001
 20
-3.0
 30
0.0
 40
0.5
  1
baldor
100
AcDbAttributeDefinition
  3

  2
COMPANY
 70
     8
280
     0
  0
LINE
  5
11B
330
109
100
AcDbEntity
  8
AM_9
100
AcDbLine
 10
-36.32000000000001
 20
2.55437585025611
 30
0.0
 11
-36.56941243090151
 21
2.803788281157612
 31
0.0
  0
LINE
  5
11C
330
109
100
AcDbEntity
  8
AM_9
100
AcDbLine
 10
-36.56941243090151
 20
-2.803788281157612
 30
0.0
 11
-36.32000000000001
 21
-2.55437585025611
 31
0.0
  0
LINE
  5
11D
330
109
100
AcDbEntity
  8
AM_9
100
AcDbLine
 10
-36.32000000000001
 20
2.55437585025611
 30
0.0
 11
-36.32000000000001
 21
-2.55437585025611
 31
0.0
  0
LINE
  5
11E
330
109
100
AcDbEntity
  8
AM_9
100
AcDbLine
 10
-36.56941243090151
 20
2.803788281157612
 30
0.0
 11
-41.40000000000001
 21
2.954751686640449
 31
0.0
  0
LINE
  5
11F
330
109
100
AcDbEntity
  8
AM_9
100
AcDbLine
 10
-41.40000000000001
 20
-2.954751686640449
 30
0.0
 11
-36.56941243090151
 21
-2.803788281157612
 31
0.0
  0
LINE
  5
120
330
109
100
AcDbEntity
  8
AM_9
100
AcDbLine
 10
-36.56941243090151
 20
2.803788281157612
 30
0.0
 11
-36.56941243090151
 21
-2.803788281157612
 31
0.0
  0
LINE
  5
121
330
109
100
AcDbEntity
  8
AM_5
100
AcDbLine
 10
-40.95755635452805
 20
2.699306728825977
 30
0.0
 11
-36.32000000000001
 21
2.55437585025611
 31
0.0
  0
LINE
  5
122
330
109
100
AcDbEntity
  8
AM_5
100
AcDbLine
 10
-41.40000000000001
 20
2.954751686640453
 30
0.0
 11
-40.95755635452805
 21
2.699306728825977
 31
0.0
  0
LINE
  5
123
330
109
100
AcDbEntity
  8
AM_5
100
AcDbLine
 10
-40.95755635452805
 20
-2.940924631753387
 30
0.0
 11
-40.95755635452805
 21
2.940924631753387
 31
0.0
  0
LINE
  5
124
330
109
100
AcDbEntity
  8
AM_5
100
AcDbLine
 10
-40.95755635452805
 20
-2.699306728825977
 30
0.0
 11
-36.32000000000001
 21
-2.55437585025611
 31
0.0
  0
LINE
  5
125
330
109
100
AcDbEntity
  8
AM_5
100
AcDbLine
 10
-41.40000000000001
 20
-2.954751686640453
 30
0.0
 11
-40.95755635452805
 21
-2.699306728825977
 31
0.0
  0
LINE
  5
126
330
109
100
AcDbEntity
  8
AM_7
100
AcDbLine
 10
-50.85515
 20
0.0
 30
0.0
 11
-35.62785000000001
 21
0.0
 31
0.0
  0
ARC
  5
127
330
109
100
AcDbEntity
  8
AM_4
100
AcDbCircle
 10
-44.64032987211823
 20
-3.193883690254873
 30
0.0
 40
1.000000000000001
100
AcDbArc
 50
45.00000000000017
 51
115.0000000000001
  0
ARC
  5
128
330
109
100
AcDbEntity
  8
AM_4
100
AcDbCircle
 10
-44.64032987211823
 20
3.193883690254873
 30
0.0
 40
1.000000000000003
100
AcDbArc
 50
244.9999999999999
 51
314.9999999999998
  0
LINE
  5
129
330
109
100
AcDbEntity
  8
AM_4
100
AcDbLine
 10
-50.163
 20
2.107870178878142
 30
0.0
 11
-50.163
 21
-2.107870178878142
 31
0.0
  0
ARC
  5
12A
330
109
100
AcDbEntity
  8
AM_4
100
AcDbCircle
 10
-49.66299999999998
 20
-2.107870178878125
 30
0.0
 40
0.5000000000000213
100
AcDbArc
 50
180.0
 51
246.999999999999
  0
ARC
  5
12B
330
109
100
AcDbEntity
  8
AM_4
100
AcDbCircle
 10
-49.66299999999998
 20
2.107870178878125
 30
0.0
 40
0.5000000000000224
100
AcDbArc
 50
113.000000000001
 51
180.0
  0
LINE
  5
12C
330
109
100
AcDbEntity
  8
AM_4
100
AcDbLine
 10
-42.92000000000001
 20
-3.5
 30
0.0
 11
-41.40000000000001
 21
-3.5
 31
0.0
  0
LINE
  5
12D
330
109
100
AcDbEntity
  8
AM_4
100
AcDbLine
 10
-41.40000000000001
 20
3.5
 30
0.0
 11
-42.92000000000001
 21
3.5
 31
0.0
  0
LINE
  5
12E
330
109
100
AcDbEntity
  8
AM_4
100
AcDbLine
 10
-45.06294813385893
 20
2.287575903218221
 30
0.0
 11
-47.25948577549279
 21
3.311838226937811
 31
0.0
  0
LINE
  5
12F
330
109
100
AcDbEntity
  8
AM_4
100
AcDbLine
 10
-47.25948577549279
 20
-3.311838226937811
 30
0.0
 11
-45.06294813385893
 21
-2.287575903218221
 31
0.0
  0
LINE
  5
130
330
109
100
AcDbEntity
  8
AM_4
100
AcDbLine
 10
-45.06294813385893
 20
2.287575903218221
 30
0.0
 11
-45.06294813385893
 21
-2.287575903218221
 31
0.0
  0
LINE
  5
131
330
109
100
AcDbEntity
  8
AM_4
100
AcDbLine
 10
-49.85836556424464
 20
-2.568122605604362
 30
0.0
 11
-48.07283516572276
 21
-3.3260352933536
 31
0.0
  0
LINE
  5
132
330
109
100
AcDbEntity
  8
AM_4
100
AcDbLine
 10
-48.07283516572276
 20
3.3260352933536
 30
0.0
 11
-49.85836556424464
 21
2.568122605604362
 31
0.0
  0
LINE
  5
133
330
109
100
AcDbEntity
  8
AM_4
100
AcDbLine
 10
-49.85836556424464
 20
2.568122605604362
 30
0.0
 11
-49.85836556424464
 21
-2.568122605604362
 31
0.0
  0
ARC
  5
134
330
109
100
AcDbEntity
  8
AM_4
100
AcDbCircle
 10
-47.68210403723348
 20
-2.405530439901161
 30
0.0
 40
1.000000000000003
100
AcDbArc
 50
246.9999999999993
 51
294.9999999999994
  0
ARC
  5
135
330
109
100
AcDbEntity
  8
AM_4
100
AcDbCircle
 10
-47.68210403723348
 20
2.405530439901161
 30
0.0
 40
0.9999999999999943
100
AcDbArc
 50
65.00000000000058
 51
113.0000000000007
  0
LINE
  5
136
330
109
100
AcDbEntity
  8
AM_4
100
AcDbLine
 10
-48.07283516572276
 20
3.3260352933536
 30
0.0
 11
-48.07283516572276
 21
-3.3260352933536
 31
0.0
  0
LINE
  5
137
330
109
100
AcDbEntity
  8
AM_4
100
AcDbLine
 10
-47.25948577549279
 20
3.311838226937811
 30
0.0
 11
-47.25948577549279
 21
-3.311838226937811
 31
0.0
  0
LINE
  5
138
330
109
100
AcDbEntity
  8
AM_4
100
AcDbLine
 10
-42.92000000000001
 20
3.5
 30
0.0
 11
-42.92000000000001
 21
-3.5
 31
0.0
  0
LINE
  5
139
330
109
100
AcDbEntity
  8
AM_4
100
AcDbLine
 10
-43.93322309093168
 20
-2.486776909068323
 30
0.0
 11
-42.92000000000001
 21
-3.5
 31
0.0
  0
LINE
  5
13A
330
109
100
AcDbEntity
  8
AM_4
100
AcDbLine
 10
-42.92000000000001
 20
3.5
 30
0.0
 11
-43.93322309093168
 21
2.486776909068323
 31
0.0
  0
LINE
  5
13B
330
109
100
AcDbEntity
  8
AM_4
100
AcDbLine
 10
-43.93322309093168
 20
2.486776909068323
 30
0.0
 11
-43.93322309093168
 21
-2.486776909068323
 31
0.0
  0
LWPOLYLINE
  5
13C
330
109
100
AcDbEntity
  8
AM_4
100
AcDbPolyline
 90
        3
 70
     0
 43
0.0
 10
-41.40000000000001
 20
1.749999999999999
 10
-41.43829409256055
 20
0.8749999999999997
 10
-41.54508159514584
 20
0.0000000000000002
  0
LWPOLYLINE
  5
13D
330
109
100
AcDbEntity
  8
AM_4
100
AcDbPolyline
 90
        3
 70
     0
 43
0.0
 10
-41.54508159514584
 20
3.5
 10
-41.43863239919392
 20
2.628934235613606
 10
-41.40000000000001
 20
1.749999999999999
  0
LWPOLYLINE
  5
13E
330
109
100
AcDbEntity
  8
AM_4
100
AcDbPolyline
 90
        3
 70
     0
 43
0.0
 10
-42.92000000000001
 20
1.75
 10
-42.88170590743945
 20
2.625
 10
-42.77491840485418
 20
3.5
  0
LWPOLYLINE
  5
13F
330
109
100
AcDbEntity
  8
AM_4
100
AcDbPolyline
 90
        3
 70
     0
 43
0.0
 10
-41.40000000000001
 20
-1.749999999999999
 10
-41.43829409256055
 20
-2.625
 10
-41.54508159514584
 20
-3.5
  0
LWPOLYLINE
  5
140
330
109
100
AcDbEntity
  8
AM_4
100
AcDbPolyline
 90
        3
 70
     0
 43
0.0
 10
-41.54508159514584
 20
0.0000000000000002
 10
-41.43863239919392
 20
-0.871065764386393
 10
-41.40000000000001
 20
-1.749999999999999
  0
LINE
  5
141
330
109
100
AcDbEntity
  8
AM_4
100
AcDbLine
 10
-42.77491840485418
 20
0.0000000000000003
 30
0.0
 11
-41.54508159514584
 21
0.0000000000000002
 31
0.0
  0
LWPOLYLINE
  5
142
330
109
100
AcDbEntity
  8
AM_4
100
AcDbPolyline
 90
        3
 70
     0
 43
0.0
 10
-42.77491840485418
 20
-3.5
 10
-42.88136760080609
 20
-2.628934235613606
 10
-42.92000000000001
 20
-1.749999999999999
  0
LWPOLYLINE
  5
143
330
109
100
AcDbEntity
  8
AM_4
100
AcDbPolyline
 90
        3
 70
     0
 43
0.0
 10
-42.92000000000001
 20
-1.749999999999999
 10
-42.88170590743945
 20
-0.8749999999999994
 10
-42.77491840485418
 20
0.0000000000000003
  0
LWPOLYLINE
  5
144
330
109
100
AcDbEntity
  8
AM_4
100
AcDbPolyline
 90
        3
 70
     0
 43
0.0
 10
-42.77491840485418
 20
0.0000000000000003
 10
-42.88136760080609
 20
0.8710657643863936
 10
-42.92000000000001
 20
1.75
  0
ENDBLK
  5
10C
330
109
100
AcDbEntity
  8
0
100
AcDbBlockEnd
  0
BLOCK
  5
147
330
145
100
AcDbEntity
  8
0
100
AcDbBlockBegin
  2
4_127576H_0_in_127576_4
 70
     2
 10
0.0
 20
0.0
 30
0.0
  3
4_127576H_0_in_127576_4
  1

  0
ATTDEF
  5
149
330
145
100
AcDbEntity
  8
AM_6
100
AcDbText
 10
78.30999999999999
 20
17.20000000000001
 30
0.0
 40
0.5
  1
WSTU-SCEZ-PCR -Metric - housing
100
AcDbAttributeDefinition
  3

  2
NN
 70
     8
280
     0
  0
ATTDEF
  5
14A
330
145
100
AcDbEntity
  8
AM_6
100
AcDbText
 10
78.30999999999999
 20
16.70000000000001
 30
0.0
 40
0.5
  1
SC Take-Up Bearings -Wide Slot -(Normal Duty) -Polymer Housed -Corrosion Resistant Insert -E-Z KLEEN
100
AcDbAttributeDefinition
  3

  2
NT
 70
     8
280
     0
  0
ATTDEF
  5
14B
330
145
100
AcDbEntity
  8
AM_6
100
AcDbText
 10
78.30999999999999
 20
16.20000000000001
 30
0.0
 40
0.5
  1
127576H
100
AcDbAttributeDefinition
  3

  2
NB
 70
     8
280
     0
  0
ATTDEF
  5
14C
330
145
100
AcDbEntity
  8
AM_6
100
AcDbText
 10
78.30999999999999
 20
15.70000000000001
 30
0.0
 40
0.5
  1
$PN.H
100
AcDbAttributeDefinition
  3

  2
NBSYN
 70
     8
280
     0
  0
ATTDEF
  5
14D
330
145
100
AcDbEntity
  8
AM_6
100
AcDbText
 10
78.30999999999999
 20
15.20000000000001
 30
0.0
 40
0.5
  1
127576
100
AcDbAttributeDefinition
  3

  2
LINA
 70
     8
280
     0
  0
ATTDEF
  5
14E
330
145
100
AcDbEntity
  8
AM_6
100
AcDbText
 10
78.30999999999999
 20
14.70000000000001
 30
0.0
 40
0.5
  1
206
100
AcDbAttributeDefinition
  3

  2
SERIES
 70
     8
280
     0
  0
ATTDEF
  5
14F
330
145
100
AcDbEntity
  8
AM_6
100
AcDbText
 10
78.30999999999999
 20
14.20000000000001
 30
0.0
 40
0.5
  1
30
100
AcDbAttributeDefinition
  3

  2
SS
 70
     8
280
     0
  0
ATTDEF
  5
150
330
145
100
AcDbEntity
  8
AM_6
100
AcDbText
 10
78.30999999999999
 20
13.70000000000001
 30
0.0
 40
0.5
  1
127576
100
AcDbAttributeDefinition
  3

  2
PN
 70
     8
280
     0
  0
ATTDEF
  5
151
330
145
100
AcDbEntity
  8
AM_6
100
AcDbText
 10
78.30999999999999
 20
13.20000000000001
 30
0.0
 40
0.5
  1
WSTU-SCEZ-30M-PCR
100
AcDbAttributeDefinition
  3

  2
DESCRIPTION
 70
     8
280
     0
  0
ATTDEF
  5
152
330
145
100
AcDbEntity
  8
AM_6
100
AcDbText
 10
78.30999999999999
 20
12.70000000000001
 30
0.0
 40
0.5
  1
0.49
100
AcDbAttributeDefinition
  3

  2
W
 70
     8
280
     0
  0
ATTDEF
  5
153
330
145
100
AcDbEntity
  8
AM_6
100
AcDbText
 10
78.30999999999999
 20
12.20000000000001
 30
0.0
 40
0.5
  1
WS308
100
AcDbAttributeDefinition
  3

  2
FS
 70
     8
280
     0
  0
ATTDEF
  5
154
330
145
100
AcDbEntity
  8
AM_6
100
AcDbText
 10
78.30999999999999
 20
11.70000000000001
 30
0.0
 40
0.5
  1
38.6
100
AcDbAttributeDefinition
  3

  2
A
 70
     8
280
     0
  0
ATTDEF
  5
155
330
145
100
AcDbEntity
  8
AM_6
100
AcDbText
 10
78.30999999999999
 20
11.20000000000001
 30
0.0
 40
0.5
  1
114.0
100
AcDbAttributeDefinition
  3

  2
B
 70
     8
280
     0
  0
ATTDEF
  5
156
330
145
100
AcDbEntity
  8
AM_6
100
AcDbText
 10
78.30999999999999
 20
10.70000000000001
 30
0.0
 40
0.5
  1
13.84/13.08
100
AcDbAttributeDefinition
  3

  2
C
 70
     8
280
     0
  0
ATTDEF
  5
157
330
145
100
AcDbEntity
  8
AM_6
100
AcDbText
 10
78.30999999999999
 20
10.20000000000001
 30
0.0
 40
0.5
  1
13.84
100
AcDbAttributeDefinition
  3

  2
C1
 70
     8
280
     0
  0
ATTDEF
  5
158
330
145
100
AcDbEntity
  8
AM_6
100
AcDbText
 10
78.30999999999999
 20
9.700000000000006
 30
0.0
 40
0.5
  1
58.2
100
AcDbAttributeDefinition
  3

  2
D
 70
     8
280
     0
  0
ATTDEF
  5
159
330
145
100
AcDbEntity
  8
AM_6
100
AcDbText
 10
78.30999999999999
 20
9.200000000000006
 30
0.0
 40
0.5
  1
72.6
100
AcDbAttributeDefinition
  3

  2
E
 70
     8
280
     0
  0
ATTDEF
  5
15A
330
145
100
AcDbEntity
  8
AM_6
100
AcDbText
 10
78.30999999999999
 20
8.700000000000006
 30
0.0
 40
0.5
  1
19.1
100
AcDbAttributeDefinition
  3

  2
F
 70
     8
280
     0
  0
ATTDEF
  5
15B
330
145
100
AcDbEntity
  8
AM_6
100
AcDbText
 10
78.30999999999999
 20
8.200000000000006
 30
0.0
 40
0.5
  1
14.2
100
AcDbAttributeDefinition
  3

  2
G
 70
     8
280
     0
  0
ATTDEF
  5
15C
330
145
100
AcDbEntity
  8
AM_6
100
AcDbText
 10
78.30999999999999
 20
7.700000000000006
 30
0.0
 40
0.5
  1
16.5
100
AcDbAttributeDefinition
  3

  2
H
 70
     8
280
     0
  0
ATTDEF
  5
15D
330
145
100
AcDbEntity
  8
AM_6
100
AcDbText
 10
78.30999999999999
 20
7.200000000000006
 30
0.0
 40
0.5
  1
61.2
100
AcDbAttributeDefinition
  3

  2
J
 70
     8
280
     0
  0
ATTDEF
  5
15E
330
145
100
AcDbEntity
  8
AM_6
100
AcDbText
 10
78.30999999999999
 20
6.700000000000006
 30
0.0
 40
0.5
  1
20.6
100
AcDbAttributeDefinition
  3

  2
K
 70
     8
280
     0
  0
ATTDEF
  5
15F
330
145
100
AcDbEntity
  8
AM_6
100
AcDbText
 10
78.30999999999999
 20
6.200000000000006
 30
0.0
 40
0.5
  1
39.9
100
AcDbAttributeDefinition
  3

  2
L
 70
     8
280
     0
  0
ATTDEF
  5
160
330
145
100
AcDbEntity
  8
AM_6
100
AcDbText
 10
78.30999999999999
 20
5.700000000000006
 30
0.0
 40
0.5
  1
89.54/88.77
100
AcDbAttributeDefinition
  3

  2
M
 70
     8
280
     0
  0
ATTDEF
  5
161
330
145
100
AcDbEntity
  8
AM_6
100
AcDbText
 10
78.30999999999999
 20
5.200000000000006
 30
0.0
 40
0.5
  1
89.54
100
AcDbAttributeDefinition
  3

  2
M1
 70
     8
280
     0
  0
ATTDEF
  5
162
330
145
100
AcDbEntity
  8
AM_6
100
AcDbText
 10
78.30999999999999
 20
4.700000000000006
 30
0.0
 40
0.5
  1
106.7
100
AcDbAttributeDefinition
  3

  2
N
 70
     8
280
     0
  0
ATTDEF
  5
163
330
145
100
AcDbEntity
  8
AM_6
100
AcDbText
 10
78.30999999999999
 20
4.200000000000006
 30
0.0
 40
0.5
  1
14.7
100
AcDbAttributeDefinition
  3

  2
R
 70
     8
280
     0
  0
ATTDEF
  5
164
330
145
100
AcDbEntity
  8
AM_6
100
AcDbText
 10
78.30999999999999
 20
3.700000000000006
 30
0.0
 40
0.5
  1
23.9
100
AcDbAttributeDefinition
  3

  2
S
 70
     8
280
     0
  0
ATTDEF
  5
165
330
145
100
AcDbEntity
  8
AM_6
100
AcDbText
 10
78.30999999999999
 20
3.200000000000006
 30
0.0
 40
0.5
  1
41.1
100
AcDbAttributeDefinition
  3

  2
T
 70
     8
280
     0
  0
ATTDEF
  5
166
330
145
100
AcDbEntity
  8
AM_6
100
AcDbText
 10
78.30999999999999
 20
2.700000000000006
 30
0.0
 40
0.5
  1
2250
100
AcDbAttributeDefinition
  3

  2
CAPS
 70
     8
280
     0
  0
ATTDEF
  5
167
330
145
100
AcDbEntity
  8
AM_6
100
AcDbText
 10
78.30999999999999
 20
2.200000000000006
 30
0.0
 40
0.5
  1
4368
100
AcDbAttributeDefinition
  3

  2
CAPD
 70
     8
280
     0
  0
ATTDEF
  5
168
330
145
100
AcDbEntity
  8
AM_6
100
AcDbText
 10
78.30999999999999
 20
1.700000000000006
 30
0.0
 40
0.5
  1
baldor
100
AcDbAttributeDefinition
  3

  2
COMPANY
 70
     8
280
     0
  0
LINE
  5
169
330
145
100
AcDbEntity
  8
AM_9
100
AcDbLine
 10
58.4
 20
-10.3
 30
0.0
 11
72.6
 21
-10.3
 31
0.0
  0
LINE
  5
16A
330
145
100
AcDbEntity
  8
AM_9
100
AcDbLine
 10
72.6
 20
10.3
 30
0.0
 11
58.4
 21
10.3
 31
0.0
  0
LINE
  5
16B
330
145
100
AcDbEntity
  8
AM_9
100
AcDbLine
 10
41.89999999999999
 20
-11.5333332872
 30
0.0
 11
41.89999999999999
 21
11.5333332872
 31
0.0
  0
LINE
  5
16C
330
145
100
AcDbEntity
  8
AM_9
100
AcDbLine
 10
58.39999999999999
 20
-11.5333332872
 30
0.0
 11
58.39999999999999
 21
11.5333332872
 31
0.0
  0
LINE
  5
16D
330
145
100
AcDbEntity
  8
AM_9
100
AcDbLine
 10
-10.0
 20
-4.151999999999999
 30
0.0
 11
-10.0
 21
11.5333332872
 31
0.0
  0
LINE
  5
16E
330
145
100
AcDbEntity
  8
AM_9
100
AcDbLine
 10
10.0
 20
-4.151999999999999
 30
0.0
 11
10.0
 21
11.5333332872
 31
0.0
  0
LINE
  5
16F
330
145
100
AcDbEntity
  8
AM_9
100
AcDbLine
 10
31.0
 20
-9.473684219999999
 30
0.0
 11
31.0
 21
11.5333332872
 31
0.0
  0
LINE
  5
170
330
145
100
AcDbEntity
  8
AM_9
100
AcDbLine
 10
-31.0
 20
11.5333332872
 30
0.0
 11
-31.0
 21
-9.473684219999999
 31
0.0
  0
LINE
  5
171
330
145
100
AcDbEntity
  8
AM_9
100
AcDbLine
 10
10.0
 20
-4.151999999999999
 30
0.0
 11
-10.0
 21
-4.151999999999999
 31
0.0
  0
LINE
  5
172
330
145
100
AcDbEntity
  8
AM_9
100
AcDbLine
 10
-34.0
 20
-9.473684219999999
 30
0.0
 11
34.0
 21
-9.473684219999999
 31
0.0
  0
LINE
  5
173
330
145
100
AcDbEntity
  8
AM_9
100
AcDbLine
 10
34.0
 20
-11.5333332872
 30
0.0
 11
34.0
 21
-9.473684219999999
 31
0.0
  0
LINE
  5
174
330
145
100
AcDbEntity
  8
AM_9
100
AcDbLine
 10
-34.0
 20
-9.473684219999999
 30
0.0
 11
-34.0
 21
-11.5333332872
 31
0.0
  0
LINE
  5
175
330
145
100
AcDbEntity
  8
AM_9
100
AcDbLine
 10
31.40666671279999
 20
-11.5333332872
 30
0.0
 11
-31.4066667128
 21
-11.5333332872
 31
0.0
  0
LINE
  5
176
330
145
100
AcDbEntity
  8
AM_9
100
AcDbLine
 10
31.40666671279999
 20
11.5333332872
 30
0.0
 11
-31.40666671279997
 21
11.5333332872
 31
0.0
  0
LINE
  5
177
330
145
100
AcDbEntity
  8
AM_7
100
AcDbLine
 10
73.30999999999999
 20
0.0
 30
0.0
 11
57.69
 21
0.0
 31
0.0
  0
LINE
  5
178
330
145
100
AcDbEntity
  8
AM_4
100
AcDbLine
 10
58.4
 20
-11.53333333333333
 30
0.0
 11
58.39999999999999
 21
-17.20000000000001
 31
0.0
  0
LINE
  5
179
330
145
100
AcDbEntity
  8
AM_4
100
AcDbLine
 10
58.39999999999999
 20
-17.20000000000001
 30
0.0
 11
72.6
 21
-17.20000000000001
 31
0.0
  0
LINE
  5
17A
330
145
100
AcDbEntity
  8
AM_4
100
AcDbLine
 10
72.6
 20
17.20000000000001
 30
0.0
 11
72.6
 21
-17.20000000000001
 31
0.0
  0
LINE
  5
17B
330
145
100
AcDbEntity
  8
AM_4
100
AcDbLine
 10
58.4
 20
17.20000000000001
 30
0.0
 11
72.6
 21
17.20000000000001
 31
0.0
  0
LINE
  5
17C
330
145
100
AcDbEntity
  8
AM_4
100
AcDbLine
 10
58.4
 20
17.20000000000001
 30
0.0
 11
58.4
 21
11.53333333333334
 31
0.0
  0
LWPOLYLINE
  5
17D
330
145
100
AcDbEntity
  8
AM_4
100
AcDbPolyline
 90
       19
 70
     0
 43
0.0
 10
72.6
 20
-12.60338008447931
 10
72.59459647129029
 20
-12.51011936510846
 10
72.57842700927733
 20
-12.41756841612439
 10
72.55161467333048
 20
-12.32643160613265
 10
72.51436352151597
 20
-12.2374025412872
 10
72.46695705759204
 20
-12.15115878652871
 10
72.4097560733739
 20
-12.06835670890632
 10
72.34319590289036
 20
-11.98962648222798
 10
72.26778310922894
 20
-11.91556729105734
 10
72.1840916292849
 20
-11.84674277055735
 10
72.09275840575488
 20
-11.78367671688641
 10
71.99447853961847
 20
-11.72684910079329
 10
71.89
 20
-11.67669241474989
 10
71.78011793167178
 20
-11.63358838142244
 10
71.66566860352245
 20
-11.5978650485315
 10
71.54752304404556
 20
-11.56979429221069
 10
71.42658041228702
 20
-11.54958974786522
 10
71.30376115470166
 20
-11.53740518427739
 10
71.17999999999998
 20
-11.53333333333333
  0
LWPOLYLINE
  5
17E
330
145
100
AcDbEntity
  8
AM_4
100
AcDbPolyline
 90
       19
 70
     0
 43
0.0
 10
71.17999982551304
 20
11.53333333333334
 10
71.30376098087869
 20
11.53740517281769
 10
71.42658024045095
 20
11.54958972503304
 10
71.54752287550413
 20
11.5697942581798
 10
71.66566843955835
 20
11.59786500356087
 10
71.78011777353291
 20
11.63358832585434
 10
71.88999984888987
 20
11.67669234900722
 10
71.99447839668714
 20
11.7268490253764
 10
72.09275827209012
 20
11.78367663236928
 10
72.184091505904
 20
11.84674267758319
 10
72.26778299707088
 20
11.91556719033373
 10
72.34319580280876
 20
11.9896263745215
 10
72.40975598613042
 20
12.06835659503668
 10
72.46695698385066
 20
12.15115866736253
 10
72.51436346183793
 20
12.2374024177314
 10
72.55161462816992
 20
12.32643147912757
 10
72.57842697897799
 20
12.41756828663661
 10
72.59459645608273
 20
12.51011923412347
 10
72.59999999999998
 20
12.60337995299397
  0
LINE
  5
17F
330
145
100
AcDbEntity
  8
AM_4
100
AcDbLine
 10
71.17999999999998
 20
-11.53333333333333
 30
0.0
 11
71.17999999999998
 21
11.53333333333334
 31
0.0
  0
LINE
  5
180
330
145
100
AcDbEntity
  8
AM_4
100
AcDbLine
 10
-31.40666671279997
 20
11.5333332872
 30
0.0
 11
-41.40000000000001
 21
11.5333332872
 31
0.0
  0
LINE
  5
181
330
145
100
AcDbEntity
  8
AM_4
100
AcDbLine
 10
-41.40000000000001
 20
-11.5333332872
 30
0.0
 11
-31.4066667128
 21
-11.5333332872
 31
0.0
  0
LINE
  5
182
330
145
100
AcDbEntity
  8
AM_4
100
AcDbLine
 10
-41.40000000000001
 20
-11.5333332872
 30
0.0
 11
-41.40000000000001
 21
11.5333332872
 31
0.0
  0
LINE
  5
183
330
145
100
AcDbEntity
  8
AM_4
100
AcDbLine
 10
42.31446209633959
 20
-11.5333332872
 30
0.0
 11
42.31446209633957
 21
11.5333332872
 31
0.0
  0
LINE
  5
184
330
145
100
AcDbEntity
  8
AM_4
100
AcDbLine
 10
-29.93181674143021
 20
13.00818325856979
 30
0.0
 11
-31.40666671279997
 21
11.5333332872
 31
0.0
  0
LINE
  5
185
330
145
100
AcDbEntity
  8
AM_4
100
AcDbLine
 10
-31.4066667128
 20
-11.5333332872
 30
0.0
 11
-29.93181674143021
 21
-13.00818325856978
 31
0.0
  0
LINE
  5
186
330
145
100
AcDbEntity
  8
AM_4
100
AcDbLine
 10
-40.5681832585698
 20
-11.5333332872
 30
0.0
 11
-40.5681832585698
 21
11.5333332872
 31
0.0
  0
LINE
  5
187
330
145
100
AcDbEntity
  8
AM_4
100
AcDbLine
 10
31.40666671279999
 20
11.5333332872
 30
0.0
 11
29.9318167414302
 21
13.00818325856979
 31
0.0
  0
LINE
  5
188
330
145
100
AcDbEntity
  8
AM_4
100
AcDbLine
 10
29.9318167414302
 20
-13.00818325856978
 30
0.0
 11
31.40666671279999
 21
-11.5333332872
 31
0.0
  0
LINE
  5
189
330
145
100
AcDbEntity
  8
AM_4
100
AcDbLine
 10
31.40666671279999
 20
-11.5333332872
 30
0.0
 11
71.17999999999998
 21
-11.53333333333333
 31
0.0
  0
LINE
  5
18A
330
145
100
AcDbEntity
  8
AM_4
100
AcDbLine
 10
40.3062788377698
 20
-11.5333332872
 30
0.0
 11
40.3062788377698
 21
11.5333332872
 31
0.0
  0
LINE
  5
18B
330
145
100
AcDbEntity
  8
AM_4
100
AcDbLine
 10
71.17999999999998
 20
11.53333333333334
 30
0.0
 11
31.40666671279999
 21
11.5333332872
 31
0.0
  0
LINE
  5
18C
330
145
100
AcDbEntity
  8
AM_4
100
AcDbLine
 10
-29.35508959200654
 20
13.84
 30
0.0
 11
29.35508959200655
 21
13.84
 31
0.0
  0
LINE
  5
18D
330
145
100
AcDbEntity
  8
AM_4
100
AcDbLine
 10
29.35508959200655
 20
-13.84
 30
0.0
 11
-29.35508959200655
 21
-13.84
 31
0.0
  0
LWPOLYLINE
  5
18E
330
145
100
AcDbEntity
  8
AM_4
100
AcDbPolyline
 90
        6
 70
     0
 43
0.0
 10
-29.35508959200655
 20
-13.84
 10
-29.46745305405953
 20
-13.61918664320766
 10
-29.59863409133578
 20
-13.40900666889621
 10
-29.74763433693235
 20
-13.2110596735803
 10
-29.91331980901145
 20
-13.02685215341796
 10
-29.93181674143021
 20
-13.00818325856978
  0
LWPOLYLINE
  5
18F
330
145
100
AcDbEntity
  8
AM_4
100
AcDbPolyline
 90
        6
 70
     0
 43
0.0
 10
-29.93181674143021
 20
13.00818325856979
 10
-29.76443378154211
 20
13.19084970562981
 10
-29.61360819421927
 20
13.38740943790261
 10
-29.4804878532522
 20
13.59636651713958
 10
-29.36608588481592
 20
13.81613065379599
 10
-29.35508959200655
 20
13.84
  0
LINE
  5
190
330
145
100
AcDbEntity
  8
AM_4
100
AcDbLine
 10
-29.93181674143021
 20
-13.00818325856978
 30
0.0
 11
-29.93181674143021
 21
13.00818325856979
 31
0.0
  0
LWPOLYLINE
  5
191
330
145
100
AcDbEntity
  8
AM_4
100
AcDbPolyline
 90
        6
 70
     0
 43
0.0
 10
29.9318167414302
 20
-13.00818325856978
 10
29.7644337815421
 20
-13.19084970562981
 10
29.61360819421926
 20
-13.38740943790262
 10
29.48048785325219
 20
-13.5963665171396
 10
29.36608588481591
 20
-13.81613065379602
 10
29.35508959200655
 20
-13.84
  0
LINE
  5
192
330
145
100
AcDbEntity
  8
AM_4
100
AcDbLine
 10
29.9318167414302
 20
-13.00818325856978
 30
0.0
 11
29.9318167414302
 21
13.00818325856979
 31
0.0
  0
LWPOLYLINE
  5
193
330
145
100
AcDbEntity
  8
AM_4
100
AcDbPolyline
 90
        6
 70
     0
 43
0.0
 10
29.35508959200655
 20
13.84
 10
29.46745305405953
 20
13.61918664320766
 10
29.59863409133579
 20
13.4090066688962
 10
29.74763433693237
 20
13.2110596735803
 10
29.91331980901147
 20
13.02685215341795
 10
29.9318167414302
 20
13.00818325856979
  0
LINE
  5
194
330
145
100
AcDbEntity
  8
AM_4
100
AcDbLine
 10
27.68000000000002
 20
-13.84
 30
0.0
 11
27.68000000000002
 21
-6.919999999999996
 31
0.0
  0
LINE
  5
195
330
145
100
AcDbEntity
  8
AM_4
100
AcDbLine
 10
29.1
 20
-13.84
 30
0.0
 11
29.1
 21
13.84
 31
0.0
  0
LINE
  5
196
330
145
100
AcDbEntity
  8
AM_4
100
AcDbLine
 10
-27.68000000000001
 20
-13.84
 30
0.0
 11
-27.68000000000001
 21
-6.919999999999995
 31
0.0
  0
LINE
  5
197
330
145
100
AcDbEntity
  8
AM_4
100
AcDbLine
 10
29.1
 20
-6.919999999999995
 30
0.0
 11
-29.1
 21
-6.919999999999995
 31
0.0
  0
LINE
  5
198
330
145
100
AcDbEntity
  8
AM_4
100
AcDbLine
 10
-29.1
 20
-13.84
 30
0.0
 11
-29.1
 21
13.84
 31
0.0
  0
LINE
  5
199
330
145
100
AcDbEntity
  8
AM_4
100
AcDbLine
 10
-29.1
 20
6.920000000000003
 30
0.0
 11
29.1
 21
6.920000000000003
 31
0.0
  0
LINE
  5
19A
330
145
100
AcDbEntity
  8
AM_4
100
AcDbLine
 10
-27.68000000000001
 20
6.920000000000003
 30
0.0
 11
-27.68000000000001
 21
13.84
 31
0.0
  0
LINE
  5
19B
330
145
100
AcDbEntity
  8
AM_4
100
AcDbLine
 10
27.68000000000002
 20
6.920000000000003
 30
0.0
 11
27.68000000000002
 21
13.84
 31
0.0
  0
ENDBLK
  5
148
330
145
100
AcDbEntity
  8
0
100
AcDbBlockEnd
  0
ENDSEC
  0
SECTION
  2
ENTITIES
  0
INSERT
  5
6F
330
1F
100
AcDbEntity
  8
0
100
AcDbBlockReference
  2
1_127576_4
 10
0.0
 20
0.0
 30
0.0
  0
POINT
  5
19D
330
1F
100
AcDbEntity
  8
ConnectionPoints
100
AcDbPoint
 10
-41.40000000000001
 20
0.0
 30
0.0
  0
POINT
  5
19E
330
1F
100
AcDbEntity
  8
ConnectionPoints
100
AcDbPoint
 10
-41.40000000000001
 20
0.0
 30
0.0
  0
POINT
  5
19F
330
1F
100
AcDbEntity
  8
ConnectionPoints
100
AcDbPoint
 10
0.0
 20
-23.9
 30
0.0000000000000015
  0
ENDSEC
  0
SECTION
  2
OBJECTS
  0
DICTIONARY
  5
C
330
0
100
AcDbDictionary
281
     1
  3
ACAD_DETAILVIEWSTYLE
350
1A7
  3
ACAD_GROUP
350
D
  3
ACAD_LAYOUT
350
1A
  3
ACAD_MATERIAL
350
43
  3
ACAD_MLEADERSTYLE
350
6B
  3
ACAD_MLINESTYLE
350
17
  3
ACAD_PLOTSETTINGS
350
19
  3
ACAD_PLOTSTYLENAME
350
E
  3
ACAD_SCALELIST
350
47
  3
ACAD_SECTIONVIEWSTYLE
350
1A8
  3
ACAD_TABLESTYLE
350
69
  3
ACAD_VISUALSTYLE
350
2A
  3
ACDB_RECOMPOSE_DATA
350
1A4
  3
AcDbVariableDictionary
350
1A0
  0
SUN
  5
6D
330
29
100
AcDbSun
 90
        1
290
     0
 63
     7
421
 16777215
 40
1.0
291
     1
 91
  2455826
 92
 54000000
292
     0
 70
     2
 71
   256
280
     1
  0
DICTIONARY
  5
1A7
102
{ACAD_REACTORS
330
C
102
}
330
C
100
AcDbDictionary
281
     1
  0
DICTIONARY
  5
D
102
{ACAD_REACTORS
330
C
102
}
330
C
100
AcDbDictionary
281
     1
  0
DICTIONARY
  5
1A
102
{ACAD_REACTORS
330
C
102
}
330
C
100
AcDbDictionary
281
     1
  3
Layout1
350
1E
  3
Layout2
350
26
  3
Model
350
22
  0
DICTIONARY
  5
43
102
{ACAD_REACTORS
330
C
102
}
330
C
100
AcDbDictionary
281
     1
  3
ByBlock
350
45
  3
ByLayer
350
44
  3
Global
350
46
  0
DICTIONARY
  5
6B
102
{ACAD_REACTORS
330
C
102
}
330
C
100
AcDbDictionary
281
     1
  3
Standard
350
6C
  0
DICTIONARY
  5
17
102
{ACAD_REACTORS
330
C
102
}
330
C
100
AcDbDictionary
281
     1
  3
Standard
350
18
  0
DICTIONARY
  5
19
102
{ACAD_REACTORS
330
C
102
}
330
C
100
AcDbDictionary
281
     1
  0
ACDBDICTIONARYWDFLT
  5
E
102
{ACAD_REACTORS
330
C
102
}
330
C
100
AcDbDictionary
281
     1
  3
Normal
350
F
100
AcDbDictionaryWithDefault
340
F
  0
DICTIONARY
  5
47
102
{ACAD_REACTORS
330
C
102
}
330
C
100
AcDbDictionary
281
     1
  3
A0
350
48
  3
A1
350
49
  3
A2
350
4A
  3
A3
350
4B
  3
A4
350
4C
  3
A5
350
4D
  3
A6
350
4E
  3
A7
350
4F
  3
A8
350
50
  3
A9
350
51
  3
B0
350
52
  3
B1
350
53
  3
B2
350
54
  3
B3
350
55
  3
B4
350
56
  3
B5
350
57
  3
B6
350
58
  3
B7
350
59
  3
B8
350
5A
  3
B9
350
5B
  3
C0
350
5C
  3
C1
350
5D
  3
C2
350
5E
  3
C3
350
5F
  3
C4
350
60
  3
C5
350
61
  3
C6
350
62
  3
C7
350
63
  3
C8
350
64
  3
C9
350
65
  3
D0
350
66
  3
D1
350
67
  3
D2
350
68
  0
DICTIONARY
  5
1A8
102
{ACAD_REACTORS
330
C
102
}
330
C
100
AcDbDictionary
281
     1
  0
DICTIONARY
  5
69
102
{ACAD_REACTORS
330
C
102
}
330
C
100
AcDbDictionary
281
     1
  3
Standard
350
6A
  0
DICTIONARY
  5
2A
102
{ACAD_REACTORS
330
C
102
}
330
C
100
AcDbDictionary
281
     1
  3
2dWireframe
350
2F
  3
Basic
350
32
  3
Brighten
350
36
  3
ColorChange
350
3A
  3
Conceptual
350
34
  3
Dim
350
35
  3
EdgeColorOff
350
3D
  3
Facepattern
350
39
  3
Flat
350
2B
  3
FlatWithEdges
350
2C
  3
Gouraud
350
2D
  3
GouraudWithEdges
350
2E
  3
Hidden
350
31
  3
JitterOff
350
3B
  3
Linepattern
350
38
  3
OverhangOff
350
3C
  3
Realistic
350
33
  3
Shaded
350
42
  3
Shaded with edges
350
41
  3
Shades of Gray
350
3E
  3
Sketchy
350
3F
  3
Thicken
350
37
  3
Wireframe
350
30
  3
X-Ray
350
40
  0
XRECORD
  5
1A4
102
{ACAD_REACTORS
330
C
102
}
330
C
100
AcDbXrecord
280
     1
 90
        1
330
6A
  0
DICTIONARY
  5
1A0
102
{ACAD_REACTORS
330
C
102
}
330
C
100
AcDbDictionary
281
     1
  3
CANNOSCALE
350
1A1
  3
CMLEADERSTYLE
350
1A6
  3
CTABLESTYLE
350
1A5
  0
LAYOUT
  5
1E
102
{ACAD_REACTORS
330
1A
102
}
330
1A
100
AcDbPlotSettings
  1

  2
none_device
  4

  6

 40
0.0
 41
0.0
 42
0.0
 43
0.0
 44
0.0
 45
0.0
 46
0.0
 47
0.0
 48
0.0
 49
0.0
140
0.0
141
0.0
142
1.0
143
1.0
 70
   688
 72
     1
 73
     0
 74
     5
  7

 75
    16
 76
     0
 77
     2
 78
   300
147
1.0
148
0.0
149
0.0
100
AcDbLayout
  1
Layout1
 70
     1
 71
     1
 10
0.0
 20
0.0
 11
420.0
 21
297.0
 12
0.0
 22
0.0
 32
0.0
 14
1.000000000000000E+20
 24
1.000000000000000E+20
 34
1.000000000000000E+20
 15
-1.000000000000000E+20
 25
-1.000000000000000E+20
 35
-1.000000000000000E+20
146
0.0
 13
0.0
 23
0.0
 33
0.0
 16
1.0
 26
0.0
 36
0.0
 17
0.0
 27
1.0
 37
0.0
 76
     0
330
1B
  0
LAYOUT
  5
26
102
{ACAD_REACTORS
330
1A
102
}
330
1A
100
AcDbPlotSettings
  1

  2
none_device
  4

  6

 40
0.0
 41
0.0
 42
0.0
 43
0.0
 44
0.0
 45
0.0
 46
0.0
 47
0.0
 48
0.0
 49
0.0
140
0.0
141
0.0
142
1.0
143
1.0
 70
   688
 72
     1
 73
     0
 74
     5
  7

 75
    16
 76
     0
 77
     2
 78
   300
147
1.0
148
0.0
149
0.0
100
AcDbLayout
  1
Layout2
 70
     1
 71
     2
 10
0.0
 20
0.0
 11
0.0
 21
0.0
 12
0.0
 22
0.0
 32
0.0
 14
0.0
 24
0.0
 34
0.0
 15
0.0
 25
0.0
 35
0.0
146
0.0
 13
0.0
 23
0.0
 33
0.0
 16
1.0
 26
0.0
 36
0.0
 17
0.0
 27
1.0
 37
0.0
 76
     0
330
23
  0
LAYOUT
  5
22
102
{ACAD_REACTORS
330
1A
102
}
330
1A
100
AcDbPlotSettings
  1

  2
none_device
  4
Letter_(8.50_x_11.00_Inches)
  6

 40
6.35
 41
6.35
 42
6.35000508
 43
6.35000508
 44
215.9
 45
279.4
 46
0.0
 47
0.0
 48
0.0
 49
0.0
140
0.0
141
0.0
142
1.0
143
1.0
 70
  1712
 72
     1
 73
     0
 74
     0
  7

 75
     0
 76
     0
 77
     2
 78
   300
147
1.0
148
0.0
149
0.0
100
AcDbLayout
  1
Model
 70
     1
 71
     0
 10
0.0
 20
0.0
 11
420.0
 21
297.0
 12
0.0
 22
0.0
 32
0.0
 14
1.000000000000000E+20
 24
1.000000000000000E+20
 34
1.000000000000000E+20
 15
-1.000000000000000E+20
 25
-1.000000000000000E+20
 35
-1.000000000000000E+20
146
0.0
 13
0.0
 23
0.0
 33
0.0
 16
1.0
 26
0.0
 36
0.0
 17
0.0
 27
1.0
 37
0.0
 76
     0
330
1F
331
29
  0
MATERIAL
  5
45
102
{ACAD_REACTORS
330
43
102
}
330
43
100
AcDbMaterial
  1
ByBlock
 72
     1
 94
      127
  0
MATERIAL
  5
44
102
{ACAD_REACTORS
330
43
102
}
330
43
100
AcDbMaterial
  1
ByLayer
 72
     1
 94
      127
  0
MATERIAL
  5
46
102
{ACAD_REACTORS
330
43
102
}
330
43
100
AcDbMaterial
  1
Global
 72
     1
 94
      127
  0
MLEADERSTYLE
  5
6C
102
{ACAD_REACTORS
330
6B
102
}
330
6B
100
AcDbMLeaderStyle
179
     2
170
     2
171
     1
172
     0
 90
        2
 40
0.0
 41
0.0
173
     1
 91
-1056964608
340
14
 92
       -2
290
     1
 42
2.0
291
     1
 43
8.0
  3
Standard
341
0
 44
4.0
300

342
11
174
     1
178
     6
175
     1
176
     0
 93
-1056964608
 45
4.0
292
     0
297
     0
 46
4.0
343
0
 94
-1056964608
 47
1.0
 49
1.0
140
1.0
293
     1
141
0.0
294
     1
177
     0
142
1.0
295
     0
296
     0
143
3.75
271
     0
272
     9
273
     9
298
     0
  0
MLINESTYLE
  5
18
102
{ACAD_REACTORS
330
17
102
}
330
17
100
AcDbMlineStyle
  2
Standard
 70
     0
  3

 62
   256
 51
90.0
 52
90.0
 71
     2
 49
0.5
 62
   256
  6
BYLAYER
 49
-0.5
 62
   256
  6
BYLAYER
  0
ACDBPLACEHOLDER
  5
F
102
{ACAD_REACTORS
330
E
102
}
330
E
  0
SCALE
  5
48
102
{ACAD_REACTORS
330
47
102
}
330
47
100
AcDbScale
 70
     0
300
1:1
140
1.0
141
1.0
290
     1
  0
SCALE
  5
49
102
{ACAD_REACTORS
330
47
102
}
330
47
100
AcDbScale
 70
     0
300
1:2
140
1.0
141
2.0
290
     0
  0
SCALE
  5
4A
102
{ACAD_REACTORS
330
47
102
}
330
47
100
AcDbScale
 70
     0
300
1:4
140
1.0
141
4.0
290
     0
  0
SCALE
  5
4B
102
{ACAD_REACTORS
330
47
102
}
330
47
100
AcDbScale
 70
     0
300
1:5
140
1.0
141
5.0
290
     0
  0
SCALE
  5
4C
102
{ACAD_REACTORS
330
47
102
}
330
47
100
AcDbScale
 70
     0
300
1:8
140
1.0
141
8.0
290
     0
  0
SCALE
  5
4D
102
{ACAD_REACTORS
330
47
102
}
330
47
100
AcDbScale
 70
     0
300
1:10
140
1.0
141
10.0
290
     0
  0
SCALE
  5
4E
102
{ACAD_REACTORS
330
47
102
}
330
47
100
AcDbScale
 70
     0
300
1:16
140
1.0
141
16.0
290
     0
  0
SCALE
  5
4F
102
{ACAD_REACTORS
330
47
102
}
330
47
100
AcDbScale
 70
     0
300
1:20
140
1.0
141
20.0
290
     0
  0
SCALE
  5
50
102
{ACAD_REACTORS
330
47
102
}
330
47
100
AcDbScale
 70
     0
300
1:30
140
1.0
141
30.0
290
     0
  0
SCALE
  5
51
102
{ACAD_REACTORS
330
47
102
}
330
47
100
AcDbScale
 70
     0
300
1:40
140
1.0
141
40.0
290
     0
  0
SCALE
  5
52
102
{ACAD_REACTORS
330
47
102
}
330
47
100
AcDbScale
 70
     0
300
1:50
140
1.0
141
50.0
290
     0
  0
SCALE
  5
53
102
{ACAD_REACTORS
330
47
102
}
330
47
100
AcDbScale
 70
     0
300
1:100
140
1.0
141
100.0
290
     0
  0
SCALE
  5
54
102
{ACAD_REACTORS
330
47
102
}
330
47
100
AcDbScale
 70
     0
300
2:1
140
2.0
141
1.0
290
     0
  0
SCALE
  5
55
102
{ACAD_REACTORS
330
47
102
}
330
47
100
AcDbScale
 70
     0
300
4:1
140
4.0
141
1.0
290
     0
  0
SCALE
  5
56
102
{ACAD_REACTORS
330
47
102
}
330
47
100
AcDbScale
 70
     0
300
8:1
140
8.0
141
1.0
290
     0
  0
SCALE
  5
57
102
{ACAD_REACTORS
330
47
102
}
330
47
100
AcDbScale
 70
     0
300
10:1
140
10.0
141
1.0
290
     0
  0
SCALE
  5
58
102
{ACAD_REACTORS
330
47
102
}
330
47
100
AcDbScale
 70
     0
300
100:1
140
100.0
141
1.0
290
     0
  0
SCALE
  5
59
102
{ACAD_REACTORS
330
47
102
}
330
47
100
AcDbScale
 70
     0
300
1/128" = 1'-0"
140
0.0078125
141
12.0
290
     0
  0
SCALE
  5
5A
102
{ACAD_REACTORS
330
47
102
}
330
47
100
AcDbScale
 70
     0
300
1/64" = 1'-0"
140
0.015625
141
12.0
290
     0
  0
SCALE
  5
5B
102
{ACAD_REACTORS
330
47
102
}
330
47
100
AcDbScale
 70
     0
300
1/32" = 1'-0"
140
0.03125
141
12.0
290
     0
  0
SCALE
  5
5C
102
{ACAD_REACTORS
330
47
102
}
330
47
100
AcDbScale
 70
     0
300
1/16" = 1'-0"
140
0.0625
141
12.0
290
     0
  0
SCALE
  5
5D
102
{ACAD_REACTORS
330
47
102
}
330
47
100
AcDbScale
 70
     0
300
3/32" = 1'-0"
140
0.09375
141
12.0
290
     0
  0
SCALE
  5
5E
102
{ACAD_REACTORS
330
47
102
}
330
47
100
AcDbScale
 70
     0
300
1/8" = 1'-0"
140
0.125
141
12.0
290
     0
  0
SCALE
  5
5F
102
{ACAD_REACTORS
330
47
102
}
330
47
100
AcDbScale
 70
     0
300
3/16" = 1'-0"
140
0.1875
141
12.0
290
     0
  0
SCALE
  5
60
102
{ACAD_REACTORS
330
47
102
}
330
47
100
AcDbScale
 70
     0
300
1/4" = 1'-0"
140
0.25
141
12.0
290
     0
  0
SCALE
  5
61
102
{ACAD_REACTORS
330
47
102
}
330
47
100
AcDbScale
 70
     0
300
3/8" = 1'-0"
140
0.375
141
12.0
290
     0
  0
SCALE
  5
62
102
{ACAD_REACTORS
330
47
102
}
330
47
100
AcDbScale
 70
     0
300
1/2" = 1'-0"
140
0.5
141
12.0
290
     0
  0
SCALE
  5
63
102
{ACAD_REACTORS
330
47
102
}
330
47
100
AcDbScale
 70
     0
300
3/4" = 1'-0"
140
0.75
141
12.0
290
     0
  0
SCALE
  5
64
102
{ACAD_REACTORS
330
47
102
}
330
47
100
AcDbScale
 70
     0
300
1" = 1'-0"
140
1.0
141
12.0
290
     0
  0
SCALE
  5
65
102
{ACAD_REACTORS
330
47
102
}
330
47
100
AcDbScale
 70
     0
300
1-1/2" = 1'-0"
140
1.5
141
12.0
290
     0
  0
SCALE
  5
66
102
{ACAD_REACTORS
330
47
102
}
330
47
100
AcDbScale
 70
     0
300
3" = 1'-0"
140
3.0
141
12.0
290
     0
  0
SCALE
  5
67
102
{ACAD_REACTORS
330
47
102
}
330
47
100
AcDbScale
 70
     0
300
6" = 1'-0"
140
6.0
141
12.0
290
     0
  0
SCALE
  5
68
102
{ACAD_REACTORS
330
47
102
}
330
47
100
AcDbScale
 70
     0
300
1'-0" = 1'-0"
140
12.0
141
12.0
290
     0
  0
TABLESTYLE
  5
6A
102
{ACAD_REACTORS
330
69
102
}
102
{ACAD_XDICTIONARY
360
1A2
102
}
330
69
100
AcDbTableStyle
  3
Standard
 70
     0
 71
     0
 40
0.06
 41
0.06
280
     0
281
     0
  7
Standard
140
4.5
170
     2
 62
     0
 63
   257
283
     0
 90
        4
 91
        0
  1

274
    -2
284
     1
 64
     0
275
    -2
285
     1
 65
     0
276
    -2
286
     1
 66
     0
277
    -2
287
     1
 67
     0
278
    -2
288
     1
 68
     0
279
    -2
289
     1
 69
     0
  7
Standard
140
6.0
170
     5
 62
     0
 63
   257
283
     0
 90
        4
 91
        0
  1

274
    -2
284
     1
 64
     0
275
    -2
285
     1
 65
     0
276
    -2
286
     1
 66
     0
277
    -2
287
     1
 67
     0
278
    -2
288
     1
 68
     0
279
    -2
289
     1
 69
     0
  7
Standard
140
4.5
170
     5
 62
     0
 63
   257
283
     0
 90
        4
 91
        0
  1

274
    -2
284
     1
 64
     0
275
    -2
285
     1
 65
     0
276
    -2
286
     1
 66
     0
277
    -2
287
     1
 67
     0
278
    -2
288
     1
 68
     0
279
    -2
289
     1
 69
     0
  0
VISUALSTYLE
  5
2F
102
{ACAD_REACTORS
330
2A
102
}
330
2A
100
AcDbVisualStyle
  2
2dWireframe
 70
     4
177
     3
291
     0
 70
    58
 90
        0
176
     1
 90
        2
176
     1
 90
        0
176
     1
 90
        0
176
     1
 40
0.6
176
     1
 40
30.0
176
     1
 62
     7
420
 16777215
176
     1
 90
        1
176
     1
 90
        4
176
     1
 62
     7
176
     1
 62
   257
176
     1
 90
        1
176
     1
 90
        1
176
     1
 40
1.0
176
     1
 90
        0
176
     1
 62
   257
176
     1
 40
1.0
176
     1
 90
        1
176
     1
 90
        6
176
     1
 90
        2
176
     1
 62
     7
176
     1
 90
        5
176
     1
 90
        0
176
     1
 90
        0
176
     1
290
     0
176
     1
 90
        1
176
     1
 40
0.0
176
     1
 90
        0
176
     1
290
     1
176
     1
290
     1
176
     1
290
     0
176
     1
290
     0
176
     1
290
     0
176
     1
290
     0
176
     1
290
     0
176
     1
290
     0
176
     1
290
     0
176
     1
 90
       50
176
     1
 40
0.0
176
     1
 40
1.0
176
     1
 90
        0
176
     1
 62
    18
420
        0
176
     1
 90
       50
176
     1
 90
        3
176
     1
 62
     5
420
      255
176
     1
290
     0
176
     1
 90
       50
176
     1
 90
       50
176
     1
 90
       50
176
     1
290
     0
176
     1
 90
       50
176
     1
 62
   256
176
     0
 40
1.0
176
     0
 90
        2
176
     1
  1
strokes_ogs.tif
176
     1
290
     0
176
     1
 40
1.0
176
     1
 40
1.0
176
     1
  0
VISUALSTYLE
  5
32
102
{ACAD_REACTORS
330
2A
102
}
330
2A
100
AcDbVisualStyle
  2
Basic
 70
     7
177
     3
291
     1
 70
    58
 90
        1
176
     1
 90
        0
176
     1
 90
        1
176
     1
 90
        0
176
     1
 40
0.6
176
     1
 40
30.0
176
     1
 62
     7
420
 16777215
176
     1
 90
        0
176
     1
 90
        4
176
     1
 62
     7
176
     1
 62
   257
176
     1
 90
        1
176
     1
 90
        1
176
     1
 40
1.0
176
     1
 90
        8
176
     1
 62
     7
176
     1
 40
1.0
176
     1
 90
        1
176
     1
 90
        6
176
     1
 90
        2
176
     1
 62
     7
176
     1
 90
        5
176
     1
 90
        0
176
     1
 90
        0
176
     1
290
     0
176
     1
 90
        1
176
     1
 40
0.0
176
     1
 90
        0
176
     1
290
     0
176
     1
290
     1
176
     1
290
     1
176
     1
290
     0
176
     1
290
     0
176
     1
290
     0
176
     1
290
     0
176
     1
290
     0
176
     1
290
     0
176
     1
 90
       50
176
     1
 40
0.0
176
     1
 40
1.0
176
     1
 90
        0
176
     1
 62
    18
420
        0
176
     1
 90
       50
176
     1
 90
        3
176
     1
 62
     5
420
      255
176
     1
290
     0
176
     1
 90
       50
176
     1
 90
       50
176
     1
 90
       50
176
     1
290
     0
176
     1
 90
       50
176
     1
 62
   256
176
     0
 40
1.0
176
     0
 90
        2
176
     1
  1
strokes_ogs.tif
176
     1
290
     0
176
     1
 40
1.0
176
     1
 40
1.0
176
     1
  0
VISUALSTYLE
  5
36
102
{ACAD_REACTORS
330
2A
102
}
330
2A
100
AcDbVisualStyle
  2
Brighten
 70
    12
177
     3
291
     1
 70
    58
 90
        2
176
     1
 90
        2
176
     1
 90
        0
176
     1
 90
        0
176
     1
 40
0.6
176
     1
 40
30.0
176
     1
 62
     7
420
 16777215
176
     1
 90
        1
176
     1
 90
        4
176
     1
 62
     7
176
     1
 62
   257
176
     1
 90
        1
176
     1
 90
        1
176
     1
 40
1.0
176
     1
 90
        8
176
     1
 62
     7
176
     1
 40
1.0
176
     1
 90
        1
176
     1
 90
        6
176
     1
 90
        2
176
     1
 62
     7
176
     1
 90
        5
176
     1
 90
        0
176
     1
 90
        0
176
     1
290
     0
176
     1
 90
        1
176
     1
 40
50.0
176
     1
 90
        0
176
     1
290
     0
176
     1
290
     1
176
     1
290
     1
176
     1
290
     0
176
     1
290
     0
176
     1
290
     0
176
     1
290
     0
176
     1
290
     0
176
     1
290
     0
176
     1
 90
       50
176
     1
 40
0.0
176
     1
 40
1.0
176
     1
 90
        0
176
     1
 62
    18
420
        0
176
     1
 90
       50
176
     1
 90
        3
176
     1
 62
     5
420
      255
176
     1
290
     0
176
     1
 90
       50
176
     1
 90
       50
176
     1
 90
       50
176
     1
290
     0
176
     1
 90
       50
176
     1
 62
   256
176
     0
 40
1.0
176
     0
 90
        2
176
     1
  1
strokes_ogs.tif
176
     1
290
     0
176
     1
 40
1.0
176
     1
 40
1.0
176
     1
  0
VISUALSTYLE
  5
3A
102
{ACAD_REACTORS
330
2A
102
}
330
2A
100
AcDbVisualStyle
  2
ColorChange
 70
    16
177
     3
291
     1
 70
    58
 90
        2
176
     1
 90
        2
176
     1
 90
        3
176
     1
 90
        0
176
     1
 40
0.6
176
     1
 40
30.0
176
     1
 62
     8
420
  8421504
176
     1
 90
        1
176
     1
 90
        4
176
     1
 62
     7
176
     1
 62
   257
176
     1
 90
        1
176
     1
 90
        1
176
     1
 40
1.0
176
     1
 90
        8
176
     1
 62
     8
420
  8421504
176
     1
 40
1.0
176
     1
 90
        1
176
     1
 90
        6
176
     1
 90
        2
176
     1
 62
     7
176
     1
 90
        5
176
     1
 90
        0
176
     1
 90
        0
176
     1
290
     0
176
     1
 90
        1
176
     1
 40
0.0
176
     1
 90
        0
176
     1
290
     0
176
     1
290
     1
176
     1
290
     1
176
     1
290
     0
176
     1
290
     0
176
     1
290
     0
176
     1
290
     0
176
     1
290
     0
176
     1
290
     0
176
     1
 90
       50
176
     1
 40
0.0
176
     1
 40
1.0
176
     1
 90
        0
176
     1
 62
    18
420
        0
176
     1
 90
       50
176
     1
 90
        3
176
     1
 62
     5
420
      255
176
     1
290
     0
176
     1
 90
       50
176
     1
 90
       50
176
     1
 90
       50
176
     1
290
     0
176
     1
 90
       50
176
     1
 62
   256
176
     0
 40
1.0
176
     0
 90
        2
176
     1
  1
strokes_ogs.tif
176
     1
290
     0
176
     1
 40
1.0
176
     1
 40
1.0
176
     1
  0
VISUALSTYLE
  5
34
102
{ACAD_REACTORS
330
2A
102
}
330
2A
100
AcDbVisualStyle
  2
Conceptual
 70
     9
177
     3
291
     0
 70
    58
 90
        3
176
     1
 90
        2
176
     1
 90
        0
176
     1
 90
        0
176
     1
 40
0.6
176
     1
 40
30.0
176
     1
 62
     7
420
 16777215
176
     1
 90
        2
176
     1
 90
        2
176
     1
 62
     7
176
     1
 62
   257
176
     1
 90
        1
176
     1
 90
        1
176
     1
 40
179.0
176
     1
 90
        8
176
     1
 62
     7
176
     1
 40
1.0
176
     1
 90
        1
176
     1
 90
        6
176
     1
 90
        2
176
     1
 62
     7
176
     1
 90
        3
176
     1
 90
        0
176
     1
 90
        0
176
     1
290
     0
176
     1
 90
        1
176
     1
 40
0.0
176
     1
 90
        0
176
     1
290
     0
176
     1
290
     1
176
     1
290
     1
176
     1
290
     0
176
     1
290
     0
176
     1
290
     0
176
     1
290
     0
176
     1
290
     0
176
     1
290
     0
176
     1
 90
       50
176
     1
 40
0.0
176
     1
 40
1.0
176
     1
 90
        0
176
     1
 62
    18
420
        0
176
     1
 90
       50
176
     1
 90
        3
176
     1
 62
     5
420
      255
176
     1
290
     0
176
     1
 90
       50
176
     1
 90
       50
176
     1
 90
       50
176
     1
290
     0
176
     1
 90
       50
176
     1
 62
   256
176
     0
 40
1.0
176
     0
 90
        2
176
     1
  1
strokes_ogs.tif
176
     1
290
     0
176
     1
 40
1.0
176
     1
 40
1.0
176
     1
  0
VISUALSTYLE
  5
35
102
{ACAD_REACTORS
330
2A
102
}
330
2A
100
AcDbVisualStyle
  2
Dim
 70
    11
177
     3
291
     1
 70
    58
 90
        2
176
     1
 90
        2
176
     1
 90
        0
176
     1
 90
        0
176
     1
 40
0.6
176
     1
 40
30.0
176
     1
 62
     7
420
 16777215
176
     1
 90
        1
176
     1
 90
        4
176
     1
 62
     7
176
     1
 62
   257
176
     1
 90
        1
176
     1
 90
        1
176
     1
 40
1.0
176
     1
 90
        8
176
     1
 62
     7
176
     1
 40
1.0
176
     1
 90
        1
176
     1
 90
        6
176
     1
 90
        2
176
     1
 62
     7
176
     1
 90
        5
176
     1
 90
        0
176
     1
 90
        0
176
     1
290
     0
176
     1
 90
        1
176
     1
 40
-50.0
176
     1
 90
        0
176
     1
290
     0
176
     1
290
     1
176
     1
290
     1
176
     1
290
     0
176
     1
290
     0
176
     1
290
     0
176
     1
290
     0
176
     1
290
     0
176
     1
290
     0
176
     1
 90
       50
176
     1
 40
0.0
176
     1
 40
1.0
176
     1
 90
        0
176
     1
 62
    18
420
        0
176
     1
 90
       50
176
     1
 90
        3
176
     1
 62
     5
420
      255
176
     1
290
     0
176
     1
 90
       50
176
     1
 90
       50
176
     1
 90
       50
176
     1
290
     0
176
     1
 90
       50
176
     1
 62
   256
176
     0
 40
1.0
176
     0
 90
        2
176
     1
  1
strokes_ogs.tif
176
     1
290
     0
176
     1
 40
1.0
176
     1
 40
1.0
176
     1
  0
VISUALSTYLE
  5
3D
102
{ACAD_REACTORS
330
2A
102
}
330
2A
100
AcDbVisualStyle
  2
EdgeColorOff
 70
    22
177
     3
291
     1
 70
    58
 90
        2
176
     0
 90
        2
176
     0
 90
        0
176
     0
 90
        0
176
     0
 40
0.6
176
     0
 40
30.0
176
     0
 62
     7
420
 16777215
176
     0
 90
        1
176
     0
 90
        4
176
     0
 62
     7
176
     0
 62
   257
176
     0
 90
        1
176
     0
 90
        1
176
     0
 40
1.0
176
     0
 90
        8
176
     2
 62
     7
176
     0
 40
1.0
176
     0
 90
        1
176
     0
 90
        6
176
     0
 90
        2
176
     0
 62
     7
176
     0
 90
        5
176
     0
 90
        0
176
     0
 90
        0
176
     0
290
     0
176
     0
 90
        1
176
     0
 40
0.0
176
     0
 90
        0
176
     0
290
     0
176
     0
290
     1
176
     0
290
     1
176
     0
290
     0
176
     0
290
     0
176
     0
290
     0
176
     0
290
     0
176
     0
290
     0
176
     0
290
     0
176
     0
 90
       50
176
     0
 40
0.0
176
     0
 40
1.0
176
     0
 90
        0
176
     0
 62
    18
420
        0
176
     0
 90
       50
176
     0
 90
        3
176
     0
 62
     5
420
      255
176
     0
290
     0
176
     0
 90
       50
176
     0
 90
       50
176
     0
 90
       50
176
     0
290
     0
176
     0
 90
       50
176
     0
 62
   256
176
     0
 40
1.0
176
     0
 90
        2
176
     0
  1
strokes_ogs.tif
176
     0
290
     0
176
     0
 40
1.0
176
     0
 40
1.0
176
     0
  0
VISUALSTYLE
  5
39
102
{ACAD_REACTORS
330
2A
102
}
330
2A
100
AcDbVisualStyle
  2
Facepattern
 70
    15
177
     3
291
     1
 70
    58
 90
        2
176
     1
 90
        2
176
     1
 90
        0
176
     1
 90
        0
176
     1
 40
0.6
176
     1
 40
30.0
176
     1
 62
     7
420
 16777215
176
     1
 90
        1
176
     1
 90
        4
176
     1
 62
     7
176
     1
 62
   257
176
     1
 90
        1
176
     1
 90
        1
176
     1
 40
1.0
176
     1
 90
        8
176
     1
 62
     7
176
     1
 40
1.0
176
     1
 90
        1
176
     1
 90
        6
176
     1
 90
        2
176
     1
 62
     7
176
     1
 90
        5
176
     1
 90
        0
176
     1
 90
        0
176
     1
290
     0
176
     1
 90
        1
176
     1
 40
0.0
176
     1
 90
        0
176
     1
290
     0
176
     1
290
     1
176
     1
290
     1
176
     1
290
     0
176
     1
290
     0
176
     1
290
     0
176
     1
290
     0
176
     1
290
     0
176
     1
290
     0
176
     1
 90
       50
176
     1
 40
0.0
176
     1
 40
1.0
176
     1
 90
        0
176
     1
 62
    18
420
        0
176
     1
 90
       50
176
     1
 90
        3
176
     1
 62
     5
420
      255
176
     1
290
     0
176
     1
 90
       50
176
     1
 90
       50
176
     1
 90
       50
176
     1
290
     0
176
     1
 90
       50
176
     1
 62
   256
176
     0
 40
1.0
176
     0
 90
        2
176
     1
  1
strokes_ogs.tif
176
     1
290
     0
176
     1
 40
1.0
176
     1
 40
1.0
176
     1
  0
VISUALSTYLE
  5
2B
102
{ACAD_REACTORS
330
2A
102
}
330
2A
100
AcDbVisualStyle
  2
Flat
 70
     0
177
     3
291
     1
 70
    58
 90
        2
176
     1
 90
        1
176
     1
 90
        1
176
     1
 90
        2
176
     1
 40
0.6
176
     1
 40
30.0
176
     1
 62
     7
420
 16777215
176
     1
 90
        0
176
     1
 90
        0
176
     1
 62
     7
176
     1
 62
   257
176
     1
 90
        1
176
     1
 90
        1
176
     1
 40
1.0
176
     1
 90
        8
176
     1
 62
     7
176
     1
 40
1.0
176
     1
 90
        1
176
     1
 90
        6
176
     1
 90
        2
176
     1
 62
     7
176
     1
 90
        5
176
     1
 90
        0
176
     1
 90
        0
176
     1
290
     0
176
     1
 90
       13
176
     1
 40
0.0
176
     1
 90
        0
176
     1
290
     0
176
     1
290
     1
176
     1
290
     1
176
     1
290
     0
176
     1
290
     0
176
     1
290
     0
176
     1
290
     0
176
     1
290
     0
176
     1
290
     0
176
     1
 90
       50
176
     1
 40
0.0
176
     1
 40
1.0
176
     1
 90
        0
176
     1
 62
    18
420
        0
176
     1
 90
       50
176
     1
 90
        3
176
     1
 62
     5
420
      255
176
     1
290
     0
176
     1
 90
       50
176
     1
 90
       50
176
     1
 90
       50
176
     1
290
     0
176
     1
 90
       50
176
     1
 62
   256
176
     0
 40
1.0
176
     0
 90
        2
176
     1
  1
strokes_ogs.tif
176
     1
290
     0
176
     1
 40
1.0
176
     1
 40
1.0
176
     1
  0
VISUALSTYLE
  5
2C
102
{ACAD_REACTORS
330
2A
102
}
330
2A
100
AcDbVisualStyle
  2
FlatWithEdges
 70
     1
177
     3
291
     1
 70
    58
 90
        2
176
     1
 90
        1
176
     1
 90
        1
176
     1
 90
        2
176
     1
 40
0.6
176
     1
 40
30.0
176
     1
 62
     7
420
 16777215
176
     1
 90
        1
176
     1
 90
        0
176
     1
 62
     7
176
     1
 62
   257
176
     1
 90
        1
176
     1
 90
        1
176
     1
 40
1.0
176
     1
 90
        0
176
     1
 62
   257
176
     1
 40
1.0
176
     1
 90
        1
176
     1
 90
        6
176
     1
 90
        2
176
     1
 62
     7
176
     1
 90
        5
176
     1
 90
        0
176
     1
 90
        0
176
     1
290
     0
176
     1
 90
       13
176
     1
 40
0.0
176
     1
 90
        0
176
     1
290
     0
176
     1
290
     1
176
     1
290
     1
176
     1
290
     0
176
     1
290
     0
176
     1
290
     0
176
     1
290
     0
176
     1
290
     0
176
     1
290
     0
176
     1
 90
       50
176
     1
 40
0.0
176
     1
 40
1.0
176
     1
 90
        0
176
     1
 62
    18
420
        0
176
     1
 90
       50
176
     1
 90
        3
176
     1
 62
     5
420
      255
176
     1
290
     0
176
     1
 90
       50
176
     1
 90
       50
176
     1
 90
       50
176
     1
290
     0
176
     1
 90
       50
176
     1
 62
   256
176
     0
 40
1.0
176
     0
 90
        2
176
     1
  1
strokes_ogs.tif
176
     1
290
     0
176
     1
 40
1.0
176
     1
 40
1.0
176
     1
  0
VISUALSTYLE
  5
2D
102
{ACAD_REACTORS
330
2A
102
}
330
2A
100
AcDbVisualStyle
  2
Gouraud
 70
     2
177
     3
291
     1
 70
    58
 90
        2
176
     1
 90
        2
176
     1
 90
        1
176
     1
 90
        2
176
     1
 40
0.6
176
     1
 40
30.0
176
     1
 62
     7
420
 16777215
176
     1
 90
        0
176
     1
 90
        0
176
     1
 62
     7
176
     1
 62
   257
176
     1
 90
        1
176
     1
 90
        1
176
     1
 40
1.0
176
     1
 90
        0
176
     1
 62
     7
176
     1
 40
1.0
176
     1
 90
        1
176
     1
 90
        6
176
     1
 90
        2
176
     1
 62
     7
176
     1
 90
        5
176
     1
 90
        0
176
     1
 90
        0
176
     1
290
     0
176
     1
 90
       13
176
     1
 40
0.0
176
     1
 90
        0
176
     1
290
     0
176
     1
290
     1
176
     1
290
     1
176
     1
290
     0
176
     1
290
     0
176
     1
290
     0
176
     1
290
     0
176
     1
290
     0
176
     1
290
     0
176
     1
 90
       50
176
     1
 40
0.0
176
     1
 40
1.0
176
     1
 90
        0
176
     1
 62
    18
420
        0
176
     1
 90
       50
176
     1
 90
        3
176
     1
 62
     5
420
      255
176
     1
290
     0
176
     1
 90
       50
176
     1
 90
       50
176
     1
 90
       50
176
     1
290
     0
176
     1
 90
       50
176
     1
 62
   256
176
     0
 40
1.0
176
     0
 90
        2
176
     1
  1
strokes_ogs.tif
176
     1
290
     0
176
     1
 40
1.0
176
     1
 40
1.0
176
     1
  0
VISUALSTYLE
  5
2E
102
{ACAD_REACTORS
330
2A
102
}
330
2A
100
AcDbVisualStyle
  2
GouraudWithEdges
 70
     3
177
     3
291
     1
 70
    58
 90
        2
176
     1
 90
        2
176
     1
 90
        1
176
     1
 90
        2
176
     1
 40
0.6
176
     1
 40
30.0
176
     1
 62
     7
420
 16777215
176
     1
 90
        1
176
     1
 90
        0
176
     1
 62
     7
176
     1
 62
   257
176
     1
 90
        1
176
     1
 90
        1
176
     1
 40
1.0
176
     1
 90
        0
176
     1
 62
   257
176
     1
 40
1.0
176
     1
 90
        1
176
     1
 90
        6
176
     1
 90
        2
176
     1
 62
     7
176
     1
 90
        5
176
     1
 90
        0
176
     1
 90
        0
176
     1
290
     0
176
     1
 90
       13
176
     1
 40
0.0
176
     1
 90
        0
176
     1
290
     0
176
     1
290
     1
176
     1
290
     1
176
     1
290
     0
176
     1
290
     0
176
     1
290
     0
176
     1
290
     0
176
     1
290
     0
176
     1
290
     0
176
     1
 90
       50
176
     1
 40
0.0
176
     1
 40
1.0
176
     1
 90
        0
176
     1
 62
    18
420
        0
176
     1
 90
       50
176
     1
 90
        3
176
     1
 62
     5
420
      255
176
     1
290
     0
176
     1
 90
       50
176
     1
 90
       50
176
     1
 90
       50
176
     1
290
     0
176
     1
 90
       50
176
     1
 62
   256
176
     0
 40
1.0
176
     0
 90
        2
176
     1
  1
strokes_ogs.tif
176
     1
290
     0
176
     1
 40
1.0
176
     1
 40
1.0
176
     1
  0
VISUALSTYLE
  5
31
102
{ACAD_REACTORS
330
2A
102
}
330
2A
100
AcDbVisualStyle
  2
Hidden
 70
     6
177
     3
291
     0
 70
    58
 90
        1
176
     1
 90
        2
176
     1
 90
        2
176
     1
 90
        0
176
     1
 40
0.6
176
     1
 40
30.0
176
     1
 62
     7
420
 16777215
176
     1
 90
        2
176
     1
 90
        2
176
     1
 62
     7
176
     1
 62
   257
176
     1
 90
        2
176
     1
 90
        1
176
     1
 40
40.0
176
     1
 90
        0
176
     1
 62
   257
176
     1
 40
1.0
176
     1
 90
        1
176
     1
 90
        6
176
     1
 90
        2
176
     1
 62
     7
176
     1
 90
        3
176
     1
 90
        0
176
     1
 90
        0
176
     1
290
     0
176
     1
 90
        1
176
     1
 40
0.0
176
     1
 90
        0
176
     1
290
     0
176
     1
290
     1
176
     1
290
     1
176
     1
290
     0
176
     1
290
     0
176
     1
290
     0
176
     1
290
     0
176
     1
290
     0
176
     1
290
     0
176
     1
 90
       50
176
     1
 40
0.0
176
     1
 40
1.0
176
     1
 90
        0
176
     1
 62
    18
420
        0
176
     1
 90
       50
176
     1
 90
        3
176
     1
 62
     5
420
      255
176
     1
290
     0
176
     1
 90
       50
176
     1
 90
       50
176
     1
 90
       50
176
     1
290
     0
176
     1
 90
       50
176
     1
 62
   256
176
     0
 40
1.0
176
     0
 90
        2
176
     1
  1
strokes_ogs.tif
176
     1
290
     0
176
     1
 40
1.0
176
     1
 40
1.0
176
     1
  0
VISUALSTYLE
  5
3B
102
{ACAD_REACTORS
330
2A
102
}
330
2A
100
AcDbVisualStyle
  2
JitterOff
 70
    20
177
     3
291
     1
 70
    58
 90
        2
176
     0
 90
        2
176
     0
 90
        0
176
     0
 90
        0
176
     0
 40
0.6
176
     0
 40
30.0
176
     0
 62
     7
420
 16777215
176
     0
 90
        1
176
     0
 90
        4
176
     0
 62
     7
176
     0
 62
   257
176
     0
 90
        1
176
     0
 90
        1
176
     0
 40
1.0
176
     0
 90
       10
176
     2
 62
     7
176
     0
 40
1.0
176
     0
 90
        1
176
     0
 90
        6
176
     0
 90
        2
176
     0
 62
     7
176
     0
 90
        5
176
     0
 90
        0
176
     0
 90
        0
176
     0
290
     0
176
     0
 90
        1
176
     0
 40
0.0
176
     0
 90
        0
176
     0
290
     0
176
     0
290
     1
176
     0
290
     1
176
     0
290
     0
176
     0
290
     0
176
     0
290
     0
176
     0
290
     0
176
     0
290
     0
176
     0
290
     0
176
     0
 90
       50
176
     0
 40
0.0
176
     0
 40
1.0
176
     0
 90
        0
176
     0
 62
    18
420
        0
176
     0
 90
       50
176
     0
 90
        3
176
     0
 62
     5
420
      255
176
     0
290
     0
176
     0
 90
       50
176
     0
 90
       50
176
     0
 90
       50
176
     0
290
     0
176
     0
 90
       50
176
     0
 62
   256
176
     0
 40
1.0
176
     0
 90
        2
176
     0
  1
strokes_ogs.tif
176
     0
290
     0
176
     0
 40
1.0
176
     0
 40
1.0
176
     0
  0
VISUALSTYLE
  5
38
102
{ACAD_REACTORS
330
2A
102
}
330
2A
100
AcDbVisualStyle
  2
Linepattern
 70
    14
177
     3
291
     1
 70
    58
 90
        2
176
     1
 90
        2
176
     1
 90
        0
176
     1
 90
        0
176
     1
 40
0.6
176
     1
 40
30.0
176
     1
 62
     7
420
 16777215
176
     1
 90
        1
176
     1
 90
        4
176
     1
 62
     7
176
     1
 62
   257
176
     1
 90
        7
176
     1
 90
        7
176
     1
 40
1.0
176
     1
 90
        8
176
     1
 62
     7
176
     1
 40
1.0
176
     1
 90
        1
176
     1
 90
        6
176
     1
 90
        2
176
     1
 62
     7
176
     1
 90
        5
176
     1
 90
        0
176
     1
 90
        0
176
     1
290
     0
176
     1
 90
        1
176
     1
 40
0.0
176
     1
 90
        0
176
     1
290
     0
176
     1
290
     1
176
     1
290
     1
176
     1
290
     0
176
     1
290
     0
176
     1
290
     0
176
     1
290
     0
176
     1
290
     0
176
     1
290
     0
176
     1
 90
       50
176
     1
 40
0.0
176
     1
 40
1.0
176
     1
 90
        0
176
     1
 62
    18
420
        0
176
     1
 90
       50
176
     1
 90
        3
176
     1
 62
     5
420
      255
176
     1
290
     0
176
     1
 90
       50
176
     1
 90
       50
176
     1
 90
       50
176
     1
290
     0
176
     1
 90
       50
176
     1
 62
   256
176
     0
 40
1.0
176
     0
 90
        2
176
     1
  1
strokes_ogs.tif
176
     1
290
     0
176
     1
 40
1.0
176
     1
 40
1.0
176
     1
  0
VISUALSTYLE
  5
3C
102
{ACAD_REACTORS
330
2A
102
}
330
2A
100
AcDbVisualStyle
  2
OverhangOff
 70
    21
177
     3
291
     1
 70
    58
 90
        2
176
     0
 90
        2
176
     0
 90
        0
176
     0
 90
        0
176
     0
 40
0.6
176
     0
 40
30.0
176
     0
 62
     7
420
 16777215
176
     0
 90
        1
176
     0
 90
        4
176
     0
 62
     7
176
     0
 62
   257
176
     0
 90
        1
176
     0
 90
        1
176
     0
 40
1.0
176
     0
 90
        9
176
     2
 62
     7
176
     0
 40
1.0
176
     0
 90
        1
176
     0
 90
        6
176
     0
 90
        2
176
     0
 62
     7
176
     0
 90
        5
176
     0
 90
        0
176
     0
 90
        0
176
     0
290
     0
176
     0
 90
        1
176
     0
 40
0.0
176
     0
 90
        0
176
     0
290
     0
176
     0
290
     1
176
     0
290
     1
176
     0
290
     0
176
     0
290
     0
176
     0
290
     0
176
     0
290
     0
176
     0
290
     0
176
     0
290
     0
176
     0
 90
       50
176
     0
 40
0.0
176
     0
 40
1.0
176
     0
 90
        0
176
     0
 62
    18
420
        0
176
     0
 90
       50
176
     0
 90
        3
176
     0
 62
     5
420
      255
176
     0
290
     0
176
     0
 90
       50
176
     0
 90
       50
176
     0
 90
       50
176
     0
290
     0
176
     0
 90
       50
176
     0
 62
   256
176
     0
 40
1.0
176
     0
 90
        2
176
     0
  1
strokes_ogs.tif
176
     0
290
     0
176
     0
 40
1.0
176
     0
 40
1.0
176
     0
  0
VISUALSTYLE
  5
33
102
{ACAD_REACTORS
330
2A
102
}
330
2A
100
AcDbVisualStyle
  2
Realistic
 70
     8
177
     3
291
     0
 70
    58
 90
        2
176
     1
 90
        3
176
     1
 90
        0
176
     1
 90
        2
176
     1
 40
0.6
176
     1
 40
30.0
176
     1
 62
     7
420
 16777215
176
     1
 90
        0
176
     1
 90
        0
176
     1
 62
     7
176
     1
 62
   257
176
     1
 90
        1
176
     1
 90
        1
176
     1
 40
1.0
176
     1
 90
        8
176
     1
 62
   257
176
     1
 40
1.0
176
     1
 90
        1
176
     1
 90
        6
176
     1
 90
        2
176
     1
 62
     7
176
     1
 90
        3
176
     1
 90
        0
176
     1
 90
        0
176
     1
290
     0
176
     1
 90
       13
176
     1
 40
0.0
176
     1
 90
        0
176
     1
290
     0
176
     1
290
     1
176
     1
290
     1
176
     1
290
     0
176
     1
290
     0
176
     1
290
     0
176
     1
290
     0
176
     1
290
     0
176
     1
290
     0
176
     1
 90
       50
176
     1
 40
0.0
176
     1
 40
1.0
176
     1
 90
        0
176
     1
 62
    18
420
        0
176
     1
 90
       50
176
     1
 90
        3
176
     1
 62
     5
420
      255
176
     1
290
     0
176
     1
 90
       50
176
     1
 90
       50
176
     1
 90
       50
176
     1
290
     0
176
     1
 90
       50
176
     1
 62
   256
176
     0
 40
1.0
176
     0
 90
        2
176
     1
  1
strokes_ogs.tif
176
     1
290
     0
176
     1
 40
1.0
176
     1
 40
1.0
176
     1
  0
VISUALSTYLE
  5
42
102
{ACAD_REACTORS
330
2A
102
}
330
2A
100
AcDbVisualStyle
  2
Shaded
 70
    27
177
     3
291
     0
 70
    58
 90
        2
176
     1
 90
        2
176
     1
 90
        1
176
     1
 90
        2
176
     1
 40
0.6
176
     1
 40
30.0
176
     1
 62
     7
420
 16777215
176
     1
 90
        0
176
     1
 90
        4
176
     1
 62
     7
176
     1
 62
   257
176
     1
 90
        1
176
     1
 90
        1
176
     1
 40
1.0
176
     1
 90
        8
176
     1
 62
   257
176
     1
 40
1.0
176
     1
 90
        1
176
     1
 90
        6
176
     1
 90
        2
176
     1
 62
     8
420
  7895160
176
     1
 90
        3
176
     1
 90
        0
176
     1
 90
        0
176
     1
290
     0
176
     1
 90
        5
176
     1
 40
0.0
176
     1
 90
        0
176
     1
290
     0
176
     1
290
     1
176
     1
290
     1
176
     1
290
     0
176
     1
290
     0
176
     1
290
     0
176
     1
290
     0
176
     1
290
     0
176
     1
290
     0
176
     1
 90
       50
176
     1
 40
0.0
176
     1
 40
1.0
176
     1
 90
        0
176
     1
 62
    18
420
        0
176
     1
 90
       50
176
     1
 90
        3
176
     1
 62
     5
420
      255
176
     1
290
     0
176
     1
 90
       50
176
     1
 90
       50
176
     1
 90
       50
176
     1
290
     0
176
     1
 90
       50
176
     1
 62
   256
176
     0
 40
1.0
176
     0
 90
        2
176
     1
  1
strokes_ogs.tif
176
     1
290
     0
176
     1
 40
1.0
176
     1
 40
1.0
176
     1
  0
VISUALSTYLE
  5
41
102
{ACAD_REACTORS
330
2A
102
}
330
2A
100
AcDbVisualStyle
  2
Shaded with edges
 70
    26
177
     3
291
     0
 70
    58
 90
        2
176
     1
 90
        2
176
     1
 90
        1
176
     1
 90
        2
176
     1
 40
0.6
176
     1
 40
30.0
176
     1
 62
     7
420
 16777215
176
     1
 90
        1
176
     1
 90
       10
176
     1
 62
     7
176
     1
 62
   257
176
     1
 90
        2
176
     1
 90
        1
176
     1
 40
1.0
176
     1
 90
        8
176
     1
 62
   257
176
     1
 40
1.0
176
     1
 90
        1
176
     1
 90
        6
176
     1
 90
        2
176
     1
 62
     7
176
     1
 90
        3
176
     1
 90
        0
176
     1
 90
        0
176
     1
290
     0
176
     1
 90
        5
176
     1
 40
0.0
176
     1
 90
        0
176
     1
290
     0
176
     1
290
     1
176
     1
290
     1
176
     1
290
     0
176
     1
290
     0
176
     1
290
     0
176
     1
290
     0
176
     1
290
     0
176
     1
290
     0
176
     1
 90
       50
176
     1
 40
0.0
176
     1
 40
1.0
176
     1
 90
        0
176
     1
 62
    18
420
        0
176
     1
 90
       50
176
     1
 90
        3
176
     1
 62
     5
420
      255
176
     1
290
     0
176
     1
 90
       50
176
     1
 90
       50
176
     1
 90
       50
176
     1
290
     0
176
     1
 90
       50
176
     1
 62
   256
176
     0
 40
1.0
176
     0
 90
        2
176
     1
  1
strokes_ogs.tif
176
     1
290
     0
176
     1
 40
1.0
176
     1
 40
1.0
176
     1
  0
VISUALSTYLE
  5
3E
102
{ACAD_REACTORS
330
2A
102
}
330
2A
100
AcDbVisualStyle
  2
Shades of Gray
 70
    23
177
     3
291
     0
 70
    58
 90
        2
176
     1
 90
        2
176
     1
 90
        3
176
     1
 90
        0
176
     1
 40
0.6
176
     1
 40
30.0
176
     1
 62
     7
420
 16777215
176
     1
 90
        2
176
     1
 90
        2
176
     1
 62
     7
176
     1
 62
     7
176
     1
 90
        1
176
     1
 90
        1
176
     1
 40
40.0
176
     1
 90
        8
176
     1
 62
     7
176
     1
 40
1.0
176
     1
 90
        1
176
     1
 90
        6
176
     1
 90
        2
176
     1
 62
     7
176
     1
 90
        3
176
     1
 90
        0
176
     1
 90
        0
176
     1
290
     0
176
     1
 90
        1
176
     1
 40
0.0
176
     1
 90
        0
176
     1
290
     0
176
     1
290
     1
176
     1
290
     1
176
     1
290
     0
176
     1
290
     0
176
     1
290
     0
176
     1
290
     0
176
     1
290
     0
176
     1
290
     0
176
     1
 90
       50
176
     1
 40
0.0
176
     1
 40
1.0
176
     1
 90
        0
176
     1
 62
    18
420
        0
176
     1
 90
       50
176
     1
 90
        3
176
     1
 62
     5
420
      255
176
     1
290
     0
176
     1
 90
       50
176
     1
 90
       50
176
     1
 90
       50
176
     1
290
     0
176
     1
 90
       50
176
     1
 62
   256
176
     0
 40
1.0
176
     0
 90
        2
176
     1
  1
strokes_ogs.tif
176
     1
290
     0
176
     1
 40
1.0
176
     1
 40
1.0
176
     1
  0
VISUALSTYLE
  5
3F
102
{ACAD_REACTORS
330
2A
102
}
330
2A
100
AcDbVisualStyle
  2
Sketchy
 70
    24
177
     3
291
     0
 70
    58
 90
        1
176
     1
 90
        2
176
     1
 90
        2
176
     1
 90
        0
176
     1
 40
0.6
176
     1
 40
30.0
176
     1
 62
     7
420
 16777215
176
     1
 90
        2
176
     1
 90
        2
176
     1
 62
     7
176
     1
 62
     7
176
     1
 90
        1
176
     1
 90
        1
176
     1
 40
40.0
176
     1
 90
       11
176
     1
 62
     7
176
     1
 40
1.0
176
     1
 90
        1
176
     1
 90
        6
176
     1
 90
        2
176
     1
 62
     7
176
     1
 90
        6
176
     1
 90
        0
176
     1
 90
        0
176
     1
290
     0
176
     1
 90
        1
176
     1
 40
0.0
176
     1
 90
        0
176
     1
290
     0
176
     1
290
     1
176
     1
290
     1
176
     1
290
     0
176
     1
290
     0
176
     1
290
     0
176
     1
290
     0
176
     1
290
     0
176
     1
290
     0
176
     1
 90
       50
176
     1
 40
0.0
176
     1
 40
1.0
176
     1
 90
        0
176
     1
 62
    18
420
        0
176
     1
 90
       50
176
     1
 90
        3
176
     1
 62
     5
420
      255
176
     1
290
     0
176
     1
 90
       50
176
     1
 90
       50
176
     1
 90
       50
176
     1
290
     0
176
     1
 90
       50
176
     1
 62
   256
176
     0
 40
1.0
176
     0
 90
        2
176
     1
  1
strokes_ogs.tif
176
     1
290
     0
176
     1
 40
1.0
176
     1
 40
1.0
176
     1
  0
VISUALSTYLE
  5
37
102
{ACAD_REACTORS
330
2A
102
}
330
2A
100
AcDbVisualStyle
  2
Thicken
 70
    13
177
     3
291
     1
 70
    58
 90
        2
176
     1
 90
        2
176
     1
 90
        0
176
     1
 90
        0
176
     1
 40
0.6
176
     1
 40
30.0
176
     1
 62
     7
420
 16777215
176
     1
 90
        1
176
     1
 90
        4
176
     1
 62
     7
176
     1
 62
   257
176
     1
 90
        1
176
     1
 90
        1
176
     1
 40
1.0
176
     1
 90
       12
176
     1
 62
     7
176
     1
 40
1.0
176
     1
 90
        1
176
     1
 90
        6
176
     1
 90
        2
176
     1
 62
     7
176
     1
 90
        5
176
     1
 90
        0
176
     1
 90
        0
176
     1
290
     0
176
     1
 90
        1
176
     1
 40
0.0
176
     1
 90
        0
176
     1
290
     0
176
     1
290
     1
176
     1
290
     1
176
     1
290
     0
176
     1
290
     0
176
     1
290
     0
176
     1
290
     0
176
     1
290
     0
176
     1
290
     0
176
     1
 90
       50
176
     1
 40
0.0
176
     1
 40
1.0
176
     1
 90
        0
176
     1
 62
    18
420
        0
176
     1
 90
       50
176
     1
 90
        3
176
     1
 62
     5
420
      255
176
     1
290
     0
176
     1
 90
       50
176
     1
 90
       50
176
     1
 90
       50
176
     1
290
     0
176
     1
 90
       50
176
     1
 62
   256
176
     0
 40
1.0
176
     0
 90
        2
176
     1
  1
strokes_ogs.tif
176
     1
290
     0
176
     1
 40
1.0
176
     1
 40
1.0
176
     1
  0
VISUALSTYLE
  5
30
102
{ACAD_REACTORS
330
2A
102
}
330
2A
100
AcDbVisualStyle
  2
Wireframe
 70
     5
177
     3
291
     0
 70
    58
 90
        0
176
     1
 90
        2
176
     1
 90
        0
176
     1
 90
        0
176
     1
 40
0.6
176
     1
 40
30.0
176
     1
 62
     7
420
 16777215
176
     1
 90
        1
176
     1
 90
        4
176
     1
 62
     7
176
     1
 62
   257
176
     1
 90
        1
176
     1
 90
        1
176
     1
 40
1.0
176
     1
 90
        0
176
     1
 62
   257
176
     1
 40
1.0
176
     1
 90
        1
176
     1
 90
        6
176
     1
 90
        2
176
     1
 62
     7
176
     1
 90
        3
176
     1
 90
        0
176
     1
 90
        0
176
     1
290
     0
176
     1
 90
        1
176
     1
 40
0.0
176
     1
 90
        0
176
     1
290
     0
176
     1
290
     1
176
     1
290
     1
176
     1
290
     0
176
     1
290
     0
176
     1
290
     0
176
     1
290
     0
176
     1
290
     0
176
     1
290
     0
176
     1
 90
       50
176
     1
 40
0.0
176
     1
 40
1.0
176
     1
 90
        0
176
     1
 62
    18
420
        0
176
     1
 90
       50
176
     1
 90
        3
176
     1
 62
     5
420
      255
176
     1
290
     0
176
     1
 90
       50
176
     1
 90
       50
176
     1
 90
       50
176
     1
290
     0
176
     1
 90
       50
176
     1
 62
   256
176
     0
 40
1.0
176
     0
 90
        2
176
     1
  1
strokes_ogs.tif
176
     1
290
     0
176
     1
 40
1.0
176
     1
 40
1.0
176
     1
  0
VISUALSTYLE
  5
40
102
{ACAD_REACTORS
330
2A
102
}
330
2A
100
AcDbVisualStyle
  2
X-Ray
 70
    25
177
     3
291
     0
 70
    58
 90
        2
176
     1
 90
        2
176
     1
 90
        1
176
     1
 90
        1
176
     1
 40
0.5
176
     1
 40
30.0
176
     1
 62
     7
420
 16777215
176
     1
 90
        1
176
     1
 90
        0
176
     1
 62
     7
176
     1
 62
   257
176
     1
 90
        1
176
     1
 90
        1
176
     1
 40
1.0
176
     1
 90
        8
176
     1
 62
     7
176
     1
 40
1.0
176
     1
 90
        1
176
     1
 90
        6
176
     1
 90
        2
176
     1
 62
     7
176
     1
 90
        3
176
     1
 90
        0
176
     1
 90
        0
176
     1
290
     0
176
     1
 90
       13
176
     1
 40
0.0
176
     1
 90
        0
176
     1
290
     0
176
     1
290
     1
176
     1
290
     1
176
     1
290
     0
176
     1
290
     0
176
     1
290
     0
176
     1
290
     0
176
     1
290
     0
176
     1
290
     0
176
     1
 90
       50
176
     1
 40
0.0
176
     1
 40
1.0
176
     1
 90
        0
176
     1
 62
    18
420
        0
176
     1
 90
       50
176
     1
 90
        3
176
     1
 62
     5
420
      255
176
     1
290
     0
176
     1
 90
       50
176
     1
 90
       50
176
     1
 90
       50
176
     1
290
     0
176
     1
 90
       50
176
     1
 62
   256
176
     0
 40
1.0
176
     0
 90
        2
176
     1
  1
strokes_ogs.tif
176
     1
290
     0
176
     1
 40
1.0
176
     1
 40
1.0
176
     1
  0
DICTIONARYVAR
  5
1A1
102
{ACAD_REACTORS
330
1A0
102
}
330
1A0
100
DictionaryVariables
280
     0
  1
1:1
  0
DICTIONARYVAR
  5
1A6
102
{ACAD_REACTORS
330
1A0
102
}
330
1A0
100
DictionaryVariables
280
     0
  1
Standard
  0
DICTIONARYVAR
  5
1A5
102
{ACAD_REACTORS
330
1A0
102
}
330
1A0
100
DictionaryVariables
280
     0
  1
Standard
  0
DICTIONARY
  5
1A2
330
6A
100
AcDbDictionary
280
     1
281
     1
  3
ACAD_ROUNDTRIP_2008_TABLESTYLE_CELLSTYLEMAP
360
1A3
  0
CELLSTYLEMAP
  5
1A3
102
{ACAD_REACTORS
330
1A2
102
}
330
1A2
100
AcDbCellStyleMap
 90
        3
300
CELLSTYLE
  1
TABLEFORMAT_BEGIN
 90
        5
170
     1
 91
        0
 92
    32768
 62
   257
 93
        1
300
CONTENTFORMAT
  1
CONTENTFORMAT_BEGIN
 90
        0
 91
        0
 92
        4
 93
        0
300

 40
0.0
140
1.0
 94
        5
 62
     0
340
11
144
6.0
309
CONTENTFORMAT_END
171
     1
301
MARGIN
  1
CELLMARGIN_BEGIN
 40
1.5
 40
1.5
 40
1.5
 40
1.5
 40
1.5
 40
1.5
309
CELLMARGIN_END
 94
        6
 95
        1
302
GRIDFORMAT
  1
GRIDFORMAT_BEGIN
 90
        0
 91
        1
 62
     0
 92
       -2
340
14
 93
        0
 40
0.045
309
GRIDFORMAT_END
 95
        2
302
GRIDFORMAT
  1
GRIDFORMAT_BEGIN
 90
        0
 91
        1
 62
     0
 92
       -2
340
14
 93
        0
 40
0.045
309
GRIDFORMAT_END
 95
        4
302
GRIDFORMAT
  1
GRIDFORMAT_BEGIN
 90
        0
 91
        1
 62
     0
 92
       -2
340
14
 93
        0
 40
0.045
309
GRIDFORMAT_END
 95
        8
302
GRIDFORMAT
  1
GRIDFORMAT_BEGIN
 90
        0
 91
        1
 62
     0
 92
       -2
340
14
 93
        0
 40
0.045
309
GRIDFORMAT_END
 95
       16
302
GRIDFORMAT
  1
GRIDFORMAT_BEGIN
 90
        0
 91
        1
 62
     0
 92
       -2
340
14
 93
        0
 40
0.045
309
GRIDFORMAT_END
 95
       32
302
GRIDFORMAT
  1
GRIDFORMAT_BEGIN
 90
        0
 91
        1
 62
     0
 92
       -2
340
14
 93
        0
 40
0.045
309
GRIDFORMAT_END
309
TABLEFORMAT_END
  1
CELLSTYLE_BEGIN
 90
        1
 91
        1
300
_TITLE
309
CELLSTYLE_END
300
CELLSTYLE
  1
TABLEFORMAT_BEGIN
 90
        5
170
     1
 91
        0
 92
        0
 62
   257
 93
        1
300
CONTENTFORMAT
  1
CONTENTFORMAT_BEGIN
 90
        0
 91
        0
 92
        4
 93
        0
300

 40
0.0
140
1.0
 94
        5
 62
     0
340
11
144
4.5
309
CONTENTFORMAT_END
171
     1
301
MARGIN
  1
CELLMARGIN_BEGIN
 40
1.5
 40
1.5
 40
1.5
 40
1.5
 40
1.5
 40
1.5
309
CELLMARGIN_END
 94
        6
 95
        1
302
GRIDFORMAT
  1
GRIDFORMAT_BEGIN
 90
        0
 91
        1
 62
     0
 92
       -2
340
14
 93
        0
 40
0.045
309
GRIDFORMAT_END
 95
        2
302
GRIDFORMAT
  1
GRIDFORMAT_BEGIN
 90
        0
 91
        1
 62
     0
 92
       -2
340
14
 93
        0
 40
0.045
309
GRIDFORMAT_END
 95
        4
302
GRIDFORMAT
  1
GRIDFORMAT_BEGIN
 90
        0
 91
        1
 62
     0
 92
       -2
340
14
 93
        0
 40
0.045
309
GRIDFORMAT_END
 95
        8
302
GRIDFORMAT
  1
GRIDFORMAT_BEGIN
 90
        0
 91
        1
 62
     0
 92
       -2
340
14
 93
        0
 40
0.045
309
GRIDFORMAT_END
 95
       16
302
GRIDFORMAT
  1
GRIDFORMAT_BEGIN
 90
        0
 91
        1
 62
     0
 92
       -2
340
14
 93
        0
 40
0.045
309
GRIDFORMAT_END
 95
       32
302
GRIDFORMAT
  1
GRIDFORMAT_BEGIN
 90
        0
 91
        1
 62
     0
 92
       -2
340
14
 93
        0
 40
0.045
309
GRIDFORMAT_END
309
TABLEFORMAT_END
  1
CELLSTYLE_BEGIN
 90
        2
 91
        1
300
_HEADER
309
CELLSTYLE_END
300
CELLSTYLE
  1
TABLEFORMAT_BEGIN
 90
        5
170
     1
 91
        0
 92
        0
 62
   257
 93
        1
300
CONTENTFORMAT
  1
CONTENTFORMAT_BEGIN
 90
        0
 91
        0
 92
        4
 93
        0
300

 40
0.0
140
1.0
 94
        2
 62
     0
340
11
144
4.5
309
CONTENTFORMAT_END
171
     1
301
MARGIN
  1
CELLMARGIN_BEGIN
 40
1.5
 40
1.5
 40
1.5
 40
1.5
 40
1.5
 40
1.5
309
CELLMARGIN_END
 94
        6
 95
        1
302
GRIDFORMAT
  1
GRIDFORMAT_BEGIN
 90
        0
 91
        1
 62
     0
 92
       -2
340
14
 93
        0
 40
0.045
309
GRIDFORMAT_END
 95
        2
302
GRIDFORMAT
  1
GRIDFORMAT_BEGIN
 90
        0
 91
        1
 62
     0
 92
       -2
340
14
 93
        0
 40
0.045
309
GRIDFORMAT_END
 95
        4
302
GRIDFORMAT
  1
GRIDFORMAT_BEGIN
 90
        0
 91
        1
 62
     0
 92
       -2
340
14
 93
        0
 40
0.045
309
GRIDFORMAT_END
 95
        8
302
GRIDFORMAT
  1
GRIDFORMAT_BEGIN
 90
        0
 91
        1
 62
     0
 92
       -2
340
14
 93
        0
 40
0.045
309
GRIDFORMAT_END
 95
       16
302
GRIDFORMAT
  1
GRIDFORMAT_BEGIN
 90
        0
 91
        1
 62
     0
 92
       -2
340
14
 93
        0
 40
0.045
309
GRIDFORMAT_END
 95
       32
302
GRIDFORMAT
  1
GRIDFORMAT_BEGIN
 90
        0
 91
        1
 62
     0
 92
       -2
340
14
 93
        0
 40
0.045
309
GRIDFORMAT_END
309
TABLEFORMAT_END
  1
CELLSTYLE_BEGIN
 90
        3
 91
        2
300
_DATA
309
CELLSTYLE_END
  0
ENDSEC
  0
EOF