0
SECTION
  2
HEADER
  9
$ACADVER
  1
AC1027
  9
$ACADMAINTVER
 70
     8
  9
$DWGCODEPAGE
  3
ANSI_1252
  9
$REQUIREDVERSIONS
160
                 0
  9
$COMMENTS
  1
File was created by Cadenas
  9
$CUSTOMPROPERTYTAG
  1
NN
  9
$CUSTOMPROPERTY
  1
Set Screw Flange Bracket Inch Bore - Polymer Housing, Corrosion Resistant Insert
  9
$CUSTOMPROPERTYTAG
  1
NT
  9
$CUSTOMPROPERTY
  1
SC 3 Bolt Flange Bearings -(Normal Duty) -Polymer Housed -Corrosion Resistant Insert -E-Z KLEEN
  9
$CUSTOMPROPERTYTAG
  1
NB
  9
$CUSTOMPROPERTY
  1
127537
  9
$CUSTOMPROPERTYTAG
  1
NBSYN
  9
$CUSTOMPROPERTY
  1
$PN.
  9
$CUSTOMPROPERTYTAG
  1
LINA
  9
$CUSTOMPROPERTY
  1
127537
  9
$CUSTOMPROPERTYTAG
  1
SERIES
  9
$CUSTOMPROPERTY
  1
207
  9
$CUSTOMPROPERTYTAG
  1
SS
  9
$CUSTOMPROPERTY
  1
1-1/4
  9
$CUSTOMPROPERTYTAG
  1
PN
  9
$CUSTOMPROPERTY
  1
127537
  9
$CUSTOMPROPERTYTAG
  1
DESCRIPTION
  9
$CUSTOMPROPERTY
  1
FB-SCEZ-104-PCR
  9
$CUSTOMPROPERTYTAG
  1
WEIGHT
  9
$CUSTOMPROPERTY
  1
1.87
  9
$CUSTOMPROPERTYTAG
  1
A
  9
$CUSTOMPROPERTY
  1
1.71
  9
$CUSTOMPROPERTYTAG
  1
B
  9
$CUSTOMPROPERTY
  1
6.11
  9
$CUSTOMPROPERTYTAG
  1
C
  9
$CUSTOMPROPERTY
  1
1.82
  9
$CUSTOMPROPERTYTAG
  1
D
  9
$CUSTOMPROPERTY
  1
2.00
  9
$CUSTOMPROPERTYTAG
  1
E
  9
$CUSTOMPROPERTY
  1
2.38
  9
$CUSTOMPROPERTYTAG
  1
F
  9
$CUSTOMPROPERTY
  1
1/2
  9
$CUSTOMPROPERTYTAG
  1
G
  9
$CUSTOMPROPERTY
  1
1.25
  9
$CUSTOMPROPERTYTAG
  1
H
  9
$CUSTOMPROPERTY
  1
0.62
  9
$CUSTOMPROPERTYTAG
  1
I
  9
$CUSTOMPROPERTY
  1
4.26
  9
$CUSTOMPROPERTYTAG
  1
J
  9
$CUSTOMPROPERTY
  1
3.69
  9
$CUSTOMPROPERTYTAG
  1
K
  9
$CUSTOMPROPERTY
  1
1.28
  9
$CUSTOMPROPERTYTAG
  1
L
  9
$CUSTOMPROPERTY
  1
1.84
  9
$CUSTOMPROPERTYTAG
  1
COMPANY
  9
$CUSTOMPROPERTY
  1
baldor
  9
$INSBASE
 10
0.0
 20
0.0
 30
0.0
  9
$EXTMIN
 10
1.000000000000000E+20
 20
1.000000000000000E+20
 30
1.000000000000000E+20
  9
$EXTMAX
 10
-1.000000000000000E+20
 20
-1.000000000000000E+20
 30
-1.000000000000000E+20
  9
$LIMMIN
 10
0.0
 20
0.0
  9
$LIMMAX
 10
12.0
 20
9.0
  9
$ORTHOMODE
 70
     0
  9
$REGENMODE
 70
     1
  9
$FILLMODE
 70
     1
  9
$QTEXTMODE
 70
     0
  9
$MIRRTEXT
 70
     1
  9
$LTSCALE
 40
1.0
  9
$ATTMODE
 70
     1
  9
$TEXTSIZE
 40
0.2
  9
$TRACEWID
 40
0.05
  9
$TEXTSTYLE
  7
Standard
  9
$CLAYER
  8
0
  9
$CELTYPE
  6
ByLayer
  9
$CECOLOR
 62
   256
  9
$CELTSCALE
 40
1.0
  9
$DISPSILH
 70
     0
  9
$DIMSCALE
 40
1.0
  9
$DIMASZ
 40
0.18
  9
$DIMEXO
 40
0.0625
  9
$DIMDLI
 40
0.38
  9
$DIMRND
 40
0.0
  9
$DIMDLE
 40
0.0
  9
$DIMEXE
 40
0.18
  9
$DIMTP
 40
0.0
  9
$DIMTM
 40
0.0
  9
$DIMTXT
 40
0.18
  9
$DIMCEN
 40
0.09
  9
$DIMTSZ
 40
0.0
  9
$DIMTOL
 70
     0
  9
$DIMLIM
 70
     0
  9
$DIMTIH
 70
     1
  9
$DIMTOH
 70
     1
  9
$DIMSE1
 70
     0
  9
$DIMSE2
 70
     0
  9
$DIMTAD
 70
     0
  9
$DIMZIN
 70
     0
  9
$DIMBLK
  1

  9
$DIMASO
 70
     1
  9
$DIMSHO
 70
     1
  9
$DIMPOST
  1

  9
$DIMAPOST
  1

  9
$DIMALT
 70
     0
  9
$DIMALTD
 70
     2
  9
$DIMALTF
 40
25.4
  9
$DIMLFAC
 40
1.0
  9
$DIMTOFL
 70
     0
  9
$DIMTVP
 40
0.0
  9
$DIMTIX
 70
     0
  9
$DIMSOXD
 70
     0
  9
$DIMSAH
 70
     0
  9
$DIMBLK1
  1

  9
$DIMBLK2
  1

  9
$DIMSTYLE
  2
Standard
  9
$DIMCLRD
 70
     0
  9
$DIMCLRE
 70
     0
  9
$DIMCLRT
 70
     0
  9
$DIMTFAC
 40
1.0
  9
$DIMGAP
 40
0.09
  9
$DIMJUST
 70
     0
  9
$DIMSD1
 70
     0
  9
$DIMSD2
 70
     0
  9
$DIMTOLJ
 70
     1
  9
$DIMTZIN
 70
     0
  9
$DIMALTZ
 70
     0
  9
$DIMALTTZ
 70
     0
  9
$DIMUPT
 70
     0
  9
$DIMDEC
 70
     4
  9
$DIMTDEC
 70
     4
  9
$DIMALTU
 70
     2
  9
$DIMALTTD
 70
     2
  9
$DIMTXSTY
  7
Standard
  9
$DIMAUNIT
 70
     0
  9
$DIMADEC
 70
     0
  9
$DIMALTRND
 40
0.0
  9
$DIMAZIN
 70
     0
  9
$DIMDSEP
 70
    46
  9
$DIMATFIT
 70
     3
  9
$DIMFRAC
 70
     0
  9
$DIMLDRBLK
  1

  9
$DIMLUNIT
 70
     2
  9
$DIMLWD
 70
    -2
  9
$DIMLWE
 70
    -2
  9
$DIMTMOVE
 70
     0
  9
$DIMFXL
 40
1.0
  9
$DIMFXLON
 70
     0
  9
$DIMJOGANG
 40
0.7853981633974483
  9
$DIMTFILL
 70
     0
  9
$DIMTFILLCLR
 70
     0
  9
$DIMARCSYM
 70
     0
  9
$DIMLTYPE
  6

  9
$DIMLTEX1
  6

  9
$DIMLTEX2
  6

  9
$DIMTXTDIRECTION
 70
     0
  9
$LUNITS
 70
     2
  9
$LUPREC
 70
     4
  9
$SKETCHINC
 40
0.1
  9
$FILLETRAD
 40
0.5
  9
$AUNITS
 70
     0
  9
$AUPREC
 70
     0
  9
$MENU
  1
.
  9
$ELEVATION
 40
0.0
  9
$PELEVATION
 40
0.0
  9
$THICKNESS
 40
0.0
  9
$LIMCHECK
 70
     0
  9
$CHAMFERA
 40
0.0
  9
$CHAMFERB
 40
0.0
  9
$CHAMFERC
 40
0.0
  9
$CHAMFERD
 40
0.0
  9
$SKPOLY
 70
     0
  9
$TDCREATE
 40
2458168.997591458
  9
$TDUCREATE
 40
2458168.955924792
  9
$TDUPDATE
 40
2458168.997591644
  9
$TDUUPDATE
 40
2458168.955924977
  9
$TDINDWG
 40
0.0000000116
  9
$TDUSRTIMER
 40
0.0000000116
  9
$USRTIMER
 70
     1
  9
$ANGBASE
 50
0.0
  9
$ANGDIR
 70
     0
  9
$PDMODE
 70
     0
  9
$PDSIZE
 40
0.0
  9
$PLINEWID
 40
0.0
  9
$SPLFRAME
 70
     0
  9
$SPLINETYPE
 70
     6
  9
$SPLINESEGS
 70
     8
  9
$HANDSEED
  5
199
  9
$SURFTAB1
 70
     6
  9
$SURFTAB2
 70
     6
  9
$SURFTYPE
 70
     6
  9
$SURFU
 70
     6
  9
$SURFV
 70
     6
  9
$UCSBASE
  2

  9
$UCSNAME
  2

  9
$UCSORG
 10
0.0
 20
0.0
 30
0.0
  9
$UCSXDIR
 10
1.0
 20
0.0
 30
0.0
  9
$UCSYDIR
 10
0.0
 20
1.0
 30
0.0
  9
$UCSORTHOREF
  2

  9
$UCSORTHOVIEW
 70
     0
  9
$UCSORGTOP
 10
0.0
 20
0.0
 30
0.0
  9
$UCSORGBOTTOM
 10
0.0
 20
0.0
 30
0.0
  9
$UCSORGLEFT
 10
0.0
 20
0.0
 30
0.0
  9
$UCSORGRIGHT
 10
0.0
 20
0.0
 30
0.0
  9
$UCSORGFRONT
 10
0.0
 20
0.0
 30
0.0
  9
$UCSORGBACK
 10
0.0
 20
0.0
 30
0.0
  9
$PUCSBASE
  2

  9
$PUCSNAME
  2

  9
$PUCSORG
 10
0.0
 20
0.0
 30
0.0
  9
$PUCSXDIR
 10
1.0
 20
0.0
 30
0.0
  9
$PUCSYDIR
 10
0.0
 20
1.0
 30
0.0
  9
$PUCSORTHOREF
  2

  9
$PUCSORTHOVIEW
 70
     0
  9
$PUCSORGTOP
 10
0.0
 20
0.0
 30
0.0
  9
$PUCSORGBOTTOM
 10
0.0
 20
0.0
 30
0.0
  9
$PUCSORGLEFT
 10
0.0
 20
0.0
 30
0.0
  9
$PUCSORGRIGHT
 10
0.0
 20
0.0
 30
0.0
  9
$PUCSORGFRONT
 10
0.0
 20
0.0
 30
0.0
  9
$PUCSORGBACK
 10
0.0
 20
0.0
 30
0.0
  9
$USERI1
 70
     0
  9
$USERI2
 70
     0
  9
$USERI3
 70
     0
  9
$USERI4
 70
     0
  9
$USERI5
 70
     0
  9
$USERR1
 40
0.0
  9
$USERR2
 40
0.0
  9
$USERR3
 40
0.0
  9
$USERR4
 40
0.0
  9
$USERR5
 40
0.0
  9
$WORLDVIEW
 70
     1
  9
$SHADEDGE
 70
     3
  9
$SHADEDIF
 70
    70
  9
$TILEMODE
 70
     1
  9
$MAXACTVP
 70
    64
  9
$PINSBASE
 10
0.0
 20
0.0
 30
0.0
  9
$PLIMCHECK
 70
     0
  9
$PEXTMIN
 10
1.000000000000000E+20
 20
1.000000000000000E+20
 30
1.000000000000000E+20
  9
$PEXTMAX
 10
-1.000000000000000E+20
 20
-1.000000000000000E+20
 30
-1.000000000000000E+20
  9
$PLIMMIN
 10
0.0
 20
0.0
  9
$PLIMMAX
 10
12.0
 20
9.0
  9
$UNITMODE
 70
     0
  9
$VISRETAIN
 70
     1
  9
$PLINEGEN
 70
     0
  9
$PSLTSCALE
 70
     1
  9
$TREEDEPTH
 70
  3020
  9
$CMLSTYLE
  2
Standard
  9
$CMLJUST
 70
     0
  9
$CMLSCALE
 40
1.0
  9
$PROXYGRAPHICS
 70
     1
  9
$MEASUREMENT
 70
     0
  9
$CELWEIGHT
370
    -1
  9
$ENDCAPS
280
     0
  9
$JOINSTYLE
280
     0
  9
$LWDISPLAY
290
     0
  9
$INSUNITS
 70
     1
  9
$HYPERLINKBASE
  1

  9
$STYLESHEET
  1

  9
$XEDIT
290
     1
  9
$CEPSNTYPE
380
     0
  9
$PSTYLEMODE
290
     1
  9
$FINGERPRINTGUID
  2
{1D27C496-E0FF-4808-94A9-F90537AB26FE}
  9
$VERSIONGUID
  2
{FAEB1C32-E019-11D5-929B-00C0DF256EC4}
  9
$EXTNAMES
290
     1
  9
$PSVPSCALE
 40
0.0
  9
$OLESTARTUP
290
     0
  9
$SORTENTS
280
   127
  9
$INDEXCTL
280
     0
  9
$HIDETEXT
280
     1
  9
$XCLIPFRAME
280
     2
  9
$HALOGAP
280
     0
  9
$OBSCOLOR
 70
   257
  9
$OBSLTYPE
280
     0
  9
$INTERSECTIONDISPLAY
280
     0
  9
$INTERSECTIONCOLOR
 70
   257
  9
$DIMASSOC
280
     2
  9
$PROJECTNAME
  1

  9
$CAMERADISPLAY
290
     0
  9
$LENSLENGTH
 40
50.0
  9
$CAMERAHEIGHT
 40
0.0
  9
$STEPSPERSEC
 40
2.0
  9
$STEPSIZE
 40
6.0
  9
$3DDWFPREC
 40
2.0
  9
$PSOLWIDTH
 40
0.25
  9
$PSOLHEIGHT
 40
4.0
  9
$LOFTANG1
 40
1.570796326794897
  9
$LOFTANG2
 40
1.570796326794897
  9
$LOFTMAG1
 40
0.0
  9
$LOFTMAG2
 40
0.0
  9
$LOFTPARAM
 70
     7
  9
$LOFTNORMALS
280
     1
  9
$LATITUDE
 40
37.795
  9
$LONGITUDE
 40
-122.394
  9
$NORTHDIRECTION
 40
0.0
  9
$TIMEZONE
 70
 -8000
  9
$LIGHTGLYPHDISPLAY
280
     1
  9
$TILEMODELIGHTSYNCH
280
     1
  9
$CMATERIAL
347
44
  9
$SOLIDHIST
280
     0
  9
$SHOWHIST
280
     1
  9
$DWFFRAME
280
     2
  9
$DGNFRAME
280
     2
  9
$REALWORLDSCALE
290
     1
  9
$INTERFERECOLOR
 62
   256
  9
$CSHADOW
280
     0
  9
$SHADOWPLANELOCATION
 40
0.0
  0
ENDSEC
  0
SECTION
  2
CLASSES
  0
CLASS
  1
ACDBDICTIONARYWDFLT
  2
AcDbDictionaryWithDefault
  3
ObjectDBX Classes
 90
        0
 91
        4
280
     0
281
     0
  0
CLASS
  1
VISUALSTYLE
  2
AcDbVisualStyle
  3
ObjectDBX Classes
 90
     4095
 91
        4
280
     0
281
     0
  0
CLASS
  1
MATERIAL
  2
AcDbMaterial
  3
ObjectDBX Classes
 90
     1153
 91
        4
280
     0
281
     0
  0
CLASS
  1
SCALE
  2
AcDbScale
  3
ObjectDBX Classes
 90
     1153
 91
        4
280
     0
281
     0
  0
CLASS
  1
TABLESTYLE
  2
AcDbTableStyle
  3
ObjectDBX Classes
 90
     4095
 91
        4
280
     0
281
     0
  0
CLASS
  1
MLEADERSTYLE
  2
AcDbMLeaderStyle
  3
ACDB_MLEADERSTYLE_CLASS
 90
     4095
 91
        4
280
     0
281
     0
  0
CLASS
  1
SUN
  2
AcDbSun
  3
SCENEOE
 90
     1153
 91
        4
280
     0
281
     0
  0
CLASS
  1
DICTIONARYVAR
  2
AcDbDictionaryVar
  3
ObjectDBX Classes
 90
        0
 91
        4
280
     0
281
     0
  0
CLASS
  1
CELLSTYLEMAP
  2
AcDbCellStyleMap
  3
ObjectDBX Classes
 90
     1152
 91
        4
280
     0
281
     0
  0
ENDSEC
  0
SECTION
  2
TABLES
  0
TABLE
  2
VPORT
  5
8
330
0
100
AcDbSymbolTable
 70
     1
  0
VPORT
  5
29
330
8
100
AcDbSymbolTableRecord
100
AcDbViewportTableRecord
  2
*Active
 70
     0
 10
0.0
 20
0.0
 11
1.0
 21
1.0
 12
-0.92075
 22
-1.2075
 13
0.0
 23
0.0
 14
0.5
 24
0.5
 15
0.5
 25
0.5
 16
0.0
 26
0.0
 36
1.0
 17
0.0
 27
0.0
 37
0.0
 40
6.227100000000001
 41
0.3226044226044226
 42
50.0
 43
0.0
 44
0.0
 50
0.0
 51
0.0
 71
     0
 72
   100
 73
     1
 74
     3
 75
     0
 76
     0
 77
     0
 78
     0
281
     0
 65
     1
110
0.0
120
0.0
130
0.0
111
1.0
121
0.0
131
0.0
112
0.0
122
1.0
132
0.0
 79
     0
146
0.0
348
2F
 60
     3
 61
     5
292
     1
282
     1
141
0.0
142
0.0
 63
   250
361
6D
  0
ENDTAB
  0
TABLE
  2
LTYPE
  5
5
330
0
100
AcDbSymbolTable
 70
     3
  0
LTYPE
  5
14
330
5
100
AcDbSymbolTableRecord
100
AcDbLinetypeTableRecord
  2
ByBlock
 70
     0
  3

 72
    65
 73
     0
 40
0.0
  0
LTYPE
  5
15
330
5
100
AcDbSymbolTableRecord
100
AcDbLinetypeTableRecord
  2
ByLayer
 70
     0
  3

 72
    65
 73
     0
 40
0.0
  0
LTYPE
  5
16
330
5
100
AcDbSymbolTableRecord
100
AcDbLinetypeTableRecord
  2
Continuous
 70
     0
  3
Solid line
 72
    65
 73
     0
 40
0.0
  0
LTYPE
  5
9C
330
5
100
AcDbSymbolTableRecord
100
AcDbLinetypeTableRecord
  2
Dashed
 70
     0
  3

 72
    65
 73
     2
 40
2.0
 49
1.0
 74
     0
 49
-1.0
 74
     0
  0
LTYPE
  5
174
330
5
100
AcDbSymbolTableRecord
100
AcDbLinetypeTableRecord
  2
Center
 70
     0
  3

 72
    65
 73
     4
 40
1.5
 49
0.45
 74
     0
 49
-0.5
 74
     0
 49
0.05
 74
     0
 49
-0.5
 74
     0
  0
ENDTAB
  0
TABLE
  2
LAYER
  5
2
330
0
100
AcDbSymbolTable
 70
     6
  0
LAYER
  5
10
330
2
100
AcDbSymbolTableRecord
100
AcDbLayerTableRecord
  2
0
 70
     0
 62
     7
  6
Continuous
370
    -3
390
F
347
46
348
0
  0
LAYER
  5
72
330
2
100
AcDbSymbolTableRecord
100
AcDbLayerTableRecord
  2
AM_6
 70
     0
 62
    -2
  6
Continuous
370
    35
390
F
347
46
348
0
  0
LAYER
  5
9D
330
2
100
AcDbSymbolTableRecord
100
AcDbLayerTableRecord
  2
AM_9
 70
     0
 62
     6
  6
Dashed
370
    25
390
F
347
46
348
0
  0
LAYER
  5
BA
330
2
100
AcDbSymbolTableRecord
100
AcDbLayerTableRecord
  2
AM_4
 70
     0
 62
     7
  6
Continuous
370
    50
390
F
347
46
348
0
  0
LAYER
  5
175
330
2
100
AcDbSymbolTableRecord
100
AcDbLayerTableRecord
  2
AM_7
 70
     0
 62
     7
  6
Center
370
    25
390
F
347
46
348
0
  0
LAYER
  5
18B
330
2
100
AcDbSymbolTableRecord
100
AcDbLayerTableRecord
  2
ConnectionPoints
 70
     0
 62
     7
  6
Continuous
370
    50
390
F
347
46
348
0
  0
ENDTAB
  0
TABLE
  2
STYLE
  5
3
330
0
100
AcDbSymbolTable
 70
     1
  0
STYLE
  5
11
330
3
100
AcDbSymbolTableRecord
100
AcDbTextStyleTableRecord
  2
Standard
 70
     0
 40
0.0
 41
1.0
 50
0.0
 71
     0
 42
0.2
  3
txt
  4

  0
ENDTAB
  0
TABLE
  2
VIEW
  5
6
330
0
100
AcDbSymbolTable
 70
     0
  0
ENDTAB
  0
TABLE
  2
UCS
  5
7
330
0
100
AcDbSymbolTable
 70
     0
  0
ENDTAB
  0
TABLE
  2
APPID
  5
9
330
0
100
AcDbSymbolTable
 70
     1
  0
APPID
  5
12
330
9
100
AcDbSymbolTableRecord
100
AcDbRegAppTableRecord
  2
ACAD
 70
     0
  0
ENDTAB
  0
TABLE
  2
DIMSTYLE
  5
A
330
0
100
AcDbSymbolTable
 70
     1
100
AcDbDimStyleTable
  0
DIMSTYLE
105
27
330
A
100
AcDbSymbolTableRecord
100
AcDbDimStyleTableRecord
  2
Standard
 70
     0
178
     0
340
11
  0
ENDTAB
  0
TABLE
  2
BLOCK_RECORD
  5
1
330
0
100
AcDbSymbolTable
 70
     5
  0
BLOCK_RECORD
  5
1F
330
1
100
AcDbSymbolTableRecord
100
AcDbBlockTableRecord
  2
*Model_Space
340
22
 70
     0
280
     1
281
     0
  0
BLOCK_RECORD
  5
1B
330
1
100
AcDbSymbolTableRecord
100
AcDbBlockTableRecord
  2
*Paper_Space
340
1E
 70
     0
280
     1
281
     0
  0
BLOCK_RECORD
  5
23
330
1
100
AcDbSymbolTableRecord
100
AcDbBlockTableRecord
  2
*Paper_Space0
340
26
 70
     0
280
     1
281
     0
  0
BLOCK_RECORD
  5
6E
330
1
100
AcDbSymbolTableRecord
100
AcDbBlockTableRecord
  2
1_127537_2
340
0
102
{BLKREFS
331
6F
102
}
 70
     0
280
     1
281
     0
  0
BLOCK_RECORD
  5
8A
330
1
100
AcDbSymbolTableRecord
100
AcDbBlockTableRecord
  2
2_405020c_Inch_0_in_127537_2
340
0
102
{BLKREFS
331
8B
102
}
 70
     0
280
     1
281
     0
  0
BLOCK_RECORD
  5
D8
330
1
100
AcDbSymbolTableRecord
100
AcDbBlockTableRecord
  2
3_045412_0_in_127537_2
340
0
102
{BLKREFS
331
D9
102
}
 70
     0
280
     1
281
     0
  0
BLOCK_RECORD
  5
140
330
1
100
AcDbSymbolTableRecord
100
AcDbBlockTableRecord
  2
4_127537H_0_in_127537_2
340
0
102
{BLKREFS
331
141
102
}
 70
     0
280
     1
281
     0
  0
ENDTAB
  0
ENDSEC
  0
SECTION
  2
BLOCKS
  0
BLOCK
  5
20
330
1F
100
AcDbEntity
  8
0
100
AcDbBlockBegin
  2
*Model_Space
 70
     0
 10
0.0
 20
0.0
 30
0.0
  3
*Model_Space
  1

  0
ENDBLK
  5
21
330
1F
100
AcDbEntity
  8
0
100
AcDbBlockEnd
  0
BLOCK
  5
1C
330
1B
100
AcDbEntity
 67
     1
  8
0
100
AcDbBlockBegin
  2
*Paper_Space
 70
     0
 10
0.0
 20
0.0
 30
0.0
  3
*Paper_Space
  1

  0
ENDBLK
  5
1D
330
1B
100
AcDbEntity
 67
     1
  8
0
100
AcDbBlockEnd
  0
BLOCK
  5
24
330
23
100
AcDbEntity
  8
0
100
AcDbBlockBegin
  2
*Paper_Space0
 70
     0
 10
0.0
 20
0.0
 30
0.0
  3
*Paper_Space0
  1

  0
ENDBLK
  5
25
330
23
100
AcDbEntity
  8
0
100
AcDbBlockEnd
  0
BLOCK
  5
70
330
6E
100
AcDbEntity
  8
0
100
AcDbBlockBegin
  2
1_127537_2
 70
     2
 10
0.0
 20
0.0
 30
0.0
  3
1_127537_2
  1

  0
ATTDEF
  5
73
330
6E
100
AcDbEntity
  8
AM_6
100
AcDbText
 10
5.064
 20
1.845
 30
0.0
 40
0.5
  1
Set Screw Flange Bracket Inch Bore - Polymer Housing, Corrosion Resistant Insert
100
AcDbAttributeDefinition
  3

  2
NN
 70
     8
280
     0
  0
ATTDEF
  5
74
330
6E
100
AcDbEntity
  8
AM_6
100
AcDbText
 10
5.064
 20
1.345
 30
0.0
 40
0.5
  1
SC 3 Bolt Flange Bearings -(Normal Duty) -Polymer Housed -Corrosion Resistant Insert -E-Z KLEEN
100
AcDbAttributeDefinition
  3

  2
NT
 70
     8
280
     0
  0
ATTDEF
  5
75
330
6E
100
AcDbEntity
  8
AM_6
100
AcDbText
 10
5.064
 20
0.8449999999999998
 30
0.0
 40
0.5
  1
127537
100
AcDbAttributeDefinition
  3

  2
NB
 70
     8
280
     0
  0
ATTDEF
  5
76
330
6E
100
AcDbEntity
  8
AM_6
100
AcDbText
 10
5.064
 20
0.3449999999999998
 30
0.0
 40
0.5
  1
$PN.
100
AcDbAttributeDefinition
  3

  2
NBSYN
 70
     8
280
     0
  0
ATTDEF
  5
77
330
6E
100
AcDbEntity
  8
AM_6
100
AcDbText
 10
5.064
 20
-0.1550000000000002
 30
0.0
 40
0.5
  1
127537
100
AcDbAttributeDefinition
  3

  2
LINA
 70
     8
280
     0
  0
ATTDEF
  5
78
330
6E
100
AcDbEntity
  8
AM_6
100
AcDbText
 10
5.064
 20
-0.6550000000000002
 30
0.0
 40
0.5
  1
207
100
AcDbAttributeDefinition
  3

  2
SERIES
 70
     8
280
     0
  0
ATTDEF
  5
79
330
6E
100
AcDbEntity
  8
AM_6
100
AcDbText
 10
5.064
 20
-1.155
 30
0.0
 40
0.5
  1
1-1/4
100
AcDbAttributeDefinition
  3

  2
SS
 70
     8
280
     0
  0
ATTDEF
  5
7A
330
6E
100
AcDbEntity
  8
AM_6
100
AcDbText
 10
5.064
 20
-1.655
 30
0.0
 40
0.5
  1
127537
100
AcDbAttributeDefinition
  3

  2
PN
 70
     8
280
     0
  0
ATTDEF
  5
7B
330
6E
100
AcDbEntity
  8
AM_6
100
AcDbText
 10
5.064
 20
-2.155
 30
0.0
 40
0.5
  1
FB-SCEZ-104-PCR
100
AcDbAttributeDefinition
  3

  2
DESCRIPTION
 70
     8
280
     0
  0
ATTDEF
  5
7C
330
6E
100
AcDbEntity
  8
AM_6
100
AcDbText
 10
5.064
 20
-2.655
 30
0.0
 40
0.5
  1
1.87
100
AcDbAttributeDefinition
  3

  2
WEIGHT
 70
     8
280
     0
  0
ATTDEF
  5
7D
330
6E
100
AcDbEntity
  8
AM_6
100
AcDbText
 10
5.064
 20
-3.155
 30
0.0
 40
0.5
  1
1.71
100
AcDbAttributeDefinition
  3

  2
A
 70
     8
280
     0
  0
ATTDEF
  5
7E
330
6E
100
AcDbEntity
  8
AM_6
100
AcDbText
 10
5.064
 20
-3.655
 30
0.0
 40
0.5
  1
6.11
100
AcDbAttributeDefinition
  3

  2
B
 70
     8
280
     0
  0
ATTDEF
  5
7F
330
6E
100
AcDbEntity
  8
AM_6
100
AcDbText
 10
5.064
 20
-4.155
 30
0.0
 40
0.5
  1
1.82
100
AcDbAttributeDefinition
  3

  2
C
 70
     8
280
     0
  0
ATTDEF
  5
80
330
6E
100
AcDbEntity
  8
AM_6
100
AcDbText
 10
5.064
 20
-4.655
 30
0.0
 40
0.5
  1
2.00
100
AcDbAttributeDefinition
  3

  2
D
 70
     8
280
     0
  0
ATTDEF
  5
81
330
6E
100
AcDbEntity
  8
AM_6
100
AcDbText
 10
5.064
 20
-5.155
 30
0.0
 40
0.5
  1
2.38
100
AcDbAttributeDefinition
  3

  2
E
 70
     8
280
     0
  0
ATTDEF
  5
82
330
6E
100
AcDbEntity
  8
AM_6
100
AcDbText
 10
5.064
 20
-5.655
 30
0.0
 40
0.5
  1
1/2
100
AcDbAttributeDefinition
  3

  2
F
 70
     8
280
     0
  0
ATTDEF
  5
83
330
6E
100
AcDbEntity
  8
AM_6
100
AcDbText
 10
5.064
 20
-6.155
 30
0.0
 40
0.5
  1
1.25
100
AcDbAttributeDefinition
  3

  2
G
 70
     8
280
     0
  0
ATTDEF
  5
84
330
6E
100
AcDbEntity
  8
AM_6
100
AcDbText
 10
5.064
 20
-6.655
 30
0.0
 40
0.5
  1
0.62
100
AcDbAttributeDefinition
  3

  2
H
 70
     8
280
     0
  0
ATTDEF
  5
85
330
6E
100
AcDbEntity
  8
AM_6
100
AcDbText
 10
5.064
 20
-7.155
 30
0.0
 40
0.5
  1
4.26
100
AcDbAttributeDefinition
  3

  2
I
 70
     8
280
     0
  0
ATTDEF
  5
86
330
6E
100
AcDbEntity
  8
AM_6
100
AcDbText
 10
5.064
 20
-7.655
 30
0.0
 40
0.5
  1
3.69
100
AcDbAttributeDefinition
  3

  2
J
 70
     8
280
     0
  0
ATTDEF
  5
87
330
6E
100
AcDbEntity
  8
AM_6
100
AcDbText
 10
5.064
 20
-8.155000000000001
 30
0.0
 40
0.5
  1
1.28
100
AcDbAttributeDefinition
  3

  2
K
 70
     8
280
     0
  0
ATTDEF
  5
88
330
6E
100
AcDbEntity
  8
AM_6
100
AcDbText
 10
5.064
 20
-8.655000000000001
 30
0.0
 40
0.5
  1
1.84
100
AcDbAttributeDefinition
  3

  2
L
 70
     8
280
     0
  0
ATTDEF
  5
89
330
6E
100
AcDbEntity
  8
AM_6
100
AcDbText
 10
5.064
 20
-9.155000000000001
 30
0.0
 40
0.5
  1
baldor
100
AcDbAttributeDefinition
  3

  2
COMPANY
 70
     8
280
     0
  0
INSERT
  5
8B
330
6E
100
AcDbEntity
  8
0
100
AcDbBlockReference
  2
2_405020c_Inch_0_in_127537_2
 10
0.0
 20
0.0
 30
0.0
  0
INSERT
  5
D9
330
6E
100
AcDbEntity
  8
0
100
AcDbBlockReference
  2
3_045412_0_in_127537_2
 10
0.0
 20
0.0
 30
0.0
  0
INSERT
  5
141
330
6E
100
AcDbEntity
  8
0
100
AcDbBlockReference
  2
4_127537H_0_in_127537_2
 10
0.0
 20
0.0
 30
0.0
  0
ENDBLK
  5
71
330
6E
100
AcDbEntity
  8
0
100
AcDbBlockEnd
  0
BLOCK
  5
8C
330
8A
100
AcDbEntity
  8
0
100
AcDbBlockBegin
  2
2_405020c_Inch_0_in_127537_2
 70
     2
 10
0.0
 20
0.0
 30
0.0
  3
2_405020c_Inch_0_in_127537_2
  1

  0
ATTDEF
  5
8E
330
8A
100
AcDbEntity
  8
AM_6
100
AcDbText
 10
4.190650000000002
 20
1.613024955685048
 30
0.0
 40
0.5
  1
405020C -Inch
100
AcDbAttributeDefinition
  3

  2
NN
 70
     8
280
     0
  0
ATTDEF
  5
8F
330
8A
100
AcDbEntity
  8
AM_6
100
AcDbText
 10
4.190650000000002
 20
1.113024955685048
 30
0.0
 40
0.5
  1
Grease fitting
100
AcDbAttributeDefinition
  3

  2
NT
 70
     8
280
     0
  0
ATTDEF
  5
90
330
8A
100
AcDbEntity
  8
AM_6
100
AcDbText
 10
4.190650000000002
 20
0.613024955685048
 30
0.0
 40
0.5
  1
405020c-Inch
100
AcDbAttributeDefinition
  3

  2
NB
 70
     8
280
     0
  0
ATTDEF
  5
91
330
8A
100
AcDbEntity
  8
AM_6
100
AcDbText
 10
4.190650000000002
 20
0.113024955685048
 30
0.0
 40
0.5
  1
$MN.-Inch
100
AcDbAttributeDefinition
  3

  2
NBSYN
 70
     8
280
     0
  0
ATTDEF
  5
92
330
8A
100
AcDbEntity
  8
AM_6
100
AcDbText
 10
4.190650000000002
 20
-0.386975044314952
 30
0.0
 40
0.5
  1
405020c
100
AcDbAttributeDefinition
  3

  2
LINA
 70
     8
280
     0
  0
ATTDEF
  5
93
330
8A
100
AcDbEntity
  8
AM_6
100
AcDbText
 10
4.190650000000002
 20
-0.886975044314952
 30
0.0
 40
0.5
  1
405020c
100
AcDbAttributeDefinition
  3

  2
MN
 70
     8
280
     0
  0
ATTDEF
  5
94
330
8A
100
AcDbEntity
  8
AM_6
100
AcDbText
 10
4.190650000000002
 20
-1.386975044314952
 30
0.0
 40
0.5
  1
0.230
100
AcDbAttributeDefinition
  3

  2
NDR
 70
     8
280
     0
  0
ATTDEF
  5
95
330
8A
100
AcDbEntity
  8
AM_6
100
AcDbText
 10
4.190650000000002
 20
-1.886975044314952
 30
0.0
 40
0.5
  1
0.210
100
AcDbAttributeDefinition
  3

  2
KDR
 70
     8
280
     0
  0
ATTDEF
  5
96
330
8A
100
AcDbEntity
  8
AM_6
100
AcDbText
 10
4.190650000000002
 20
-2.386975044314952
 30
0.0
 40
0.5
  1
0.157
100
AcDbAttributeDefinition
  3

  2
BZE
 70
     8
280
     0
  0
ATTDEF
  5
97
330
8A
100
AcDbEntity
  8
AM_6
100
AcDbText
 10
4.190650000000002
 20
-2.886975044314952
 30
0.0
 40
0.5
  1
9/32
100
AcDbAttributeDefinition
  3

  2
WAF
 70
     8
280
     0
  0
ATTDEF
  5
98
330
8A
100
AcDbEntity
  8
AM_6
100
AcDbText
 10
4.190650000000002
 20
-3.386975044314952
 30
0.0
 40
0.5
  1
0.2813
100
AcDbAttributeDefinition
  3

  2
WAF1
 70
     8
280
     0
  0
ATTDEF
  5
99
330
8A
100
AcDbEntity
  8
AM_6
100
AcDbText
 10
4.190650000000002
 20
-3.886975044314952
 30
0.0
 40
0.5
  1
0.545
100
AcDbAttributeDefinition
  3

  2
BL
 70
     8
280
     0
  0
ATTDEF
  5
9A
330
8A
100
AcDbEntity
  8
AM_6
100
AcDbText
 10
4.190650000000002
 20
-4.386975044314952
 30
0.0
 40
0.5
  1
0.200
100
AcDbAttributeDefinition
  3

  2
TL
 70
     8
280
     0
  0
ATTDEF
  5
9B
330
8A
100
AcDbEntity
  8
AM_6
100
AcDbText
 10
4.190650000000002
 20
-4.886975044314952
 30
0.0
 40
0.5
  1
baldor
100
AcDbAttributeDefinition
  3

  2
COMPANY
 70
     8
280
     0
  0
LWPOLYLINE
  5
9E
330
8A
100
AcDbEntity
  8
AM_9
100
AcDbPolyline
 90
        3
 70
     0
 43
0.0
 10
-0.95
 20
1.423574834677309
 10
-0.914995600068301
 20
1.406259531423702
 10
-0.8796750000000001
 20
1.390742194369794
  0
LWPOLYLINE
  5
9F
330
8A
100
AcDbEntity
  8
AM_9
100
AcDbPolyline
 90
        3
 70
     0
 43
0.0
 10
-1.020325
 20
1.390742194369794
 10
-0.9851624999999999
 20
1.406185374158143
 10
-0.95
 20
1.423574834677309
  0
ELLIPSE
  5
A0
330
8A
100
AcDbEntity
  8
AM_9
100
AcDbEllipse
 10
-0.95
 20
1.16319065505187
 30
0.0
 11
0.1000886227036577
 21
0.0
 31
0.0
210
0.0
220
0.0
230
1.0
 40
0.7071067811865474
 41
0.0
 42
6.283185307179586
  0
LWPOLYLINE
  5
A1
330
8A
100
AcDbEntity
  8
AM_9
100
AcDbPolyline
 90
        3
 70
     0
 43
0.0
 10
-0.879675
 20
1.437882646448897
 10
-0.9148375
 20
1.451149527687419
 10
-0.95
 20
1.462470128195123
  0
LWPOLYLINE
  5
A2
330
8A
100
AcDbEntity
  8
AM_9
100
AcDbPolyline
 90
        3
 70
     0
 43
0.0
 10
-0.95
 20
1.462470128195123
 10
-0.985004399931699
 20
1.451204458587072
 10
-1.020325
 20
1.437882646448897
  0
LWPOLYLINE
  5
A3
330
8A
100
AcDbEntity
  8
AM_9
100
AcDbPolyline
 90
        3
 70
     0
 43
0.0
 10
-1.09065
 20
1.366154712623567
 10
-1.055645600068301
 20
1.377420382231618
 10
-1.020325
 20
1.390742194369794
  0
LINE
  5
A4
330
8A
100
AcDbEntity
  8
AM_9
100
AcDbLine
 10
-0.95
 20
1.462470128195123
 30
0.0
 11
-0.95
 21
1.423574834677309
 31
0.0
  0
LWPOLYLINE
  5
A5
330
8A
100
AcDbEntity
  8
AM_9
100
AcDbPolyline
 90
        3
 70
     0
 43
0.0
 10
-0.8796750000000001
 20
1.390742194369794
 10
-0.8445124999999999
 20
1.377475313131272
 10
-0.8093499999999999
 20
1.366154712623567
  0
LWPOLYLINE
  5
A6
330
8A
100
AcDbEntity
  8
AM_9
100
AcDbPolyline
 90
        3
 70
     0
 43
0.0
 10
-0.8348092060604436
 20
1.41781599572588
 10
-0.8443543999316989
 20
1.422365309394989
 10
-0.879675
 20
1.437882646448897
  0
LWPOLYLINE
  5
A7
330
8A
100
AcDbEntity
  8
AM_9
100
AcDbPolyline
 90
        3
 70
     0
 43
0.0
 10
-1.020325
 20
1.437882646448897
 10
-1.0554875
 20
1.422439466660548
 10
-1.06518952360919
 20
1.417816610394761
  0
LINE
  5
A8
330
8A
100
AcDbEntity
  8
AM_9
100
AcDbLine
 10
-0.8396376731557814
 20
1.168053397514156
 30
0.0
 11
-0.8337130109081057
 21
1.302041023372364
 31
0.0
  0
LINE
  5
A9
330
8A
100
AcDbEntity
  8
AM_9
100
AcDbLine
 10
-1.066286989091894
 20
1.302041023372364
 30
0.0
 11
-1.060362326844219
 21
1.168053397514156
 31
0.0
  0
ELLIPSE
  5
AA
330
8A
100
AcDbEntity
  8
AM_9
100
AcDbEllipse
 10
-0.9500000000000051
 20
1.351752463368279
 30
0.0
 11
-0.1406500000000075
 21
1.722465723000844E-17
 31
0.0
210
0.0
220
0.0
230
1.0
 40
0.7071067811865478
 41
3.79890669679363
 42
4.544687665947244
  0
ELLIPSE
  5
AB
330
8A
100
AcDbEntity
  8
AM_9
100
AcDbEllipse
 10
-0.9500000000000004
 20
1.351752463368284
 30
0.0
 11
-0.1406499999999984
 21
1.722465723000733E-17
 31
0.0
210
0.0
220
0.0
230
1.0
 40
0.7071067811865478
 41
4.64293146893009
 42
5.625871263975768
  0
ELLIPSE
  5
AC
330
8A
100
AcDbEntity
  8
AM_9
100
AcDbEllipse
 10
-0.9500000000000042
 20
1.373899436253816
 30
0.0
 11
-0.1093294505797664
 21
1.338899617050497E-17
 31
0.0
210
0.0
220
0.0
230
1.0
 40
0.7071067811865567
 41
5.382855324275563
 42
5.928986666165874
  0
ELLIPSE
  5
AD
330
8A
100
AcDbEntity
  8
AM_9
100
AcDbEllipse
 10
-0.9500000000000026
 20
1.373899436253813
 30
0.0
 11
-0.1093294505797746
 21
1.338899617050597E-17
 31
0.0
210
0.0
220
0.0
230
1.0
 40
0.7071067811865563
 41
3.495791294603523
 42
4.068043470056779
  0
LWPOLYLINE
  5
AE
330
8A
100
AcDbEntity
  8
AM_9
100
AcDbPolyline
 90
        4
 70
     0
 43
0.0
 10
-0.8582764803553135
 20
1.387227282261114
 10
-0.8584490023767155
 20
1.386885031034707
 10
-0.8610853779156483
 20
1.382485919341535
 10
-0.861932284378607
 20
1.381296636352626
  0
LWPOLYLINE
  5
AF
330
8A
100
AcDbEntity
  8
AM_9
100
AcDbPolyline
 90
       19
 70
     0
 43
0.0
 10
-0.95
 20
1.451207032142171
 10
-0.9445265678872433
 20
1.451110080801033
 10
-0.9335483161344981
 20
1.450325930013431
 10
-0.9228193358978735
 20
1.448773276664326
 10
-0.9125100469473019
 20
1.446494014261371
 10
-0.9027761200769798
 20
1.443550476971093
 10
-0.8937591770796278
 20
1.440024779482304
 10
-0.8855818923411913
 20
1.436017225934345
 10
-0.8783427554979567
 20
1.431643565585271
 10
-0.8721107266358576
 20
1.427030532139925
 10
-0.8669287244877333
 20
1.422317450899873
 10
-0.8627921841696372
 20
1.417634075170345
 10
-0.8596545865320627
 20
1.413087666425814
 10
-0.8574326426397655
 20
1.408737826648222
 10
-0.856024322318812
 20
1.404553769407289
 10
-0.8553610247104624
 20
1.40033069303489
 10
-0.8555687316742411
 20
1.395527930084735
 10
-0.8566262669247929
 20
1.391186226428367
 10
-0.8582764803553135
 20
1.387227282261114
  0
LWPOLYLINE
  5
B0
330
8A
100
AcDbEntity
  8
AM_9
100
AcDbPolyline
 90
       19
 70
     0
 43
0.0
 10
-1.042044948368285
 20
1.387891652823046
 10
-1.043594336057255
 20
1.391872953477708
 10
-1.044502768377728
 20
1.396043983182933
 10
-1.044622545621642
 20
1.400567890464913
 10
-1.04384389245146
 20
1.405061407033958
 10
-1.042301856380766
 20
1.409347624054807
 10
-1.039967350550012
 20
1.413706804179499
 10
-1.036779861524927
 20
1.418172786575819
 10
-1.032253997762208
 20
1.423130476822452
 10
-1.026706340905895
 20
1.427981179954229
 10
-1.020152459500418
 20
1.43262872708182
 10
-1.0126324719171
 20
1.436967897701659
 10
-1.004220325872207
 20
1.44088929373165
 10
-0.9950201257784552
 20
1.444290001211188
 10
-0.9851494341964813
 20
1.447083261805338
 10
-0.9747448411970915
 20
1.44919648616184
 10
-0.9639577882511486
 20
1.450574003800654
 10
-0.9529503959378607
 20
1.451178876182744
 10
-0.95
 20
1.451207032142171
  0
LWPOLYLINE
  5
B1
330
8A
100
AcDbEntity
  8
AM_9
100
AcDbPolyline
 90
        4
 70
     0
 43
0.0
 10
-1.038056381176614
 20
1.381281251570734
 10
-1.039414465927839
 20
1.383228783056157
 10
-1.041928069785303
 20
1.387645785143303
 10
-1.042044948368285
 20
1.387891652823046
  0
ELLIPSE
  5
B2
330
8A
100
AcDbEntity
  8
AM_9
100
AcDbEllipse
 10
-0.9499999999999998
 20
1.413841248190322
 30
0.0
 11
-0.09936940028726615
 21
1.216924179949926E-17
 31
0.0
210
0.0
220
0.0
230
1.0
 40
0.7071067811865459
 41
2.656480407116012
 42
4.71238898038469
  0
ELLIPSE
  5
B3
330
8A
100
AcDbEntity
  8
AM_9
100
AcDbEllipse
 10
-0.9499999999999997
 20
1.462172576894797
 30
0.0
 11
-0.1312419113468903
 21
1.607249866449500E-17
 31
0.0
210
0.0
220
0.0
230
1.0
 40
0.7071067811865482
 41
2.656480407116016
 42
4.71238898038469
  0
ELLIPSE
  5
B4
330
8A
100
AcDbEntity
  8
AM_9
100
AcDbEllipse
 10
-0.9500000000000003
 20
1.490928820360075
 30
0.0
 11
-0.1319517646676792
 21
1.615943062421182E-17
 31
0.0
210
0.0
220
0.0
230
1.0
 40
0.707106781186548
 41
3.587647615149274
 42
5.835311832353425
  0
ELLIPSE
  5
B5
330
8A
100
AcDbEntity
  8
AM_9
100
AcDbEllipse
 10
-0.9499999999999997
 20
1.537793397033261
 30
0.0
 11
-0.1038190510530395
 21
1.271416685626204E-17
 31
0.0
210
0.0
220
0.0
230
1.0
 40
0.707106781186548
 41
3.579974428543805
 42
5.769556150345371
  0
ELLIPSE
  5
B6
330
8A
100
AcDbEntity
  8
AM_9
100
AcDbEllipse
 10
-0.9499999999992246
 20
1.537793397032981
 30
0.0
 11
-0.1038190510539096
 21
1.547024427460774E-9
 31
0.0
210
0.0
220
0.0
230
1.0
 40
0.7071067811865477
 41
-0.4873892034066465
 42
-0.4553918772064955
  0
ELLIPSE
  5
B7
330
8A
100
AcDbEntity
  8
AM_9
100
AcDbEllipse
 10
-0.9499999999999994
 20
1.304612011289181
 30
0.0
 11
-0.1163438171532764
 21
1.424800832773448E-17
 31
0.0
210
0.0
220
0.0
230
1.0
 40
0.7071067811865461
 41
0.0
 42
6.283185307179586
  0
ELLIPSE
  5
B8
330
8A
100
AcDbEntity
  8
AM_9
100
AcDbEllipse
 10
-0.9499999999999998
 20
1.170493397130657
 30
0.0
 11
-0.1104162595939889
 21
1.352209188856018E-17
 31
0.0
210
0.0
220
0.0
230
1.0
 40
0.7071067811865465
 41
0.0
 42
6.283185307179586
  0
ELLIPSE
  5
B9
330
8A
100
AcDbEntity
  8
AM_9
100
AcDbEllipse
 10
-0.95
 20
1.304612011289182
 30
0.0
 11
-0.1406500000000019
 21
1.722465723000776E-17
 31
0.0
210
0.0
220
0.0
230
1.0
 40
0.7071067811865536
 41
0.0
 42
6.283185307179586
  0
LINE
  5
BB
330
8A
100
AcDbEntity
  8
AM_4
100
AcDbLine
 10
-0.8093499999999999
 20
1.405050006141381
 30
0.0
 11
-0.8348092060604436
 21
1.41781599572588
 31
0.0
  0
LINE
  5
BC
330
8A
100
AcDbEntity
  8
AM_4
100
AcDbLine
 10
-1.06518952360919
 20
1.417816610394761
 30
0.0
 11
-1.09065
 21
1.405050006141381
 31
0.0
  0
LWPOLYLINE
  5
BD
330
8A
100
AcDbEntity
  8
AM_4
100
AcDbPolyline
 90
        3
 70
     0
 43
0.0
 10
-0.879675
 20
1.218481828208567
 10
-0.9148375
 20
1.205214946970045
 10
-0.95
 20
1.19389434646234
  0
LWPOLYLINE
  5
BE
330
8A
100
AcDbEntity
  8
AM_4
100
AcDbPolyline
 90
        3
 70
     0
 43
0.0
 10
-0.8093499999999999
 20
1.251314468516082
 10
-0.8443543999316989
 20
1.233999165262475
 10
-0.879675
 20
1.218481828208567
  0
LINE
  5
BF
330
8A
100
AcDbEntity
  8
AM_4
100
AcDbLine
 10
-0.8093499999999999
 20
1.405050006141381
 30
0.0
 11
-0.8093499999999999
 21
1.251314468516082
 31
0.0
  0
LWPOLYLINE
  5
C0
330
8A
100
AcDbEntity
  8
AM_4
100
AcDbPolyline
 90
        3
 70
     0
 43
0.0
 10
-0.879675
 20
1.26562228028767
 10
-0.8445124999999999
 20
1.278889161526192
 10
-0.8093499999999999
 20
1.290209762033896
  0
LINE
  5
C1
330
8A
100
AcDbEntity
  8
AM_4
100
AcDbLine
 10
-1.09065
 20
1.405050006141381
 30
0.0
 11
-1.09065
 21
1.251314468516082
 31
0.0
  0
LWPOLYLINE
  5
C2
330
8A
100
AcDbEntity
  8
AM_4
100
AcDbPolyline
 90
        3
 70
     0
 43
0.0
 10
-1.020325
 20
1.218481828208567
 10
-1.0554875
 20
1.233925007996916
 10
-1.09065
 20
1.251314468516082
  0
LWPOLYLINE
  5
C3
330
8A
100
AcDbEntity
  8
AM_4
100
AcDbPolyline
 90
        3
 70
     0
 43
0.0
 10
-0.95
 20
1.19389434646234
 10
-0.985004399931699
 20
1.205160016070391
 10
-1.020325
 20
1.218481828208567
  0
LINE
  5
C4
330
8A
100
AcDbEntity
  8
AM_4
100
AcDbLine
 10
-0.95
 20
1.232789639980154
 30
0.0
 11
-0.95
 21
1.19389434646234
 31
0.0
  0
LWPOLYLINE
  5
C5
330
8A
100
AcDbEntity
  8
AM_4
100
AcDbPolyline
 90
        3
 70
     0
 43
0.0
 10
-1.09065
 20
1.290209762033896
 10
-1.055645600068301
 20
1.278944092425845
 10
-1.020325
 20
1.26562228028767
  0
LWPOLYLINE
  5
C6
330
8A
100
AcDbEntity
  8
AM_4
100
AcDbPolyline
 90
        3
 70
     0
 43
0.0
 10
-1.020325
 20
1.26562228028767
 10
-0.9851624999999999
 20
1.250179100499321
 10
-0.95
 20
1.232789639980154
  0
LWPOLYLINE
  5
C7
330
8A
100
AcDbEntity
  8
AM_4
100
AcDbPolyline
 90
        3
 70
     0
 43
0.0
 10
-0.95
 20
1.232789639980154
 10
-0.914995600068301
 20
1.250104943233762
 10
-0.879675
 20
1.26562228028767
  0
ELLIPSE
  5
C8
330
8A
100
AcDbEntity
  8
AM_4
100
AcDbEllipse
 10
-0.9500000000000005
 20
1.351752463368284
 30
0.0
 11
-0.1406499999999996
 21
1.722465723000748E-17
 31
0.0
210
0.0
220
0.0
230
1.0
 40
0.7071067811865432
 41
5.625871263975763
 42
10.0820920039732
  0
ELLIPSE
  5
C9
330
8A
100
AcDbEntity
  8
AM_4
100
AcDbEllipse
 10
-0.95
 20
1.373899436253815
 30
0.0
 11
-0.1093294505797713
 21
1.338899617050556E-17
 31
0.0
210
0.0
220
0.0
230
1.0
 40
0.7071067811865475
 41
5.928986666165877
 42
9.778976601783086
  0
LINE
  5
CA
330
8A
100
AcDbEntity
  8
AM_4
100
AcDbLine
 10
-0.8620955814367076
 20
1.38107624467666
 30
0.0
 11
-0.833900437410993
 21
1.418898272390702
 31
0.0
  0
LINE
  5
CB
330
8A
100
AcDbEntity
  8
AM_4
100
AcDbLine
 10
-1.066099562589007
 20
1.418898272390702
 30
0.0
 11
-1.037904418563292
 21
1.38107624467666
 31
0.0
  0
ELLIPSE
  5
CC
330
8A
100
AcDbEntity
  8
AM_4
100
AcDbEllipse
 10
-0.95
 20
1.413841248190322
 30
0.0
 11
-0.09936940028726648
 21
1.216924179949930E-17
 31
0.0
210
0.0
220
0.0
230
1.0
 40
0.707106781186548
 41
0.4851122464737809
 42
2.656480407116012
  0
LWPOLYLINE
  5
CD
330
8A
100
AcDbEntity
  8
AM_4
100
AcDbPolyline
 90
       13
 70
     0
 43
0.0
 10
-1.068796733222223
 20
1.531543401266261
 10
-1.069947517907736
 20
1.529813959765332
 10
-1.075879308373921
 20
1.519435659870429
 10
-1.080446521640175
 20
1.508672198562997
 10
-1.083633891789867
 20
1.497662556796993
 10
-1.085448106817338
 20
1.486536392396103
 10
-1.085910944030921
 20
1.475412575064392
 10
-1.085053732229006
 20
1.464398671281126
 10
-1.082915496485527
 20
1.453601065158861
 10
-1.079539261169583
 20
1.443109040433298
 10
-1.074965788971034
 20
1.432996610397518
 10
-1.069232582874525
 20
1.423331707027119
 10
-1.06600668060213
 20
1.418773864168315
  0
LWPOLYLINE
  5
CE
330
8A
100
AcDbEntity
  8
AM_4
100
AcDbPolyline
 90
       13
 70
     0
 43
0.0
 10
-0.8344973231841125
 20
1.418105228066902
 10
-0.8329516141105437
 20
1.420191079194262
 10
-0.8264561688116179
 20
1.430363843839586
 10
-0.8213104454461682
 20
1.440982364470756
 10
-0.8175412456928539
 20
1.451904646969894
 10
-0.815150225709319
 20
1.462996835572019
 10
-0.8141212175216379
 20
1.474135414183888
 10
-0.8144263198900485
 20
1.485208026140557
 10
-0.8160300174406655
 20
1.496110022244486
 10
-0.8188896706975534
 20
1.506740328933912
 10
-0.8229633594586068
 20
1.517021273690998
 10
-0.8282122091202658
 20
1.526882835130806
 10
-0.8310801053807648
 20
1.531361804840028
  0
ELLIPSE
  5
CF
330
8A
100
AcDbEntity
  8
AM_4
100
AcDbEllipse
 10
-0.9499999999999998
 20
1.462172576894797
 30
0.0
 11
-0.1312419113468907
 21
1.607249866449504E-17
 31
0.0
210
0.0
220
0.0
230
1.0
 40
0.7071067811865465
 41
0.4860270895522927
 42
2.648783666238426
  0
ELLIPSE
  5
D0
330
8A
100
AcDbEntity
  8
AM_4
100
AcDbEllipse
 10
-0.95
 20
1.548563850798539
 30
0.0
 11
0.08080642971672802
 21
0.0
 31
0.0
210
0.0
220
0.0
230
1.0
 40
0.707106781186549
 41
0.0
 42
6.283185307179586
  0
LWPOLYLINE
  5
D1
330
8A
100
AcDbEntity
  8
AM_4
100
AcDbPolyline
 90
       11
 70
     0
 43
0.0
 10
-0.95
 20
1.613024955685048
 10
-0.9565913798682868
 20
1.612868826207527
 10
-0.9684115818781357
 20
1.611798181513243
 10
-0.980032905606997
 20
1.609715462193894
 10
-0.9913159466844107
 20
1.606630667610422
 10
-1.002124990215452
 20
1.60255966839365
 10
-1.0123215555955
 20
1.597526401563839
 10
-1.021757956984752
 20
1.591570375781225
 10
-1.030282783564885
 20
1.584752918032282
 10
-1.037748707415196
 20
1.577163174430425
 10
-1.043113545767625
 20
1.570265076115355
  0
LWPOLYLINE
  5
D2
330
8A
100
AcDbEntity
  8
AM_4
100
AcDbPolyline
 90
       12
 70
     0
 43
0.0
 10
-0.8562724548313794
 20
1.569365517189151
 10
-0.8600301198190078
 20
1.57449241966422
 10
-0.866727073366325
 20
1.581933494310142
 10
-0.8744901160398503
 20
1.588766865465389
 10
-0.8832365018686411
 20
1.594899581656025
 10
-0.8928559025171303
 20
1.600242447642879
 10
-0.9032159960358609
 20
1.604718784606143
 10
-0.9141722152636536
 20
1.608269392035451
 10
-0.9255728316838985
 20
1.610852060246856
 10
-0.9372733879361805
 20
1.612441277068289
 10
-0.9485201984939636
 20
1.613017093954875
 10
-0.95
 20
1.613024955685048
  0
LINE
  5
D3
330
8A
100
AcDbEntity
  8
AM_4
100
AcDbLine
 10
-1.04400189503009
 20
1.568954583566394
 30
0.0
 11
-1.0694743720494
 21
1.530534013342286
 31
0.0
  0
LINE
  5
D4
330
8A
100
AcDbEntity
  8
AM_4
100
AcDbLine
 10
-0.8305256279506
 20
1.530534013342286
 30
0.0
 11
-0.8559981049699095
 21
1.568954583566394
 31
0.0
  0
ELLIPSE
  5
D5
330
8A
100
AcDbEntity
  8
AM_4
100
AcDbEllipse
 10
-0.95
 20
1.490928820360075
 30
0.0
 11
-0.13195176466768
 21
1.615943062421191E-17
 31
0.0
210
0.0
220
0.0
230
1.0
 40
0.7071067811865506
 41
5.844803532225579
 42
9.863159735723386
  0
ELLIPSE
  5
D6
330
8A
100
AcDbEntity
  8
AM_4
100
AcDbEllipse
 10
-0.9499999999999998
 20
1.537793397033261
 30
0.0
 11
-0.1038190510530389
 21
1.271416685626197E-17
 31
0.0
210
0.0
220
0.0
230
1.0
 40
0.7071067811865476
 41
5.844803532225575
 42
9.86315973572339
  0
ELLIPSE
  5
D7
330
8A
100
AcDbEntity
  8
AM_4
100
AcDbEllipse
 10
-0.9499999999996982
 20
1.537793397033169
 30
0.0
 11
-0.1038190510533676
 21
1.547024427452697E-9
 31
0.0
210
0.0
220
0.0
230
1.0
 40
0.7071067811865478
 41
-0.4553918772062069
 42
-0.4383817557789795
  0
ENDBLK
  5
8D
330
8A
100
AcDbEntity
  8
0
100
AcDbBlockEnd
  0
BLOCK
  5
DA
330
D8
100
AcDbEntity
  8
0
100
AcDbBlockBegin
  2
3_045412_0_in_127537_2
 70
     2
 10
0.0
 20
0.0
 30
0.0
  3
3_045412_0_in_127537_2
  1

  0
ATTDEF
  5
DC
330
D8
100
AcDbEntity
  8
AM_6
100
AcDbText
 10
4.89
 20
1.416645210840088
 30
0.0
 40
0.5
  1
Set Screw Insert Inch Bore - Corrosion Resistant
100
AcDbAttributeDefinition
  3

  2
NN
 70
     8
280
     0
  0
ATTDEF
  5
DD
330
D8
100
AcDbEntity
  8
AM_6
100
AcDbText
 10
4.89
 20
0.9166452108400878
 30
0.0
 40
0.5
  1
SC Normal Duty Bearing Inserts
100
AcDbAttributeDefinition
  3

  2
NT
 70
     8
280
     0
  0
ATTDEF
  5
DE
330
D8
100
AcDbEntity
  8
AM_6
100
AcDbText
 10
4.89
 20
0.4166452108400878
 30
0.0
 40
0.5
  1
045412
100
AcDbAttributeDefinition
  3

  2
NB
 70
     8
280
     0
  0
ATTDEF
  5
DF
330
D8
100
AcDbEntity
  8
AM_6
100
AcDbText
 10
4.89
 20
-0.0833547891599122
 30
0.0
 40
0.5
  1
$PN.
100
AcDbAttributeDefinition
  3

  2
NBSYN
 70
     8
280
     0
  0
ATTDEF
  5
E0
330
D8
100
AcDbEntity
  8
AM_6
100
AcDbText
 10
4.89
 20
-0.5833547891599122
 30
0.0
 40
0.5
  1
045412
100
AcDbAttributeDefinition
  3

  2
LINA
 70
     8
280
     0
  0
ATTDEF
  5
E1
330
D8
100
AcDbEntity
  8
AM_6
100
AcDbText
 10
4.89
 20
-1.083354789159912
 30
0.0
 40
0.5
  1
207
100
AcDbAttributeDefinition
  3

  2
SERIES
 70
     8
280
     0
  0
ATTDEF
  5
E2
330
D8
100
AcDbEntity
  8
AM_6
100
AcDbText
 10
4.89
 20
-1.583354789159912
 30
0.0
 40
0.5
  1
1-1/4
100
AcDbAttributeDefinition
  3

  2
SS
 70
     8
280
     0
  0
ATTDEF
  5
E3
330
D8
100
AcDbEntity
  8
AM_6
100
AcDbText
 10
4.89
 20
-2.083354789159912
 30
0.0
 40
0.5
  1
045412
100
AcDbAttributeDefinition
  3

  2
PN
 70
     8
280
     0
  0
ATTDEF
  5
E4
330
D8
100
AcDbEntity
  8
AM_6
100
AcDbText
 10
4.89
 20
-2.583354789159912
 30
0.0
 40
0.5
  1
INS-SC-104-CR
100
AcDbAttributeDefinition
  3

  2
DESCRIPTION
 70
     8
280
     0
  0
ATTDEF
  5
E5
330
D8
100
AcDbEntity
  8
AM_6
100
AcDbText
 10
4.89
 20
-3.083354789159912
 30
0.0
 40
0.5
  1
1.71
100
AcDbAttributeDefinition
  3

  2
A
 70
     8
280
     0
  0
ATTDEF
  5
E6
330
D8
100
AcDbEntity
  8
AM_6
100
AcDbText
 10
4.89
 20
-3.583354789159912
 30
0.0
 40
0.5
  1
0.75
100
AcDbAttributeDefinition
  3

  2
C
 70
     8
280
     0
  0
ATTDEF
  5
E7
330
D8
100
AcDbEntity
  8
AM_6
100
AcDbText
 10
4.89
 20
-4.083354789159912
 30
0.0
 40
0.5
  1
2.8346
100
AcDbAttributeDefinition
  3

  2
D
 70
     8
280
     0
  0
ATTDEF
  5
E8
330
D8
100
AcDbEntity
  8
AM_6
100
AcDbText
 10
4.89
 20
-4.583354789159912
 30
0.0
 40
0.5
  1
0.2
100
AcDbAttributeDefinition
  3

  2
J
 70
     8
280
     0
  0
ATTDEF
  5
E9
330
D8
100
AcDbEntity
  8
AM_6
100
AcDbText
 10
4.89
 20
-5.083354789159912
 30
0.0
 40
0.5
  1
1.84
100
AcDbAttributeDefinition
  3

  2
L
 70
     8
280
     0
  0
ATTDEF
  5
EA
330
D8
100
AcDbEntity
  8
AM_6
100
AcDbText
 10
4.89
 20
-5.583354789159912
 30
0.0
 40
0.5
  1
5/16 - 24
100
AcDbAttributeDefinition
  3

  2
N
 70
     8
280
     0
  0
ATTDEF
  5
EB
330
D8
100
AcDbEntity
  8
AM_6
100
AcDbText
 10
4.89
 20
-6.083354789159912
 30
0.0
 40
0.5
  1
0.67
100
AcDbAttributeDefinition
  3

  2
W
 70
     8
280
     0
  0
ATTDEF
  5
EC
330
D8
100
AcDbEntity
  8
AM_6
100
AcDbText
 10
4.89
 20
-6.583354789159912
 30
0.0
 40
0.5
  1
1.04
100
AcDbAttributeDefinition
  3

  2
Y
 70
     8
280
     0
  0
ATTDEF
  5
ED
330
D8
100
AcDbEntity
  8
AM_6
100
AcDbText
 10
4.89
 20
-7.083354789159912
 30
0.0
 40
0.5
  1
baldor
100
AcDbAttributeDefinition
  3

  2
COMPANY
 70
     8
280
     0
  0
LINE
  5
EE
330
D8
100
AcDbEntity
  8
AM_9
100
AcDbLine
 10
-0.4762163430452309
 20
-1.230169049511715
 30
0.0
 11
-0.4758333333333382
 21
-1.222497205898546
 31
0.0
  0
LWPOLYLINE
  5
EF
330
D8
100
AcDbEntity
  8
AM_9
100
AcDbPolyline
 90
       26
 70
     0
 43
0.0
 10
-0.6838002542342468
 20
-1.230008404890854
 10
-0.6825783917466356
 20
-1.238079110143252
 10
-0.6792425614120462
 20
-1.249662260650284
 10
-0.6758667046457796
 20
-1.257406661389347
 10
-0.672579826890362
 20
-1.26332768356358
 10
-0.6635362251270992
 20
-1.275442782502194
 10
-0.6500609595981207
 20
-1.287601863832019
 10
-0.6390299286456574
 20
-1.294586401646352
 10
-0.6287662446800293
 20
-1.299458094099535
 10
-0.6183710731998474
 20
-1.303147189406068
 10
-0.6090463202642215
 20
-1.305571316824299
 10
-0.5983623796072621
 20
-1.307453176772318
 10
-0.5870094512529374
 20
-1.308495772993446
 10
-0.5768624975186921
 20
-1.308633341901145
 10
-0.5599618222203279
 20
-1.307219375687216
 10
-0.544890058184278
 20
-1.304081634491944
 10
-0.5298950019524088
 20
-1.298886140284939
 10
-0.5165837183926566
 20
-1.292054972695088
 10
-0.5061154167907113
 20
-1.284643494017685
 10
-0.4965233676228986
 20
-1.275508519142441
 10
-0.4913278083202893
 20
-1.269134516215488
 10
-0.4848026102492951
 20
-1.258696732880279
 10
-0.4815320717672856
 20
-1.251633735162421
 10
-0.4786730331916336
 20
-1.24323771754242
 10
-0.4766228428578193
 20
-1.233498756552472
 10
-0.4762163430452309
 20
-1.230169049511715
  0
LINE
  5
F0
330
D8
100
AcDbEntity
  8
AM_9
100
AcDbLine
 10
-0.6840878435865551
 20
-1.225983971238521
 30
0.0
 11
-0.6838002542342468
 21
-1.230008404890854
 31
0.0
  0
LWPOLYLINE
  5
F1
330
D8
100
AcDbEntity
  8
AM_9
100
AcDbPolyline
 90
        5
 70
     0
 43
0.0
 10
-0.684099926044399
 20
-1.225705944235105
 10
-0.6837625800098824
 20
-1.220222006687034
 10
-0.6808593977915129
 20
-1.211263303930078
 10
-0.6751548169703637
 20
-1.202326064503809
 10
-0.66694323921031
 20
-1.193811113449148
  0
ELLIPSE
  5
F2
330
D8
100
AcDbEntity
  8
AM_9
100
AcDbEllipse
 10
-0.5800000000000001
 20
-1.222497205898546
 30
0.0
 11
0.104166666666662
 21
0.0
 31
0.0
210
0.0
220
0.0
230
1.0
 40
0.5000000000000027
 41
3.724882709916782
 42
6.283185307179586
  0
LINE
  5
F3
330
D8
100
AcDbEntity
  8
AM_9
100
AcDbLine
 10
-0.475833333333338
 20
-1.222497205898546
 30
0.0
 11
-0.475833333333338
 21
-1.19883763572995
 31
0.0
  0
LWPOLYLINE
  5
F4
330
D8
100
AcDbEntity
  8
AM_9
100
AcDbPolyline
 90
       17
 70
     0
 43
0.0
 10
-0.4758333337966141
 20
-1.198823683583699
 10
-0.4769943707165841
 20
-1.191209443403022
 10
-0.4810116558076773
 20
-1.183265889184143
 10
-0.4877521779988719
 20
-1.176117053183496
 10
-0.4970827261278382
 20
-1.169957523313566
 10
-0.5086828111813214
 20
-1.164959653225172
 10
-0.5223668723941217
 20
-1.161247906247932
 10
-0.5376342320053462
 20
-1.158945637379196
 10
-0.5542433336257693
 20
-1.158129034567553
 10
-0.5715678824907197
 20
-1.158825715264741
 10
-0.5892597737968356
 20
-1.161056083763501
 10
-0.6066918950119545
 20
-1.16473748968459
 10
-0.6233887662630282
 20
-1.169797172398501
 10
-0.6388540957487313
 20
-1.176072296419456
 10
-0.6525544506050328
 20
-1.183366415935116
 10
-0.6641900500720677
 20
-1.191488796412388
 10
-0.6669432392103101
 20
-1.193811113449148
  0
ELLIPSE
  5
F5
330
D8
100
AcDbEntity
  8
AM_9
100
AcDbEllipse
 10
-1.4875
 20
0.3063268239224546
 30
0.0
 11
0.1261999999999994
 21
0.0
 31
0.0
210
0.0
220
0.0
230
1.0
 40
0.8660254037844451
 41
4.509613981979761
 42
4.915163978789622
  0
LINE
  5
F6
330
D8
100
AcDbEntity
  8
AM_9
100
AcDbLine
 10
-1.3613
 20
0.3124817325776104
 30
0.0
 11
-1.3613
 21
0.4495672006167423
 31
0.0
  0
LINE
  5
F7
330
D8
100
AcDbEntity
  8
AM_9
100
AcDbLine
 10
-1.6137
 20
0.4495672006167423
 30
0.0
 11
-1.6137
 21
0.3124817325776104
 31
0.0
  0
LWPOLYLINE
  5
F8
330
D8
100
AcDbEntity
  8
AM_9
100
AcDbPolyline
 90
       10
 70
     0
 43
0.0
 10
-1.613699999463194
 20
0.3124899194021569
 10
-1.612330752810568
 20
0.3283420124380296
 10
-1.607577356135929
 20
0.3455251469815276
 10
-1.599536636985253
 20
0.3614309850939832
 10
-1.588477643554194
 20
0.375754616096959
 10
-1.574416647775198
 20
0.3883595659346906
 10
-1.557930131590426
 20
0.3987715408104751
 10
-1.539224357692737
 20
0.4068342768244219
 10
-1.519009693777457
 20
0.4122992828561038
 10
-1.512915196589308
 20
0.4133799921929228
  0
LWPOLYLINE
  5
F9
330
D8
100
AcDbEntity
  8
AM_9
100
AcDbPolyline
 90
       10
 70
     0
 43
0.0
 10
-1.361300000536806
 20
0.3125100804894513
 10
-1.362669247189432
 20
0.2963808123382251
 10
-1.367422643864071
 20
0.2782673918136995
 10
-1.375463363014747
 20
0.2608629091806717
 10
-1.386522356445807
 20
0.2446444848838193
 10
-1.400583352224803
 20
0.2299078347416064
 10
-1.417069868409575
 20
0.2173931802145483
 10
-1.435775642307263
 20
0.2074773260825029
 10
-1.455990306222543
 20
0.2006374355757007
 10
-1.462084803410692
 20
0.1992736556519857
  0
ELLIPSE
  5
FA
330
D8
100
AcDbEntity
  8
AM_9
100
AcDbEllipse
 10
-1.4875
 20
0.3063268239224564
 30
0.0
 11
0.1261999999999981
 21
0.0
 31
0.0
210
0.0
220
0.0
230
1.0
 40
0.8660254037844354
 41
1.368021328389962
 42
1.773571325199828
  0
LINE
  5
FB
330
D8
100
AcDbEntity
  8
AM_9
100
AcDbLine
 10
-1.361783911976644
 20
0.8947506307819012
 30
0.0
 11
-1.3413088382099
 21
0.9150695781124827
 31
0.0
  0
LINE
  5
FC
330
D8
100
AcDbEntity
  8
AM_9
100
AcDbLine
 10
-1.633685966492024
 20
0.9150644224295691
 30
0.0
 11
-1.613216088023356
 21
0.8947506307819012
 31
0.0
  0
ELLIPSE
  5
FD
330
D8
100
AcDbEntity
  8
AM_9
100
AcDbEllipse
 10
-1.4875
 20
0.8957129233806933
 30
0.0
 11
0.1262000000000001
 21
0.0
 31
0.0
210
0.0
220
0.0
230
1.0
 40
0.0871557427476592
 41
2.487919652735701
 42
6.195584647206389
  0
ELLIPSE
  5
FE
330
D8
100
AcDbEntity
  8
AM_9
100
AcDbEllipse
 10
-1.4875
 20
0.6103223157496679
 30
0.0
 11
0.1262000000000019
 21
0.0
 31
0.0
210
0.0
220
0.0
230
1.0
 40
0.0871557427476782
 41
4.509613981979754
 42
4.915163978789623
  0
ELLIPSE
  5
FF
330
D8
100
AcDbEntity
  8
AM_9
100
AcDbEllipse
 10
-1.4875
 20
0.6103223157496667
 30
0.0
 11
0.126200000000003
 21
0.0
 31
0.0
210
0.0
220
0.0
230
1.0
 40
0.0871557427476449
 41
1.368021328389974
 42
1.77357132519982
  0
LINE
  5
100
330
D8
100
AcDbEntity
  8
AM_9
100
AcDbLine
 10
-1.3613
 20
0.6225864054010578
 30
0.0
 11
-1.3613
 21
0.8952308528352173
 31
0.0
  0
LINE
  5
101
330
D8
100
AcDbEntity
  8
AM_9
100
AcDbLine
 10
-1.6137
 20
0.8952308528352173
 30
0.0
 11
-1.6137
 21
0.6225864054010576
 31
0.0
  0
ELLIPSE
  5
102
330
D8
100
AcDbEntity
  8
AM_9
100
AcDbEllipse
 10
-1.4875
 20
0.8957129233806939
 30
0.0
 11
0.1261999999999996
 21
0.0
 31
0.0
210
0.0
220
0.0
230
1.0
 40
0.0871557427476569
 41
0.0
 42
0.6512491778038619
  0
LWPOLYLINE
  5
103
330
D8
100
AcDbEntity
  8
AM_9
100
AcDbPolyline
 90
       10
 70
     0
 43
0.0
 10
-1.613699999517179
 20
0.6226226483398879
 10
-1.612387074062192
 20
0.6207764636101178
 10
-1.607577356135929
 20
0.6180344505408197
 10
-1.599679353243735
 20
0.6149137008170705
 10
-1.588477643554194
 20
0.6114409130709839
 10
-1.574639688110244
 20
0.6079886711756155
 10
-1.557930131590426
 20
0.6046931794931815
 10
-1.539517248679161
 20
0.6019734652084979
 10
-1.519009693777457
 20
0.5999536138008155
 10
-1.51291519658931
 20
0.5995486151707555
  0
LWPOLYLINE
  5
104
330
D8
100
AcDbEntity
  8
AM_9
100
AcDbPolyline
 90
        4
 70
     0
 43
0.0
 10
-1.361300000482821
 20
0.6226207240805536
 10
-1.362612925937808
 20
0.6239413512482588
 10
-1.367422643864071
 20
0.6248031891731698
 10
-1.373711449647554
 20
0.6249999912362262
  0
LWPOLYLINE
  5
105
330
D8
100
AcDbEntity
  8
AM_9
100
AcDbPolyline
 90
        4
 70
     0
 43
0.0
 10
-1.462084803410691
 20
0.1992736556519865
 10
-1.478962012466839
 20
0.1964781046506683
 10
-1.496631846494833
 20
0.1965288224015207
 10
-1.512915196589309
 20
0.1992736556519865
  0
LWPOLYLINE
  5
106
330
D8
100
AcDbEntity
  8
AM_9
100
AcDbPolyline
 90
       10
 70
     0
 43
0.0
 10
-1.512915196589309
 20
0.1992736556519865
 10
-1.533250806556411
 20
0.2050730309085269
 10
-1.552274669955242
 20
0.213974243784572
 10
-1.569428967837522
 20
0.2256766879857144
 10
-1.58429547580123
 20
0.2397389927262239
 10
-1.596554226796413
 20
0.2559019077359435
 10
-1.605720875299839
 20
0.273473676694763
 10
-1.611450289538723
 20
0.2917919731964148
 10
-1.613676268364009
 20
0.310378175974502
 10
-1.613699999463194
 20
0.3124899194021569
  0
LWPOLYLINE
  5
107
330
D8
100
AcDbEntity
  8
AM_9
100
AcDbPolyline
 90
        4
 70
     0
 43
0.0
 10
-1.512915196589309
 20
0.4133799921929222
 10
-1.496037987533183
 20
0.415585835933944
 10
-1.478368153505212
 20
0.4155459297560045
 10
-1.462084803410691
 20
0.4133799921929222
  0
LWPOLYLINE
  5
108
330
D8
100
AcDbEntity
  8
AM_9
100
AcDbPolyline
 90
       10
 70
     0
 43
0.0
 10
-1.462084803410691
 20
0.4133799921929222
 10
-1.441749193443589
 20
0.40876465237353
 10
-1.422725330044758
 20
0.4015696765556508
 10
-1.405571032162478
 20
0.3919096619443636
 10
-1.39070452419877
 20
0.3799931462948104
 10
-1.378445773203588
 20
0.3658621570344082
 10
-1.369279124700161
 20
0.3499641593054755
 10
-1.363549710461277
 20
0.3327554602000783
 10
-1.361323731635991
 20
0.3146170325657445
 10
-1.361300000536806
 20
0.3125100804894513
  0
LWPOLYLINE
  5
109
330
D8
100
AcDbEntity
  8
AM_9
100
AcDbPolyline
 90
        5
 70
     0
 43
0.0
 10
-1.51291519658931
 20
0.5995486151707559
 10
-1.504284978834104
 20
0.5990148364451959
 10
-1.486878965044173
 20
0.5986035822130011
 10
-1.46892258290199
 20
0.599107617590989
 10
-1.462084803410691
 20
0.5995486151707559
  0
LWPOLYLINE
  5
10A
330
D8
100
AcDbEntity
  8
AM_9
100
AcDbPolyline
 90
       10
 70
     0
 43
0.0
 10
-1.462084803410691
 20
0.5995486151707559
 10
-1.442030747505717
 20
0.6012166029295966
 10
-1.422725330044757
 20
0.6037619018534177
 10
-1.40578906082209
 20
0.6068236081033735
 10
-1.39070452419877
 20
0.6103163674617333
 10
-1.378591530090474
 20
0.6138161975382703
 10
-1.369279124700161
 20
0.6172165122699029
 10
-1.363596231434494
 20
0.6200751875969001
 10
-1.361323731635991
 20
0.6224036163960557
 10
-1.361300000482821
 20
0.6226207240805536
  0
LWPOLYLINE
  5
10B
330
D8
100
AcDbEntity
  8
AM_9
100
AcDbPolyline
 90
        4
 70
     0
 43
0.0
 10
-1.462084803410692
 20
0.6210960163285747
 10
-1.483837750294389
 20
0.6207249728603248
 10
-1.498335710527354
 20
0.6207865502672534
 10
-1.512915196589308
 20
0.6210960163285747
  0
LWPOLYLINE
  5
10C
330
D8
100
AcDbEntity
  8
AM_9
100
AcDbPolyline
 90
        7
 70
     0
 43
0.0
 10
-1.512915196589308
 20
0.6210960163285747
 10
-1.532969252494282
 20
0.6217372829711393
 10
-1.552274669955242
 20
0.6226412779176578
 10
-1.56921093917791
 20
0.6235881346545609
 10
-1.58429547580123
 20
0.6244313747978886
 10
-1.596408469909525
 20
0.6249303628946916
 10
-1.601242853071154
 20
0.6249999679346816
  0
LINE
  5
10D
330
D8
100
AcDbEntity
  8
AM_9
100
AcDbLine
 10
-1.7832
 20
-0.625
 30
0.0
 11
-0.1468000000000001
 21
-0.625
 31
0.0
  0
LINE
  5
10E
330
D8
100
AcDbEntity
  8
AM_9
100
AcDbLine
 10
-0.1468000000000001
 20
0.625
 30
0.0
 11
-1.373929621938397
 21
0.625
 31
0.0
  0
LINE
  5
10F
330
D8
100
AcDbEntity
  8
AM_9
100
AcDbLine
 10
-1.600824914672948
 20
0.625
 30
0.0
 11
-1.7832
 21
0.625
 31
0.0
  0
LWPOLYLINE
  5
110
330
D8
100
AcDbEntity
  8
AM_9
100
AcDbPolyline
 90
        8
 70
     0
 43
0.0
 10
-1.373711449647554
 20
0.6249999912362262
 10
-1.375320646756266
 20
0.6249910044998473
 10
-1.386522356445807
 20
0.6246356771248895
 10
-1.400360311889757
 20
0.6239008512620472
 10
-1.417069868409575
 20
0.6229468769794336
 10
-1.43548275132084
 20
0.6220159858552194
 10
-1.455990306222544
 20
0.6212550045342178
 10
-1.462084803410692
 20
0.6210960163285747
  0
LWPOLYLINE
  5
111
330
D8
100
AcDbEntity
  8
AM_9
100
AcDbPolyline
 90
        5
 70
     0
 43
0.0
 10
-1.601242853071154
 20
0.6249999679346816
 10
-1.605720875299839
 20
0.6249144213565545
 10
-1.611403768565506
 20
0.6242524710996298
 10
-1.613676268364009
 20
0.6228302097650216
 10
-1.613699999517179
 20
0.6226226483398879
  0
LINE
  5
112
330
D8
100
AcDbEntity
  8
AM_9
100
AcDbLine
 10
-0.1468000000000001
 20
-0.625
 30
0.0
 11
-0.1099999999999999
 21
-0.6617999999999999
 31
0.0
  0
LINE
  5
113
330
D8
100
AcDbEntity
  8
AM_9
100
AcDbLine
 10
-0.1099999999999999
 20
0.6617999999999999
 30
0.0
 11
-0.1468000000000001
 21
0.625
 31
0.0
  0
LINE
  5
114
330
D8
100
AcDbEntity
  8
AM_9
100
AcDbLine
 10
-1.7832
 20
0.6250000000000001
 30
0.0
 11
-1.82
 21
0.6618000000000002
 31
0.0
  0
LINE
  5
115
330
D8
100
AcDbEntity
  8
AM_9
100
AcDbLine
 10
-1.82
 20
-0.6618000000000002
 30
0.0
 11
-1.7832
 21
-0.6250000000000001
 31
0.0
  0
LWPOLYLINE
  5
116
330
D8
100
AcDbEntity
  8
AM_9
100
AcDbPolyline
 90
       39
 70
     0
 43
0.0
 10
-1.38618143700423
 20
0.3715156425278877
 10
-1.371539407875082
 20
0.3852978401394264
 10
-1.359313964111616
 20
0.4007835869793722
 10
-1.348968825655715
 20
0.4197647400103742
 10
-1.342556210024947
 20
0.4398375058187156
 10
-1.340457260721422
 20
0.4589340267139589
 10
-1.342132856383575
 20
0.4778057091925945
 10
-1.347313477596074
 20
0.4952541941440496
 10
-1.355737401136482
 20
0.5115465483699858
 10
-1.367474486884716
 20
0.5266716326475763
 10
-1.381919379660177
 20
0.5399381321094759
 10
-1.39986869736776
 20
0.5517987262791735
 10
-1.419897328290216
 20
0.5611663253200597
 10
-1.443037373595675
 20
0.5682809089014712
 10
-1.467323160109408
 20
0.5723566673920567
 10
-1.493193088122592
 20
0.5732939092198392
 10
-1.518905759595552
 20
0.5708756168414749
 10
-1.54402593934274
 20
0.5649990714678788
 10
-1.567508596106985
 20
0.5557776616382473
 10
-1.58825085965994
 20
0.5435206439424642
 10
-1.605973913522221
 20
0.5283316313173662
 10
-1.619295245365965
 20
0.5114593315388873
 10
-1.628724767186288
 20
0.4926078606430251
 10
-1.633520911342746
 20
0.4738746455296817
 10
-1.63440379892908
 20
0.4544429693741545
 10
-1.631534327338086
 20
0.435959901409127
 10
-1.625238399453746
 20
0.4179212028197757
 10
-1.615649118395715
 20
0.4007468233721617
 10
-1.603172799736616
 20
0.3849738301048377
 10
-1.587239467721208
 20
0.3702593428415126
 10
-1.568993253454556
 20
0.3578836815029708
 10
-1.5473860853324
 20
0.3475564301197947
 10
-1.524278107339604
 20
0.3404858790123146
 10
-1.498961601745503
 20
0.3367892952985418
 10
-1.473334843220143
 20
0.3369839933287554
 10
-1.447555882858254
 20
0.3412504774519541
 10
-1.422917525169868
 20
0.3494570092201926
 10
-1.403663235789157
 20
0.3592707590065346
 10
-1.386181436964265
 20
0.3715156423760606
  0
LINE
  5
117
330
D8
100
AcDbEntity
  8
AM_9
100
AcDbLine
 10
-1.28
 20
-0.92
 30
0.0
 11
-1.155
 21
-0.92
 31
0.0
  0
LINE
  5
118
330
D8
100
AcDbEntity
  8
AM_9
100
AcDbLine
 10
-1.155
 20
0.92
 30
0.0
 11
-1.28
 21
0.92
 31
0.0
  0
LINE
  5
119
330
D8
100
AcDbEntity
  8
AM_9
100
AcDbLine
 10
-0.405
 20
-0.9199999999999997
 30
0.0
 11
-0.1468000000000001
 21
-0.9199999999999997
 31
0.0
  0
LINE
  5
11A
330
D8
100
AcDbEntity
  8
AM_9
100
AcDbLine
 10
-0.1468000000000001
 20
0.9199999999999997
 30
0.0
 11
-0.405
 21
0.9199999999999997
 31
0.0
  0
LINE
  5
11B
330
D8
100
AcDbEntity
  8
AM_9
100
AcDbLine
 10
-0.1099999999999999
 20
0.8832000000000002
 30
0.0
 11
-0.1468000000000001
 21
0.9200000000000002
 31
0.0
  0
LINE
  5
11C
330
D8
100
AcDbEntity
  8
AM_9
100
AcDbLine
 10
-0.1468000000000001
 20
-0.9200000000000002
 30
0.0
 11
-0.1099999999999999
 21
-0.8832000000000002
 31
0.0
  0
LINE
  5
11D
330
D8
100
AcDbEntity
  8
AM_9
100
AcDbLine
 10
-0.1468000000000001
 20
0.9200000000000002
 30
0.0
 11
-0.1468000000000001
 21
-0.9200000000000002
 31
0.0
  0
LINE
  5
11E
330
D8
100
AcDbEntity
  8
AM_9
100
AcDbLine
 10
-0.1099999999999999
 20
0.8832000000000002
 30
0.0
 11
-0.1099999999999999
 21
-0.8832000000000002
 31
0.0
  0
LINE
  5
11F
330
D8
100
AcDbEntity
  8
AM_9
100
AcDbLine
 10
-1.02
 20
-1.350633333333333
 30
0.0
 11
-0.94
 21
-1.350633333333333
 31
0.0
  0
LINE
  5
120
330
D8
100
AcDbEntity
  8
AM_9
100
AcDbLine
 10
-0.94
 20
1.350633333333333
 30
0.0
 11
-1.02
 21
1.350633333333333
 31
0.0
  0
LINE
  5
121
330
D8
100
AcDbEntity
  8
AM_9
100
AcDbLine
 10
-0.405
 20
1.335937981344943
 30
0.0
 11
-0.405
 21
-1.335937981344943
 31
0.0
  0
ARC
  5
122
330
D8
100
AcDbEntity
  8
AM_9
100
AcDbCircle
 10
-0.4449999999999998
 20
-1.335937981344943
 30
0.0
 40
0.0399999999999997
100
AcDbArc
 50
284.0772302633402
 51
0.0
  0
ARC
  5
123
330
D8
100
AcDbEntity
  8
AM_9
100
AcDbCircle
 10
-0.4449999999999998
 20
1.335937981344943
 30
0.0
 40
0.0399999999999998
100
AcDbArc
 50
0.0
 51
75.92276973665984
  0
LINE
  5
124
330
D8
100
AcDbEntity
  8
AM_9
100
AcDbLine
 10
-1.155
 20
1.335937981344943
 30
0.0
 11
-1.155
 21
-1.335937981344943
 31
0.0
  0
ARC
  5
125
330
D8
100
AcDbEntity
  8
AM_9
100
AcDbCircle
 10
-1.114999999999998
 20
-1.335937981344942
 30
0.0
 40
0.0400000000000016
100
AcDbArc
 50
180.0
 51
255.9227727932848
  0
ARC
  5
126
330
D8
100
AcDbEntity
  8
AM_9
100
AcDbCircle
 10
-1.114999999999998
 20
1.335937981344942
 30
0.0
 40
0.0400000000000017
100
AcDbArc
 50
104.0772272067151
 51
180.0
  0
ARC
  5
127
330
D8
100
AcDbEntity
  8
AM_9
100
AcDbCircle
 10
-0.7799999999955314
 20
-0.0000000000212308
 30
0.0
 40
1.417300000021665
100
AcDbArc
 50
99.74921852494684
 51
104.0772272066799
  0
ARC
  5
128
330
D8
100
AcDbEntity
  8
AM_9
100
AcDbCircle
 10
-0.7799999999866198
 20
0.0000000000635161
 30
0.0
 40
1.417300000064818
100
AcDbArc
 50
255.9227727933862
 51
260.2507814749873
  0
LINE
  5
129
330
D8
100
AcDbEntity
  8
AM_9
100
AcDbLine
 10
-1.124729180280259
 20
1.374736731982985
 30
0.0
 11
-1.124729180280259
 21
-1.374736731982954
 31
0.0
  0
LINE
  5
12A
330
D8
100
AcDbEntity
  8
AM_9
100
AcDbLine
 10
-1.02
 20
1.39683187606811
 30
0.0
 11
-1.02
 21
-1.396831876068078
 31
0.0
  0
LWPOLYLINE
  5
12B
330
D8
100
AcDbEntity
  8
AM_9
100
AcDbPolyline
 90
        5
 70
     0
 43
0.0
 10
-0.6669432392102874
 20
-1.251183298347965
 10
-0.6752055678140635
 20
-1.244620528436126
 10
-0.680868051558873
 20
-1.237152248051008
 10
-0.6837483545515187
 20
-1.228924312754679
 10
-0.684099926044399
 20
-1.225705944235105
  0
LWPOLYLINE
  5
12C
330
D8
100
AcDbEntity
  8
AM_9
100
AcDbPolyline
 90
       17
 70
     0
 43
0.0
 10
-0.6669432392102874
 20
-1.251183298347965
 10
-0.6560712653317805
 20
-1.256735205466088
 10
-0.6430782415148768
 20
-1.261013713778858
 10
-0.6282757225045645
 20
-1.263890029189014
 10
-0.6121372248247112
 20
-1.265296569566823
 10
-0.5949819679696341
 20
-1.265172081708041
 10
-0.5774100090046497
 20
-1.263528931021512
 10
-0.5598061041151001
 20
-1.260369946646004
 10
-0.5427722449946424
 20
-1.255808897095668
 10
-0.5268069769524572
 20
-1.249954165083943
 10
-0.5123546129076558
 20
-1.242986558380188
 10
-0.4999367345453367
 20
-1.235141130992134
 10
-0.4897959034760787
 20
-1.226612167893218
 10
-0.4823341719683817
 20
-1.217727584011065
 10
-0.4776268161898468
 20
-1.208666379622048
 10
-0.4758612393164647
 20
-1.199770046507782
 10
-0.4758333337966141
 20
-1.198823683583699
  0
ARC
  5
12D
330
D8
100
AcDbEntity
  8
AM_9
100
AcDbCircle
 10
-0.7799999999999976
 20
0.0000000000000142
 30
0.0
 40
1.417299999999986
100
AcDbArc
 50
75.92277270702053
 51
96.48197920051818
  0
ARC
  5
12E
330
D8
100
AcDbEntity
  8
AM_9
100
AcDbCircle
 10
-0.7799999999999784
 20
-0.0000000000003213
 30
0.0
 40
1.417299999999682
100
AcDbArc
 50
263.5180207994796
 51
284.0772272929817
  0
LINE
  5
12F
330
D8
100
AcDbEntity
  8
AM_9
100
AcDbLine
 10
-0.94
 20
1.40823978426971
 30
0.0
 11
-0.94
 21
-1.40823978426971
 31
0.0
  0
LINE
  5
130
330
D8
100
AcDbEntity
  8
AM_9
100
AcDbLine
 10
-0.4352708176498979
 20
1.374736731463966
 30
0.0
 11
-0.4352708176498979
 21
-1.374736731463966
 31
0.0
  0
ELLIPSE
  5
131
330
D8
100
AcDbEntity
  8
AM_9
100
AcDbEllipse
 10
-0.5800000000000001
 20
-1.281544392520212
 30
0.0
 11
0.03598484848485406
 21
0.0
 31
0.0
210
0.0
220
0.0
230
1.0
 40
0.4999999999999984
 41
0.0
 42
6.283185307179586
  0
ELLIPSE
  5
132
330
D8
100
AcDbEntity
  8
AM_9
100
AcDbEllipse
 10
-1.4875
 20
0.449567200616742
 30
0.0
 11
0.1261999999999999
 21
0.0
 31
0.0
210
0.0
220
0.0
230
1.0
 40
0.8660254037844377
 41
0.0
 42
6.283185307179586
  0
LWPOLYLINE
  5
133
330
D8
100
AcDbEntity
  8
AM_4
100
AcDbPolyline
 90
       19
 70
     0
 43
0.0
 10
-1.341087981932269
 20
0.9152887503241367
 10
-1.343480879348765
 20
0.9136748980177025
 10
-1.35017294150792
 20
0.910944713907852
 10
-1.359771796378336
 20
0.9081107169415915
 10
-1.372545338161938
 20
0.9051280986135322
 10
-1.388413702072807
 20
0.9021529163900196
 10
-1.407020047003139
 20
0.8994034808970816
 10
-1.428456855881007
 20
0.8970430897986734
 10
-1.451959314178339
 20
0.8953353679883116
 10
-1.476978311731361
 20
0.8944630531392506
 10
-1.50297882914705
 20
0.8945602083670793
 10
-1.52835738692642
 20
0.8956448373634632
 10
-1.55328707486616
 20
0.8976995116223745
 10
-1.575427014957256
 20
0.9004194191768394
 10
-1.595592100612283
 20
0.9037590678800942
 10
-1.611214242966276
 20
0.907100400184176
 10
-1.623571312991382
 20
0.9105275695967028
 10
-1.630891083370668
 20
0.9133565876069574
 10
-1.633912234787321
 20
0.915288965386974
  0
LWPOLYLINE
  5
134
330
D8
100
AcDbEntity
  8
AM_4
100
AcDbPolyline
 90
        7
 70
     0
 43
0.0
 10
-1.633912234787321
 20
0.915288965386974
 10
-1.634364995150952
 20
0.9158501731596084
 10
-1.633779279272646
 20
0.9176205544673158
 10
-1.629496834881177
 20
0.9189128759139008
 10
-1.622051313471249
 20
0.919657314129889
 10
-1.611295558663527
 20
0.9199774225074401
 10
-1.606391977883618
 20
0.919999966176612
  0
ELLIPSE
  5
135
330
D8
100
AcDbEntity
  8
AM_4
100
AcDbEllipse
 10
-1.4875
 20
0.895712923380693
 30
0.0
 11
0.1262000000000001
 21
0.0
 31
0.0
210
0.0
220
0.0
230
1.0
 40
0.0871557427476627
 41
1.570796326794897
 42
2.487919652735699
  0
ELLIPSE
  5
136
330
D8
100
AcDbEntity
  8
AM_4
100
AcDbEllipse
 10
-1.4875
 20
0.8957129233806934
 30
0.0
 11
0.1262000000000001
 21
0.0
 31
0.0
210
0.0
220
0.0
230
1.0
 40
0.0871557427476592
 41
0.6512491778038818
 42
1.570796326794897
  0
LINE
  5
137
330
D8
100
AcDbEntity
  8
AM_4
100
AcDbLine
 10
-1.82
 20
-0.8832
 30
0.0
 11
-1.7832
 21
-0.92
 31
0.0
  0
LINE
  5
138
330
D8
100
AcDbEntity
  8
AM_4
100
AcDbLine
 10
-1.7832
 20
0.92
 30
0.0
 11
-1.82
 21
0.8832
 31
0.0
  0
LINE
  5
139
330
D8
100
AcDbEntity
  8
AM_4
100
AcDbLine
 10
-1.82
 20
0.8832
 30
0.0
 11
-1.82
 21
-0.8832
 31
0.0
  0
LINE
  5
13A
330
D8
100
AcDbEntity
  8
AM_4
100
AcDbLine
 10
-1.7832
 20
-0.92
 30
0.0
 11
-1.28
 21
-0.92
 31
0.0
  0
LINE
  5
13B
330
D8
100
AcDbEntity
  8
AM_4
100
AcDbLine
 10
-1.28
 20
0.92
 30
0.0
 11
-1.369087116269022
 21
0.92
 31
0.0
  0
LINE
  5
13C
330
D8
100
AcDbEntity
  8
AM_4
100
AcDbLine
 10
-1.606071834679422
 20
0.92
 30
0.0
 11
-1.7832
 21
0.92
 31
0.0
  0
LINE
  5
13D
330
D8
100
AcDbEntity
  8
AM_4
100
AcDbLine
 10
-1.7832
 20
0.92
 30
0.0
 11
-1.7832
 21
-0.92
 31
0.0
  0
LWPOLYLINE
  5
13E
330
D8
100
AcDbEntity
  8
AM_4
100
AcDbPolyline
 90
       13
 70
     0
 43
0.0
 10
-1.606391977883618
 20
0.919999966176612
 10
-1.597480745141094
 20
0.9199389335503266
 10
-1.580767127281401
 20
0.9196422306051176
 10
-1.561042723122587
 20
0.9191954227849092
 10
-1.538988278381379
 20
0.9187338111128103
 10
-1.514851306651957
 20
0.9183782572929282
 10
-1.489323221429411
 20
0.9182319080744301
 10
-1.46366661514095
 20
0.91834322776423
 10
-1.437957872439703
 20
0.9186983697168839
 10
-1.414342480198091
 20
0.919186680966888
 10
-1.392199127722069
 20
0.9196852910884954
 10
-1.374098124100798
 20
0.9199743998074611
 10
-1.368668497308316
 20
0.9199999418872403
  0
LWPOLYLINE
  5
13F
330
D8
100
AcDbEntity
  8
AM_4
100
AcDbPolyline
 90
        6
 70
     0
 43
0.0
 10
-1.368668497308316
 20
0.9199999418872403
 10
-1.358887730866234
 20
0.9198939472134361
 10
-1.348748401133782
 20
0.9193345675851251
 10
-1.342359048713396
 20
0.9181558124256736
 10
-1.3406890449568
 20
0.9171642671097524
 10
-1.340587895833631
 20
0.9159344327023037
  0
ENDBLK
  5
DB
330
D8
100
AcDbEntity
  8
0
100
AcDbBlockEnd
  0
BLOCK
  5
142
330
140
100
AcDbEntity
  8
0
100
AcDbBlockBegin
  2
4_127537H_0_in_127537_2
 70
     2
 10
0.0
 20
0.0
 30
0.0
  3
4_127537H_0_in_127537_2
  1

  0
ATTDEF
  5
144
330
140
100
AcDbEntity
  8
AM_6
100
AcDbText
 10
5.064
 20
1.845
 30
0.0
 40
0.5
  1
FB-SCEZ-PCR -I-Housing
100
AcDbAttributeDefinition
  3

  2
NN
 70
     8
280
     0
  0
ATTDEF
  5
145
330
140
100
AcDbEntity
  8
AM_6
100
AcDbText
 10
5.064
 20
1.345
 30
0.0
 40
0.5
  1
SC 3 Bolt Flange Bearings -(Normal Duty) -Polymer Housed -Corrosion Resistant Insert -E-Z KLEEN
100
AcDbAttributeDefinition
  3

  2
NT
 70
     8
280
     0
  0
ATTDEF
  5
146
330
140
100
AcDbEntity
  8
AM_6
100
AcDbText
 10
5.064
 20
0.8449999999999998
 30
0.0
 40
0.5
  1
127537H
100
AcDbAttributeDefinition
  3

  2
NB
 70
     8
280
     0
  0
ATTDEF
  5
147
330
140
100
AcDbEntity
  8
AM_6
100
AcDbText
 10
5.064
 20
0.3449999999999998
 30
0.0
 40
0.5
  1
$PN.H
100
AcDbAttributeDefinition
  3

  2
NBSYN
 70
     8
280
     0
  0
ATTDEF
  5
148
330
140
100
AcDbEntity
  8
AM_6
100
AcDbText
 10
5.064
 20
-0.1550000000000002
 30
0.0
 40
0.5
  1
127537
100
AcDbAttributeDefinition
  3

  2
LINA
 70
     8
280
     0
  0
ATTDEF
  5
149
330
140
100
AcDbEntity
  8
AM_6
100
AcDbText
 10
5.064
 20
-0.6550000000000002
 30
0.0
 40
0.5
  1
207
100
AcDbAttributeDefinition
  3

  2
SERIES
 70
     8
280
     0
  0
ATTDEF
  5
14A
330
140
100
AcDbEntity
  8
AM_6
100
AcDbText
 10
5.064
 20
-1.155
 30
0.0
 40
0.5
  1
1-1/4
100
AcDbAttributeDefinition
  3

  2
SS
 70
     8
280
     0
  0
ATTDEF
  5
14B
330
140
100
AcDbEntity
  8
AM_6
100
AcDbText
 10
5.064
 20
-1.655
 30
0.0
 40
0.5
  1
127537
100
AcDbAttributeDefinition
  3

  2
PN
 70
     8
280
     0
  0
ATTDEF
  5
14C
330
140
100
AcDbEntity
  8
AM_6
100
AcDbText
 10
5.064
 20
-2.155
 30
0.0
 40
0.5
  1
FB-SCEZ-104-PCR
100
AcDbAttributeDefinition
  3

  2
DESCRIPTION
 70
     8
280
     0
  0
ATTDEF
  5
14D
330
140
100
AcDbEntity
  8
AM_6
100
AcDbText
 10
5.064
 20
-2.655
 30
0.0
 40
0.5
  1
1
100
AcDbAttributeDefinition
  3

  2
INSERTHELP
 70
     8
280
     0
  0
ATTDEF
  5
14E
330
140
100
AcDbEntity
  8
AM_6
100
AcDbText
 10
5.064
 20
-3.155
 30
0.0
 40
0.5
  1
1.71
100
AcDbAttributeDefinition
  3

  2
A
 70
     8
280
     0
  0
ATTDEF
  5
14F
330
140
100
AcDbEntity
  8
AM_6
100
AcDbText
 10
5.064
 20
-3.655
 30
0.0
 40
0.5
  1
6.11
100
AcDbAttributeDefinition
  3

  2
B
 70
     8
280
     0
  0
ATTDEF
  5
150
330
140
100
AcDbEntity
  8
AM_6
100
AcDbText
 10
5.064
 20
-4.155
 30
0.0
 40
0.5
  1
1.82
100
AcDbAttributeDefinition
  3

  2
C
 70
     8
280
     0
  0
ATTDEF
  5
151
330
140
100
AcDbEntity
  8
AM_6
100
AcDbText
 10
5.064
 20
-4.655
 30
0.0
 40
0.5
  1
2.00
100
AcDbAttributeDefinition
  3

  2
D
 70
     8
280
     0
  0
ATTDEF
  5
152
330
140
100
AcDbEntity
  8
AM_6
100
AcDbText
 10
5.064
 20
-5.155
 30
0.0
 40
0.5
  1
2.38
100
AcDbAttributeDefinition
  3

  2
E
 70
     8
280
     0
  0
ATTDEF
  5
153
330
140
100
AcDbEntity
  8
AM_6
100
AcDbText
 10
5.064
 20
-5.655
 30
0.0
 40
0.5
  1
1/2
100
AcDbAttributeDefinition
  3

  2
F
 70
     8
280
     0
  0
ATTDEF
  5
154
330
140
100
AcDbEntity
  8
AM_6
100
AcDbText
 10
5.064
 20
-6.155
 30
0.0
 40
0.5
  1
1.25
100
AcDbAttributeDefinition
  3

  2
G
 70
     8
280
     0
  0
ATTDEF
  5
155
330
140
100
AcDbEntity
  8
AM_6
100
AcDbText
 10
5.064
 20
-6.655
 30
0.0
 40
0.5
  1
0.62
100
AcDbAttributeDefinition
  3

  2
H
 70
     8
280
     0
  0
ATTDEF
  5
156
330
140
100
AcDbEntity
  8
AM_6
100
AcDbText
 10
5.064
 20
-7.155
 30
0.0
 40
0.5
  1
4.26
100
AcDbAttributeDefinition
  3

  2
I
 70
     8
280
     0
  0
ATTDEF
  5
157
330
140
100
AcDbEntity
  8
AM_6
100
AcDbText
 10
5.064
 20
-7.655
 30
0.0
 40
0.5
  1
3.69
100
AcDbAttributeDefinition
  3

  2
J
 70
     8
280
     0
  0
ATTDEF
  5
158
330
140
100
AcDbEntity
  8
AM_6
100
AcDbText
 10
5.064
 20
-8.155000000000001
 30
0.0
 40
0.5
  1
1.28
100
AcDbAttributeDefinition
  3

  2
K
 70
     8
280
     0
  0
ATTDEF
  5
159
330
140
100
AcDbEntity
  8
AM_6
100
AcDbText
 10
5.064
 20
-8.655000000000001
 30
0.0
 40
0.5
  1
1.84
100
AcDbAttributeDefinition
  3

  2
L
 70
     8
280
     0
  0
ATTDEF
  5
15A
330
140
100
AcDbEntity
  8
AM_6
100
AcDbText
 10
5.064
 20
-9.155000000000001
 30
0.0
 40
0.5
  1
baldor
100
AcDbAttributeDefinition
  3

  2
COMPANY
 70
     8
280
     0
  0
LINE
  5
15B
330
140
100
AcDbEntity
  8
AM_9
100
AcDbLine
 10
-0.8320000000000001
 20
1.39040972399546
 30
0.0
 11
-0.0775000000000001
 21
1.39040972399546
 31
0.0
  0
LINE
  5
15C
330
140
100
AcDbEntity
  8
AM_9
100
AcDbLine
 10
-0.8320000000000002
 20
0.5065262475122758
 30
0.0
 11
-0.0775000000000002
 21
0.5065262475122758
 31
0.0
  0
LINE
  5
15D
330
140
100
AcDbEntity
  8
AM_9
100
AcDbLine
 10
-0.8320000000000002
 20
0.4575343009056435
 30
0.0
 11
-0.8320000000000001
 21
1.39040972399546
 31
0.0
  0
LINE
  5
15E
330
140
100
AcDbEntity
  8
AM_9
100
AcDbLine
 10
-0.62
 20
-3.879999999999999
 30
0.0
 11
0.0
 21
-3.879999999999999
 31
0.0
  0
LINE
  5
15F
330
140
100
AcDbEntity
  8
AM_9
100
AcDbLine
 10
0.0
 20
-3.38
 30
0.0
 11
-0.62
 21
-3.38
 31
0.0
  0
LINE
  5
160
330
140
100
AcDbEntity
  8
AM_9
100
AcDbLine
 10
-0.8320000000000001
 20
-1.39040972399546
 30
0.0
 11
-0.0775
 21
-1.39040972399546
 31
0.0
  0
LINE
  5
161
330
140
100
AcDbEntity
  8
AM_9
100
AcDbLine
 10
-0.62
 20
-2.629999999999999
 30
0.0
 11
0.0000000000000001
 21
-2.629999999999999
 31
0.0
  0
LINE
  5
162
330
140
100
AcDbEntity
  8
AM_9
100
AcDbLine
 10
0.0000000000000001
 20
-2.13
 30
0.0
 11
-0.62
 21
-2.13
 31
0.0
  0
LINE
  5
163
330
140
100
AcDbEntity
  8
AM_9
100
AcDbLine
 10
-0.8320000000000001
 20
-1.39040972399546
 30
0.0
 11
-0.8319999999999999
 21
-0.4575343009056437
 31
0.0
  0
LINE
  5
164
330
140
100
AcDbEntity
  8
AM_9
100
AcDbLine
 10
-0.8319999999999999
 20
-0.5065262475122783
 30
0.0
 11
-0.0775
 21
-0.5065262475122783
 31
0.0
  0
LINE
  5
165
330
140
100
AcDbEntity
  8
AM_9
100
AcDbLine
 10
-0.8320000000000001
 20
1.341417777388828
 30
0.0
 11
-0.0775000000000001
 21
1.341417777388828
 31
0.0
  0
LINE
  5
166
330
140
100
AcDbEntity
  8
AM_9
100
AcDbLine
 10
-0.0775
 20
-0.457534300905644
 30
0.0
 11
-0.8319999999999999
 21
-0.4575343009056437
 31
0.0
  0
LINE
  5
167
330
140
100
AcDbEntity
  8
AM_9
100
AcDbLine
 10
-0.8320000000000001
 20
-1.341417777388828
 30
0.0
 11
-0.0775
 21
-1.341417777388828
 31
0.0
  0
LINE
  5
168
330
140
100
AcDbEntity
  8
AM_9
100
AcDbLine
 10
-0.0775000000000002
 20
0.4575343009056436
 30
0.0
 11
-0.8320000000000002
 21
0.4575343009056435
 31
0.0
  0
LINE
  5
169
330
140
100
AcDbEntity
  8
AM_9
100
AcDbLine
 10
-1.2025
 20
-1.4173
 30
0.0
 11
-0.0775000000000001
 21
-1.4173
 31
0.0
  0
LINE
  5
16A
330
140
100
AcDbEntity
  8
AM_9
100
AcDbLine
 10
-0.0775000000000001
 20
1.4173
 30
0.0
 11
-1.2025
 21
1.4173
 31
0.0
  0
LINE
  5
16B
330
140
100
AcDbEntity
  8
AM_9
100
AcDbLine
 10
-1.28
 20
-1.5723
 30
0.0
 11
-1.2025
 21
-1.5723
 31
0.0
  0
LINE
  5
16C
330
140
100
AcDbEntity
  8
AM_9
100
AcDbLine
 10
-1.2025
 20
1.5723
 30
0.0
 11
-1.28
 21
1.5723
 31
0.0
  0
LINE
  5
16D
330
140
100
AcDbEntity
  8
AM_9
100
AcDbLine
 10
-1.2025
 20
1.5723
 30
0.0
 11
-1.2025
 21
-1.5723
 31
0.0
  0
LINE
  5
16E
330
140
100
AcDbEntity
  8
AM_9
100
AcDbLine
 10
-0.0372000000000001
 20
-1.5723
 30
0.0
 11
0.0
 21
-1.5723
 31
0.0
  0
LINE
  5
16F
330
140
100
AcDbEntity
  8
AM_9
100
AcDbLine
 10
0.0
 20
1.5723
 30
0.0
 11
-0.0372000000000001
 21
1.5723
 31
0.0
  0
LINE
  5
170
330
140
100
AcDbEntity
  8
AM_9
100
AcDbLine
 10
-0.0775
 20
1.532
 30
0.0
 11
-0.0775
 21
-1.532
 31
0.0
  0
ARC
  5
171
330
140
100
AcDbEntity
  8
AM_9
100
AcDbCircle
 10
-0.0372000000000005
 20
-1.532000000000001
 30
0.0
 40
0.0402999999999995
100
AcDbArc
 50
180.0
 51
270.0
  0
ARC
  5
172
330
140
100
AcDbEntity
  8
AM_9
100
AcDbCircle
 10
-0.0372000000000005
 20
1.532000000000001
 30
0.0
 40
0.0402999999999993
100
AcDbArc
 50
90.0
 51
180.0
  0
LINE
  5
173
330
140
100
AcDbEntity
  8
AM_9
100
AcDbLine
 10
-0.0372000000000001
 20
1.5723
 30
0.0
 11
-0.0372000000000001
 21
-1.5723
 31
0.0
  0
LINE
  5
176
330
140
100
AcDbEntity
  8
AM_7
100
AcDbLine
 10
0.03255
 20
-3.63
 30
0.0
 11
-0.68355
 21
-3.63
 31
0.0
  0
LINE
  5
177
330
140
100
AcDbEntity
  8
AM_7
100
AcDbLine
 10
0.0325499999999999
 20
-2.38
 30
0.0
 11
-0.68355
 21
-2.38
 31
0.0
  0
LINE
  5
178
330
140
100
AcDbEntity
  8
AM_7
100
AcDbLine
 10
-1.9055
 20
0.0
 30
0.0
 11
0.064
 21
0.0
 31
0.0
  0
LINE
  5
179
330
140
100
AcDbEntity
  8
AM_4
100
AcDbLine
 10
-0.62
 20
-4.055
 30
0.0
 11
-0.62
 21
-3.205
 31
0.0
  0
LINE
  5
17A
330
140
100
AcDbEntity
  8
AM_4
100
AcDbLine
 10
-0.62
 20
-4.055
 30
0.0
 11
-0.465
 21
-4.055
 31
0.0
  0
LINE
  5
17B
330
140
100
AcDbEntity
  8
AM_4
100
AcDbLine
 10
-0.465
 20
-3.205
 30
0.0
 11
-0.62
 21
-3.205
 31
0.0
  0
LINE
  5
17C
330
140
100
AcDbEntity
  8
AM_4
100
AcDbLine
 10
-0.62
 20
-2.805
 30
0.0
 11
-0.62
 21
-1.955
 31
0.0
  0
LINE
  5
17D
330
140
100
AcDbEntity
  8
AM_4
100
AcDbLine
 10
-0.62
 20
-2.805
 30
0.0
 11
-0.4649999999999999
 21
-2.805
 31
0.0
  0
LINE
  5
17E
330
140
100
AcDbEntity
  8
AM_4
100
AcDbLine
 10
-0.4649999999999999
 20
-1.955
 30
0.0
 11
-0.62
 21
-1.955
 31
0.0
  0
LINE
  5
17F
330
140
100
AcDbEntity
  8
AM_4
100
AcDbLine
 10
-1.28
 20
-1.845
 30
0.0
 11
-0.4649999999999999
 21
-1.845
 31
0.0
  0
LINE
  5
180
330
140
100
AcDbEntity
  8
AM_4
100
AcDbLine
 10
0.0
 20
-4.26
 30
0.0
 11
0.0
 21
1.845
 31
0.0
  0
LINE
  5
181
330
140
100
AcDbEntity
  8
AM_4
100
AcDbLine
 10
-1.28
 20
-1.845
 30
0.0
 11
-1.28
 21
1.845
 31
0.0
  0
LINE
  5
182
330
140
100
AcDbEntity
  8
AM_4
100
AcDbLine
 10
-1.28
 20
1.845
 30
0.0
 11
0.0
 21
1.845
 31
0.0
  0
LINE
  5
183
330
140
100
AcDbEntity
  8
AM_4
100
AcDbLine
 10
-0.465
 20
-4.26
 30
0.0
 11
0.0
 21
-4.26
 31
0.0
  0
LINE
  5
184
330
140
100
AcDbEntity
  8
AM_4
100
AcDbLine
 10
-1.28
 20
-0.9803792180626896
 30
0.0
 11
-0.4649999999999999
 21
-0.9803792180626896
 31
0.0
  0
LINE
  5
185
330
140
100
AcDbEntity
  8
AM_4
100
AcDbLine
 10
-0.465
 20
-4.26
 30
0.0
 11
-0.4649999999999998
 21
-0.4585344135470175
 31
0.0
  0
LINE
  5
186
330
140
100
AcDbEntity
  8
AM_4
100
AcDbLine
 10
-1.28
 20
-0.4585344135470175
 30
0.0
 11
-0.4649999999999998
 21
-0.4585344135470175
 31
0.0
  0
LINE
  5
187
330
140
100
AcDbEntity
  8
AM_4
100
AcDbLine
 10
-0.4649999999999998
 20
-2.23236166444249
 30
0.0
 11
0.0000000000000001
 21
-2.23236166444249
 31
0.0
  0
LINE
  5
188
330
140
100
AcDbEntity
  8
AM_4
100
AcDbLine
 10
-0.4649999999999999
 20
-2.706738920391154
 30
0.0
 11
0.0000000000000001
 21
-2.706738920391154
 31
0.0
  0
LINE
  5
189
330
140
100
AcDbEntity
  8
AM_4
100
AcDbLine
 10
-1.28
 20
0.9803792180626884
 30
0.0
 11
0.0000000000000001
 21
0.9803792180626884
 31
0.0
  0
LINE
  5
18A
330
140
100
AcDbEntity
  8
AM_4
100
AcDbLine
 10
-1.28
 20
0.4585344135470164
 30
0.0
 11
0.0000000000000001
 21
0.4585344135470164
 31
0.0
  0
ENDBLK
  5
143
330
140
100
AcDbEntity
  8
0
100
AcDbBlockEnd
  0
ENDSEC
  0
SECTION
  2
ENTITIES
  0
INSERT
  5
6F
330
1F
100
AcDbEntity
  8
0
100
AcDbBlockReference
  2
1_127537_2
 10
0.0
 20
0.0
 30
0.0
  0
POINT
  5
18C
330
1F
100
AcDbEntity
  8
ConnectionPoints
100
AcDbPoint
 10
-0.11
 20
0.0
 30
0.0
  0
POINT
  5
18D
330
1F
100
AcDbEntity
  8
ConnectionPoints
100
AcDbPoint
 10
-1.82
 20
0.0
 30
0.0000000000000001
  0
POINT
  5
18E
330
1F
100
AcDbEntity
  8
ConnectionPoints
100
AcDbPoint
 10
-0.95
 20
1.30461201128918
 30
1.30461201128918
  0
POINT
  5
18F
330
1F
100
AcDbEntity
  8
ConnectionPoints
100
AcDbPoint
 10
-1.82
 20
0.0
 30
0.0000000000000001
  0
ENDSEC
  0
SECTION
  2
OBJECTS
  0
DICTIONARY
  5
C
330
0
100
AcDbDictionary
281
     1
  3
ACAD_DETAILVIEWSTYLE
350
197
  3
ACAD_GROUP
350
D
  3
ACAD_LAYOUT
350
1A
  3
ACAD_MATERIAL
350
43
  3
ACAD_MLEADERSTYLE
350
6B
  3
ACAD_MLINESTYLE
350
17
  3
ACAD_PLOTSETTINGS
350
19
  3
ACAD_PLOTSTYLENAME
350
E
  3
ACAD_SCALELIST
350
47
  3
ACAD_SECTIONVIEWSTYLE
350
198
  3
ACAD_TABLESTYLE
350
69
  3
ACAD_VISUALSTYLE
350
2A
  3
ACDB_RECOMPOSE_DATA
350
194
  3
AcDbVariableDictionary
350
190
  0
SUN
  5
6D
330
29
100
AcDbSun
 90
        1
290
     0
 63
     7
421
 16777215
 40
1.0
291
     1
 91
  2455826
 92
 54000000
292
     0
 70
     2
 71
   256
280
     1
  0
DICTIONARY
  5
197
102
{ACAD_REACTORS
330
C
102
}
330
C
100
AcDbDictionary
281
     1
  0
DICTIONARY
  5
D
102
{ACAD_REACTORS
330
C
102
}
330
C
100
AcDbDictionary
281
     1
  0
DICTIONARY
  5
1A
102
{ACAD_REACTORS
330
C
102
}
330
C
100
AcDbDictionary
281
     1
  3
Layout1
350
1E
  3
Layout2
350
26
  3
Model
350
22
  0
DICTIONARY
  5
43
102
{ACAD_REACTORS
330
C
102
}
330
C
100
AcDbDictionary
281
     1
  3
ByBlock
350
45
  3
ByLayer
350
44
  3
Global
350
46
  0
DICTIONARY
  5
6B
102
{ACAD_REACTORS
330
C
102
}
330
C
100
AcDbDictionary
281
     1
  3
Standard
350
6C
  0
DICTIONARY
  5
17
102
{ACAD_REACTORS
330
C
102
}
330
C
100
AcDbDictionary
281
     1
  3
Standard
350
18
  0
DICTIONARY
  5
19
102
{ACAD_REACTORS
330
C
102
}
330
C
100
AcDbDictionary
281
     1
  0
ACDBDICTIONARYWDFLT
  5
E
102
{ACAD_REACTORS
330
C
102
}
330
C
100
AcDbDictionary
281
     1
  3
Normal
350
F
100
AcDbDictionaryWithDefault
340
F
  0
DICTIONARY
  5
47
102
{ACAD_REACTORS
330
C
102
}
330
C
100
AcDbDictionary
281
     1
  3
A0
350
48
  3
A1
350
49
  3
A2
350
4A
  3
A3
350
4B
  3
A4
350
4C
  3
A5
350
4D
  3
A6
350
4E
  3
A7
350
4F
  3
A8
350
50
  3
A9
350
51
  3
B0
350
52
  3
B1
350
53
  3
B2
350
54
  3
B3
350
55
  3
B4
350
56
  3
B5
350
57
  3
B6
350
58
  3
B7
350
59
  3
B8
350
5A
  3
B9
350
5B
  3
C0
350
5C
  3
C1
350
5D
  3
C2
350
5E
  3
C3
350
5F
  3
C4
350
60
  3
C5
350
61
  3
C6
350
62
  3
C7
350
63
  3
C8
350
64
  3
C9
350
65
  3
D0
350
66
  3
D1
350
67
  3
D2
350
68
  0
DICTIONARY
  5
198
102
{ACAD_REACTORS
330
C
102
}
330
C
100
AcDbDictionary
281
     1
  0
DICTIONARY
  5
69
102
{ACAD_REACTORS
330
C
102
}
330
C
100
AcDbDictionary
281
     1
  3
Standard
350
6A
  0
DICTIONARY
  5
2A
102
{ACAD_REACTORS
330
C
102
}
330
C
100
AcDbDictionary
281
     1
  3
2dWireframe
350
2F
  3
Basic
350
32
  3
Brighten
350
36
  3
ColorChange
350
3A
  3
Conceptual
350
34
  3
Dim
350
35
  3
EdgeColorOff
350
3D
  3
Facepattern
350
39
  3
Flat
350
2B
  3
FlatWithEdges
350
2C
  3
Gouraud
350
2D
  3
GouraudWithEdges
350
2E
  3
Hidden
350
31
  3
JitterOff
350
3B
  3
Linepattern
350
38
  3
OverhangOff
350
3C
  3
Realistic
350
33
  3
Shaded
350
42
  3
Shaded with edges
350
41
  3
Shades of Gray
350
3E
  3
Sketchy
350
3F
  3
Thicken
350
37
  3
Wireframe
350
30
  3
X-Ray
350
40
  0
XRECORD
  5
194
102
{ACAD_REACTORS
330
C
102
}
330
C
100
AcDbXrecord
280
     1
 90
        1
330
6A
  0
DICTIONARY
  5
190
102
{ACAD_REACTORS
330
C
102
}
330
C
100
AcDbDictionary
281
     1
  3
CANNOSCALE
350
191
  3
CMLEADERSTYLE
350
196
  3
CTABLESTYLE
350
195
  0
LAYOUT
  5
1E
102
{ACAD_REACTORS
330
1A
102
}
330
1A
100
AcDbPlotSettings
  1

  2
none_device
  4

  6

 40
0.0
 41
0.0
 42
0.0
 43
0.0
 44
0.0
 45
0.0
 46
0.0
 47
0.0
 48
0.0
 49
0.0
140
0.0
141
0.0
142
1.0
143
1.0
 70
   688
 72
     0
 73
     0
 74
     5
  7

 75
    16
 76
     0
 77
     2
 78
   300
147
1.0
148
0.0
149
0.0
100
AcDbLayout
  1
Layout1
 70
     1
 71
     1
 10
0.0
 20
0.0
 11
12.0
 21
9.0
 12
0.0
 22
0.0
 32
0.0
 14
1.000000000000000E+20
 24
1.000000000000000E+20
 34
1.000000000000000E+20
 15
-1.000000000000000E+20
 25
-1.000000000000000E+20
 35
-1.000000000000000E+20
146
0.0
 13
0.0
 23
0.0
 33
0.0
 16
1.0
 26
0.0
 36
0.0
 17
0.0
 27
1.0
 37
0.0
 76
     0
330
1B
  0
LAYOUT
  5
26
102
{ACAD_REACTORS
330
1A
102
}
330
1A
100
AcDbPlotSettings
  1

  2
none_device
  4

  6

 40
0.0
 41
0.0
 42
0.0
 43
0.0
 44
0.0
 45
0.0
 46
0.0
 47
0.0
 48
0.0
 49
0.0
140
0.0
141
0.0
142
1.0
143
1.0
 70
   688
 72
     0
 73
     0
 74
     5
  7

 75
    16
 76
     0
 77
     2
 78
   300
147
1.0
148
0.0
149
0.0
100
AcDbLayout
  1
Layout2
 70
     1
 71
     2
 10
0.0
 20
0.0
 11
0.0
 21
0.0
 12
0.0
 22
0.0
 32
0.0
 14
0.0
 24
0.0
 34
0.0
 15
0.0
 25
0.0
 35
0.0
146
0.0
 13
0.0
 23
0.0
 33
0.0
 16
1.0
 26
0.0
 36
0.0
 17
0.0
 27
1.0
 37
0.0
 76
     0
330
23
  0
LAYOUT
  5
22
102
{ACAD_REACTORS
330
1A
102
}
330
1A
100
AcDbPlotSettings
  1

  2
none_device
  4
Letter_(8.50_x_11.00_Inches)
  6

 40
6.35
 41
6.35
 42
6.35000508
 43
6.35000508
 44
215.9
 45
279.4
 46
0.0
 47
0.0
 48
0.0
 49
0.0
140
0.0
141
0.0
142
1.0
143
1.0
 70
  1712
 72
     0
 73
     0
 74
     0
  7

 75
     0
 76
     0
 77
     2
 78
   300
147
1.0
148
0.0
149
0.0
100
AcDbLayout
  1
Model
 70
     1
 71
     0
 10
0.0
 20
0.0
 11
12.0
 21
9.0
 12
0.0
 22
0.0
 32
0.0
 14
1.000000000000000E+20
 24
1.000000000000000E+20
 34
1.000000000000000E+20
 15
-1.000000000000000E+20
 25
-1.000000000000000E+20
 35
-1.000000000000000E+20
146
0.0
 13
0.0
 23
0.0
 33
0.0
 16
1.0
 26
0.0
 36
0.0
 17
0.0
 27
1.0
 37
0.0
 76
     0
330
1F
331
29
  0
MATERIAL
  5
45
102
{ACAD_REACTORS
330
43
102
}
330
43
100
AcDbMaterial
  1
ByBlock
 72
     1
 94
      127
  0
MATERIAL
  5
44
102
{ACAD_REACTORS
330
43
102
}
330
43
100
AcDbMaterial
  1
ByLayer
 72
     1
 94
      127
  0
MATERIAL
  5
46
102
{ACAD_REACTORS
330
43
102
}
330
43
100
AcDbMaterial
  1
Global
 72
     1
 94
      127
  0
MLEADERSTYLE
  5
6C
102
{ACAD_REACTORS
330
6B
102
}
330
6B
100
AcDbMLeaderStyle
179
     2
170
     2
171
     1
172
     0
 90
        2
 40
0.0
 41
0.0
173
     1
 91
-1056964608
340
14
 92
       -2
290
     1
 42
0.09
291
     1
 43
0.36
  3
Standard
341
0
 44
0.18
300

342
11
174
     1
178
     6
175
     1
176
     0
 93
-1056964608
 45
0.18
292
     0
297
     0
 46
0.18
343
0
 94
-1056964608
 47
1.0
 49
1.0
140
1.0
293
     1
141
0.0
294
     1
177
     0
142
1.0
295
     0
296
     0
143
0.125
271
     0
272
     9
273
     9
298
     0
  0
MLINESTYLE
  5
18
102
{ACAD_REACTORS
330
17
102
}
330
17
100
AcDbMlineStyle
  2
Standard
 70
     0
  3

 62
   256
 51
90.0
 52
90.0
 71
     2
 49
0.5
 62
   256
  6
BYLAYER
 49
-0.5
 62
   256
  6
BYLAYER
  0
ACDBPLACEHOLDER
  5
F
102
{ACAD_REACTORS
330
E
102
}
330
E
  0
SCALE
  5
48
102
{ACAD_REACTORS
330
47
102
}
330
47
100
AcDbScale
 70
     0
300
1:1
140
1.0
141
1.0
290
     1
  0
SCALE
  5
49
102
{ACAD_REACTORS
330
47
102
}
330
47
100
AcDbScale
 70
     0
300
1:2
140
1.0
141
2.0
290
     0
  0
SCALE
  5
4A
102
{ACAD_REACTORS
330
47
102
}
330
47
100
AcDbScale
 70
     0
300
1:4
140
1.0
141
4.0
290
     0
  0
SCALE
  5
4B
102
{ACAD_REACTORS
330
47
102
}
330
47
100
AcDbScale
 70
     0
300
1:5
140
1.0
141
5.0
290
     0
  0
SCALE
  5
4C
102
{ACAD_REACTORS
330
47
102
}
330
47
100
AcDbScale
 70
     0
300
1:8
140
1.0
141
8.0
290
     0
  0
SCALE
  5
4D
102
{ACAD_REACTORS
330
47
102
}
330
47
100
AcDbScale
 70
     0
300
1:10
140
1.0
141
10.0
290
     0
  0
SCALE
  5
4E
102
{ACAD_REACTORS
330
47
102
}
330
47
100
AcDbScale
 70
     0
300
1:16
140
1.0
141
16.0
290
     0
  0
SCALE
  5
4F
102
{ACAD_REACTORS
330
47
102
}
330
47
100
AcDbScale
 70
     0
300
1:20
140
1.0
141
20.0
290
     0
  0
SCALE
  5
50
102
{ACAD_REACTORS
330
47
102
}
330
47
100
AcDbScale
 70
     0
300
1:30
140
1.0
141
30.0
290
     0
  0
SCALE
  5
51
102
{ACAD_REACTORS
330
47
102
}
330
47
100
AcDbScale
 70
     0
300
1:40
140
1.0
141
40.0
290
     0
  0
SCALE
  5
52
102
{ACAD_REACTORS
330
47
102
}
330
47
100
AcDbScale
 70
     0
300
1:50
140
1.0
141
50.0
290
     0
  0
SCALE
  5
53
102
{ACAD_REACTORS
330
47
102
}
330
47
100
AcDbScale
 70
     0
300
1:100
140
1.0
141
100.0
290
     0
  0
SCALE
  5
54
102
{ACAD_REACTORS
330
47
102
}
330
47
100
AcDbScale
 70
     0
300
2:1
140
2.0
141
1.0
290
     0
  0
SCALE
  5
55
102
{ACAD_REACTORS
330
47
102
}
330
47
100
AcDbScale
 70
     0
300
4:1
140
4.0
141
1.0
290
     0
  0
SCALE
  5
56
102
{ACAD_REACTORS
330
47
102
}
330
47
100
AcDbScale
 70
     0
300
8:1
140
8.0
141
1.0
290
     0
  0
SCALE
  5
57
102
{ACAD_REACTORS
330
47
102
}
330
47
100
AcDbScale
 70
     0
300
10:1
140
10.0
141
1.0
290
     0
  0
SCALE
  5
58
102
{ACAD_REACTORS
330
47
102
}
330
47
100
AcDbScale
 70
     0
300
100:1
140
100.0
141
1.0
290
     0
  0
SCALE
  5
59
102
{ACAD_REACTORS
330
47
102
}
330
47
100
AcDbScale
 70
     0
300
1/128" = 1'-0"
140
0.0078125
141
12.0
290
     0
  0
SCALE
  5
5A
102
{ACAD_REACTORS
330
47
102
}
330
47
100
AcDbScale
 70
     0
300
1/64" = 1'-0"
140
0.015625
141
12.0
290
     0
  0
SCALE
  5
5B
102
{ACAD_REACTORS
330
47
102
}
330
47
100
AcDbScale
 70
     0
300
1/32" = 1'-0"
140
0.03125
141
12.0
290
     0
  0
SCALE
  5
5C
102
{ACAD_REACTORS
330
47
102
}
330
47
100
AcDbScale
 70
     0
300
1/16" = 1'-0"
140
0.0625
141
12.0
290
     0
  0
SCALE
  5
5D
102
{ACAD_REACTORS
330
47
102
}
330
47
100
AcDbScale
 70
     0
300
3/32" = 1'-0"
140
0.09375
141
12.0
290
     0
  0
SCALE
  5
5E
102
{ACAD_REACTORS
330
47
102
}
330
47
100
AcDbScale
 70
     0
300
1/8" = 1'-0"
140
0.125
141
12.0
290
     0
  0
SCALE
  5
5F
102
{ACAD_REACTORS
330
47
102
}
330
47
100
AcDbScale
 70
     0
300
3/16" = 1'-0"
140
0.1875
141
12.0
290
     0
  0
SCALE
  5
60
102
{ACAD_REACTORS
330
47
102
}
330
47
100
AcDbScale
 70
     0
300
1/4" = 1'-0"
140
0.25
141
12.0
290
     0
  0
SCALE
  5
61
102
{ACAD_REACTORS
330
47
102
}
330
47
100
AcDbScale
 70
     0
300
3/8" = 1'-0"
140
0.375
141
12.0
290
     0
  0
SCALE
  5
62
102
{ACAD_REACTORS
330
47
102
}
330
47
100
AcDbScale
 70
     0
300
1/2" = 1'-0"
140
0.5
141
12.0
290
     0
  0
SCALE
  5
63
102
{ACAD_REACTORS
330
47
102
}
330
47
100
AcDbScale
 70
     0
300
3/4" = 1'-0"
140
0.75
141
12.0
290
     0
  0
SCALE
  5
64
102
{ACAD_REACTORS
330
47
102
}
330
47
100
AcDbScale
 70
     0
300
1" = 1'-0"
140
1.0
141
12.0
290
     0
  0
SCALE
  5
65
102
{ACAD_REACTORS
330
47
102
}
330
47
100
AcDbScale
 70
     0
300
1-1/2" = 1'-0"
140
1.5
141
12.0
290
     0
  0
SCALE
  5
66
102
{ACAD_REACTORS
330
47
102
}
330
47
100
AcDbScale
 70
     0
300
3" = 1'-0"
140
3.0
141
12.0
290
     0
  0
SCALE
  5
67
102
{ACAD_REACTORS
330
47
102
}
330
47
100
AcDbScale
 70
     0
300
6" = 1'-0"
140
6.0
141
12.0
290
     0
  0
SCALE
  5
68
102
{ACAD_REACTORS
330
47
102
}
330
47
100
AcDbScale
 70
     0
300
1'-0" = 1'-0"
140
12.0
141
12.0
290
     0
  0
TABLESTYLE
  5
6A
102
{ACAD_REACTORS
330
69
102
}
102
{ACAD_XDICTIONARY
360
192
102
}
330
69
100
AcDbTableStyle
  3
Standard
 70
     0
 71
     0
 40
0.06
 41
0.06
280
     0
281
     0
  7
Standard
140
0.18
170
     2
 62
     0
 63
   257
283
     0
 90
        4
 91
        0
  1

274
    -2
284
     1
 64
     0
275
    -2
285
     1
 65
     0
276
    -2
286
     1
 66
     0
277
    -2
287
     1
 67
     0
278
    -2
288
     1
 68
     0
279
    -2
289
     1
 69
     0
  7
Standard
140
0.25
170
     5
 62
     0
 63
   257
283
     0
 90
        4
 91
        0
  1

274
    -2
284
     1
 64
     0
275
    -2
285
     1
 65
     0
276
    -2
286
     1
 66
     0
277
    -2
287
     1
 67
     0
278
    -2
288
     1
 68
     0
279
    -2
289
     1
 69
     0
  7
Standard
140
0.18
170
     5
 62
     0
 63
   257
283
     0
 90
        4
 91
        0
  1

274
    -2
284
     1
 64
     0
275
    -2
285
     1
 65
     0
276
    -2
286
     1
 66
     0
277
    -2
287
     1
 67
     0
278
    -2
288
     1
 68
     0
279
    -2
289
     1
 69
     0
  0
VISUALSTYLE
  5
2F
102
{ACAD_REACTORS
330
2A
102
}
330
2A
100
AcDbVisualStyle
  2
2dWireframe
 70
     4
177
     3
291
     0
 70
    58
 90
        0
176
     1
 90
        2
176
     1
 90
        0
176
     1
 90
        0
176
     1
 40
0.6
176
     1
 40
30.0
176
     1
 62
     7
420
 16777215
176
     1
 90
        1
176
     1
 90
        4
176
     1
 62
     7
176
     1
 62
   257
176
     1
 90
        1
176
     1
 90
        1
176
     1
 40
1.0
176
     1
 90
        0
176
     1
 62
   257
176
     1
 40
1.0
176
     1
 90
        1
176
     1
 90
        6
176
     1
 90
        2
176
     1
 62
     7
176
     1
 90
        5
176
     1
 90
        0
176
     1
 90
        0
176
     1
290
     0
176
     1
 90
        1
176
     1
 40
0.0
176
     1
 90
        0
176
     1
290
     1
176
     1
290
     1
176
     1
290
     0
176
     1
290
     0
176
     1
290
     0
176
     1
290
     0
176
     1
290
     0
176
     1
290
     0
176
     1
290
     0
176
     1
 90
       50
176
     1
 40
0.0
176
     1
 40
1.0
176
     1
 90
        0
176
     1
 62
    18
420
        0
176
     1
 90
       50
176
     1
 90
        3
176
     1
 62
     5
420
      255
176
     1
290
     0
176
     1
 90
       50
176
     1
 90
       50
176
     1
 90
       50
176
     1
290
     0
176
     1
 90
       50
176
     1
 62
   256
176
     0
 40
1.0
176
     0
 90
        2
176
     1
  1
strokes_ogs.tif
176
     1
290
     0
176
     1
 40
1.0
176
     1
 40
1.0
176
     1
  0
VISUALSTYLE
  5
32
102
{ACAD_REACTORS
330
2A
102
}
330
2A
100
AcDbVisualStyle
  2
Basic
 70
     7
177
     3
291
     1
 70
    58
 90
        1
176
     1
 90
        0
176
     1
 90
        1
176
     1
 90
        0
176
     1
 40
0.6
176
     1
 40
30.0
176
     1
 62
     7
420
 16777215
176
     1
 90
        0
176
     1
 90
        4
176
     1
 62
     7
176
     1
 62
   257
176
     1
 90
        1
176
     1
 90
        1
176
     1
 40
1.0
176
     1
 90
        8
176
     1
 62
     7
176
     1
 40
1.0
176
     1
 90
        1
176
     1
 90
        6
176
     1
 90
        2
176
     1
 62
     7
176
     1
 90
        5
176
     1
 90
        0
176
     1
 90
        0
176
     1
290
     0
176
     1
 90
        1
176
     1
 40
0.0
176
     1
 90
        0
176
     1
290
     0
176
     1
290
     1
176
     1
290
     1
176
     1
290
     0
176
     1
290
     0
176
     1
290
     0
176
     1
290
     0
176
     1
290
     0
176
     1
290
     0
176
     1
 90
       50
176
     1
 40
0.0
176
     1
 40
1.0
176
     1
 90
        0
176
     1
 62
    18
420
        0
176
     1
 90
       50
176
     1
 90
        3
176
     1
 62
     5
420
      255
176
     1
290
     0
176
     1
 90
       50
176
     1
 90
       50
176
     1
 90
       50
176
     1
290
     0
176
     1
 90
       50
176
     1
 62
   256
176
     0
 40
1.0
176
     0
 90
        2
176
     1
  1
strokes_ogs.tif
176
     1
290
     0
176
     1
 40
1.0
176
     1
 40
1.0
176
     1
  0
VISUALSTYLE
  5
36
102
{ACAD_REACTORS
330
2A
102
}
330
2A
100
AcDbVisualStyle
  2
Brighten
 70
    12
177
     3
291
     1
 70
    58
 90
        2
176
     1
 90
        2
176
     1
 90
        0
176
     1
 90
        0
176
     1
 40
0.6
176
     1
 40
30.0
176
     1
 62
     7
420
 16777215
176
     1
 90
        1
176
     1
 90
        4
176
     1
 62
     7
176
     1
 62
   257
176
     1
 90
        1
176
     1
 90
        1
176
     1
 40
1.0
176
     1
 90
        8
176
     1
 62
     7
176
     1
 40
1.0
176
     1
 90
        1
176
     1
 90
        6
176
     1
 90
        2
176
     1
 62
     7
176
     1
 90
        5
176
     1
 90
        0
176
     1
 90
        0
176
     1
290
     0
176
     1
 90
        1
176
     1
 40
50.0
176
     1
 90
        0
176
     1
290
     0
176
     1
290
     1
176
     1
290
     1
176
     1
290
     0
176
     1
290
     0
176
     1
290
     0
176
     1
290
     0
176
     1
290
     0
176
     1
290
     0
176
     1
 90
       50
176
     1
 40
0.0
176
     1
 40
1.0
176
     1
 90
        0
176
     1
 62
    18
420
        0
176
     1
 90
       50
176
     1
 90
        3
176
     1
 62
     5
420
      255
176
     1
290
     0
176
     1
 90
       50
176
     1
 90
       50
176
     1
 90
       50
176
     1
290
     0
176
     1
 90
       50
176
     1
 62
   256
176
     0
 40
1.0
176
     0
 90
        2
176
     1
  1
strokes_ogs.tif
176
     1
290
     0
176
     1
 40
1.0
176
     1
 40
1.0
176
     1
  0
VISUALSTYLE
  5
3A
102
{ACAD_REACTORS
330
2A
102
}
330
2A
100
AcDbVisualStyle
  2
ColorChange
 70
    16
177
     3
291
     1
 70
    58
 90
        2
176
     1
 90
        2
176
     1
 90
        3
176
     1
 90
        0
176
     1
 40
0.6
176
     1
 40
30.0
176
     1
 62
     8
420
  8421504
176
     1
 90
        1
176
     1
 90
        4
176
     1
 62
     7
176
     1
 62
   257
176
     1
 90
        1
176
     1
 90
        1
176
     1
 40
1.0
176
     1
 90
        8
176
     1
 62
     8
420
  8421504
176
     1
 40
1.0
176
     1
 90
        1
176
     1
 90
        6
176
     1
 90
        2
176
     1
 62
     7
176
     1
 90
        5
176
     1
 90
        0
176
     1
 90
        0
176
     1
290
     0
176
     1
 90
        1
176
     1
 40
0.0
176
     1
 90
        0
176
     1
290
     0
176
     1
290
     1
176
     1
290
     1
176
     1
290
     0
176
     1
290
     0
176
     1
290
     0
176
     1
290
     0
176
     1
290
     0
176
     1
290
     0
176
     1
 90
       50
176
     1
 40
0.0
176
     1
 40
1.0
176
     1
 90
        0
176
     1
 62
    18
420
        0
176
     1
 90
       50
176
     1
 90
        3
176
     1
 62
     5
420
      255
176
     1
290
     0
176
     1
 90
       50
176
     1
 90
       50
176
     1
 90
       50
176
     1
290
     0
176
     1
 90
       50
176
     1
 62
   256
176
     0
 40
1.0
176
     0
 90
        2
176
     1
  1
strokes_ogs.tif
176
     1
290
     0
176
     1
 40
1.0
176
     1
 40
1.0
176
     1
  0
VISUALSTYLE
  5
34
102
{ACAD_REACTORS
330
2A
102
}
330
2A
100
AcDbVisualStyle
  2
Conceptual
 70
     9
177
     3
291
     0
 70
    58
 90
        3
176
     1
 90
        2
176
     1
 90
        0
176
     1
 90
        0
176
     1
 40
0.6
176
     1
 40
30.0
176
     1
 62
     7
420
 16777215
176
     1
 90
        2
176
     1
 90
        2
176
     1
 62
     7
176
     1
 62
   257
176
     1
 90
        1
176
     1
 90
        1
176
     1
 40
179.0
176
     1
 90
        8
176
     1
 62
     7
176
     1
 40
1.0
176
     1
 90
        1
176
     1
 90
        6
176
     1
 90
        2
176
     1
 62
     7
176
     1
 90
        3
176
     1
 90
        0
176
     1
 90
        0
176
     1
290
     0
176
     1
 90
        1
176
     1
 40
0.0
176
     1
 90
        0
176
     1
290
     0
176
     1
290
     1
176
     1
290
     1
176
     1
290
     0
176
     1
290
     0
176
     1
290
     0
176
     1
290
     0
176
     1
290
     0
176
     1
290
     0
176
     1
 90
       50
176
     1
 40
0.0
176
     1
 40
1.0
176
     1
 90
        0
176
     1
 62
    18
420
        0
176
     1
 90
       50
176
     1
 90
        3
176
     1
 62
     5
420
      255
176
     1
290
     0
176
     1
 90
       50
176
     1
 90
       50
176
     1
 90
       50
176
     1
290
     0
176
     1
 90
       50
176
     1
 62
   256
176
     0
 40
1.0
176
     0
 90
        2
176
     1
  1
strokes_ogs.tif
176
     1
290
     0
176
     1
 40
1.0
176
     1
 40
1.0
176
     1
  0
VISUALSTYLE
  5
35
102
{ACAD_REACTORS
330
2A
102
}
330
2A
100
AcDbVisualStyle
  2
Dim
 70
    11
177
     3
291
     1
 70
    58
 90
        2
176
     1
 90
        2
176
     1
 90
        0
176
     1
 90
        0
176
     1
 40
0.6
176
     1
 40
30.0
176
     1
 62
     7
420
 16777215
176
     1
 90
        1
176
     1
 90
        4
176
     1
 62
     7
176
     1
 62
   257
176
     1
 90
        1
176
     1
 90
        1
176
     1
 40
1.0
176
     1
 90
        8
176
     1
 62
     7
176
     1
 40
1.0
176
     1
 90
        1
176
     1
 90
        6
176
     1
 90
        2
176
     1
 62
     7
176
     1
 90
        5
176
     1
 90
        0
176
     1
 90
        0
176
     1
290
     0
176
     1
 90
        1
176
     1
 40
-50.0
176
     1
 90
        0
176
     1
290
     0
176
     1
290
     1
176
     1
290
     1
176
     1
290
     0
176
     1
290
     0
176
     1
290
     0
176
     1
290
     0
176
     1
290
     0
176
     1
290
     0
176
     1
 90
       50
176
     1
 40
0.0
176
     1
 40
1.0
176
     1
 90
        0
176
     1
 62
    18
420
        0
176
     1
 90
       50
176
     1
 90
        3
176
     1
 62
     5
420
      255
176
     1
290
     0
176
     1
 90
       50
176
     1
 90
       50
176
     1
 90
       50
176
     1
290
     0
176
     1
 90
       50
176
     1
 62
   256
176
     0
 40
1.0
176
     0
 90
        2
176
     1
  1
strokes_ogs.tif
176
     1
290
     0
176
     1
 40
1.0
176
     1
 40
1.0
176
     1
  0
VISUALSTYLE
  5
3D
102
{ACAD_REACTORS
330
2A
102
}
330
2A
100
AcDbVisualStyle
  2
EdgeColorOff
 70
    22
177
     3
291
     1
 70
    58
 90
        2
176
     0
 90
        2
176
     0
 90
        0
176
     0
 90
        0
176
     0
 40
0.6
176
     0
 40
30.0
176
     0
 62
     7
420
 16777215
176
     0
 90
        1
176
     0
 90
        4
176
     0
 62
     7
176
     0
 62
   257
176
     0
 90
        1
176
     0
 90
        1
176
     0
 40
1.0
176
     0
 90
        8
176
     2
 62
     7
176
     0
 40
1.0
176
     0
 90
        1
176
     0
 90
        6
176
     0
 90
        2
176
     0
 62
     7
176
     0
 90
        5
176
     0
 90
        0
176
     0
 90
        0
176
     0
290
     0
176
     0
 90
        1
176
     0
 40
0.0
176
     0
 90
        0
176
     0
290
     0
176
     0
290
     1
176
     0
290
     1
176
     0
290
     0
176
     0
290
     0
176
     0
290
     0
176
     0
290
     0
176
     0
290
     0
176
     0
290
     0
176
     0
 90
       50
176
     0
 40
0.0
176
     0
 40
1.0
176
     0
 90
        0
176
     0
 62
    18
420
        0
176
     0
 90
       50
176
     0
 90
        3
176
     0
 62
     5
420
      255
176
     0
290
     0
176
     0
 90
       50
176
     0
 90
       50
176
     0
 90
       50
176
     0
290
     0
176
     0
 90
       50
176
     0
 62
   256
176
     0
 40
1.0
176
     0
 90
        2
176
     0
  1
strokes_ogs.tif
176
     0
290
     0
176
     0
 40
1.0
176
     0
 40
1.0
176
     0
  0
VISUALSTYLE
  5
39
102
{ACAD_REACTORS
330
2A
102
}
330
2A
100
AcDbVisualStyle
  2
Facepattern
 70
    15
177
     3
291
     1
 70
    58
 90
        2
176
     1
 90
        2
176
     1
 90
        0
176
     1
 90
        0
176
     1
 40
0.6
176
     1
 40
30.0
176
     1
 62
     7
420
 16777215
176
     1
 90
        1
176
     1
 90
        4
176
     1
 62
     7
176
     1
 62
   257
176
     1
 90
        1
176
     1
 90
        1
176
     1
 40
1.0
176
     1
 90
        8
176
     1
 62
     7
176
     1
 40
1.0
176
     1
 90
        1
176
     1
 90
        6
176
     1
 90
        2
176
     1
 62
     7
176
     1
 90
        5
176
     1
 90
        0
176
     1
 90
        0
176
     1
290
     0
176
     1
 90
        1
176
     1
 40
0.0
176
     1
 90
        0
176
     1
290
     0
176
     1
290
     1
176
     1
290
     1
176
     1
290
     0
176
     1
290
     0
176
     1
290
     0
176
     1
290
     0
176
     1
290
     0
176
     1
290
     0
176
     1
 90
       50
176
     1
 40
0.0
176
     1
 40
1.0
176
     1
 90
        0
176
     1
 62
    18
420
        0
176
     1
 90
       50
176
     1
 90
        3
176
     1
 62
     5
420
      255
176
     1
290
     0
176
     1
 90
       50
176
     1
 90
       50
176
     1
 90
       50
176
     1
290
     0
176
     1
 90
       50
176
     1
 62
   256
176
     0
 40
1.0
176
     0
 90
        2
176
     1
  1
strokes_ogs.tif
176
     1
290
     0
176
     1
 40
1.0
176
     1
 40
1.0
176
     1
  0
VISUALSTYLE
  5
2B
102
{ACAD_REACTORS
330
2A
102
}
330
2A
100
AcDbVisualStyle
  2
Flat
 70
     0
177
     3
291
     1
 70
    58
 90
        2
176
     1
 90
        1
176
     1
 90
        1
176
     1
 90
        2
176
     1
 40
0.6
176
     1
 40
30.0
176
     1
 62
     7
420
 16777215
176
     1
 90
        0
176
     1
 90
        0
176
     1
 62
     7
176
     1
 62
   257
176
     1
 90
        1
176
     1
 90
        1
176
     1
 40
1.0
176
     1
 90
        8
176
     1
 62
     7
176
     1
 40
1.0
176
     1
 90
        1
176
     1
 90
        6
176
     1
 90
        2
176
     1
 62
     7
176
     1
 90
        5
176
     1
 90
        0
176
     1
 90
        0
176
     1
290
     0
176
     1
 90
       13
176
     1
 40
0.0
176
     1
 90
        0
176
     1
290
     0
176
     1
290
     1
176
     1
290
     1
176
     1
290
     0
176
     1
290
     0
176
     1
290
     0
176
     1
290
     0
176
     1
290
     0
176
     1
290
     0
176
     1
 90
       50
176
     1
 40
0.0
176
     1
 40
1.0
176
     1
 90
        0
176
     1
 62
    18
420
        0
176
     1
 90
       50
176
     1
 90
        3
176
     1
 62
     5
420
      255
176
     1
290
     0
176
     1
 90
       50
176
     1
 90
       50
176
     1
 90
       50
176
     1
290
     0
176
     1
 90
       50
176
     1
 62
   256
176
     0
 40
1.0
176
     0
 90
        2
176
     1
  1
strokes_ogs.tif
176
     1
290
     0
176
     1
 40
1.0
176
     1
 40
1.0
176
     1
  0
VISUALSTYLE
  5
2C
102
{ACAD_REACTORS
330
2A
102
}
330
2A
100
AcDbVisualStyle
  2
FlatWithEdges
 70
     1
177
     3
291
     1
 70
    58
 90
        2
176
     1
 90
        1
176
     1
 90
        1
176
     1
 90
        2
176
     1
 40
0.6
176
     1
 40
30.0
176
     1
 62
     7
420
 16777215
176
     1
 90
        1
176
     1
 90
        0
176
     1
 62
     7
176
     1
 62
   257
176
     1
 90
        1
176
     1
 90
        1
176
     1
 40
1.0
176
     1
 90
        0
176
     1
 62
   257
176
     1
 40
1.0
176
     1
 90
        1
176
     1
 90
        6
176
     1
 90
        2
176
     1
 62
     7
176
     1
 90
        5
176
     1
 90
        0
176
     1
 90
        0
176
     1
290
     0
176
     1
 90
       13
176
     1
 40
0.0
176
     1
 90
        0
176
     1
290
     0
176
     1
290
     1
176
     1
290
     1
176
     1
290
     0
176
     1
290
     0
176
     1
290
     0
176
     1
290
     0
176
     1
290
     0
176
     1
290
     0
176
     1
 90
       50
176
     1
 40
0.0
176
     1
 40
1.0
176
     1
 90
        0
176
     1
 62
    18
420
        0
176
     1
 90
       50
176
     1
 90
        3
176
     1
 62
     5
420
      255
176
     1
290
     0
176
     1
 90
       50
176
     1
 90
       50
176
     1
 90
       50
176
     1
290
     0
176
     1
 90
       50
176
     1
 62
   256
176
     0
 40
1.0
176
     0
 90
        2
176
     1
  1
strokes_ogs.tif
176
     1
290
     0
176
     1
 40
1.0
176
     1
 40
1.0
176
     1
  0
VISUALSTYLE
  5
2D
102
{ACAD_REACTORS
330
2A
102
}
330
2A
100
AcDbVisualStyle
  2
Gouraud
 70
     2
177
     3
291
     1
 70
    58
 90
        2
176
     1
 90
        2
176
     1
 90
        1
176
     1
 90
        2
176
     1
 40
0.6
176
     1
 40
30.0
176
     1
 62
     7
420
 16777215
176
     1
 90
        0
176
     1
 90
        0
176
     1
 62
     7
176
     1
 62
   257
176
     1
 90
        1
176
     1
 90
        1
176
     1
 40
1.0
176
     1
 90
        0
176
     1
 62
     7
176
     1
 40
1.0
176
     1
 90
        1
176
     1
 90
        6
176
     1
 90
        2
176
     1
 62
     7
176
     1
 90
        5
176
     1
 90
        0
176
     1
 90
        0
176
     1
290
     0
176
     1
 90
       13
176
     1
 40
0.0
176
     1
 90
        0
176
     1
290
     0
176
     1
290
     1
176
     1
290
     1
176
     1
290
     0
176
     1
290
     0
176
     1
290
     0
176
     1
290
     0
176
     1
290
     0
176
     1
290
     0
176
     1
 90
       50
176
     1
 40
0.0
176
     1
 40
1.0
176
     1
 90
        0
176
     1
 62
    18
420
        0
176
     1
 90
       50
176
     1
 90
        3
176
     1
 62
     5
420
      255
176
     1
290
     0
176
     1
 90
       50
176
     1
 90
       50
176
     1
 90
       50
176
     1
290
     0
176
     1
 90
       50
176
     1
 62
   256
176
     0
 40
1.0
176
     0
 90
        2
176
     1
  1
strokes_ogs.tif
176
     1
290
     0
176
     1
 40
1.0
176
     1
 40
1.0
176
     1
  0
VISUALSTYLE
  5
2E
102
{ACAD_REACTORS
330
2A
102
}
330
2A
100
AcDbVisualStyle
  2
GouraudWithEdges
 70
     3
177
     3
291
     1
 70
    58
 90
        2
176
     1
 90
        2
176
     1
 90
        1
176
     1
 90
        2
176
     1
 40
0.6
176
     1
 40
30.0
176
     1
 62
     7
420
 16777215
176
     1
 90
        1
176
     1
 90
        0
176
     1
 62
     7
176
     1
 62
   257
176
     1
 90
        1
176
     1
 90
        1
176
     1
 40
1.0
176
     1
 90
        0
176
     1
 62
   257
176
     1
 40
1.0
176
     1
 90
        1
176
     1
 90
        6
176
     1
 90
        2
176
     1
 62
     7
176
     1
 90
        5
176
     1
 90
        0
176
     1
 90
        0
176
     1
290
     0
176
     1
 90
       13
176
     1
 40
0.0
176
     1
 90
        0
176
     1
290
     0
176
     1
290
     1
176
     1
290
     1
176
     1
290
     0
176
     1
290
     0
176
     1
290
     0
176
     1
290
     0
176
     1
290
     0
176
     1
290
     0
176
     1
 90
       50
176
     1
 40
0.0
176
     1
 40
1.0
176
     1
 90
        0
176
     1
 62
    18
420
        0
176
     1
 90
       50
176
     1
 90
        3
176
     1
 62
     5
420
      255
176
     1
290
     0
176
     1
 90
       50
176
     1
 90
       50
176
     1
 90
       50
176
     1
290
     0
176
     1
 90
       50
176
     1
 62
   256
176
     0
 40
1.0
176
     0
 90
        2
176
     1
  1
strokes_ogs.tif
176
     1
290
     0
176
     1
 40
1.0
176
     1
 40
1.0
176
     1
  0
VISUALSTYLE
  5
31
102
{ACAD_REACTORS
330
2A
102
}
330
2A
100
AcDbVisualStyle
  2
Hidden
 70
     6
177
     3
291
     0
 70
    58
 90
        1
176
     1
 90
        2
176
     1
 90
        2
176
     1
 90
        0
176
     1
 40
0.6
176
     1
 40
30.0
176
     1
 62
     7
420
 16777215
176
     1
 90
        2
176
     1
 90
        2
176
     1
 62
     7
176
     1
 62
   257
176
     1
 90
        2
176
     1
 90
        1
176
     1
 40
40.0
176
     1
 90
        0
176
     1
 62
   257
176
     1
 40
1.0
176
     1
 90
        1
176
     1
 90
        6
176
     1
 90
        2
176
     1
 62
     7
176
     1
 90
        3
176
     1
 90
        0
176
     1
 90
        0
176
     1
290
     0
176
     1
 90
        1
176
     1
 40
0.0
176
     1
 90
        0
176
     1
290
     0
176
     1
290
     1
176
     1
290
     1
176
     1
290
     0
176
     1
290
     0
176
     1
290
     0
176
     1
290
     0
176
     1
290
     0
176
     1
290
     0
176
     1
 90
       50
176
     1
 40
0.0
176
     1
 40
1.0
176
     1
 90
        0
176
     1
 62
    18
420
        0
176
     1
 90
       50
176
     1
 90
        3
176
     1
 62
     5
420
      255
176
     1
290
     0
176
     1
 90
       50
176
     1
 90
       50
176
     1
 90
       50
176
     1
290
     0
176
     1
 90
       50
176
     1
 62
   256
176
     0
 40
1.0
176
     0
 90
        2
176
     1
  1
strokes_ogs.tif
176
     1
290
     0
176
     1
 40
1.0
176
     1
 40
1.0
176
     1
  0
VISUALSTYLE
  5
3B
102
{ACAD_REACTORS
330
2A
102
}
330
2A
100
AcDbVisualStyle
  2
JitterOff
 70
    20
177
     3
291
     1
 70
    58
 90
        2
176
     0
 90
        2
176
     0
 90
        0
176
     0
 90
        0
176
     0
 40
0.6
176
     0
 40
30.0
176
     0
 62
     7
420
 16777215
176
     0
 90
        1
176
     0
 90
        4
176
     0
 62
     7
176
     0
 62
   257
176
     0
 90
        1
176
     0
 90
        1
176
     0
 40
1.0
176
     0
 90
       10
176
     2
 62
     7
176
     0
 40
1.0
176
     0
 90
        1
176
     0
 90
        6
176
     0
 90
        2
176
     0
 62
     7
176
     0
 90
        5
176
     0
 90
        0
176
     0
 90
        0
176
     0
290
     0
176
     0
 90
        1
176
     0
 40
0.0
176
     0
 90
        0
176
     0
290
     0
176
     0
290
     1
176
     0
290
     1
176
     0
290
     0
176
     0
290
     0
176
     0
290
     0
176
     0
290
     0
176
     0
290
     0
176
     0
290
     0
176
     0
 90
       50
176
     0
 40
0.0
176
     0
 40
1.0
176
     0
 90
        0
176
     0
 62
    18
420
        0
176
     0
 90
       50
176
     0
 90
        3
176
     0
 62
     5
420
      255
176
     0
290
     0
176
     0
 90
       50
176
     0
 90
       50
176
     0
 90
       50
176
     0
290
     0
176
     0
 90
       50
176
     0
 62
   256
176
     0
 40
1.0
176
     0
 90
        2
176
     0
  1
strokes_ogs.tif
176
     0
290
     0
176
     0
 40
1.0
176
     0
 40
1.0
176
     0
  0
VISUALSTYLE
  5
38
102
{ACAD_REACTORS
330
2A
102
}
330
2A
100
AcDbVisualStyle
  2
Linepattern
 70
    14
177
     3
291
     1
 70
    58
 90
        2
176
     1
 90
        2
176
     1
 90
        0
176
     1
 90
        0
176
     1
 40
0.6
176
     1
 40
30.0
176
     1
 62
     7
420
 16777215
176
     1
 90
        1
176
     1
 90
        4
176
     1
 62
     7
176
     1
 62
   257
176
     1
 90
        7
176
     1
 90
        7
176
     1
 40
1.0
176
     1
 90
        8
176
     1
 62
     7
176
     1
 40
1.0
176
     1
 90
        1
176
     1
 90
        6
176
     1
 90
        2
176
     1
 62
     7
176
     1
 90
        5
176
     1
 90
        0
176
     1
 90
        0
176
     1
290
     0
176
     1
 90
        1
176
     1
 40
0.0
176
     1
 90
        0
176
     1
290
     0
176
     1
290
     1
176
     1
290
     1
176
     1
290
     0
176
     1
290
     0
176
     1
290
     0
176
     1
290
     0
176
     1
290
     0
176
     1
290
     0
176
     1
 90
       50
176
     1
 40
0.0
176
     1
 40
1.0
176
     1
 90
        0
176
     1
 62
    18
420
        0
176
     1
 90
       50
176
     1
 90
        3
176
     1
 62
     5
420
      255
176
     1
290
     0
176
     1
 90
       50
176
     1
 90
       50
176
     1
 90
       50
176
     1
290
     0
176
     1
 90
       50
176
     1
 62
   256
176
     0
 40
1.0
176
     0
 90
        2
176
     1
  1
strokes_ogs.tif
176
     1
290
     0
176
     1
 40
1.0
176
     1
 40
1.0
176
     1
  0
VISUALSTYLE
  5
3C
102
{ACAD_REACTORS
330
2A
102
}
330
2A
100
AcDbVisualStyle
  2
OverhangOff
 70
    21
177
     3
291
     1
 70
    58
 90
        2
176
     0
 90
        2
176
     0
 90
        0
176
     0
 90
        0
176
     0
 40
0.6
176
     0
 40
30.0
176
     0
 62
     7
420
 16777215
176
     0
 90
        1
176
     0
 90
        4
176
     0
 62
     7
176
     0
 62
   257
176
     0
 90
        1
176
     0
 90
        1
176
     0
 40
1.0
176
     0
 90
        9
176
     2
 62
     7
176
     0
 40
1.0
176
     0
 90
        1
176
     0
 90
        6
176
     0
 90
        2
176
     0
 62
     7
176
     0
 90
        5
176
     0
 90
        0
176
     0
 90
        0
176
     0
290
     0
176
     0
 90
        1
176
     0
 40
0.0
176
     0
 90
        0
176
     0
290
     0
176
     0
290
     1
176
     0
290
     1
176
     0
290
     0
176
     0
290
     0
176
     0
290
     0
176
     0
290
     0
176
     0
290
     0
176
     0
290
     0
176
     0
 90
       50
176
     0
 40
0.0
176
     0
 40
1.0
176
     0
 90
        0
176
     0
 62
    18
420
        0
176
     0
 90
       50
176
     0
 90
        3
176
     0
 62
     5
420
      255
176
     0
290
     0
176
     0
 90
       50
176
     0
 90
       50
176
     0
 90
       50
176
     0
290
     0
176
     0
 90
       50
176
     0
 62
   256
176
     0
 40
1.0
176
     0
 90
        2
176
     0
  1
strokes_ogs.tif
176
     0
290
     0
176
     0
 40
1.0
176
     0
 40
1.0
176
     0
  0
VISUALSTYLE
  5
33
102
{ACAD_REACTORS
330
2A
102
}
330
2A
100
AcDbVisualStyle
  2
Realistic
 70
     8
177
     3
291
     0
 70
    58
 90
        2
176
     1
 90
        3
176
     1
 90
        0
176
     1
 90
        2
176
     1
 40
0.6
176
     1
 40
30.0
176
     1
 62
     7
420
 16777215
176
     1
 90
        0
176
     1
 90
        0
176
     1
 62
     7
176
     1
 62
   257
176
     1
 90
        1
176
     1
 90
        1
176
     1
 40
1.0
176
     1
 90
        8
176
     1
 62
   257
176
     1
 40
1.0
176
     1
 90
        1
176
     1
 90
        6
176
     1
 90
        2
176
     1
 62
     7
176
     1
 90
        3
176
     1
 90
        0
176
     1
 90
        0
176
     1
290
     0
176
     1
 90
       13
176
     1
 40
0.0
176
     1
 90
        0
176
     1
290
     0
176
     1
290
     1
176
     1
290
     1
176
     1
290
     0
176
     1
290
     0
176
     1
290
     0
176
     1
290
     0
176
     1
290
     0
176
     1
290
     0
176
     1
 90
       50
176
     1
 40
0.0
176
     1
 40
1.0
176
     1
 90
        0
176
     1
 62
    18
420
        0
176
     1
 90
       50
176
     1
 90
        3
176
     1
 62
     5
420
      255
176
     1
290
     0
176
     1
 90
       50
176
     1
 90
       50
176
     1
 90
       50
176
     1
290
     0
176
     1
 90
       50
176
     1
 62
   256
176
     0
 40
1.0
176
     0
 90
        2
176
     1
  1
strokes_ogs.tif
176
     1
290
     0
176
     1
 40
1.0
176
     1
 40
1.0
176
     1
  0
VISUALSTYLE
  5
42
102
{ACAD_REACTORS
330
2A
102
}
330
2A
100
AcDbVisualStyle
  2
Shaded
 70
    27
177
     3
291
     0
 70
    58
 90
        2
176
     1
 90
        2
176
     1
 90
        1
176
     1
 90
        2
176
     1
 40
0.6
176
     1
 40
30.0
176
     1
 62
     7
420
 16777215
176
     1
 90
        0
176
     1
 90
        4
176
     1
 62
     7
176
     1
 62
   257
176
     1
 90
        1
176
     1
 90
        1
176
     1
 40
1.0
176
     1
 90
        8
176
     1
 62
   257
176
     1
 40
1.0
176
     1
 90
        1
176
     1
 90
        6
176
     1
 90
        2
176
     1
 62
     8
420
  7895160
176
     1
 90
        3
176
     1
 90
        0
176
     1
 90
        0
176
     1
290
     0
176
     1
 90
        5
176
     1
 40
0.0
176
     1
 90
        0
176
     1
290
     0
176
     1
290
     1
176
     1
290
     1
176
     1
290
     0
176
     1
290
     0
176
     1
290
     0
176
     1
290
     0
176
     1
290
     0
176
     1
290
     0
176
     1
 90
       50
176
     1
 40
0.0
176
     1
 40
1.0
176
     1
 90
        0
176
     1
 62
    18
420
        0
176
     1
 90
       50
176
     1
 90
        3
176
     1
 62
     5
420
      255
176
     1
290
     0
176
     1
 90
       50
176
     1
 90
       50
176
     1
 90
       50
176
     1
290
     0
176
     1
 90
       50
176
     1
 62
   256
176
     0
 40
1.0
176
     0
 90
        2
176
     1
  1
strokes_ogs.tif
176
     1
290
     0
176
     1
 40
1.0
176
     1
 40
1.0
176
     1
  0
VISUALSTYLE
  5
41
102
{ACAD_REACTORS
330
2A
102
}
330
2A
100
AcDbVisualStyle
  2
Shaded with edges
 70
    26
177
     3
291
     0
 70
    58
 90
        2
176
     1
 90
        2
176
     1
 90
        1
176
     1
 90
        2
176
     1
 40
0.6
176
     1
 40
30.0
176
     1
 62
     7
420
 16777215
176
     1
 90
        1
176
     1
 90
       10
176
     1
 62
     7
176
     1
 62
   257
176
     1
 90
        2
176
     1
 90
        1
176
     1
 40
1.0
176
     1
 90
        8
176
     1
 62
   257
176
     1
 40
1.0
176
     1
 90
        1
176
     1
 90
        6
176
     1
 90
        2
176
     1
 62
     7
176
     1
 90
        3
176
     1
 90
        0
176
     1
 90
        0
176
     1
290
     0
176
     1
 90
        5
176
     1
 40
0.0
176
     1
 90
        0
176
     1
290
     0
176
     1
290
     1
176
     1
290
     1
176
     1
290
     0
176
     1
290
     0
176
     1
290
     0
176
     1
290
     0
176
     1
290
     0
176
     1
290
     0
176
     1
 90
       50
176
     1
 40
0.0
176
     1
 40
1.0
176
     1
 90
        0
176
     1
 62
    18
420
        0
176
     1
 90
       50
176
     1
 90
        3
176
     1
 62
     5
420
      255
176
     1
290
     0
176
     1
 90
       50
176
     1
 90
       50
176
     1
 90
       50
176
     1
290
     0
176
     1
 90
       50
176
     1
 62
   256
176
     0
 40
1.0
176
     0
 90
        2
176
     1
  1
strokes_ogs.tif
176
     1
290
     0
176
     1
 40
1.0
176
     1
 40
1.0
176
     1
  0
VISUALSTYLE
  5
3E
102
{ACAD_REACTORS
330
2A
102
}
330
2A
100
AcDbVisualStyle
  2
Shades of Gray
 70
    23
177
     3
291
     0
 70
    58
 90
        2
176
     1
 90
        2
176
     1
 90
        3
176
     1
 90
        0
176
     1
 40
0.6
176
     1
 40
30.0
176
     1
 62
     7
420
 16777215
176
     1
 90
        2
176
     1
 90
        2
176
     1
 62
     7
176
     1
 62
     7
176
     1
 90
        1
176
     1
 90
        1
176
     1
 40
40.0
176
     1
 90
        8
176
     1
 62
     7
176
     1
 40
1.0
176
     1
 90
        1
176
     1
 90
        6
176
     1
 90
        2
176
     1
 62
     7
176
     1
 90
        3
176
     1
 90
        0
176
     1
 90
        0
176
     1
290
     0
176
     1
 90
        1
176
     1
 40
0.0
176
     1
 90
        0
176
     1
290
     0
176
     1
290
     1
176
     1
290
     1
176
     1
290
     0
176
     1
290
     0
176
     1
290
     0
176
     1
290
     0
176
     1
290
     0
176
     1
290
     0
176
     1
 90
       50
176
     1
 40
0.0
176
     1
 40
1.0
176
     1
 90
        0
176
     1
 62
    18
420
        0
176
     1
 90
       50
176
     1
 90
        3
176
     1
 62
     5
420
      255
176
     1
290
     0
176
     1
 90
       50
176
     1
 90
       50
176
     1
 90
       50
176
     1
290
     0
176
     1
 90
       50
176
     1
 62
   256
176
     0
 40
1.0
176
     0
 90
        2
176
     1
  1
strokes_ogs.tif
176
     1
290
     0
176
     1
 40
1.0
176
     1
 40
1.0
176
     1
  0
VISUALSTYLE
  5
3F
102
{ACAD_REACTORS
330
2A
102
}
330
2A
100
AcDbVisualStyle
  2
Sketchy
 70
    24
177
     3
291
     0
 70
    58
 90
        1
176
     1
 90
        2
176
     1
 90
        2
176
     1
 90
        0
176
     1
 40
0.6
176
     1
 40
30.0
176
     1
 62
     7
420
 16777215
176
     1
 90
        2
176
     1
 90
        2
176
     1
 62
     7
176
     1
 62
     7
176
     1
 90
        1
176
     1
 90
        1
176
     1
 40
40.0
176
     1
 90
       11
176
     1
 62
     7
176
     1
 40
1.0
176
     1
 90
        1
176
     1
 90
        6
176
     1
 90
        2
176
     1
 62
     7
176
     1
 90
        6
176
     1
 90
        0
176
     1
 90
        0
176
     1
290
     0
176
     1
 90
        1
176
     1
 40
0.0
176
     1
 90
        0
176
     1
290
     0
176
     1
290
     1
176
     1
290
     1
176
     1
290
     0
176
     1
290
     0
176
     1
290
     0
176
     1
290
     0
176
     1
290
     0
176
     1
290
     0
176
     1
 90
       50
176
     1
 40
0.0
176
     1
 40
1.0
176
     1
 90
        0
176
     1
 62
    18
420
        0
176
     1
 90
       50
176
     1
 90
        3
176
     1
 62
     5
420
      255
176
     1
290
     0
176
     1
 90
       50
176
     1
 90
       50
176
     1
 90
       50
176
     1
290
     0
176
     1
 90
       50
176
     1
 62
   256
176
     0
 40
1.0
176
     0
 90
        2
176
     1
  1
strokes_ogs.tif
176
     1
290
     0
176
     1
 40
1.0
176
     1
 40
1.0
176
     1
  0
VISUALSTYLE
  5
37
102
{ACAD_REACTORS
330
2A
102
}
330
2A
100
AcDbVisualStyle
  2
Thicken
 70
    13
177
     3
291
     1
 70
    58
 90
        2
176
     1
 90
        2
176
     1
 90
        0
176
     1
 90
        0
176
     1
 40
0.6
176
     1
 40
30.0
176
     1
 62
     7
420
 16777215
176
     1
 90
        1
176
     1
 90
        4
176
     1
 62
     7
176
     1
 62
   257
176
     1
 90
        1
176
     1
 90
        1
176
     1
 40
1.0
176
     1
 90
       12
176
     1
 62
     7
176
     1
 40
1.0
176
     1
 90
        1
176
     1
 90
        6
176
     1
 90
        2
176
     1
 62
     7
176
     1
 90
        5
176
     1
 90
        0
176
     1
 90
        0
176
     1
290
     0
176
     1
 90
        1
176
     1
 40
0.0
176
     1
 90
        0
176
     1
290
     0
176
     1
290
     1
176
     1
290
     1
176
     1
290
     0
176
     1
290
     0
176
     1
290
     0
176
     1
290
     0
176
     1
290
     0
176
     1
290
     0
176
     1
 90
       50
176
     1
 40
0.0
176
     1
 40
1.0
176
     1
 90
        0
176
     1
 62
    18
420
        0
176
     1
 90
       50
176
     1
 90
        3
176
     1
 62
     5
420
      255
176
     1
290
     0
176
     1
 90
       50
176
     1
 90
       50
176
     1
 90
       50
176
     1
290
     0
176
     1
 90
       50
176
     1
 62
   256
176
     0
 40
1.0
176
     0
 90
        2
176
     1
  1
strokes_ogs.tif
176
     1
290
     0
176
     1
 40
1.0
176
     1
 40
1.0
176
     1
  0
VISUALSTYLE
  5
30
102
{ACAD_REACTORS
330
2A
102
}
330
2A
100
AcDbVisualStyle
  2
Wireframe
 70
     5
177
     3
291
     0
 70
    58
 90
        0
176
     1
 90
        2
176
     1
 90
        0
176
     1
 90
        0
176
     1
 40
0.6
176
     1
 40
30.0
176
     1
 62
     7
420
 16777215
176
     1
 90
        1
176
     1
 90
        4
176
     1
 62
     7
176
     1
 62
   257
176
     1
 90
        1
176
     1
 90
        1
176
     1
 40
1.0
176
     1
 90
        0
176
     1
 62
   257
176
     1
 40
1.0
176
     1
 90
        1
176
     1
 90
        6
176
     1
 90
        2
176
     1
 62
     7
176
     1
 90
        3
176
     1
 90
        0
176
     1
 90
        0
176
     1
290
     0
176
     1
 90
        1
176
     1
 40
0.0
176
     1
 90
        0
176
     1
290
     0
176
     1
290
     1
176
     1
290
     1
176
     1
290
     0
176
     1
290
     0
176
     1
290
     0
176
     1
290
     0
176
     1
290
     0
176
     1
290
     0
176
     1
 90
       50
176
     1
 40
0.0
176
     1
 40
1.0
176
     1
 90
        0
176
     1
 62
    18
420
        0
176
     1
 90
       50
176
     1
 90
        3
176
     1
 62
     5
420
      255
176
     1
290
     0
176
     1
 90
       50
176
     1
 90
       50
176
     1
 90
       50
176
     1
290
     0
176
     1
 90
       50
176
     1
 62
   256
176
     0
 40
1.0
176
     0
 90
        2
176
     1
  1
strokes_ogs.tif
176
     1
290
     0
176
     1
 40
1.0
176
     1
 40
1.0
176
     1
  0
VISUALSTYLE
  5
40
102
{ACAD_REACTORS
330
2A
102
}
330
2A
100
AcDbVisualStyle
  2
X-Ray
 70
    25
177
     3
291
     0
 70
    58
 90
        2
176
     1
 90
        2
176
     1
 90
        1
176
     1
 90
        1
176
     1
 40
0.5
176
     1
 40
30.0
176
     1
 62
     7
420
 16777215
176
     1
 90
        1
176
     1
 90
        0
176
     1
 62
     7
176
     1
 62
   257
176
     1
 90
        1
176
     1
 90
        1
176
     1
 40
1.0
176
     1
 90
        8
176
     1
 62
     7
176
     1
 40
1.0
176
     1
 90
        1
176
     1
 90
        6
176
     1
 90
        2
176
     1
 62
     7
176
     1
 90
        3
176
     1
 90
        0
176
     1
 90
        0
176
     1
290
     0
176
     1
 90
       13
176
     1
 40
0.0
176
     1
 90
        0
176
     1
290
     0
176
     1
290
     1
176
     1
290
     1
176
     1
290
     0
176
     1
290
     0
176
     1
290
     0
176
     1
290
     0
176
     1
290
     0
176
     1
290
     0
176
     1
 90
       50
176
     1
 40
0.0
176
     1
 40
1.0
176
     1
 90
        0
176
     1
 62
    18
420
        0
176
     1
 90
       50
176
     1
 90
        3
176
     1
 62
     5
420
      255
176
     1
290
     0
176
     1
 90
       50
176
     1
 90
       50
176
     1
 90
       50
176
     1
290
     0
176
     1
 90
       50
176
     1
 62
   256
176
     0
 40
1.0
176
     0
 90
        2
176
     1
  1
strokes_ogs.tif
176
     1
290
     0
176
     1
 40
1.0
176
     1
 40
1.0
176
     1
  0
DICTIONARYVAR
  5
191
102
{ACAD_REACTORS
330
190
102
}
330
190
100
DictionaryVariables
280
     0
  1
1:1
  0
DICTIONARYVAR
  5
196
102
{ACAD_REACTORS
330
190
102
}
330
190
100
DictionaryVariables
280
     0
  1
Standard
  0
DICTIONARYVAR
  5
195
102
{ACAD_REACTORS
330
190
102
}
330
190
100
DictionaryVariables
280
     0
  1
Standard
  0
DICTIONARY
  5
192
330
6A
100
AcDbDictionary
280
     1
281
     1
  3
ACAD_ROUNDTRIP_2008_TABLESTYLE_CELLSTYLEMAP
360
193
  0
CELLSTYLEMAP
  5
193
102
{ACAD_REACTORS
330
192
102
}
330
192
100
AcDbCellStyleMap
 90
        3
300
CELLSTYLE
  1
TABLEFORMAT_BEGIN
 90
        5
170
     1
 91
        0
 92
    32768
 62
   257
 93
        1
300
CONTENTFORMAT
  1
CONTENTFORMAT_BEGIN
 90
        0
 91
        0
 92
        4
 93
        0
300

 40
0.0
140
1.0
 94
        5
 62
     0
340
11
144
0.25
309
CONTENTFORMAT_END
171
     1
301
MARGIN
  1
CELLMARGIN_BEGIN
 40
0.06
 40
0.06
 40
0.06
 40
0.06
 40
0.06
 40
0.06
309
CELLMARGIN_END
 94
        6
 95
        1
302
GRIDFORMAT
  1
GRIDFORMAT_BEGIN
 90
        0
 91
        1
 62
     0
 92
       -2
340
14
 93
        0
 40
0.045
309
GRIDFORMAT_END
 95
        2
302
GRIDFORMAT
  1
GRIDFORMAT_BEGIN
 90
        0
 91
        1
 62
     0
 92
       -2
340
14
 93
        0
 40
0.045
309
GRIDFORMAT_END
 95
        4
302
GRIDFORMAT
  1
GRIDFORMAT_BEGIN
 90
        0
 91
        1
 62
     0
 92
       -2
340
14
 93
        0
 40
0.045
309
GRIDFORMAT_END
 95
        8
302
GRIDFORMAT
  1
GRIDFORMAT_BEGIN
 90
        0
 91
        1
 62
     0
 92
       -2
340
14
 93
        0
 40
0.045
309
GRIDFORMAT_END
 95
       16
302
GRIDFORMAT
  1
GRIDFORMAT_BEGIN
 90
        0
 91
        1
 62
     0
 92
       -2
340
14
 93
        0
 40
0.045
309
GRIDFORMAT_END
 95
       32
302
GRIDFORMAT
  1
GRIDFORMAT_BEGIN
 90
        0
 91
        1
 62
     0
 92
       -2
340
14
 93
        0
 40
0.045
309
GRIDFORMAT_END
309
TABLEFORMAT_END
  1
CELLSTYLE_BEGIN
 90
        1
 91
        1
300
_TITLE
309
CELLSTYLE_END
300
CELLSTYLE
  1
TABLEFORMAT_BEGIN
 90
        5
170
     1
 91
        0
 92
        0
 62
   257
 93
        1
300
CONTENTFORMAT
  1
CONTENTFORMAT_BEGIN
 90
        0
 91
        0
 92
        4
 93
        0
300

 40
0.0
140
1.0
 94
        5
 62
     0
340
11
144
0.18
309
CONTENTFORMAT_END
171
     1
301
MARGIN
  1
CELLMARGIN_BEGIN
 40
0.06
 40
0.06
 40
0.06
 40
0.06
 40
0.06
 40
0.06
309
CELLMARGIN_END
 94
        6
 95
        1
302
GRIDFORMAT
  1
GRIDFORMAT_BEGIN
 90
        0
 91
        1
 62
     0
 92
       -2
340
14
 93
        0
 40
0.045
309
GRIDFORMAT_END
 95
        2
302
GRIDFORMAT
  1
GRIDFORMAT_BEGIN
 90
        0
 91
        1
 62
     0
 92
       -2
340
14
 93
        0
 40
0.045
309
GRIDFORMAT_END
 95
        4
302
GRIDFORMAT
  1
GRIDFORMAT_BEGIN
 90
        0
 91
        1
 62
     0
 92
       -2
340
14
 93
        0
 40
0.045
309
GRIDFORMAT_END
 95
        8
302
GRIDFORMAT
  1
GRIDFORMAT_BEGIN
 90
        0
 91
        1
 62
     0
 92
       -2
340
14
 93
        0
 40
0.045
309
GRIDFORMAT_END
 95
       16
302
GRIDFORMAT
  1
GRIDFORMAT_BEGIN
 90
        0
 91
        1
 62
     0
 92
       -2
340
14
 93
        0
 40
0.045
309
GRIDFORMAT_END
 95
       32
302
GRIDFORMAT
  1
GRIDFORMAT_BEGIN
 90
        0
 91
        1
 62
     0
 92
       -2
340
14
 93
        0
 40
0.045
309
GRIDFORMAT_END
309
TABLEFORMAT_END
  1
CELLSTYLE_BEGIN
 90
        2
 91
        1
300
_HEADER
309
CELLSTYLE_END
300
CELLSTYLE
  1
TABLEFORMAT_BEGIN
 90
        5
170
     1
 91
        0
 92
        0
 62
   257
 93
        1
300
CONTENTFORMAT
  1
CONTENTFORMAT_BEGIN
 90
        0
 91
        0
 92
        4
 93
        0
300

 40
0.0
140
1.0
 94
        2
 62
     0
340
11
144
0.18
309
CONTENTFORMAT_END
171
     1
301
MARGIN
  1
CELLMARGIN_BEGIN
 40
0.06
 40
0.06
 40
0.06
 40
0.06
 40
0.06
 40
0.06
309
CELLMARGIN_END
 94
        6
 95
        1
302
GRIDFORMAT
  1
GRIDFORMAT_BEGIN
 90
        0
 91
        1
 62
     0
 92
       -2
340
14
 93
        0
 40
0.045
309
GRIDFORMAT_END
 95
        2
302
GRIDFORMAT
  1
GRIDFORMAT_BEGIN
 90
        0
 91
        1
 62
     0
 92
       -2
340
14
 93
        0
 40
0.045
309
GRIDFORMAT_END
 95
        4
302
GRIDFORMAT
  1
GRIDFORMAT_BEGIN
 90
        0
 91
        1
 62
     0
 92
       -2
340
14
 93
        0
 40
0.045
309
GRIDFORMAT_END
 95
        8
302
GRIDFORMAT
  1
GRIDFORMAT_BEGIN
 90
        0
 91
        1
 62
     0
 92
       -2
340
14
 93
        0
 40
0.045
309
GRIDFORMAT_END
 95
       16
302
GRIDFORMAT
  1
GRIDFORMAT_BEGIN
 90
        0
 91
        1
 62
     0
 92
       -2
340
14
 93
        0
 40
0.045
309
GRIDFORMAT_END
 95
       32
302
GRIDFORMAT
  1
GRIDFORMAT_BEGIN
 90
        0
 91
        1
 62
     0
 92
       -2
340
14
 93
        0
 40
0.045
309
GRIDFORMAT_END
309
TABLEFORMAT_END
  1
CELLSTYLE_BEGIN
 90
        3
 91
        2
300
_DATA
309
CELLSTYLE_END
  0
ENDSEC
  0
EOF