0
SECTION
  2
HEADER
  9
$ACADVER
  1
AC1027
  9
$ACADMAINTVER
 70
     8
  9
$DWGCODEPAGE
  3
ANSI_1252
  9
$REQUIREDVERSIONS
160
                 0
  9
$COMMENTS
  1
File was created by Cadenas
  9
$CUSTOMPROPERTYTAG
  1
NN
  9
$CUSTOMPROPERTY
  1
Set Screw Flange Bracket Inch Bore - Polymer Housing, Corrosion Resistant Insert
  9
$CUSTOMPROPERTYTAG
  1
NT
  9
$CUSTOMPROPERTY
  1
SC 3 Bolt Flange Bearings -(Normal Duty) -Polymer Housed -Corrosion Resistant Insert -E-Z KLEEN
  9
$CUSTOMPROPERTYTAG
  1
NB
  9
$CUSTOMPROPERTY
  1
127534
  9
$CUSTOMPROPERTYTAG
  1
NBSYN
  9
$CUSTOMPROPERTY
  1
$PN.
  9
$CUSTOMPROPERTYTAG
  1
LINA
  9
$CUSTOMPROPERTY
  1
127534
  9
$CUSTOMPROPERTYTAG
  1
SERIES
  9
$CUSTOMPROPERTY
  1
205
  9
$CUSTOMPROPERTYTAG
  1
SS
  9
$CUSTOMPROPERTY
  1
1
  9
$CUSTOMPROPERTYTAG
  1
PN
  9
$CUSTOMPROPERTY
  1
127534
  9
$CUSTOMPROPERTYTAG
  1
DESCRIPTION
  9
$CUSTOMPROPERTY
  1
FB-SCEZ-100-PCR
  9
$CUSTOMPROPERTYTAG
  1
WEIGHT
  9
$CUSTOMPROPERTY
  1
0.69
  9
$CUSTOMPROPERTYTAG
  1
A
  9
$CUSTOMPROPERTY
  1
1.34
  9
$CUSTOMPROPERTYTAG
  1
B
  9
$CUSTOMPROPERTY
  1
4.91
  9
$CUSTOMPROPERTYTAG
  1
C
  9
$CUSTOMPROPERTY
  1
1.50
  9
$CUSTOMPROPERTYTAG
  1
D
  9
$CUSTOMPROPERTY
  1
1.63
  9
$CUSTOMPROPERTYTAG
  1
E
  9
$CUSTOMPROPERTY
  1
1.81
  9
$CUSTOMPROPERTYTAG
  1
F
  9
$CUSTOMPROPERTY
  1
3/8
  9
$CUSTOMPROPERTYTAG
  1
G
  9
$CUSTOMPROPERTY
  1
1.13
  9
$CUSTOMPROPERTYTAG
  1
H
  9
$CUSTOMPROPERTY
  1
0.54
  9
$CUSTOMPROPERTYTAG
  1
I
  9
$CUSTOMPROPERTY
  1
3.56
  9
$CUSTOMPROPERTYTAG
  1
J
  9
$CUSTOMPROPERTY
  1
2.71
  9
$CUSTOMPROPERTYTAG
  1
K
  9
$CUSTOMPROPERTY
  1
1.14
  9
$CUSTOMPROPERTYTAG
  1
L
  9
$CUSTOMPROPERTY
  1
1.32
  9
$CUSTOMPROPERTYTAG
  1
COMPANY
  9
$CUSTOMPROPERTY
  1
baldor
  9
$INSBASE
 10
0.0
 20
0.0
 30
0.0
  9
$EXTMIN
 10
1.000000000000000E+20
 20
1.000000000000000E+20
 30
1.000000000000000E+20
  9
$EXTMAX
 10
-1.000000000000000E+20
 20
-1.000000000000000E+20
 30
-1.000000000000000E+20
  9
$LIMMIN
 10
0.0
 20
0.0
  9
$LIMMAX
 10
12.0
 20
9.0
  9
$ORTHOMODE
 70
     0
  9
$REGENMODE
 70
     1
  9
$FILLMODE
 70
     1
  9
$QTEXTMODE
 70
     0
  9
$MIRRTEXT
 70
     1
  9
$LTSCALE
 40
1.0
  9
$ATTMODE
 70
     1
  9
$TEXTSIZE
 40
0.2
  9
$TRACEWID
 40
0.05
  9
$TEXTSTYLE
  7
Standard
  9
$CLAYER
  8
0
  9
$CELTYPE
  6
ByLayer
  9
$CECOLOR
 62
   256
  9
$CELTSCALE
 40
1.0
  9
$DISPSILH
 70
     0
  9
$DIMSCALE
 40
1.0
  9
$DIMASZ
 40
0.18
  9
$DIMEXO
 40
0.0625
  9
$DIMDLI
 40
0.38
  9
$DIMRND
 40
0.0
  9
$DIMDLE
 40
0.0
  9
$DIMEXE
 40
0.18
  9
$DIMTP
 40
0.0
  9
$DIMTM
 40
0.0
  9
$DIMTXT
 40
0.18
  9
$DIMCEN
 40
0.09
  9
$DIMTSZ
 40
0.0
  9
$DIMTOL
 70
     0
  9
$DIMLIM
 70
     0
  9
$DIMTIH
 70
     1
  9
$DIMTOH
 70
     1
  9
$DIMSE1
 70
     0
  9
$DIMSE2
 70
     0
  9
$DIMTAD
 70
     0
  9
$DIMZIN
 70
     0
  9
$DIMBLK
  1

  9
$DIMASO
 70
     1
  9
$DIMSHO
 70
     1
  9
$DIMPOST
  1

  9
$DIMAPOST
  1

  9
$DIMALT
 70
     0
  9
$DIMALTD
 70
     2
  9
$DIMALTF
 40
25.4
  9
$DIMLFAC
 40
1.0
  9
$DIMTOFL
 70
     0
  9
$DIMTVP
 40
0.0
  9
$DIMTIX
 70
     0
  9
$DIMSOXD
 70
     0
  9
$DIMSAH
 70
     0
  9
$DIMBLK1
  1

  9
$DIMBLK2
  1

  9
$DIMSTYLE
  2
Standard
  9
$DIMCLRD
 70
     0
  9
$DIMCLRE
 70
     0
  9
$DIMCLRT
 70
     0
  9
$DIMTFAC
 40
1.0
  9
$DIMGAP
 40
0.09
  9
$DIMJUST
 70
     0
  9
$DIMSD1
 70
     0
  9
$DIMSD2
 70
     0
  9
$DIMTOLJ
 70
     1
  9
$DIMTZIN
 70
     0
  9
$DIMALTZ
 70
     0
  9
$DIMALTTZ
 70
     0
  9
$DIMUPT
 70
     0
  9
$DIMDEC
 70
     4
  9
$DIMTDEC
 70
     4
  9
$DIMALTU
 70
     2
  9
$DIMALTTD
 70
     2
  9
$DIMTXSTY
  7
Standard
  9
$DIMAUNIT
 70
     0
  9
$DIMADEC
 70
     0
  9
$DIMALTRND
 40
0.0
  9
$DIMAZIN
 70
     0
  9
$DIMDSEP
 70
    46
  9
$DIMATFIT
 70
     3
  9
$DIMFRAC
 70
     0
  9
$DIMLDRBLK
  1

  9
$DIMLUNIT
 70
     2
  9
$DIMLWD
 70
    -2
  9
$DIMLWE
 70
    -2
  9
$DIMTMOVE
 70
     0
  9
$DIMFXL
 40
1.0
  9
$DIMFXLON
 70
     0
  9
$DIMJOGANG
 40
0.7853981633974483
  9
$DIMTFILL
 70
     0
  9
$DIMTFILLCLR
 70
     0
  9
$DIMARCSYM
 70
     0
  9
$DIMLTYPE
  6

  9
$DIMLTEX1
  6

  9
$DIMLTEX2
  6

  9
$DIMTXTDIRECTION
 70
     0
  9
$LUNITS
 70
     2
  9
$LUPREC
 70
     4
  9
$SKETCHINC
 40
0.1
  9
$FILLETRAD
 40
0.5
  9
$AUNITS
 70
     0
  9
$AUPREC
 70
     0
  9
$MENU
  1
.
  9
$ELEVATION
 40
0.0
  9
$PELEVATION
 40
0.0
  9
$THICKNESS
 40
0.0
  9
$LIMCHECK
 70
     0
  9
$CHAMFERA
 40
0.0
  9
$CHAMFERB
 40
0.0
  9
$CHAMFERC
 40
0.0
  9
$CHAMFERD
 40
0.0
  9
$SKPOLY
 70
     0
  9
$TDCREATE
 40
2458168.997612442
  9
$TDUCREATE
 40
2458168.955945775
  9
$TDUPDATE
 40
2458168.997612616
  9
$TDUUPDATE
 40
2458168.955945949
  9
$TDINDWG
 40
0.0000000116
  9
$TDUSRTIMER
 40
0.0000000116
  9
$USRTIMER
 70
     1
  9
$ANGBASE
 50
0.0
  9
$ANGDIR
 70
     0
  9
$PDMODE
 70
     0
  9
$PDSIZE
 40
0.0
  9
$PLINEWID
 40
0.0
  9
$SPLFRAME
 70
     0
  9
$SPLINETYPE
 70
     6
  9
$SPLINESEGS
 70
     8
  9
$HANDSEED
  5
19D
  9
$SURFTAB1
 70
     6
  9
$SURFTAB2
 70
     6
  9
$SURFTYPE
 70
     6
  9
$SURFU
 70
     6
  9
$SURFV
 70
     6
  9
$UCSBASE
  2

  9
$UCSNAME
  2

  9
$UCSORG
 10
0.0
 20
0.0
 30
0.0
  9
$UCSXDIR
 10
1.0
 20
0.0
 30
0.0
  9
$UCSYDIR
 10
0.0
 20
1.0
 30
0.0
  9
$UCSORTHOREF
  2

  9
$UCSORTHOVIEW
 70
     0
  9
$UCSORGTOP
 10
0.0
 20
0.0
 30
0.0
  9
$UCSORGBOTTOM
 10
0.0
 20
0.0
 30
0.0
  9
$UCSORGLEFT
 10
0.0
 20
0.0
 30
0.0
  9
$UCSORGRIGHT
 10
0.0
 20
0.0
 30
0.0
  9
$UCSORGFRONT
 10
0.0
 20
0.0
 30
0.0
  9
$UCSORGBACK
 10
0.0
 20
0.0
 30
0.0
  9
$PUCSBASE
  2

  9
$PUCSNAME
  2

  9
$PUCSORG
 10
0.0
 20
0.0
 30
0.0
  9
$PUCSXDIR
 10
1.0
 20
0.0
 30
0.0
  9
$PUCSYDIR
 10
0.0
 20
1.0
 30
0.0
  9
$PUCSORTHOREF
  2

  9
$PUCSORTHOVIEW
 70
     0
  9
$PUCSORGTOP
 10
0.0
 20
0.0
 30
0.0
  9
$PUCSORGBOTTOM
 10
0.0
 20
0.0
 30
0.0
  9
$PUCSORGLEFT
 10
0.0
 20
0.0
 30
0.0
  9
$PUCSORGRIGHT
 10
0.0
 20
0.0
 30
0.0
  9
$PUCSORGFRONT
 10
0.0
 20
0.0
 30
0.0
  9
$PUCSORGBACK
 10
0.0
 20
0.0
 30
0.0
  9
$USERI1
 70
     0
  9
$USERI2
 70
     0
  9
$USERI3
 70
     0
  9
$USERI4
 70
     0
  9
$USERI5
 70
     0
  9
$USERR1
 40
0.0
  9
$USERR2
 40
0.0
  9
$USERR3
 40
0.0
  9
$USERR4
 40
0.0
  9
$USERR5
 40
0.0
  9
$WORLDVIEW
 70
     1
  9
$SHADEDGE
 70
     3
  9
$SHADEDIF
 70
    70
  9
$TILEMODE
 70
     1
  9
$MAXACTVP
 70
    64
  9
$PINSBASE
 10
0.0
 20
0.0
 30
0.0
  9
$PLIMCHECK
 70
     0
  9
$PEXTMIN
 10
1.000000000000000E+20
 20
1.000000000000000E+20
 30
1.000000000000000E+20
  9
$PEXTMAX
 10
-1.000000000000000E+20
 20
-1.000000000000000E+20
 30
-1.000000000000000E+20
  9
$PLIMMIN
 10
0.0
 20
0.0
  9
$PLIMMAX
 10
12.0
 20
9.0
  9
$UNITMODE
 70
     0
  9
$VISRETAIN
 70
     1
  9
$PLINEGEN
 70
     0
  9
$PSLTSCALE
 70
     1
  9
$TREEDEPTH
 70
  3020
  9
$CMLSTYLE
  2
Standard
  9
$CMLJUST
 70
     0
  9
$CMLSCALE
 40
1.0
  9
$PROXYGRAPHICS
 70
     1
  9
$MEASUREMENT
 70
     0
  9
$CELWEIGHT
370
    -1
  9
$ENDCAPS
280
     0
  9
$JOINSTYLE
280
     0
  9
$LWDISPLAY
290
     0
  9
$INSUNITS
 70
     1
  9
$HYPERLINKBASE
  1

  9
$STYLESHEET
  1

  9
$XEDIT
290
     1
  9
$CEPSNTYPE
380
     0
  9
$PSTYLEMODE
290
     1
  9
$FINGERPRINTGUID
  2
{EDE8EFEC-354F-40B9-9EAE-28EE45C0F571}
  9
$VERSIONGUID
  2
{FAEB1C32-E019-11D5-929B-00C0DF256EC4}
  9
$EXTNAMES
290
     1
  9
$PSVPSCALE
 40
0.0
  9
$OLESTARTUP
290
     0
  9
$SORTENTS
280
   127
  9
$INDEXCTL
280
     0
  9
$HIDETEXT
280
     1
  9
$XCLIPFRAME
280
     2
  9
$HALOGAP
280
     0
  9
$OBSCOLOR
 70
   257
  9
$OBSLTYPE
280
     0
  9
$INTERSECTIONDISPLAY
280
     0
  9
$INTERSECTIONCOLOR
 70
   257
  9
$DIMASSOC
280
     2
  9
$PROJECTNAME
  1

  9
$CAMERADISPLAY
290
     0
  9
$LENSLENGTH
 40
50.0
  9
$CAMERAHEIGHT
 40
0.0
  9
$STEPSPERSEC
 40
2.0
  9
$STEPSIZE
 40
6.0
  9
$3DDWFPREC
 40
2.0
  9
$PSOLWIDTH
 40
0.25
  9
$PSOLHEIGHT
 40
4.0
  9
$LOFTANG1
 40
1.570796326794897
  9
$LOFTANG2
 40
1.570796326794897
  9
$LOFTMAG1
 40
0.0
  9
$LOFTMAG2
 40
0.0
  9
$LOFTPARAM
 70
     7
  9
$LOFTNORMALS
280
     1
  9
$LATITUDE
 40
37.795
  9
$LONGITUDE
 40
-122.394
  9
$NORTHDIRECTION
 40
0.0
  9
$TIMEZONE
 70
 -8000
  9
$LIGHTGLYPHDISPLAY
280
     1
  9
$TILEMODELIGHTSYNCH
280
     1
  9
$CMATERIAL
347
44
  9
$SOLIDHIST
280
     0
  9
$SHOWHIST
280
     1
  9
$DWFFRAME
280
     2
  9
$DGNFRAME
280
     2
  9
$REALWORLDSCALE
290
     1
  9
$INTERFERECOLOR
 62
   256
  9
$CSHADOW
280
     0
  9
$SHADOWPLANELOCATION
 40
0.0
  0
ENDSEC
  0
SECTION
  2
CLASSES
  0
CLASS
  1
ACDBDICTIONARYWDFLT
  2
AcDbDictionaryWithDefault
  3
ObjectDBX Classes
 90
        0
 91
        4
280
     0
281
     0
  0
CLASS
  1
VISUALSTYLE
  2
AcDbVisualStyle
  3
ObjectDBX Classes
 90
     4095
 91
        4
280
     0
281
     0
  0
CLASS
  1
MATERIAL
  2
AcDbMaterial
  3
ObjectDBX Classes
 90
     1153
 91
        4
280
     0
281
     0
  0
CLASS
  1
SCALE
  2
AcDbScale
  3
ObjectDBX Classes
 90
     1153
 91
        4
280
     0
281
     0
  0
CLASS
  1
TABLESTYLE
  2
AcDbTableStyle
  3
ObjectDBX Classes
 90
     4095
 91
        4
280
     0
281
     0
  0
CLASS
  1
MLEADERSTYLE
  2
AcDbMLeaderStyle
  3
ACDB_MLEADERSTYLE_CLASS
 90
     4095
 91
        4
280
     0
281
     0
  0
CLASS
  1
SUN
  2
AcDbSun
  3
SCENEOE
 90
     1153
 91
        4
280
     0
281
     0
  0
CLASS
  1
DICTIONARYVAR
  2
AcDbDictionaryVar
  3
ObjectDBX Classes
 90
        0
 91
        4
280
     0
281
     0
  0
CLASS
  1
CELLSTYLEMAP
  2
AcDbCellStyleMap
  3
ObjectDBX Classes
 90
     1152
 91
        4
280
     0
281
     0
  0
ENDSEC
  0
SECTION
  2
TABLES
  0
TABLE
  2
VPORT
  5
8
330
0
100
AcDbSymbolTable
 70
     1
  0
VPORT
  5
29
330
8
100
AcDbSymbolTableRecord
100
AcDbViewportTableRecord
  2
*Active
 70
     0
 10
0.0
 20
0.0
 11
1.0
 21
1.0
 12
0.0
 22
-0.7549999999999999
 13
0.0
 23
0.0
 14
0.5
 24
0.5
 15
0.5
 25
0.5
 16
0.0
 26
0.0
 36
1.0
 17
0.0
 27
0.0
 37
0.0
 40
1.656480000000001
 41
1.66871921182266
 42
50.0
 43
0.0
 44
0.0
 50
0.0
 51
0.0
 71
     0
 72
   100
 73
     1
 74
     3
 75
     0
 76
     0
 77
     0
 78
     0
281
     0
 65
     1
110
0.0
120
0.0
130
0.0
111
1.0
121
0.0
131
0.0
112
0.0
122
1.0
132
0.0
 79
     0
146
0.0
348
2F
 60
     3
 61
     5
292
     1
282
     1
141
0.0
142
0.0
 63
   250
361
6D
  0
ENDTAB
  0
TABLE
  2
LTYPE
  5
5
330
0
100
AcDbSymbolTable
 70
     3
  0
LTYPE
  5
14
330
5
100
AcDbSymbolTableRecord
100
AcDbLinetypeTableRecord
  2
ByBlock
 70
     0
  3

 72
    65
 73
     0
 40
0.0
  0
LTYPE
  5
15
330
5
100
AcDbSymbolTableRecord
100
AcDbLinetypeTableRecord
  2
ByLayer
 70
     0
  3

 72
    65
 73
     0
 40
0.0
  0
LTYPE
  5
16
330
5
100
AcDbSymbolTableRecord
100
AcDbLinetypeTableRecord
  2
Continuous
 70
     0
  3
Solid line
 72
    65
 73
     0
 40
0.0
  0
LTYPE
  5
9C
330
5
100
AcDbSymbolTableRecord
100
AcDbLinetypeTableRecord
  2
Dashed
 70
     0
  3

 72
    65
 73
     2
 40
2.0
 49
1.0
 74
     0
 49
-1.0
 74
     0
  0
LTYPE
  5
181
330
5
100
AcDbSymbolTableRecord
100
AcDbLinetypeTableRecord
  2
Center
 70
     0
  3

 72
    65
 73
     4
 40
1.5
 49
0.45
 74
     0
 49
-0.5
 74
     0
 49
0.05
 74
     0
 49
-0.5
 74
     0
  0
ENDTAB
  0
TABLE
  2
LAYER
  5
2
330
0
100
AcDbSymbolTable
 70
     6
  0
LAYER
  5
10
330
2
100
AcDbSymbolTableRecord
100
AcDbLayerTableRecord
  2
0
 70
     0
 62
     7
  6
Continuous
370
    -3
390
F
347
46
348
0
  0
LAYER
  5
72
330
2
100
AcDbSymbolTableRecord
100
AcDbLayerTableRecord
  2
AM_6
 70
     0
 62
    -2
  6
Continuous
370
    35
390
F
347
46
348
0
  0
LAYER
  5
9D
330
2
100
AcDbSymbolTableRecord
100
AcDbLayerTableRecord
  2
AM_9
 70
     0
 62
     6
  6
Dashed
370
    25
390
F
347
46
348
0
  0
LAYER
  5
BA
330
2
100
AcDbSymbolTableRecord
100
AcDbLayerTableRecord
  2
AM_4
 70
     0
 62
     7
  6
Continuous
370
    50
390
F
347
46
348
0
  0
LAYER
  5
182
330
2
100
AcDbSymbolTableRecord
100
AcDbLayerTableRecord
  2
AM_7
 70
     0
 62
     7
  6
Center
370
    25
390
F
347
46
348
0
  0
LAYER
  5
18F
330
2
100
AcDbSymbolTableRecord
100
AcDbLayerTableRecord
  2
ConnectionPoints
 70
     0
 62
     7
  6
Continuous
370
    50
390
F
347
46
348
0
  0
ENDTAB
  0
TABLE
  2
STYLE
  5
3
330
0
100
AcDbSymbolTable
 70
     1
  0
STYLE
  5
11
330
3
100
AcDbSymbolTableRecord
100
AcDbTextStyleTableRecord
  2
Standard
 70
     0
 40
0.0
 41
1.0
 50
0.0
 71
     0
 42
0.2
  3
txt
  4

  0
ENDTAB
  0
TABLE
  2
VIEW
  5
6
330
0
100
AcDbSymbolTable
 70
     0
  0
ENDTAB
  0
TABLE
  2
UCS
  5
7
330
0
100
AcDbSymbolTable
 70
     0
  0
ENDTAB
  0
TABLE
  2
APPID
  5
9
330
0
100
AcDbSymbolTable
 70
     1
  0
APPID
  5
12
330
9
100
AcDbSymbolTableRecord
100
AcDbRegAppTableRecord
  2
ACAD
 70
     0
  0
ENDTAB
  0
TABLE
  2
DIMSTYLE
  5
A
330
0
100
AcDbSymbolTable
 70
     1
100
AcDbDimStyleTable
  0
DIMSTYLE
105
27
330
A
100
AcDbSymbolTableRecord
100
AcDbDimStyleTableRecord
  2
Standard
 70
     0
178
     0
340
11
  0
ENDTAB
  0
TABLE
  2
BLOCK_RECORD
  5
1
330
0
100
AcDbSymbolTable
 70
     5
  0
BLOCK_RECORD
  5
1F
330
1
100
AcDbSymbolTableRecord
100
AcDbBlockTableRecord
  2
*Model_Space
340
22
 70
     0
280
     1
281
     0
  0
BLOCK_RECORD
  5
1B
330
1
100
AcDbSymbolTableRecord
100
AcDbBlockTableRecord
  2
*Paper_Space
340
1E
 70
     0
280
     1
281
     0
  0
BLOCK_RECORD
  5
23
330
1
100
AcDbSymbolTableRecord
100
AcDbBlockTableRecord
  2
*Paper_Space0
340
26
 70
     0
280
     1
281
     0
  0
BLOCK_RECORD
  5
6E
330
1
100
AcDbSymbolTableRecord
100
AcDbBlockTableRecord
  2
1_127534_4
340
0
102
{BLKREFS
331
6F
102
}
 70
     0
280
     1
281
     0
  0
BLOCK_RECORD
  5
8A
330
1
100
AcDbSymbolTableRecord
100
AcDbBlockTableRecord
  2
2_405020c_Inch_0_in_127534_4
340
0
102
{BLKREFS
331
8B
102
}
 70
     0
280
     1
281
     0
  0
BLOCK_RECORD
  5
D7
330
1
100
AcDbSymbolTableRecord
100
AcDbBlockTableRecord
  2
3_045601_0_in_127534_4
340
0
102
{BLKREFS
331
D8
102
}
 70
     0
280
     1
281
     0
  0
BLOCK_RECORD
  5
13C
330
1
100
AcDbSymbolTableRecord
100
AcDbBlockTableRecord
  2
4_127534H_0_in_127534_4
340
0
102
{BLKREFS
331
13D
102
}
 70
     0
280
     1
281
     0
  0
ENDTAB
  0
ENDSEC
  0
SECTION
  2
BLOCKS
  0
BLOCK
  5
20
330
1F
100
AcDbEntity
  8
0
100
AcDbBlockBegin
  2
*Model_Space
 70
     0
 10
0.0
 20
0.0
 30
0.0
  3
*Model_Space
  1

  0
ENDBLK
  5
21
330
1F
100
AcDbEntity
  8
0
100
AcDbBlockEnd
  0
BLOCK
  5
1C
330
1B
100
AcDbEntity
 67
     1
  8
0
100
AcDbBlockBegin
  2
*Paper_Space
 70
     0
 10
0.0
 20
0.0
 30
0.0
  3
*Paper_Space
  1

  0
ENDBLK
  5
1D
330
1B
100
AcDbEntity
 67
     1
  8
0
100
AcDbBlockEnd
  0
BLOCK
  5
24
330
23
100
AcDbEntity
  8
0
100
AcDbBlockBegin
  2
*Paper_Space0
 70
     0
 10
0.0
 20
0.0
 30
0.0
  3
*Paper_Space0
  1

  0
ENDBLK
  5
25
330
23
100
AcDbEntity
  8
0
100
AcDbBlockEnd
  0
BLOCK
  5
70
330
6E
100
AcDbEntity
  8
0
100
AcDbBlockBegin
  2
1_127534_4
 70
     2
 10
0.0
 20
0.0
 30
0.0
  3
1_127534_4
  1

  0
ATTDEF
  5
73
330
6E
100
AcDbEntity
  8
AM_6
100
AcDbText
 10
6.355
 20
0.057
 30
0.0
 40
0.5
  1
Set Screw Flange Bracket Inch Bore - Polymer Housing, Corrosion Resistant Insert
100
AcDbAttributeDefinition
  3

  2
NN
 70
     8
280
     0
  0
ATTDEF
  5
74
330
6E
100
AcDbEntity
  8
AM_6
100
AcDbText
 10
6.355
 20
-0.443
 30
0.0
 40
0.5
  1
SC 3 Bolt Flange Bearings -(Normal Duty) -Polymer Housed -Corrosion Resistant Insert -E-Z KLEEN
100
AcDbAttributeDefinition
  3

  2
NT
 70
     8
280
     0
  0
ATTDEF
  5
75
330
6E
100
AcDbEntity
  8
AM_6
100
AcDbText
 10
6.355
 20
-0.9430000000000001
 30
0.0
 40
0.5
  1
127534
100
AcDbAttributeDefinition
  3

  2
NB
 70
     8
280
     0
  0
ATTDEF
  5
76
330
6E
100
AcDbEntity
  8
AM_6
100
AcDbText
 10
6.355
 20
-1.443
 30
0.0
 40
0.5
  1
$PN.
100
AcDbAttributeDefinition
  3

  2
NBSYN
 70
     8
280
     0
  0
ATTDEF
  5
77
330
6E
100
AcDbEntity
  8
AM_6
100
AcDbText
 10
6.355
 20
-1.943
 30
0.0
 40
0.5
  1
127534
100
AcDbAttributeDefinition
  3

  2
LINA
 70
     8
280
     0
  0
ATTDEF
  5
78
330
6E
100
AcDbEntity
  8
AM_6
100
AcDbText
 10
6.355
 20
-2.443
 30
0.0
 40
0.5
  1
205
100
AcDbAttributeDefinition
  3

  2
SERIES
 70
     8
280
     0
  0
ATTDEF
  5
79
330
6E
100
AcDbEntity
  8
AM_6
100
AcDbText
 10
6.355
 20
-2.943
 30
0.0
 40
0.5
  1
1
100
AcDbAttributeDefinition
  3

  2
SS
 70
     8
280
     0
  0
ATTDEF
  5
7A
330
6E
100
AcDbEntity
  8
AM_6
100
AcDbText
 10
6.355
 20
-3.443
 30
0.0
 40
0.5
  1
127534
100
AcDbAttributeDefinition
  3

  2
PN
 70
     8
280
     0
  0
ATTDEF
  5
7B
330
6E
100
AcDbEntity
  8
AM_6
100
AcDbText
 10
6.355
 20
-3.943
 30
0.0
 40
0.5
  1
FB-SCEZ-100-PCR
100
AcDbAttributeDefinition
  3

  2
DESCRIPTION
 70
     8
280
     0
  0
ATTDEF
  5
7C
330
6E
100
AcDbEntity
  8
AM_6
100
AcDbText
 10
6.355
 20
-4.443
 30
0.0
 40
0.5
  1
0.69
100
AcDbAttributeDefinition
  3

  2
WEIGHT
 70
     8
280
     0
  0
ATTDEF
  5
7D
330
6E
100
AcDbEntity
  8
AM_6
100
AcDbText
 10
6.355
 20
-4.943
 30
0.0
 40
0.5
  1
1.34
100
AcDbAttributeDefinition
  3

  2
A
 70
     8
280
     0
  0
ATTDEF
  5
7E
330
6E
100
AcDbEntity
  8
AM_6
100
AcDbText
 10
6.355
 20
-5.443
 30
0.0
 40
0.5
  1
4.91
100
AcDbAttributeDefinition
  3

  2
B
 70
     8
280
     0
  0
ATTDEF
  5
7F
330
6E
100
AcDbEntity
  8
AM_6
100
AcDbText
 10
6.355
 20
-5.943
 30
0.0
 40
0.5
  1
1.50
100
AcDbAttributeDefinition
  3

  2
C
 70
     8
280
     0
  0
ATTDEF
  5
80
330
6E
100
AcDbEntity
  8
AM_6
100
AcDbText
 10
6.355
 20
-6.443
 30
0.0
 40
0.5
  1
1.63
100
AcDbAttributeDefinition
  3

  2
D
 70
     8
280
     0
  0
ATTDEF
  5
81
330
6E
100
AcDbEntity
  8
AM_6
100
AcDbText
 10
6.355
 20
-6.943
 30
0.0
 40
0.5
  1
1.81
100
AcDbAttributeDefinition
  3

  2
E
 70
     8
280
     0
  0
ATTDEF
  5
82
330
6E
100
AcDbEntity
  8
AM_6
100
AcDbText
 10
6.355
 20
-7.443
 30
0.0
 40
0.5
  1
3/8
100
AcDbAttributeDefinition
  3

  2
F
 70
     8
280
     0
  0
ATTDEF
  5
83
330
6E
100
AcDbEntity
  8
AM_6
100
AcDbText
 10
6.355
 20
-7.943
 30
0.0
 40
0.5
  1
1.13
100
AcDbAttributeDefinition
  3

  2
G
 70
     8
280
     0
  0
ATTDEF
  5
84
330
6E
100
AcDbEntity
  8
AM_6
100
AcDbText
 10
6.355
 20
-8.443
 30
0.0
 40
0.5
  1
0.54
100
AcDbAttributeDefinition
  3

  2
H
 70
     8
280
     0
  0
ATTDEF
  5
85
330
6E
100
AcDbEntity
  8
AM_6
100
AcDbText
 10
6.355
 20
-8.943
 30
0.0
 40
0.5
  1
3.56
100
AcDbAttributeDefinition
  3

  2
I
 70
     8
280
     0
  0
ATTDEF
  5
86
330
6E
100
AcDbEntity
  8
AM_6
100
AcDbText
 10
6.355
 20
-9.443
 30
0.0
 40
0.5
  1
2.71
100
AcDbAttributeDefinition
  3

  2
J
 70
     8
280
     0
  0
ATTDEF
  5
87
330
6E
100
AcDbEntity
  8
AM_6
100
AcDbText
 10
6.355
 20
-9.943
 30
0.0
 40
0.5
  1
1.14
100
AcDbAttributeDefinition
  3

  2
K
 70
     8
280
     0
  0
ATTDEF
  5
88
330
6E
100
AcDbEntity
  8
AM_6
100
AcDbText
 10
6.355
 20
-10.443
 30
0.0
 40
0.5
  1
1.32
100
AcDbAttributeDefinition
  3

  2
L
 70
     8
280
     0
  0
ATTDEF
  5
89
330
6E
100
AcDbEntity
  8
AM_6
100
AcDbText
 10
6.355
 20
-10.943
 30
0.0
 40
0.5
  1
baldor
100
AcDbAttributeDefinition
  3

  2
COMPANY
 70
     8
280
     0
  0
INSERT
  5
8B
330
6E
100
AcDbEntity
  8
0
100
AcDbBlockReference
  2
2_405020c_Inch_0_in_127534_4
 10
0.0
 20
0.0
 30
0.0
  0
INSERT
  5
D8
330
6E
100
AcDbEntity
  8
0
100
AcDbBlockReference
  2
3_045601_0_in_127534_4
 10
0.0
 20
0.0
 30
0.0
  0
INSERT
  5
13D
330
6E
100
AcDbEntity
  8
0
100
AcDbBlockReference
  2
4_127534H_0_in_127534_4
 10
0.0
 20
0.0
 30
0.0
  0
ENDBLK
  5
71
330
6E
100
AcDbEntity
  8
0
100
AcDbBlockEnd
  0
BLOCK
  5
8C
330
8A
100
AcDbEntity
  8
0
100
AcDbBlockBegin
  2
2_405020c_Inch_0_in_127534_4
 70
     2
 10
0.0
 20
0.0
 30
0.0
  3
2_405020c_Inch_0_in_127534_4
  1

  0
ATTDEF
  5
8E
330
8A
100
AcDbEntity
  8
AM_6
100
AcDbText
 10
6.266539756321571
 20
-0.699349999999999
 30
0.0
 40
0.5
  1
405020C -Inch
100
AcDbAttributeDefinition
  3

  2
NN
 70
     8
280
     0
  0
ATTDEF
  5
8F
330
8A
100
AcDbEntity
  8
AM_6
100
AcDbText
 10
6.266539756321571
 20
-1.199349999999999
 30
0.0
 40
0.5
  1
Grease fitting
100
AcDbAttributeDefinition
  3

  2
NT
 70
     8
280
     0
  0
ATTDEF
  5
90
330
8A
100
AcDbEntity
  8
AM_6
100
AcDbText
 10
6.266539756321571
 20
-1.699349999999999
 30
0.0
 40
0.5
  1
405020c-Inch
100
AcDbAttributeDefinition
  3

  2
NB
 70
     8
280
     0
  0
ATTDEF
  5
91
330
8A
100
AcDbEntity
  8
AM_6
100
AcDbText
 10
6.266539756321571
 20
-2.199349999999999
 30
0.0
 40
0.5
  1
$MN.-Inch
100
AcDbAttributeDefinition
  3

  2
NBSYN
 70
     8
280
     0
  0
ATTDEF
  5
92
330
8A
100
AcDbEntity
  8
AM_6
100
AcDbText
 10
6.266539756321571
 20
-2.699349999999999
 30
0.0
 40
0.5
  1
405020c
100
AcDbAttributeDefinition
  3

  2
LINA
 70
     8
280
     0
  0
ATTDEF
  5
93
330
8A
100
AcDbEntity
  8
AM_6
100
AcDbText
 10
6.266539756321571
 20
-3.199349999999999
 30
0.0
 40
0.5
  1
405020c
100
AcDbAttributeDefinition
  3

  2
MN
 70
     8
280
     0
  0
ATTDEF
  5
94
330
8A
100
AcDbEntity
  8
AM_6
100
AcDbText
 10
6.266539756321571
 20
-3.699349999999999
 30
0.0
 40
0.5
  1
0.230
100
AcDbAttributeDefinition
  3

  2
NDR
 70
     8
280
     0
  0
ATTDEF
  5
95
330
8A
100
AcDbEntity
  8
AM_6
100
AcDbText
 10
6.266539756321571
 20
-4.199349999999999
 30
0.0
 40
0.5
  1
0.210
100
AcDbAttributeDefinition
  3

  2
KDR
 70
     8
280
     0
  0
ATTDEF
  5
96
330
8A
100
AcDbEntity
  8
AM_6
100
AcDbText
 10
6.266539756321571
 20
-4.699349999999999
 30
0.0
 40
0.5
  1
0.157
100
AcDbAttributeDefinition
  3

  2
BZE
 70
     8
280
     0
  0
ATTDEF
  5
97
330
8A
100
AcDbEntity
  8
AM_6
100
AcDbText
 10
6.266539756321571
 20
-5.199349999999999
 30
0.0
 40
0.5
  1
9/32
100
AcDbAttributeDefinition
  3

  2
WAF
 70
     8
280
     0
  0
ATTDEF
  5
98
330
8A
100
AcDbEntity
  8
AM_6
100
AcDbText
 10
6.266539756321571
 20
-5.699349999999999
 30
0.0
 40
0.5
  1
0.2813
100
AcDbAttributeDefinition
  3

  2
WAF1
 70
     8
280
     0
  0
ATTDEF
  5
99
330
8A
100
AcDbEntity
  8
AM_6
100
AcDbText
 10
6.266539756321571
 20
-6.199349999999999
 30
0.0
 40
0.5
  1
0.545
100
AcDbAttributeDefinition
  3

  2
BL
 70
     8
280
     0
  0
ATTDEF
  5
9A
330
8A
100
AcDbEntity
  8
AM_6
100
AcDbText
 10
6.266539756321571
 20
-6.699349999999999
 30
0.0
 40
0.5
  1
0.200
100
AcDbAttributeDefinition
  3

  2
TL
 70
     8
280
     0
  0
ATTDEF
  5
9B
330
8A
100
AcDbEntity
  8
AM_6
100
AcDbText
 10
6.266539756321571
 20
-7.199349999999999
 30
0.0
 40
0.5
  1
baldor
100
AcDbAttributeDefinition
  3

  2
COMPANY
 70
     8
280
     0
  0
LWPOLYLINE
  5
9E
330
8A
100
AcDbEntity
  8
AM_9
100
AcDbPolyline
 90
        3
 70
     0
 43
0.0
 10
1.077092511895901
 20
-0.84
 10
1.059777208642293
 20
-0.8750043999316989
 10
1.044259871588385
 20
-0.9103249999999999
  0
LWPOLYLINE
  5
9F
330
8A
100
AcDbEntity
  8
AM_9
100
AcDbPolyline
 90
        3
 70
     0
 43
0.0
 10
1.044259871588385
 20
-0.769675
 10
1.059703051376734
 20
-0.8048374999999999
 10
1.077092511895901
 20
-0.84
  0
ELLIPSE
  5
A0
330
8A
100
AcDbEntity
  8
AM_9
100
AcDbEllipse
 10
0.8167083322704622
 20
-0.84
 30
0.0
 11
-1.838598171376523E-17
 21
-0.1000886227036577
 31
0.0
210
0.0
220
0.0
230
1.0
 40
0.7071067811865474
 41
0.0
 42
6.283185307179586
  0
LWPOLYLINE
  5
A1
330
8A
100
AcDbEntity
  8
AM_9
100
AcDbPolyline
 90
        3
 70
     0
 43
0.0
 10
1.091400323667489
 20
-0.9103249999999999
 10
1.104667204906011
 20
-0.8751625
 10
1.115987805413715
 20
-0.84
  0
LWPOLYLINE
  5
A2
330
8A
100
AcDbEntity
  8
AM_9
100
AcDbPolyline
 90
        3
 70
     0
 43
0.0
 10
1.115987805413715
 20
-0.84
 10
1.104722135805664
 20
-0.804995600068301
 10
1.091400323667489
 20
-0.7696749999999999
  0
LWPOLYLINE
  5
A3
330
8A
100
AcDbEntity
  8
AM_9
100
AcDbPolyline
 90
        3
 70
     0
 43
0.0
 10
1.019672389842159
 20
-0.6993499999999999
 10
1.03093805945021
 20
-0.7343543999316988
 10
1.044259871588385
 20
-0.769675
  0
LINE
  5
A4
330
8A
100
AcDbEntity
  8
AM_9
100
AcDbLine
 10
1.115987805413715
 20
-0.84
 30
0.0
 11
1.077092511895901
 21
-0.84
 31
0.0
  0
LWPOLYLINE
  5
A5
330
8A
100
AcDbEntity
  8
AM_9
100
AcDbPolyline
 90
        3
 70
     0
 43
0.0
 10
1.044259871588385
 20
-0.9103249999999999
 10
1.030992990349863
 20
-0.9454874999999999
 10
1.019672389842159
 20
-0.9806499999999999
  0
LWPOLYLINE
  5
A6
330
8A
100
AcDbEntity
  8
AM_9
100
AcDbPolyline
 90
        3
 70
     0
 43
0.0
 10
1.091400323667489
 20
-0.7696749999999999
 10
1.07595714387914
 20
-0.7345124999999999
 10
1.071334287613353
 20
-0.7248104763908095
  0
LWPOLYLINE
  5
A7
330
8A
100
AcDbEntity
  8
AM_9
100
AcDbPolyline
 90
        3
 70
     0
 43
0.0
 10
1.071333672944472
 20
-0.9551907939395561
 10
1.075882986613581
 20
-0.945645600068301
 10
1.091400323667489
 20
-0.9103249999999999
  0
LINE
  5
A8
330
8A
100
AcDbEntity
  8
AM_9
100
AcDbLine
 10
0.8215710747327478
 20
-0.9503623268442185
 30
0.0
 11
0.9555587005909559
 21
-0.9562869890918942
 31
0.0
  0
LINE
  5
A9
330
8A
100
AcDbEntity
  8
AM_9
100
AcDbLine
 10
0.9555587005909559
 20
-0.7237130109081056
 30
0.0
 11
0.8215710747327478
 21
-0.7296376731557813
 31
0.0
  0
ELLIPSE
  5
AA
330
8A
100
AcDbEntity
  8
AM_9
100
AcDbEllipse
 10
1.005270140586878
 20
-0.8399999999999979
 30
0.0
 11
8.612328615003595E-18
 21
0.1406499999999973
 31
0.0
210
0.0
220
0.0
230
1.0
 40
0.7071067811865391
 41
3.798906696793596
 42
5.625871263975766
  0
ELLIPSE
  5
AB
330
8A
100
AcDbEntity
  8
AM_9
100
AcDbEllipse
 10
1.027417113472405
 20
-0.8399999999999996
 30
0.0
 11
6.694498085252775E-18
 21
0.1093294505797712
 31
0.0
210
0.0
220
0.0
230
1.0
 40
0.7071067811865583
 41
5.300322774757487
 42
5.928986666165862
  0
ELLIPSE
  5
AC
330
8A
100
AcDbEntity
  8
AM_9
100
AcDbEllipse
 10
1.027417113472406
 20
-0.839999999999999
 30
0.0
 11
6.694498085252863E-18
 21
0.1093294505797726
 31
0.0
210
0.0
220
0.0
230
1.0
 40
0.707106781186551
 41
3.495791294603512
 42
4.12384640476616
  0
ELLIPSE
  5
AD
330
8A
100
AcDbEntity
  8
AM_9
100
AcDbEllipse
 10
1.027417113472404
 20
-0.8399999999999478
 30
0.0
 11
6.694498085261375E-18
 21
0.1093294505799116
 31
0.0
210
0.0
220
0.0
230
1.0
 40
0.7071067811857839
 41
4.305125201711284
 42
5.113331984432389
  0
LWPOLYLINE
  5
AE
330
8A
100
AcDbEntity
  8
AM_9
100
AcDbPolyline
 90
       17
 70
     0
 43
0.0
 10
1.043728998243875
 20
-0.7469731131188984
 10
1.045432738115385
 20
-0.7463927795993547
 10
1.049256731637116
 20
-0.7455380634518677
 10
1.053357260196359
 20
-0.7453349851983448
 10
1.057576329514829
 20
-0.7459063878795062
 10
1.061494865152285
 20
-0.7471227018823251
 10
1.065430578653716
 20
-0.7489795283008511
 10
1.069448685042983
 20
-0.7515183036593271
 10
1.073960975467153
 20
-0.7551589028083585
 10
1.078421669889659
 20
-0.7596371062529943
 10
1.082769524072348
 20
-0.7649538395501946
 10
1.086931274866594
 20
-0.7710956987296246
 10
1.090825393561258
 20
-0.7780270853933968
 10
1.094368808057778
 20
-0.7856881894496295
 10
1.097484962780295
 20
-0.7940017075254691
 10
1.100107727874424
 20
-0.8028799318383618
 10
1.100311776304437
 20
-0.8036803211429293
  0
LWPOLYLINE
  5
AF
330
8A
100
AcDbEntity
  8
AM_9
100
AcDbPolyline
 90
        4
 70
     0
 43
0.0
 10
1.041363217132124
 20
-0.9320232134978504
 10
1.040316186972136
 20
-0.9315066380518072
 10
1.036318171466145
 20
-0.929129013622425
 10
1.03470060533598
 20
-0.9279837137811854
  0
LWPOLYLINE
  5
B0
330
8A
100
AcDbEntity
  8
AM_9
100
AcDbPolyline
 90
       17
 70
     0
 43
0.0
 10
1.100434907854296
 20
-0.8758267114017118
 10
1.099176694295427
 20
-0.8805413453575495
 10
1.096358681361906
 20
-0.8892204479793967
 10
1.093077119987276
 20
-0.8972857216887362
 10
1.089409015821797
 20
-0.9046482476323618
 10
1.085441502055012
 20
-0.9112359607039214
 10
1.081268990336189
 20
-0.9169969117143032
 10
1.076994983305267
 20
-0.9218959907330462
 10
1.072717680580006
 20
-0.9259300180906295
 10
1.06852304815752
 20
-0.929124291485966
 10
1.064471340212116
 20
-0.9315306184534344
 10
1.060575462658962
 20
-0.9332202440476924
 10
1.056762556202631
 20
-0.9342645296215817
 10
1.052797363418993
 20
-0.9346815540068887
 10
1.048176663089111
 20
-0.9342844932792412
 10
1.04423825799118
 20
-0.9332129752731658
 10
1.041363217132124
 20
-0.9320232134978504
  0
ELLIPSE
  5
B1
330
8A
100
AcDbEntity
  8
AM_9
100
AcDbEllipse
 10
1.067358925408913
 20
-0.84
 30
0.0
 11
6.084620899749628E-18
 21
0.09936940028726615
 31
0.0
210
0.0
220
0.0
230
1.0
 40
0.7071067811865481
 41
2.656480407116014
 42
6.768297553653365
  0
ELLIPSE
  5
B2
330
8A
100
AcDbEntity
  8
AM_9
100
AcDbEllipse
 10
1.115690254114412
 20
-0.8399999999994817
 30
0.0
 11
8.036249332283113E-18
 21
0.131241911347472
 31
0.0
210
0.0
220
0.0
230
1.0
 40
0.7071067811894376
 41
-3.629128510409486
 42
-3.606100218248098
  0
ELLIPSE
  5
B3
330
8A
100
AcDbEntity
  8
AM_9
100
AcDbEllipse
 10
1.115690254113389
 20
-0.8399999999999999
 30
0.0
 11
8.036249332247511E-18
 21
0.1312419113468906
 31
0.0
210
0.0
220
0.0
230
1.0
 40
0.7071067811865471
 41
2.69438557187787
 42
6.699821174277506
  0
ELLIPSE
  5
B4
330
8A
100
AcDbEntity
  8
AM_9
100
AcDbEllipse
 10
1.115690254113386
 20
-0.8399999999999885
 30
0.0
 11
8.036249332246756E-18
 21
0.1312419113468782
 31
0.0
210
0.0
220
0.0
230
1.0
 40
0.7071067811865475
 41
0.4292827730695699
 42
0.4851122464737885
  0
ELLIPSE
  5
B5
330
8A
100
AcDbEntity
  8
AM_9
100
AcDbEllipse
 10
1.144446497578667
 20
-0.8400000000000001
 30
0.0
 11
8.079715312105955E-18
 21
0.13195176466768
 31
0.0
210
0.0
220
0.0
230
1.0
 40
0.7071067811865455
 41
3.587630161048102
 42
5.838563442508649
  0
ELLIPSE
  5
B6
330
8A
100
AcDbEntity
  8
AM_9
100
AcDbEllipse
 10
1.191311074251853
 20
-0.8399999999999999
 30
0.0
 11
6.357083428130994E-18
 21
0.103819051053039
 31
0.0
210
0.0
220
0.0
230
1.0
 40
0.7071067811865489
 41
3.579974428543796
 42
5.836981489019728
  0
ELLIPSE
  5
B7
330
8A
100
AcDbEntity
  8
AM_9
100
AcDbEllipse
 10
0.958129688507772
 20
-0.8400000000000001
 30
0.0
 11
7.124004163867294E-18
 21
0.1163438171532772
 31
0.0
210
0.0
220
0.0
230
1.0
 40
0.7071067811865493
 41
0.0
 42
6.283185307179586
  0
ELLIPSE
  5
B8
330
8A
100
AcDbEntity
  8
AM_9
100
AcDbEllipse
 10
0.8240110743492479
 20
-0.8399999999999996
 30
0.0
 11
6.761045944280075E-18
 21
0.1104162595939887
 31
0.0
210
0.0
220
0.0
230
1.0
 40
0.7071067811865489
 41
0.0
 42
6.283185307179586
  0
ELLIPSE
  5
B9
330
8A
100
AcDbEntity
  8
AM_9
100
AcDbEllipse
 10
0.9581296885077726
 20
-0.8399999999999999
 30
0.0
 11
8.612328615003812E-18
 21
0.1406500000000008
 31
0.0
210
0.0
220
0.0
230
1.0
 40
0.7071067811865481
 41
0.0
 42
6.283185307179586
  0
LINE
  5
BB
330
8A
100
AcDbEntity
  8
AM_4
100
AcDbLine
 10
1.071334287613353
 20
-0.7248104763908095
 30
0.0
 11
1.058567683359973
 21
-0.6993499999999999
 31
0.0
  0
LINE
  5
BC
330
8A
100
AcDbEntity
  8
AM_4
100
AcDbLine
 10
1.058567683359973
 20
-0.9806499999999999
 30
0.0
 11
1.071333672944472
 21
-0.9551907939395561
 31
0.0
  0
LINE
  5
BD
330
8A
100
AcDbEntity
  8
AM_4
100
AcDbLine
 10
1.058567683359973
 20
-0.6993499999999999
 30
0.0
 11
0.9048321457346743
 21
-0.6993499999999999
 31
0.0
  0
LWPOLYLINE
  5
BE
330
8A
100
AcDbEntity
  8
AM_4
100
AcDbPolyline
 90
        3
 70
     0
 43
0.0
 10
0.8719995054271583
 20
-0.7696749999999999
 10
0.8874426852155075
 20
-0.7345124999999999
 10
0.9048321457346743
 20
-0.6993499999999999
  0
LWPOLYLINE
  5
BF
330
8A
100
AcDbEntity
  8
AM_4
100
AcDbPolyline
 90
        3
 70
     0
 43
0.0
 10
0.8474120236809319
 20
-0.84
 10
0.8586776932889829
 20
-0.804995600068301
 10
0.8719995054271583
 20
-0.7696749999999999
  0
LWPOLYLINE
  5
C0
330
8A
100
AcDbEntity
  8
AM_4
100
AcDbPolyline
 90
        3
 70
     0
 43
0.0
 10
0.943727439252488
 20
-0.6993499999999999
 10
0.9324617696444369
 20
-0.7343543999316988
 10
0.9191399575062615
 20
-0.7696749999999999
  0
LWPOLYLINE
  5
C1
330
8A
100
AcDbEntity
  8
AM_4
100
AcDbPolyline
 90
        3
 70
     0
 43
0.0
 10
0.9191399575062615
 20
-0.7696749999999999
 10
0.9036967777179125
 20
-0.8048374999999999
 10
0.8863073171987457
 20
-0.84
  0
LINE
  5
C2
330
8A
100
AcDbEntity
  8
AM_4
100
AcDbLine
 10
0.8863073171987457
 20
-0.84
 30
0.0
 11
0.8474120236809319
 21
-0.84
 31
0.0
  0
LWPOLYLINE
  5
C3
330
8A
100
AcDbEntity
  8
AM_4
100
AcDbPolyline
 90
        3
 70
     0
 43
0.0
 10
0.8719995054271583
 20
-0.9103249999999999
 10
0.8587326241886364
 20
-0.8751625
 10
0.8474120236809319
 20
-0.84
  0
LWPOLYLINE
  5
C4
330
8A
100
AcDbEntity
  8
AM_4
100
AcDbPolyline
 90
        3
 70
     0
 43
0.0
 10
0.9048321457346743
 20
-0.9806499999999999
 10
0.8875168424810664
 20
-0.945645600068301
 10
0.8719995054271583
 20
-0.9103249999999999
  0
LINE
  5
C5
330
8A
100
AcDbEntity
  8
AM_4
100
AcDbLine
 10
1.058567683359973
 20
-0.9806499999999999
 30
0.0
 11
0.9048321457346743
 21
-0.9806499999999999
 31
0.0
  0
LWPOLYLINE
  5
C6
330
8A
100
AcDbEntity
  8
AM_4
100
AcDbPolyline
 90
        3
 70
     0
 43
0.0
 10
0.9191399575062615
 20
-0.9103249999999999
 10
0.9324068387447836
 20
-0.9454874999999999
 10
0.943727439252488
 20
-0.9806499999999999
  0
LWPOLYLINE
  5
C7
330
8A
100
AcDbEntity
  8
AM_4
100
AcDbPolyline
 90
        3
 70
     0
 43
0.0
 10
0.8863073171987457
 20
-0.84
 10
0.9036226204523536
 20
-0.8750043999316989
 10
0.9191399575062615
 20
-0.9103249999999999
  0
ELLIPSE
  5
C8
330
8A
100
AcDbEntity
  8
AM_4
100
AcDbEllipse
 10
1.005270140586876
 20
-0.8399999999999999
 30
0.0
 11
8.612328615003820E-18
 21
0.1406500000000009
 31
0.0
210
0.0
220
0.0
230
1.0
 40
0.7071067811865476
 41
5.625871263975763
 42
10.0820920039732
  0
ELLIPSE
  5
C9
330
8A
100
AcDbEntity
  8
AM_4
100
AcDbEllipse
 10
1.027417113472407
 20
-0.8399999999999999
 30
0.0
 11
6.694498085252782E-18
 21
0.1093294505797713
 31
0.0
210
0.0
220
0.0
230
1.0
 40
0.7071067811865475
 41
5.928986666165877
 42
9.77897660178309
  0
ELLIPSE
  5
CA
330
8A
100
AcDbEntity
  8
AM_4
100
AcDbEllipse
 10
1.067358925408912
 20
-0.8399999999999997
 30
0.0
 11
6.084620899749608E-18
 21
0.09936940028726582
 31
0.0
210
0.0
220
0.0
230
1.0
 40
0.7071067811865416
 41
0.4851122464737729
 42
2.656480407116022
  0
LINE
  5
CB
330
8A
100
AcDbEntity
  8
AM_4
100
AcDbLine
 10
1.034593921895252
 20
-0.9279044185632922
 30
0.0
 11
1.072415949609294
 21
-0.956099562589007
 31
0.0
  0
LINE
  5
CC
330
8A
100
AcDbEntity
  8
AM_4
100
AcDbLine
 10
1.072415949609294
 20
-0.7239004374109929
 30
0.0
 11
1.034593921895252
 21
-0.7520955814367076
 31
0.0
  0
ELLIPSE
  5
CD
330
8A
100
AcDbEntity
  8
AM_4
100
AcDbEllipse
 10
1.115690254113389
 20
-0.8399999999999999
 30
0.0
 11
8.036249332247511E-18
 21
0.1312419113468906
 31
0.0
210
0.0
220
0.0
230
1.0
 40
0.7071067811865471
 41
0.4908319492125202
 42
2.654056796776303
  0
LWPOLYLINE
  5
CE
330
8A
100
AcDbEntity
  8
AM_4
100
AcDbPolyline
 90
       14
 70
     0
 43
0.0
 10
1.07215325342789
 20
-0.9559031080487961
 10
1.077110330343581
 20
-0.9594065875450686
 10
1.086448250548842
 20
-0.9649313419821641
 10
1.096124036770452
 20
-0.9693436179649382
 10
1.106035508788003
 20
-0.9726277229016003
 10
1.116085832310498
 20
-0.9747830742361157
 10
1.126184450661138
 20
-0.975820082133207
 10
1.136247502976937
 20
-0.9757568029211976
 10
1.146197334143462
 20
-0.9746163486713372
 10
1.155953142866659
 20
-0.9724276023755967
 10
1.165452851424966
 20
-0.969220275684057
 10
1.174640061066957
 20
-0.9650229182804505
 10
1.183462010347031
 20
-0.9598624767607552
 10
1.184864339689618
 20
-0.9589301395224827
  0
LWPOLYLINE
  5
CF
330
8A
100
AcDbEntity
  8
AM_4
100
AcDbPolyline
 90
       13
 70
     0
 43
0.0
 10
1.175503407750226
 20
-0.7154309885016552
 10
1.171088157262555
 20
-0.7132196384682395
 10
1.161308853620771
 20
-0.7092450847953141
 10
1.151332220040899
 20
-0.7064004814736666
 10
1.141252720251881
 20
-0.7046816891681524
 10
1.131158343482927
 20
-0.7040749676775281
 10
1.12113028125683
 20
-0.704560045911867
 10
1.111248055837836
 20
-0.7061115307425387
 10
1.101584770373126
 20
-0.708699693151164
 10
1.092200082395877
 20
-0.7122951505005756
 10
1.08314870376826
 20
-0.7168699905861833
 10
1.07448264315045
 20
-0.7223977256160811
 10
1.071825472679403
 20
-0.7243437728914746
  0
LWPOLYLINE
  5
D0
330
8A
100
AcDbEntity
  8
AM_4
100
AcDbPolyline
 90
        3
 70
     0
 43
0.0
 10
1.184727842698908
 20
-0.7209776829212023
 10
1.180569858797452
 20
-0.7183148560458287
 10
1.175503407750226
 20
-0.7154309885016552
  0
ELLIPSE
  5
D1
330
8A
100
AcDbEntity
  8
AM_4
100
AcDbEllipse
 10
1.202081528017131
 20
-0.84
 30
0.0
 11
-1.484390032546748E-17
 21
-0.08080642971672802
 31
0.0
210
0.0
220
0.0
230
1.0
 40
0.7071067811865462
 41
0.0
 42
6.283185307179586
  0
LWPOLYLINE
  5
D2
330
8A
100
AcDbEntity
  8
AM_4
100
AcDbPolyline
 90
       23
 70
     0
 43
0.0
 10
1.222631806095224
 20
-0.9338958314159451
 10
1.227299670985401
 20
-0.9305290880546612
 10
1.234142503263626
 20
-0.924570142713679
 10
1.240494892130228
 20
-0.9177185061617684
 10
1.246286036695186
 20
-0.9100337609482286
 10
1.251446955099291
 20
-0.9015944816489357
 10
1.255916154890013
 20
-0.8924955656617547
 10
1.259643543843346
 20
-0.8828424798785178
 10
1.262591258974343
 20
-0.8727462526203638
 10
1.264732968559827
 20
-0.8623189512969984
 10
1.26605239919289
 20
-0.8516670349382486
 10
1.266539756321572
 20
-0.8408951377183023
 10
1.266190425406675
 20
-0.8301063956807169
 10
1.265004318530148
 20
-0.8194038567291542
 10
1.262985693992609
 20
-0.8088902136769119
 10
1.260142691694258
 20
-0.7986665845101393
 10
1.256487781174838
 20
-0.7888348063346188
 10
1.252039118135027
 20
-0.7794986735964384
 10
1.246825124259722
 20
-0.7707679663071145
 10
1.240888523961723
 20
-0.7627556913193239
 10
1.234289478213022
 20
-0.7555728214958153
 10
1.227108899491422
 20
-0.7493229358059045
 10
1.223084440582477
 20
-0.7464082080354306
  0
ELLIPSE
  5
D3
330
8A
100
AcDbEntity
  8
AM_4
100
AcDbEllipse
 10
1.144446497578667
 20
-0.8399999999999999
 30
0.0
 11
8.079715312105955E-18
 21
0.13195176466768
 31
0.0
210
0.0
220
0.0
230
1.0
 40
0.7071067811865489
 41
5.844803532225582
 42
9.863159735723384
  0
ELLIPSE
  5
D4
330
8A
100
AcDbEntity
  8
AM_4
100
AcDbEllipse
 10
1.191311074251853
 20
-0.8399999999999996
 30
0.0
 11
6.357083428130987E-18
 21
0.1038190510530389
 31
0.0
210
0.0
220
0.0
230
1.0
 40
0.7071067811865497
 41
5.844803532225579
 42
9.863159735723382
  0
LINE
  5
D5
330
8A
100
AcDbEntity
  8
AM_4
100
AcDbLine
 10
1.222472260784986
 20
-0.7459981049699095
 30
0.0
 11
1.184051690560878
 21
-0.7205256279505999
 31
0.0
  0
LINE
  5
D6
330
8A
100
AcDbEntity
  8
AM_4
100
AcDbLine
 10
1.184051690560878
 20
-0.9594743720493999
 30
0.0
 11
1.222472260784986
 21
-0.9340018950300902
 31
0.0
  0
ENDBLK
  5
8D
330
8A
100
AcDbEntity
  8
0
100
AcDbBlockEnd
  0
BLOCK
  5
D9
330
D7
100
AcDbEntity
  8
0
100
AcDbBlockBegin
  2
3_045601_0_in_127534_4
 70
     2
 10
0.0
 20
0.0
 30
0.0
  3
3_045601_0_in_127534_4
  1

  0
ATTDEF
  5
DB
330
D7
100
AcDbEntity
  8
AM_6
100
AcDbText
 10
6.023071041524561
 20
-0.1599999999999999
 30
0.0
 40
0.5
  1
Set Screw Insert Inch Bore - Corrosion Resistant
100
AcDbAttributeDefinition
  3

  2
NN
 70
     8
280
     0
  0
ATTDEF
  5
DC
330
D7
100
AcDbEntity
  8
AM_6
100
AcDbText
 10
6.023071041524561
 20
-0.6599999999999999
 30
0.0
 40
0.5
  1
SC Normal Duty Bearing Inserts
100
AcDbAttributeDefinition
  3

  2
NT
 70
     8
280
     0
  0
ATTDEF
  5
DD
330
D7
100
AcDbEntity
  8
AM_6
100
AcDbText
 10
6.023071041524561
 20
-1.16
 30
0.0
 40
0.5
  1
045601
100
AcDbAttributeDefinition
  3

  2
NB
 70
     8
280
     0
  0
ATTDEF
  5
DE
330
D7
100
AcDbEntity
  8
AM_6
100
AcDbText
 10
6.023071041524561
 20
-1.66
 30
0.0
 40
0.5
  1
$PN.
100
AcDbAttributeDefinition
  3

  2
NBSYN
 70
     8
280
     0
  0
ATTDEF
  5
DF
330
D7
100
AcDbEntity
  8
AM_6
100
AcDbText
 10
6.023071041524561
 20
-2.16
 30
0.0
 40
0.5
  1
045601
100
AcDbAttributeDefinition
  3

  2
LINA
 70
     8
280
     0
  0
ATTDEF
  5
E0
330
D7
100
AcDbEntity
  8
AM_6
100
AcDbText
 10
6.023071041524561
 20
-2.66
 30
0.0
 40
0.5
  1
205
100
AcDbAttributeDefinition
  3

  2
SERIES
 70
     8
280
     0
  0
ATTDEF
  5
E1
330
D7
100
AcDbEntity
  8
AM_6
100
AcDbText
 10
6.023071041524561
 20
-3.16
 30
0.0
 40
0.5
  1
1
100
AcDbAttributeDefinition
  3

  2
SS
 70
     8
280
     0
  0
ATTDEF
  5
E2
330
D7
100
AcDbEntity
  8
AM_6
100
AcDbText
 10
6.023071041524561
 20
-3.66
 30
0.0
 40
0.5
  1
045601
100
AcDbAttributeDefinition
  3

  2
PN
 70
     8
280
     0
  0
ATTDEF
  5
E3
330
D7
100
AcDbEntity
  8
AM_6
100
AcDbText
 10
6.023071041524561
 20
-4.16
 30
0.0
 40
0.5
  1
INS-SC-100-CR
100
AcDbAttributeDefinition
  3

  2
DESCRIPTION
 70
     8
280
     0
  0
ATTDEF
  5
E4
330
D7
100
AcDbEntity
  8
AM_6
100
AcDbText
 10
6.023071041524561
 20
-4.66
 30
0.0
 40
0.5
  1
1.34
100
AcDbAttributeDefinition
  3

  2
A
 70
     8
280
     0
  0
ATTDEF
  5
E5
330
D7
100
AcDbEntity
  8
AM_6
100
AcDbText
 10
6.023071041524561
 20
-5.16
 30
0.0
 40
0.5
  1
0.59
100
AcDbAttributeDefinition
  3

  2
C
 70
     8
280
     0
  0
ATTDEF
  5
E6
330
D7
100
AcDbEntity
  8
AM_6
100
AcDbText
 10
6.023071041524561
 20
-5.66
 30
0.0
 40
0.5
  1
2.0472
100
AcDbAttributeDefinition
  3

  2
D
 70
     8
280
     0
  0
ATTDEF
  5
E7
330
D7
100
AcDbEntity
  8
AM_6
100
AcDbText
 10
6.023071041524561
 20
-6.16
 30
0.0
 40
0.5
  1
0.16
100
AcDbAttributeDefinition
  3

  2
J
 70
     8
280
     0
  0
ATTDEF
  5
E8
330
D7
100
AcDbEntity
  8
AM_6
100
AcDbText
 10
6.023071041524561
 20
-6.66
 30
0.0
 40
0.5
  1
1.32
100
AcDbAttributeDefinition
  3

  2
L
 70
     8
280
     0
  0
ATTDEF
  5
E9
330
D7
100
AcDbEntity
  8
AM_6
100
AcDbText
 10
6.023071041524561
 20
-7.16
 30
0.0
 40
0.5
  1
1/4 - 28
100
AcDbAttributeDefinition
  3

  2
N
 70
     8
280
     0
  0
ATTDEF
  5
EA
330
D7
100
AcDbEntity
  8
AM_6
100
AcDbText
 10
6.023071041524561
 20
-7.66
 30
0.0
 40
0.5
  1
0.56
100
AcDbAttributeDefinition
  3

  2
W
 70
     8
280
     0
  0
ATTDEF
  5
EB
330
D7
100
AcDbEntity
  8
AM_6
100
AcDbText
 10
6.023071041524561
 20
-8.16
 30
0.0
 40
0.5
  1
0.78
100
AcDbAttributeDefinition
  3

  2
Y
 70
     8
280
     0
  0
ATTDEF
  5
EC
330
D7
100
AcDbEntity
  8
AM_6
100
AcDbText
 10
6.023071041524561
 20
-8.66
 30
0.0
 40
0.5
  1
baldor
100
AcDbAttributeDefinition
  3

  2
COMPANY
 70
     8
280
     0
  0
ELLIPSE
  5
ED
330
D7
100
AcDbEntity
  8
AM_9
100
AcDbEllipse
 10
-0.5368000000000002
 20
-0.56
 30
0.0
 11
1.818414944188669E-18
 21
0.02969696969697255
 31
0.0
210
0.0
220
0.0
230
1.0
 40
0.8660254037844372
 41
0.0
 42
6.283185307179586
  0
LWPOLYLINE
  5
EE
330
D7
100
AcDbEntity
  8
AM_9
100
AcDbPolyline
 90
       15
 70
     0
 43
0.0
 10
-0.5893365119911784
 20
-0.56
 10
-0.5890066821724383
 20
-0.5676078436003341
 10
-0.587641569153373
 20
-0.5771703009137564
 10
-0.5852212605267093
 20
-0.5865437571971569
 10
-0.5817662520064565
 20
-0.5955898164078907
 10
-0.5773148437847616
 20
-0.6041730449665423
 10
-0.5719246641310914
 20
-0.6121617421305977
 10
-0.565672726716329
 20
-0.6194324711345721
 10
-0.55865383335303
 20
-0.6258747927394347
 10
-0.5509774278611448
 20
-0.6313952474088838
 10
-0.5427634730406665
 20
-0.6359198877669517
 10
-0.5341380856652997
 20
-0.6393951590821217
 10
-0.5252295243540004
 20
-0.6417873615425141
 10
-0.5161648610124872
 20
-0.6430811306265829
 10
-0.5119952054959195
 20
-0.6433066277747743
  0
LWPOLYLINE
  5
EF
330
D7
100
AcDbEntity
  8
AM_9
100
AcDbPolyline
 90
       15
 70
     0
 43
0.0
 10
-0.5163574410900418
 20
-0.4769348506917598
 10
-0.5188679724621336
 20
-0.477188448697579
 10
-0.5277606402275277
 20
-0.4787758153063304
 10
-0.5363836199481599
 20
-0.4813943528108194
 10
-0.544637996154499
 20
-0.4850011145366533
 10
-0.5524316739476643
 20
-0.4895461972305883
 10
-0.559678613218212
 20
-0.4949735043639918
 10
-0.5662980005179399
 20
-0.5012208316714697
 10
-0.5722136237371092
 20
-0.5082193234143826
 10
-0.577353716601746
 20
-0.5158924990916658
 10
-0.5816514557477227
 20
-0.5241552043491248
 10
-0.5850461151107396
 20
-0.5329129115155188
 10
-0.5874846686645849
 20
-0.5420617011595713
 10
-0.5889235014099052
 20
-0.5514889941770837
 10
-0.5893365119911784
 20
-0.56
  0
LINE
  5
F0
330
D7
100
AcDbEntity
  8
AM_9
100
AcDbLine
 10
-0.5103542952292016
 20
-0.4766675805224535
 30
0.0
 11
-0.5153145099110114
 21
-0.4768541948456205
 31
0.0
  0
LWPOLYLINE
  5
F1
330
D7
100
AcDbEntity
  8
AM_9
100
AcDbPolyline
 90
        3
 70
     0
 43
0.0
 10
-0.5120140187846481
 20
-0.6433061086799058
 10
-0.5217748927955943
 20
-0.6422659412824554
 10
-0.5342533950280819
 20
-0.6384790748393572
  0
ELLIPSE
  5
F2
330
D7
100
AcDbEntity
  8
AM_9
100
AcDbEllipse
 10
-0.5099818181818462
 20
-0.5600000000000214
 30
0.0
 11
-1.530808498934671E-17
 21
-0.08333333333335946
 31
0.0
210
0.0
220
0.0
230
1.0
 40
0.8660254037844535
 41
0.3430031675261818
 42
5.940182139654029
  0
LINE
  5
F3
330
D7
100
AcDbEntity
  8
AM_9
100
AcDbLine
 10
-0.4971517301864372
 20
-0.476666666666662
 30
0.0
 11
-0.5099818181818183
 21
-0.476666666666662
 31
0.0
  0
LWPOLYLINE
  5
F4
330
D7
100
AcDbEntity
  8
AM_9
100
AcDbPolyline
 90
       18
 70
     0
 43
0.0
 10
-0.4971301944711772
 20
-0.4766666666980061
 10
-0.5025636131508182
 20
-0.4769101439646753
 10
-0.5146267366055661
 20
-0.4790972608708481
 10
-0.5263449012368838
 20
-0.483530870209441
 10
-0.5374291099588556
 20
-0.4900503183554321
 10
-0.5476156314254226
 20
-0.4985433189603074
 10
-0.5565777404167956
 20
-0.5087072157525753
 10
-0.5641322323370085
 20
-0.5204103437640895
 10
-0.569990483138609
 20
-0.5331979568497921
 10
-0.574009785186064
 20
-0.5468901865611783
 10
-0.576028103550008
 20
-0.5609473062296757
 10
-0.5759544105928975
 20
-0.5750820115748664
 10
-0.5737941133987795
 20
-0.588791867829692
 10
-0.5695752011316475
 20
-0.6016722701450616
 10
-0.5634376133335085
 20
-0.6133656420803302
 10
-0.5555912123645469
 20
-0.6234333950098649
 10
-0.5462368543792535
 20
-0.6316939140580485
 10
-0.5342533950280506
 20
-0.6384790748393598
  0
ELLIPSE
  5
F5
330
D7
100
AcDbEntity
  8
AM_9
100
AcDbEllipse
 10
-0.4253682248778901
 20
-1.2575
 30
0.0
 11
5.997707698824188E-18
 21
0.09795000000000043
 31
0.0
210
0.0
220
0.0
230
1.0
 40
0.4999999999999921
 41
4.411070673880172
 42
5.01370728688921
  0
ELLIPSE
  5
F6
330
D7
100
AcDbEntity
  8
AM_9
100
AcDbEllipse
 10
-0.4253682248778905
 20
-1.2575
 30
0.0
 11
5.997707698824148E-18
 21
0.09794999999999976
 31
0.0
210
0.0
220
0.0
230
1.0
 40
0.5000000000000023
 41
1.269478020290374
 42
1.872114633299417
  0
LINE
  5
F7
330
D7
100
AcDbEntity
  8
AM_9
100
AcDbLine
 10
-0.4329525229863462
 20
-1.15955
 30
0.0
 11
-0.5551264248432152
 21
-1.15955
 31
0.0
  0
LINE
  5
F8
330
D7
100
AcDbEntity
  8
AM_9
100
AcDbLine
 10
-0.5551264248432152
 20
-1.35545
 30
0.0
 11
-0.4329525229863462
 21
-1.35545
 31
0.0
  0
LWPOLYLINE
  5
F9
330
D7
100
AcDbEntity
  8
AM_9
100
AcDbPolyline
 90
        9
 70
     0
 43
0.0
 10
-0.4330120015049485
 20
-1.355449999989984
 10
-0.4290057734104335
 20
-1.355130446044221
 10
-0.4205642689380467
 20
-1.352479258770179
 10
-0.4120637804023725
 20
-1.347251544934478
 10
-0.4037661862262511
 20
-1.339528068630393
 10
-0.3960225788830873
 20
-1.329576123498015
 10
-0.3890468706474937
 20
-1.317420076386232
 10
-0.3832719150772309
 20
-1.303566240400947
 10
-0.3785997409589371
 20
-1.286569539860313
  0
LWPOLYLINE
  5
FA
330
D7
100
AcDbEntity
  8
AM_9
100
AcDbPolyline
 90
        9
 70
     0
 43
0.0
 10
-0.4330134022760913
 20
-1.159550000010016
 10
-0.4369113730212448
 20
-1.159869553955779
 10
-0.4444654231609939
 20
-1.162520741229821
 10
-0.4512921206919426
 20
-1.167748455065522
 10
-0.4572811355227773
 20
-1.175471931369606
 10
-0.4623493074432901
 20
-1.185423876501984
 10
-0.4665191168741101
 20
-1.197579923613768
 10
-0.4697132477562345
 20
-1.211433759599053
 10
-0.4721367087968441
 20
-1.228430460139687
  0
LINE
  5
FB
330
D7
100
AcDbEntity
  8
AM_9
100
AcDbLine
 10
-0.5268506954096532
 20
-1.177524159898129
 30
0.0
 11
-0.5358455650685646
 21
-1.164803493234718
 31
0.0
  0
LINE
  5
FC
330
D7
100
AcDbEntity
  8
AM_9
100
AcDbLine
 10
-0.5358865664083894
 20
-1.350254491416137
 30
0.0
 11
-0.5268506954096532
 21
-1.337475840101871
 31
0.0
  0
ELLIPSE
  5
FD
330
D7
100
AcDbEntity
  8
AM_9
100
AcDbEllipse
 10
-0.555126424843142
 20
-1.25749999999981
 30
0.0
 11
5.997707698810334E-18
 21
0.09794999999977416
 31
0.0
210
0.0
220
0.0
230
1.0
 40
0.4999999999999434
 41
3.658213639507654
 42
5.752482979528309
  0
LWPOLYLINE
  5
FE
330
D7
100
AcDbEntity
  8
AM_9
100
AcDbPolyline
 90
        6
 70
     0
 43
0.0
 10
-0.4721367087968441
 20
-1.228430460139687
 10
-0.4734197511724235
 20
-1.241558553609789
 10
-0.4739414292760439
 20
-1.255600740526458
 10
-0.4736855798078718
 20
-1.268779730807909
 10
-0.4726758466261403
 20
-1.282015722121509
 10
-0.4721367087968441
 20
-1.286569539860313
  0
LWPOLYLINE
  5
FF
330
D7
100
AcDbEntity
  8
AM_9
100
AcDbPolyline
 90
        9
 70
     0
 43
0.0
 10
-0.4721367087968441
 20
-1.286569539860313
 10
-0.4700166114008408
 20
-1.301869508552074
 10
-0.4669427106824443
 20
-1.315897542162429
 10
-0.4628868935498184
 20
-1.328242920178872
 10
-0.4578542476241383
 20
-1.338602193752324
 10
-0.4518100908894738
 20
-1.346702549428051
 10
-0.4448671691336447
 20
-1.352265633908277
 10
-0.4372246981785583
 20
-1.355064986519952
 10
-0.4330120015049485
 20
-1.355449999989984
  0
LWPOLYLINE
  5
100
330
D7
100
AcDbEntity
  8
AM_9
100
AcDbPolyline
 90
        6
 70
     0
 43
0.0
 10
-0.3785997409589371
 20
-1.286569539860313
 10
-0.3760127987424771
 20
-1.273441446390211
 10
-0.3749368018182978
 20
-1.259399259473542
 10
-0.3754663038240507
 20
-1.246220269192091
 10
-0.3775227596525161
 20
-1.232984277878491
 10
-0.3785997409589371
 20
-1.228430460139687
  0
LWPOLYLINE
  5
101
330
D7
100
AcDbEntity
  8
AM_9
100
AcDbPolyline
 90
        9
 70
     0
 43
0.0
 10
-0.3785997409589371
 20
-1.228430460139687
 10
-0.3827031651775136
 20
-1.213130491447926
 10
-0.3883047454914036
 20
-1.199102457837571
 10
-0.395153387286834
 20
-1.186757079821128
 10
-0.4029303305336714
 20
-1.176397806247676
 10
-0.4113734648611883
 20
-1.168297450571949
 10
-0.4200946615907597
 20
-1.162734366091722
 10
-0.4286672451470351
 20
-1.159935013480049
 10
-0.4330134022760913
 20
-1.159550000010016
  0
LWPOLYLINE
  5
102
330
D7
100
AcDbEntity
  8
AM_9
100
AcDbPolyline
 90
        5
 70
     0
 43
0.0
 10
0.1359895719455741
 20
-1.286569539860314
 10
0.1399832192910969
 20
-1.272388522356218
 10
0.1413567678452104
 20
-1.258671041078072
 10
0.1403070979750577
 20
-1.244461815497943
 10
0.1359895719455741
 20
-1.228430460139686
  0
LWPOLYLINE
  5
103
330
D7
100
AcDbEntity
  8
AM_9
100
AcDbPolyline
 90
        6
 70
     0
 43
0.0
 10
-0.0503724909258277
 20
-1.228430460139686
 10
-0.0540462029092757
 20
-1.240446182944241
 10
-0.0557995297332417
 20
-1.252889256978227
 10
-0.0554499503740397
 20
-1.266194674004853
 10
-0.0527442761987754
 20
-1.279641340978088
 10
-0.0503724909258277
 20
-1.286569539860314
  0
LINE
  5
104
330
D7
100
AcDbEntity
  8
AM_9
100
AcDbLine
 10
0.5
 20
-1.4736
 30
0.0
 11
0.5
 21
-0.1863999999999998
 31
0.0
  0
LINE
  5
105
330
D7
100
AcDbEntity
  8
AM_9
100
AcDbLine
 10
-0.5
 20
-0.1863999999999998
 30
0.0
 11
-0.5
 21
-1.4736
 31
0.0
  0
LWPOLYLINE
  5
106
330
D7
100
AcDbEntity
  8
AM_9
100
AcDbPolyline
 90
        8
 70
     0
 43
0.0
 10
-0.0387062302209211
 20
-1.3110650216712
 10
-0.0353031923839886
 20
-1.315897542162429
 10
-0.0244757509089906
 20
-1.328088052957008
 10
-0.0114007587868065
 20
-1.338602193752324
 10
0.0029250526208667
 20
-1.346610641116985
 10
0.018846112351934
 20
-1.352265633908278
 10
0.0348038052518412
 20
-1.355053822764036
 10
0.0435795032053592
 20
-1.355449999986303
  0
LWPOLYLINE
  5
107
330
D7
100
AcDbEntity
  8
AM_9
100
AcDbPolyline
 90
        3
 70
     0
 43
0.0
 10
-0.0503724909258277
 20
-1.286569539860314
 10
-0.044190691471846
 20
-1.301661297015916
 10
-0.0387062302209211
 20
-1.3110650216712
  0
ELLIPSE
  5
108
330
D7
100
AcDbEntity
  8
AM_9
100
AcDbEllipse
 10
0.0428085405098727
 20
-1.2575
 30
0.0
 11
-1.799312309647240E-17
 21
-0.09794999999999954
 31
0.0
210
0.0
220
0.0
230
1.0
 40
0.996194698091745
 41
4.411070673880165
 42
5.013707286889218
  0
LWPOLYLINE
  5
109
330
D7
100
AcDbEntity
  8
AM_9
100
AcDbPolyline
 90
        3
 70
     0
 43
0.0
 10
0.0535022003401118
 20
-1.160058823331694
 10
0.0523384352995282
 20
-1.159946177235964
 10
0.043576239541831
 20
-1.159550000013697
  0
LINE
  5
10A
330
D7
100
AcDbEntity
  8
AM_9
100
AcDbLine
 10
0.0435718071578943
 20
-1.35545
 30
0.0
 11
0.0558672478481998
 21
-1.35545
 31
0.0
  0
LINE
  5
10B
330
D7
100
AcDbEntity
  8
AM_9
100
AcDbLine
 10
0.0558672478481997
 20
-1.15955
 30
0.0
 11
0.0435718071578942
 21
-1.15955
 31
0.0
  0
LWPOLYLINE
  5
10C
330
D7
100
AcDbEntity
  8
AM_9
100
AcDbPolyline
 90
        3
 70
     0
 43
0.0
 10
0.0435795032053592
 20
-1.355449999986303
 10
0.0514479403472357
 20
-1.355130446044221
 10
0.0515234966606949
 20
-1.355124266233974
  0
LWPOLYLINE
  5
10D
330
D7
100
AcDbEntity
  8
AM_9
100
AcDbPolyline
 90
        3
 70
     0
 43
0.0
 10
-0.0388853535948259
 20
-1.20420729124177
 10
-0.0431907029271253
 20
-1.211433759599054
 10
-0.0503724909258277
 20
-1.228430460139686
  0
LWPOLYLINE
  5
10E
330
D7
100
AcDbEntity
  8
AM_9
100
AcDbPolyline
 90
        8
 70
     0
 43
0.0
 10
0.043576239541831
 20
-1.159550000013697
 10
0.0356969075121816
 20
-1.159869553955779
 10
0.0199387102438848
 20
-1.162455576072375
 10
0.0043644790113469
 20
-1.167748455065522
 10
-0.0097992242068989
 20
-1.175341857591646
 10
-0.0228815843012216
 20
-1.185423876501985
 10
-0.033987902479701
 20
-1.19738842982574
 10
-0.0388853535948259
 20
-1.20420729124177
  0
LINE
  5
10F
330
D7
100
AcDbEntity
  8
AM_9
100
AcDbLine
 10
-0.4999999999999999
 20
-1.4736
 30
0.0
 11
-0.5264
 21
-1.5
 31
0.0
  0
LINE
  5
110
330
D7
100
AcDbEntity
  8
AM_9
100
AcDbLine
 10
0.5264
 20
-1.5
 30
0.0
 11
0.4999999999999999
 21
-1.4736
 31
0.0
  0
LINE
  5
111
330
D7
100
AcDbEntity
  8
AM_9
100
AcDbLine
 10
0.5
 20
-0.1863999999999998
 30
0.0
 11
0.5264
 21
-0.1599999999999999
 31
0.0
  0
LINE
  5
112
330
D7
100
AcDbEntity
  8
AM_9
100
AcDbLine
 10
-0.5264
 20
-0.1599999999999999
 30
0.0
 11
-0.5
 21
-0.1863999999999998
 31
0.0
  0
LINE
  5
113
330
D7
100
AcDbEntity
  8
AM_9
100
AcDbLine
 10
-0.6336
 20
-0.1599999999999999
 30
0.0
 11
-0.66
 21
-0.1863999999999999
 31
0.0
  0
LINE
  5
114
330
D7
100
AcDbEntity
  8
AM_9
100
AcDbLine
 10
0.66
 20
-0.1863999999999999
 30
0.0
 11
0.6336
 21
-0.1599999999999999
 31
0.0
  0
LINE
  5
115
330
D7
100
AcDbEntity
  8
AM_9
100
AcDbLine
 10
-0.6336
 20
-0.1599999999999999
 30
0.0
 11
0.6336
 21
-0.1599999999999999
 31
0.0
  0
LINE
  5
116
330
D7
100
AcDbEntity
  8
AM_9
100
AcDbLine
 10
0.6599999999999998
 20
-1.14
 30
0.0
 11
0.6599999999999998
 21
-1.015
 31
0.0
  0
LINE
  5
117
330
D7
100
AcDbEntity
  8
AM_9
100
AcDbLine
 10
-0.6599999999999998
 20
-1.015
 30
0.0
 11
-0.6599999999999998
 21
-1.14
 31
0.0
  0
LINE
  5
118
330
D7
100
AcDbEntity
  8
AM_9
100
AcDbLine
 10
0.6599999999999998
 20
-0.425
 30
0.0
 11
0.6599999999999998
 21
-0.1863999999999999
 31
0.0
  0
LINE
  5
119
330
D7
100
AcDbEntity
  8
AM_9
100
AcDbLine
 10
-0.6599999999999998
 20
-0.1863999999999999
 30
0.0
 11
-0.6599999999999998
 21
-0.425
 31
0.0
  0
LINE
  5
11A
330
D7
100
AcDbEntity
  8
AM_9
100
AcDbLine
 10
-0.6599999999999998
 20
-0.1863999999999999
 30
0.0
 11
0.6599999999999998
 21
-0.1863999999999999
 31
0.0
  0
LINE
  5
11B
330
D7
100
AcDbEntity
  8
AM_9
100
AcDbLine
 10
0.9702666666666667
 20
-0.912
 30
0.0
 11
0.9702666666666667
 21
-0.848
 31
0.0
  0
LINE
  5
11C
330
D7
100
AcDbEntity
  8
AM_9
100
AcDbLine
 10
-0.9702666666666667
 20
-0.848
 30
0.0
 11
-0.9702666666666667
 21
-0.912
 31
0.0
  0
LINE
  5
11D
330
D7
100
AcDbEntity
  8
AM_9
100
AcDbLine
 10
-0.9560865860370598
 20
-0.425
 30
0.0
 11
0.9560865860370598
 21
-0.425
 31
0.0
  0
ARC
  5
11E
330
D7
100
AcDbEntity
  8
AM_9
100
AcDbCircle
 10
0.9560865860370603
 20
-0.4569999999999993
 30
0.0
 40
0.0319999999999994
100
AcDbArc
 50
15.38049883735764
 51
90.0
  0
ARC
  5
11F
330
D7
100
AcDbEntity
  8
AM_9
100
AcDbCircle
 10
-0.9560865860370603
 20
-0.4569999999999993
 30
0.0
 40
0.0319999999999993
100
AcDbArc
 50
90.0
 51
164.6195011626424
  0
LINE
  5
120
330
D7
100
AcDbEntity
  8
AM_9
100
AcDbLine
 10
-0.9560865860370598
 20
-1.015
 30
0.0
 11
0.9560865860370598
 21
-1.015
 31
0.0
  0
ARC
  5
121
330
D7
100
AcDbEntity
  8
AM_9
100
AcDbCircle
 10
0.9560865860370598
 20
-0.983
 30
0.0
 40
0.0319999999999999
100
AcDbArc
 50
270.0
 51
344.6195040508823
  0
ARC
  5
122
330
D7
100
AcDbEntity
  8
AM_9
100
AcDbCircle
 10
-0.9560865860370596
 20
-0.9829999999999998
 30
0.0
 40
0.0320000000000002
100
AcDbArc
 50
195.3804959491181
 51
270.0
  0
ARC
  5
123
330
D7
100
AcDbEntity
  8
AM_9
100
AcDbCircle
 10
0.0000000000100218
 20
-0.719999999997667
 30
0.0
 40
1.023600000010273
100
AcDbArc
 50
190.8111968128757
 51
195.3804959490949
  0
ARC
  5
124
330
D7
100
AcDbEntity
  8
AM_9
100
AcDbCircle
 10
-0.0000000001431809
 20
-0.7199999999667206
 30
0.0
 40
1.023600000146764
100
AcDbArc
 50
344.6195040512101
 51
349.1888031868197
  0
LINE
  5
125
330
D7
100
AcDbEntity
  8
AM_9
100
AcDbLine
 10
-0.986940529918844
 20
-0.9914872932634127
 30
0.0
 11
0.9869405299187328
 21
-0.9914872932634127
 31
0.0
  0
LINE
  5
126
330
D7
100
AcDbEntity
  8
AM_9
100
AcDbLine
 10
-1.005431728164565
 20
-0.912
 30
0.0
 11
1.005431728164453
 21
-0.912
 31
0.0
  0
LWPOLYLINE
  5
127
330
D7
100
AcDbEntity
  8
AM_9
100
AcDbPolyline
 90
        4
 70
     0
 43
0.0
 10
-0.4857102413355959
 20
-0.6384790748393657
 10
-0.4971660664831504
 20
-0.641948716602577
 10
-0.509123269763793
 20
-0.6433157021417998
 10
-0.5120140187846481
 20
-0.6433061086799058
  0
LWPOLYLINE
  5
128
330
D7
100
AcDbEntity
  8
AM_9
100
AcDbPolyline
 90
       18
 70
     0
 43
0.0
 10
-0.4857102413355984
 20
-0.638479074839363
 10
-0.4742761134917112
 20
-0.63270529477696
 10
-0.4636785784428766
 20
-0.6249280819929616
 10
-0.4541809582480583
 20
-0.6152995569618808
 10
-0.4460775681666497
 20
-0.6041555580514484
 10
-0.4395575911560556
 20
-0.591686047477016
 10
-0.434845204578416
 20
-0.5783461908989431
 10
-0.4320701075996904
 20
-0.5643449217118152
 10
-0.4313415294494816
 20
-0.5502231837590907
 10
-0.4327223310358962
 20
-0.5363010457646392
 10
-0.4361597190469303
 20
-0.5230502627558633
 10
-0.4415778337517475
 20
-0.5108912360042811
 10
-0.4488099394465451
 20
-0.5001334473324628
 10
-0.4575910951197701
 20
-0.4911974993051385
 10
-0.4677148623458935
 20
-0.4842187848793982
 10
-0.4787649567315007
 20
-0.4794879251183825
 10
-0.4905318057864508
 20
-0.4770185045260378
 10
-0.4971301944711772
 20
-0.4766666666980061
  0
ARC
  5
129
330
D7
100
AcDbEntity
  8
AM_9
100
AcDbCircle
 10
0.0000000000000053
 20
-0.7200000000000006
 30
0.0
 40
1.023600000000005
100
AcDbArc
 50
164.6195039605895
 51
187.1835766537106
  0
ARC
  5
12A
330
D7
100
AcDbEntity
  8
AM_9
100
AcDbCircle
 10
-0.0000000000004299
 20
-0.7200000000000302
 30
0.0
 40
1.023600000000414
100
AcDbArc
 50
352.8164233462939
 51
15.38049603940587
  0
LINE
  5
12B
330
D7
100
AcDbEntity
  8
AM_9
100
AcDbLine
 10
-1.01556534009388
 20
-0.8479999999999998
 30
0.0
 11
1.015565340093873
 21
-0.8479999999999998
 31
0.0
  0
LINE
  5
12C
330
D7
100
AcDbEntity
  8
AM_9
100
AcDbLine
 10
-0.9869405294910134
 20
-0.4485127051812612
 30
0.0
 11
0.9869405294910057
 21
-0.4485127051812612
 31
0.0
  0
ELLIPSE
  5
12D
330
D7
100
AcDbEntity
  8
AM_4
100
AcDbEllipse
 10
-0.5551264248432152
 20
-1.2575
 30
0.0
 11
5.997707698824162E-18
 21
0.09794999999999998
 31
0.0
210
0.0
220
0.0
230
1.0
 40
0.5
 41
5.752482979528046
 42
9.941398946689443
  0
LWPOLYLINE
  5
12E
330
D7
100
AcDbEntity
  8
AM_4
100
AcDbPolyline
 90
       12
 70
     0
 43
0.0
 10
-0.5359208167402502
 20
-1.164697073047362
 10
-0.5306917068470467
 20
-1.172869123517471
 10
-0.5236435284614013
 20
-1.186972754750189
 10
-0.5178706397275459
 20
-1.202721640052605
 10
-0.5133115749111596
 20
-1.221055163209004
 10
-0.510602492792698
 20
-1.240320626995201
 10
-0.509884252707708
 20
-1.260942866202159
 10
-0.5113252473400026
 20
-1.28147020688523
 10
-0.5149623657176058
 20
-1.30157916435856
 10
-0.5206097625461669
 20
-1.320411433840605
 10
-0.5279328253234123
 20
-1.33708732278418
 10
-0.5359262857140232
 20
-1.35031066280744
  0
LWPOLYLINE
  5
12F
330
D7
100
AcDbEntity
  8
AM_4
100
AcDbPolyline
 90
       20
 70
     0
 43
0.0
 10
-0.5359262857140232
 20
-1.35031066280744
 10
-0.5366841662001992
 20
-1.351367623867852
 10
-0.545946896007121
 20
-1.362093710465617
 10
-0.555785323253745
 20
-1.369708239114298
 10
-0.5649459852294408
 20
-1.373572273429807
 10
-0.573923255745406
 20
-1.374332930022738
 10
-0.5819089396924765
 20
-1.372136272317679
 10
-0.5892727357864607
 20
-1.367259533513843
 10
-0.5958933623727295
 20
-1.359811564681069
 10
-0.6016589269067751
 20
-1.350112722371478
 10
-0.606800614037565
 20
-1.337647852948785
 10
-0.6109364758151322
 20
-1.323361355745229
 10
-0.6142907946348879
 20
-1.30630492209929
 10
-0.6165357335709922
 20
-1.288038856796416
 10
-0.6177321257920414
 20
-1.267900484154198
 10
-0.6177449629563588
 20
-1.247481601382781
 10
-0.6165249749839099
 20
-1.226869208803702
 10
-0.6140418120810356
 20
-1.207130536932985
 10
-0.6108738064261195
 20
-1.191390904836673
 10
-0.606718863417848
 20
-1.177103772592875
  0
ELLIPSE
  5
130
330
D7
100
AcDbEntity
  8
AM_4
100
AcDbEllipse
 10
0.0428085405098723
 20
-1.2575
 30
0.0
 11
-1.799312309647269E-17
 21
-0.09795000000000109
 31
0.0
210
0.0
220
0.0
230
1.0
 40
0.9961946980917438
 41
1.269478020290371
 42
1.872114633299424
  0
LWPOLYLINE
  5
131
330
D7
100
AcDbEntity
  8
AM_4
100
AcDbPolyline
 90
        8
 70
     0
 43
0.0
 10
0.1359895719455741
 20
-1.228430460139686
 10
0.1300036564500958
 20
-1.213338702984084
 10
0.1213742556000862
 20
-1.19910245783757
 10
0.1108239096054995
 20
-1.186911947042992
 10
0.0980290712210998
 20
-1.176397806247675
 10
0.0839419885996098
 20
-1.168389358883015
 10
0.0682025936972522
 20
-1.162734366091722
 10
0.0535022003401118
 20
-1.160058823331694
  0
LWPOLYLINE
  5
132
330
D7
100
AcDbEntity
  8
AM_4
100
AcDbPolyline
 90
        8
 70
     0
 43
0.0
 10
0.0515234966606949
 20
-1.355124266233974
 10
0.0671192307244943
 20
-1.352544423927625
 10
0.0825226082341654
 20
-1.347251544934478
 10
0.0964577646737754
 20
-1.339658142408354
 10
0.1092670863656681
 20
-1.329576123498015
 10
0.1200948119746076
 20
-1.31761157017426
 10
0.1290340916944914
 20
-1.303566240400946
 10
0.1359895719455741
 20
-1.286569539860314
  0
LINE
  5
133
330
D7
100
AcDbEntity
  8
AM_4
100
AcDbLine
 10
0.6336
 20
-1.5
 30
0.0
 11
0.66
 21
-1.4736
 31
0.0
  0
LINE
  5
134
330
D7
100
AcDbEntity
  8
AM_4
100
AcDbLine
 10
-0.66
 20
-1.4736
 30
0.0
 11
-0.6336
 21
-1.5
 31
0.0
  0
LINE
  5
135
330
D7
100
AcDbEntity
  8
AM_4
100
AcDbLine
 10
-0.6336
 20
-1.5
 30
0.0
 11
0.6336
 21
-1.5
 31
0.0
  0
LWPOLYLINE
  5
136
330
D7
100
AcDbEntity
  8
AM_4
100
AcDbPolyline
 90
       11
 70
     0
 43
0.0
 10
-0.606718863417848
 20
-1.177103772592875
 10
-0.601926964204776
 20
-1.165443609026826
 10
-0.5962569086816631
 20
-1.155688150578882
 10
-0.5888700227297516
 20
-1.147409035480632
 10
-0.5805373998444571
 20
-1.142264359585832
 10
-0.572154363393276
 20
-1.140575253915544
 10
-0.5633705535039004
 20
-1.14186226962869
 10
-0.5548192812241896
 20
-1.145887835304568
 10
-0.5464186999362606
 20
-1.152441661049538
 10
-0.5382121928933471
 20
-1.161598589441479
 10
-0.5359208167402502
 20
-1.164697073047362
  0
LWPOLYLINE
  5
137
330
D7
100
AcDbEntity
  8
AM_4
100
AcDbPolyline
 90
       39
 70
     0
 43
0.0
 10
0.0621067137528739
 20
-1.140661474984024
 10
0.0790472730780852
 20
-1.142935009861416
 10
0.0958054714631106
 20
-1.148276128652837
 10
0.1104036403607408
 20
-1.155817451276125
 10
0.1239505167746096
 20
-1.165823652189493
 10
0.1362292309776106
 20
-1.178324954959814
 10
0.1466808205035985
 20
-1.192969948175179
 10
0.1551750300059274
 20
-1.209964456970934
 10
0.1610717777883469
 20
-1.228599959255025
 10
0.1640640114019703
 20
-1.248535417486542
 10
0.1638366966220588
 20
-1.269267126662734
 10
0.1602984696417373
 20
-1.289543509718558
 10
0.1532704224032934
 20
-1.309478796956315
 10
0.1433731093932306
 20
-1.327204220830018
 10
0.130142287889316
 20
-1.343365888499601
 10
0.1154130824943363
 20
-1.355863596394857
 10
0.0980506687386885
 20
-1.365752302949632
 10
0.0812207653379114
 20
-1.371552898882926
 10
0.0629775408390015
 20
-1.374294110804165
 10
0.0463945032253779
 20
-1.373816426128483
 10
0.0296114070973824
 20
-1.37044152159019
 10
0.0142700325024573
 20
-1.364604605656342
 10
-0.0003377063791058
 20
-1.35619464771862
 10
-0.0137609035357
 20
-1.345349617680076
 10
-0.0256325294406301
 20
-1.332241683316725
 10
-0.0358399983365996
 20
-1.31665704692865
 10
-0.0436679931508376
 20
-1.299228919764285
 10
-0.0488283207446813
 20
-1.280034059861369
 10
-0.0508642754519359
 20
-1.259716684261794
 10
-0.0495373838623023
 20
-1.239232894192792
 10
-0.0446693883021607
 20
-1.218685776923959
 10
-0.0366138991425922
 20
-1.1997781082666
 10
-0.0250593995940345
 20
-1.182024590524754
 10
-0.0114264620863431
 20
-1.167505675960099
 10
0.0051394451384176
 20
-1.155287806208792
 10
0.0217783391994464
 20
-1.147188784212083
 10
0.0402089692020379
 20
-1.142081376444722
 10
0.0510567281529667
 20
-1.140766831710149
 10
0.0621067091188107
 20
-1.140661460616964
  0
LINE
  5
138
330
D7
100
AcDbEntity
  8
AM_4
100
AcDbLine
 10
0.6599999999999998
 20
-1.4736
 30
0.0
 11
0.6599999999999998
 21
-1.14
 31
0.0
  0
LINE
  5
139
330
D7
100
AcDbEntity
  8
AM_4
100
AcDbLine
 10
-0.6599999999999998
 20
-1.14
 30
0.0
 11
-0.6599999999999998
 21
-1.4736
 31
0.0
  0
LINE
  5
13A
330
D7
100
AcDbEntity
  8
AM_4
100
AcDbLine
 10
-0.6599999999999998
 20
-1.4736
 30
0.0
 11
0.6599999999999998
 21
-1.4736
 31
0.0
  0
ELLIPSE
  5
13B
330
D7
100
AcDbEntity
  8
AM_4
100
AcDbEllipse
 10
0.0558672478481997
 20
-1.2575
 30
0.0
 11
-1.799312309647248E-17
 21
-0.09794999999999998
 31
0.0
210
0.0
220
0.0
230
1.0
 40
0.9961946980917458
 41
0.0
 42
6.283185307179586
  0
ENDBLK
  5
DA
330
D7
100
AcDbEntity
  8
0
100
AcDbBlockEnd
  0
BLOCK
  5
13E
330
13C
100
AcDbEntity
  8
0
100
AcDbBlockBegin
  2
4_127534H_0_in_127534_4
 70
     2
 10
0.0
 20
0.0
 30
0.0
  3
4_127534H_0_in_127534_4
  1

  0
ATTDEF
  5
140
330
13C
100
AcDbEntity
  8
AM_6
100
AcDbText
 10
6.355
 20
0.057
 30
0.0
 40
0.5
  1
FB-SCEZ-PCR -I-Housing
100
AcDbAttributeDefinition
  3

  2
NN
 70
     8
280
     0
  0
ATTDEF
  5
141
330
13C
100
AcDbEntity
  8
AM_6
100
AcDbText
 10
6.355
 20
-0.443
 30
0.0
 40
0.5
  1
SC 3 Bolt Flange Bearings -(Normal Duty) -Polymer Housed -Corrosion Resistant Insert -E-Z KLEEN
100
AcDbAttributeDefinition
  3

  2
NT
 70
     8
280
     0
  0
ATTDEF
  5
142
330
13C
100
AcDbEntity
  8
AM_6
100
AcDbText
 10
6.355
 20
-0.9430000000000001
 30
0.0
 40
0.5
  1
127534H
100
AcDbAttributeDefinition
  3

  2
NB
 70
     8
280
     0
  0
ATTDEF
  5
143
330
13C
100
AcDbEntity
  8
AM_6
100
AcDbText
 10
6.355
 20
-1.443
 30
0.0
 40
0.5
  1
$PN.H
100
AcDbAttributeDefinition
  3

  2
NBSYN
 70
     8
280
     0
  0
ATTDEF
  5
144
330
13C
100
AcDbEntity
  8
AM_6
100
AcDbText
 10
6.355
 20
-1.943
 30
0.0
 40
0.5
  1
127534
100
AcDbAttributeDefinition
  3

  2
LINA
 70
     8
280
     0
  0
ATTDEF
  5
145
330
13C
100
AcDbEntity
  8
AM_6
100
AcDbText
 10
6.355
 20
-2.443
 30
0.0
 40
0.5
  1
205
100
AcDbAttributeDefinition
  3

  2
SERIES
 70
     8
280
     0
  0
ATTDEF
  5
146
330
13C
100
AcDbEntity
  8
AM_6
100
AcDbText
 10
6.355
 20
-2.943
 30
0.0
 40
0.5
  1
1
100
AcDbAttributeDefinition
  3

  2
SS
 70
     8
280
     0
  0
ATTDEF
  5
147
330
13C
100
AcDbEntity
  8
AM_6
100
AcDbText
 10
6.355
 20
-3.443
 30
0.0
 40
0.5
  1
127534
100
AcDbAttributeDefinition
  3

  2
PN
 70
     8
280
     0
  0
ATTDEF
  5
148
330
13C
100
AcDbEntity
  8
AM_6
100
AcDbText
 10
6.355
 20
-3.943
 30
0.0
 40
0.5
  1
FB-SCEZ-100-PCR
100
AcDbAttributeDefinition
  3

  2
DESCRIPTION
 70
     8
280
     0
  0
ATTDEF
  5
149
330
13C
100
AcDbEntity
  8
AM_6
100
AcDbText
 10
6.355
 20
-4.443
 30
0.0
 40
0.5
  1
1
100
AcDbAttributeDefinition
  3

  2
INSERTHELP
 70
     8
280
     0
  0
ATTDEF
  5
14A
330
13C
100
AcDbEntity
  8
AM_6
100
AcDbText
 10
6.355
 20
-4.943
 30
0.0
 40
0.5
  1
1.34
100
AcDbAttributeDefinition
  3

  2
A
 70
     8
280
     0
  0
ATTDEF
  5
14B
330
13C
100
AcDbEntity
  8
AM_6
100
AcDbText
 10
6.355
 20
-5.443
 30
0.0
 40
0.5
  1
4.91
100
AcDbAttributeDefinition
  3

  2
B
 70
     8
280
     0
  0
ATTDEF
  5
14C
330
13C
100
AcDbEntity
  8
AM_6
100
AcDbText
 10
6.355
 20
-5.943
 30
0.0
 40
0.5
  1
1.50
100
AcDbAttributeDefinition
  3

  2
C
 70
     8
280
     0
  0
ATTDEF
  5
14D
330
13C
100
AcDbEntity
  8
AM_6
100
AcDbText
 10
6.355
 20
-6.443
 30
0.0
 40
0.5
  1
1.63
100
AcDbAttributeDefinition
  3

  2
D
 70
     8
280
     0
  0
ATTDEF
  5
14E
330
13C
100
AcDbEntity
  8
AM_6
100
AcDbText
 10
6.355
 20
-6.943
 30
0.0
 40
0.5
  1
1.81
100
AcDbAttributeDefinition
  3

  2
E
 70
     8
280
     0
  0
ATTDEF
  5
14F
330
13C
100
AcDbEntity
  8
AM_6
100
AcDbText
 10
6.355
 20
-7.443
 30
0.0
 40
0.5
  1
3/8
100
AcDbAttributeDefinition
  3

  2
F
 70
     8
280
     0
  0
ATTDEF
  5
150
330
13C
100
AcDbEntity
  8
AM_6
100
AcDbText
 10
6.355
 20
-7.943
 30
0.0
 40
0.5
  1
1.13
100
AcDbAttributeDefinition
  3

  2
G
 70
     8
280
     0
  0
ATTDEF
  5
151
330
13C
100
AcDbEntity
  8
AM_6
100
AcDbText
 10
6.355
 20
-8.443
 30
0.0
 40
0.5
  1
0.54
100
AcDbAttributeDefinition
  3

  2
H
 70
     8
280
     0
  0
ATTDEF
  5
152
330
13C
100
AcDbEntity
  8
AM_6
100
AcDbText
 10
6.355
 20
-8.943
 30
0.0
 40
0.5
  1
3.56
100
AcDbAttributeDefinition
  3

  2
I
 70
     8
280
     0
  0
ATTDEF
  5
153
330
13C
100
AcDbEntity
  8
AM_6
100
AcDbText
 10
6.355
 20
-9.443
 30
0.0
 40
0.5
  1
2.71
100
AcDbAttributeDefinition
  3

  2
J
 70
     8
280
     0
  0
ATTDEF
  5
154
330
13C
100
AcDbEntity
  8
AM_6
100
AcDbText
 10
6.355
 20
-9.943
 30
0.0
 40
0.5
  1
1.14
100
AcDbAttributeDefinition
  3

  2
K
 70
     8
280
     0
  0
ATTDEF
  5
155
330
13C
100
AcDbEntity
  8
AM_6
100
AcDbText
 10
6.355
 20
-10.443
 30
0.0
 40
0.5
  1
1.32
100
AcDbAttributeDefinition
  3

  2
L
 70
     8
280
     0
  0
ATTDEF
  5
156
330
13C
100
AcDbEntity
  8
AM_6
100
AcDbText
 10
6.355
 20
-10.943
 30
0.0
 40
0.5
  1
baldor
100
AcDbAttributeDefinition
  3

  2
COMPANY
 70
     8
280
     0
  0
LINE
  5
157
330
13C
100
AcDbEntity
  8
AM_9
100
AcDbLine
 10
0.2709999999999998
 20
-0.4050000000000003
 30
0.0
 11
0.2709999999999998
 21
-0.0000000000000003
 31
0.0
  0
LINE
  5
158
330
13C
100
AcDbEntity
  8
AM_9
100
AcDbLine
 10
-0.2709999999999999
 20
-0.4050000000000003
 30
0.0
 11
-0.2709999999999999
 21
-0.0000000000000003
 31
0.0
  0
LINE
  5
159
330
13C
100
AcDbEntity
  8
AM_9
100
AcDbLine
 10
-1.228196088170487
 20
-0.4050000000000002
 30
0.0
 11
-1.228196088170487
 21
-0.0000000000000002
 31
0.0
  0
LINE
  5
15A
330
13C
100
AcDbEntity
  8
AM_9
100
AcDbLine
 10
1.228196088170486
 20
-0.4050000000000002
 30
0.0
 11
1.228196088170486
 21
-0.0000000000000002
 31
0.0
  0
LINE
  5
15B
330
13C
100
AcDbEntity
  8
AM_9
100
AcDbLine
 10
0.1875
 20
-0.5400000000000003
 30
0.0
 11
0.1875
 21
-0.0000000000000002
 31
0.0
  0
LINE
  5
15C
330
13C
100
AcDbEntity
  8
AM_9
100
AcDbLine
 10
-0.1875
 20
-0.0000000000000002
 30
0.0
 11
-0.1875
 21
-0.5400000000000003
 31
0.0
  0
LINE
  5
15D
330
13C
100
AcDbEntity
  8
AM_9
100
AcDbLine
 10
0.31875
 20
-0.5400000000000003
 30
0.0
 11
-0.31875
 21
-0.5400000000000003
 31
0.0
  0
LINE
  5
15E
330
13C
100
AcDbEntity
  8
AM_9
100
AcDbLine
 10
0.31875
 20
-0.5400000000000003
 30
0.0
 11
0.31875
 21
-0.4050000000000002
 31
0.0
  0
LINE
  5
15F
330
13C
100
AcDbEntity
  8
AM_9
100
AcDbLine
 10
-0.31875
 20
-0.4050000000000002
 30
0.0
 11
-0.31875
 21
-0.5400000000000003
 31
0.0
  0
LINE
  5
160
330
13C
100
AcDbEntity
  8
AM_9
100
AcDbLine
 10
1.0025
 20
-0.5400000000000001
 30
0.0
 11
1.0025
 21
-0.0000000000000001
 31
0.0
  0
LINE
  5
161
330
13C
100
AcDbEntity
  8
AM_9
100
AcDbLine
 10
0.6275
 20
-0.0000000000000001
 30
0.0
 11
0.6275
 21
-0.5400000000000001
 31
0.0
  0
LINE
  5
162
330
13C
100
AcDbEntity
  8
AM_9
100
AcDbLine
 10
-0.6275
 20
-0.5400000000000001
 30
0.0
 11
-0.6275
 21
-0.0000000000000001
 31
0.0
  0
LINE
  5
163
330
13C
100
AcDbEntity
  8
AM_9
100
AcDbLine
 10
-1.0025
 20
-0.0000000000000001
 30
0.0
 11
-1.0025
 21
-0.5400000000000001
 31
0.0
  0
LINE
  5
164
330
13C
100
AcDbEntity
  8
AM_9
100
AcDbLine
 10
1.13375
 20
-0.5400000000000001
 30
0.0
 11
0.4962499999999999
 21
-0.5400000000000001
 31
0.0
  0
LINE
  5
165
330
13C
100
AcDbEntity
  8
AM_9
100
AcDbLine
 10
1.13375
 20
-0.5400000000000001
 30
0.0
 11
1.13375
 21
-0.4050000000000002
 31
0.0
  0
LINE
  5
166
330
13C
100
AcDbEntity
  8
AM_9
100
AcDbLine
 10
0.4962499999999999
 20
-0.4050000000000002
 30
0.0
 11
0.4962499999999999
 21
-0.5400000000000001
 31
0.0
  0
LINE
  5
167
330
13C
100
AcDbEntity
  8
AM_9
100
AcDbLine
 10
-0.4962499999999999
 20
-0.5400000000000001
 30
0.0
 11
-1.13375
 21
-0.5400000000000001
 31
0.0
  0
LINE
  5
168
330
13C
100
AcDbEntity
  8
AM_9
100
AcDbLine
 10
-0.4962499999999999
 20
-0.5400000000000001
 30
0.0
 11
-0.4962499999999999
 21
-0.4050000000000002
 31
0.0
  0
LINE
  5
169
330
13C
100
AcDbEntity
  8
AM_9
100
AcDbLine
 10
-1.13375
 20
-0.4050000000000002
 30
0.0
 11
-1.13375
 21
-0.5400000000000001
 31
0.0
  0
LINE
  5
16A
330
13C
100
AcDbEntity
  8
AM_9
100
AcDbLine
 10
-1.355
 20
-0.405
 30
0.0
 11
1.355
 21
-0.405
 31
0.0
  0
LINE
  5
16B
330
13C
100
AcDbEntity
  8
AM_9
100
AcDbLine
 10
1.02534835931513
 20
-0.741
 30
0.0
 11
1.02534835931513
 21
-0.0675000000000003
 31
0.0
  0
LINE
  5
16C
330
13C
100
AcDbEntity
  8
AM_9
100
AcDbLine
 10
0.3182415781285827
 20
-0.741
 30
0.0
 11
0.3182415781285827
 21
-0.0675000000000004
 31
0.0
  0
LINE
  5
16D
330
13C
100
AcDbEntity
  8
AM_9
100
AcDbLine
 10
-1.02534835931513
 20
-0.741
 30
0.0
 11
-1.02534835931513
 21
-0.0675000000000003
 31
0.0
  0
LINE
  5
16E
330
13C
100
AcDbEntity
  8
AM_9
100
AcDbLine
 10
-0.2780148796673529
 20
-0.741
 30
0.0
 11
-0.2780148796673529
 21
-0.0675000000000001
 31
0.0
  0
LINE
  5
16F
330
13C
100
AcDbEntity
  8
AM_9
100
AcDbLine
 10
0.9851216608539005
 20
-0.0675000000000002
 30
0.0
 11
0.9851216608539005
 21
-0.741
 31
0.0
  0
LINE
  5
170
330
13C
100
AcDbEntity
  8
AM_9
100
AcDbLine
 10
0.2780148796673529
 20
-0.741
 30
0.0
 11
1.02534835931513
 21
-0.741
 31
0.0
  0
LINE
  5
171
330
13C
100
AcDbEntity
  8
AM_9
100
AcDbLine
 10
0.2780148796673529
 20
-0.741
 30
0.0
 11
0.278014879667353
 21
-0.0675000000000002
 31
0.0
  0
LINE
  5
172
330
13C
100
AcDbEntity
  8
AM_9
100
AcDbLine
 10
-0.9851216608539005
 20
-0.0675000000000002
 30
0.0
 11
-0.9851216608539005
 21
-0.741
 31
0.0
  0
LINE
  5
173
330
13C
100
AcDbEntity
  8
AM_9
100
AcDbLine
 10
1.0236
 20
-1.0725
 30
0.0
 11
1.0236
 21
-0.0675000000000002
 31
0.0
  0
LINE
  5
174
330
13C
100
AcDbEntity
  8
AM_9
100
AcDbLine
 10
-1.0236
 20
-0.0675000000000002
 30
0.0
 11
-1.0236
 21
-1.0725
 31
0.0
  0
LINE
  5
175
330
13C
100
AcDbEntity
  8
AM_9
100
AcDbLine
 10
-0.2780148796673529
 20
-0.741
 30
0.0
 11
-1.02534835931513
 21
-0.741
 31
0.0
  0
LINE
  5
176
330
13C
100
AcDbEntity
  8
AM_9
100
AcDbLine
 10
-0.3182415781285827
 20
-0.741
 30
0.0
 11
-0.3182415781285827
 21
-0.0675
 31
0.0
  0
LINE
  5
177
330
13C
100
AcDbEntity
  8
AM_9
100
AcDbLine
 10
-1.1586
 20
-1.0725
 30
0.0
 11
1.1586
 21
-1.0725
 31
0.0
  0
LINE
  5
178
330
13C
100
AcDbEntity
  8
AM_9
100
AcDbLine
 10
1.1586
 20
-1.14
 30
0.0
 11
1.1586
 21
-1.0725
 31
0.0
  0
LINE
  5
179
330
13C
100
AcDbEntity
  8
AM_9
100
AcDbLine
 10
-1.1586
 20
-1.0725
 30
0.0
 11
-1.1586
 21
-1.14
 31
0.0
  0
LINE
  5
17A
330
13C
100
AcDbEntity
  8
AM_9
100
AcDbLine
 10
-1.1235
 20
-0.0675
 30
0.0
 11
1.123499999999223
 21
-0.0675
 31
0.0
  0
ARC
  5
17B
330
13C
100
AcDbEntity
  8
AM_9
100
AcDbCircle
 10
1.1235
 20
-0.0324
 30
0.0
 40
0.0351
100
AcDbArc
 50
270.0
 51
0.0
  0
ARC
  5
17C
330
13C
100
AcDbEntity
  8
AM_9
100
AcDbCircle
 10
-1.1235
 20
-0.0324
 30
0.0
 40
0.0351000000000001
100
AcDbArc
 50
180.0
 51
270.0
  0
LINE
  5
17D
330
13C
100
AcDbEntity
  8
AM_9
100
AcDbLine
 10
-1.1586
 20
-0.0324
 30
0.0
 11
1.1586
 21
-0.0324
 31
0.0
  0
LINE
  5
17E
330
13C
100
AcDbEntity
  8
AM_9
100
AcDbLine
 10
1.1586
 20
-0.0324
 30
0.0
 11
1.1586
 21
0.0
 31
0.0
  0
LINE
  5
17F
330
13C
100
AcDbEntity
  8
AM_9
100
AcDbLine
 10
-1.1586
 20
0.0
 30
0.0
 11
-1.1586
 21
-0.0324
 31
0.0
  0
LINE
  5
180
330
13C
100
AcDbEntity
  8
AM_9
100
AcDbLine
 10
1.196251875403109
 20
-0.9513857641445109
 30
0.0
 11
1.196251875403109
 21
-0.7286142358554889
 31
0.0
  0
LINE
  5
183
330
13C
100
AcDbEntity
  8
AM_7
100
AcDbLine
 10
0.815
 20
0.0283499999999999
 30
0.0
 11
0.815
 21
-0.5953500000000002
 31
0.0
  0
LINE
  5
184
330
13C
100
AcDbEntity
  8
AM_7
100
AcDbLine
 10
-0.815
 20
0.0283499999999999
 30
0.0
 11
-0.815
 21
-0.5953500000000002
 31
0.0
  0
LINE
  5
185
330
13C
100
AcDbEntity
  8
AM_7
100
AcDbLine
 10
0.0
 20
-1.567
 30
0.0
 11
0.0
 21
0.057
 31
0.0
  0
LINE
  5
186
330
13C
100
AcDbEntity
  8
AM_4
100
AcDbLine
 10
1.355
 20
0.0
 30
0.0
 11
-1.355
 21
0.0
 31
0.0
  0
LINE
  5
187
330
13C
100
AcDbEntity
  8
AM_4
100
AcDbLine
 10
1.355
 20
-1.14
 30
0.0
 11
-1.355
 21
-1.14
 31
0.0
  0
LINE
  5
188
330
13C
100
AcDbEntity
  8
AM_4
100
AcDbLine
 10
-1.355
 20
-1.14
 30
0.0
 11
-1.355
 21
0.0
 31
0.0
  0
LINE
  5
189
330
13C
100
AcDbEntity
  8
AM_4
100
AcDbLine
 10
1.355
 20
-1.14
 30
0.0
 11
1.355
 21
0.0
 31
0.0
  0
LINE
  5
18A
330
13C
100
AcDbEntity
  8
AM_4
100
AcDbLine
 10
0.5612593770155438
 20
-1.14
 30
0.0
 11
0.5612593770155438
 21
0.0000000000000001
 31
0.0
  0
LINE
  5
18B
330
13C
100
AcDbEntity
  8
AM_4
100
AcDbLine
 10
1.196251875403109
 20
-0.7286142358554889
 30
0.0
 11
1.196251875403109
 21
0.0
 31
0.0
  0
LINE
  5
18C
330
13C
100
AcDbEntity
  8
AM_4
100
AcDbLine
 10
1.196251875403109
 20
-1.14
 30
0.0
 11
1.196251875403109
 21
-0.9513857641445109
 31
0.0
  0
LINE
  5
18D
330
13C
100
AcDbEntity
  8
AM_4
100
AcDbLine
 10
-1.196251875403109
 20
-1.14
 30
0.0
 11
-1.196251875403109
 21
0.0
 31
0.0
  0
LINE
  5
18E
330
13C
100
AcDbEntity
  8
AM_4
100
AcDbLine
 10
-0.5612593770155438
 20
-1.14
 30
0.0
 11
-0.5612593770155438
 21
0.0000000000000001
 31
0.0
  0
ENDBLK
  5
13F
330
13C
100
AcDbEntity
  8
0
100
AcDbBlockEnd
  0
ENDSEC
  0
SECTION
  2
ENTITIES
  0
INSERT
  5
6F
330
1F
100
AcDbEntity
  8
0
100
AcDbBlockReference
  2
1_127534_4
 10
0.0
 20
0.0
 30
0.0
  0
POINT
  5
190
330
1F
100
AcDbEntity
  8
ConnectionPoints
100
AcDbPoint
 10
0.0
 20
-0.1599999999999999
 30
0.0
  0
POINT
  5
191
330
1F
100
AcDbEntity
  8
ConnectionPoints
100
AcDbPoint
 10
0.0
 20
-1.5
 30
0.0000000000000001
  0
POINT
  5
192
330
1F
100
AcDbEntity
  8
ConnectionPoints
100
AcDbPoint
 10
0.9581296885077719
 20
-0.8399999999999999
 30
0.9581296885077718
  0
POINT
  5
193
330
1F
100
AcDbEntity
  8
ConnectionPoints
100
AcDbPoint
 10
0.0
 20
-1.5
 30
0.0000000000000001
  0
ENDSEC
  0
SECTION
  2
OBJECTS
  0
DICTIONARY
  5
C
330
0
100
AcDbDictionary
281
     1
  3
ACAD_DETAILVIEWSTYLE
350
19B
  3
ACAD_GROUP
350
D
  3
ACAD_LAYOUT
350
1A
  3
ACAD_MATERIAL
350
43
  3
ACAD_MLEADERSTYLE
350
6B
  3
ACAD_MLINESTYLE
350
17
  3
ACAD_PLOTSETTINGS
350
19
  3
ACAD_PLOTSTYLENAME
350
E
  3
ACAD_SCALELIST
350
47
  3
ACAD_SECTIONVIEWSTYLE
350
19C
  3
ACAD_TABLESTYLE
350
69
  3
ACAD_VISUALSTYLE
350
2A
  3
ACDB_RECOMPOSE_DATA
350
198
  3
AcDbVariableDictionary
350
194
  0
SUN
  5
6D
330
29
100
AcDbSun
 90
        1
290
     0
 63
     7
421
 16777215
 40
1.0
291
     1
 91
  2455826
 92
 54000000
292
     0
 70
     2
 71
   256
280
     1
  0
DICTIONARY
  5
19B
102
{ACAD_REACTORS
330
C
102
}
330
C
100
AcDbDictionary
281
     1
  0
DICTIONARY
  5
D
102
{ACAD_REACTORS
330
C
102
}
330
C
100
AcDbDictionary
281
     1
  0
DICTIONARY
  5
1A
102
{ACAD_REACTORS
330
C
102
}
330
C
100
AcDbDictionary
281
     1
  3
Layout1
350
1E
  3
Layout2
350
26
  3
Model
350
22
  0
DICTIONARY
  5
43
102
{ACAD_REACTORS
330
C
102
}
330
C
100
AcDbDictionary
281
     1
  3
ByBlock
350
45
  3
ByLayer
350
44
  3
Global
350
46
  0
DICTIONARY
  5
6B
102
{ACAD_REACTORS
330
C
102
}
330
C
100
AcDbDictionary
281
     1
  3
Standard
350
6C
  0
DICTIONARY
  5
17
102
{ACAD_REACTORS
330
C
102
}
330
C
100
AcDbDictionary
281
     1
  3
Standard
350
18
  0
DICTIONARY
  5
19
102
{ACAD_REACTORS
330
C
102
}
330
C
100
AcDbDictionary
281
     1
  0
ACDBDICTIONARYWDFLT
  5
E
102
{ACAD_REACTORS
330
C
102
}
330
C
100
AcDbDictionary
281
     1
  3
Normal
350
F
100
AcDbDictionaryWithDefault
340
F
  0
DICTIONARY
  5
47
102
{ACAD_REACTORS
330
C
102
}
330
C
100
AcDbDictionary
281
     1
  3
A0
350
48
  3
A1
350
49
  3
A2
350
4A
  3
A3
350
4B
  3
A4
350
4C
  3
A5
350
4D
  3
A6
350
4E
  3
A7
350
4F
  3
A8
350
50
  3
A9
350
51
  3
B0
350
52
  3
B1
350
53
  3
B2
350
54
  3
B3
350
55
  3
B4
350
56
  3
B5
350
57
  3
B6
350
58
  3
B7
350
59
  3
B8
350
5A
  3
B9
350
5B
  3
C0
350
5C
  3
C1
350
5D
  3
C2
350
5E
  3
C3
350
5F
  3
C4
350
60
  3
C5
350
61
  3
C6
350
62
  3
C7
350
63
  3
C8
350
64
  3
C9
350
65
  3
D0
350
66
  3
D1
350
67
  3
D2
350
68
  0
DICTIONARY
  5
19C
102
{ACAD_REACTORS
330
C
102
}
330
C
100
AcDbDictionary
281
     1
  0
DICTIONARY
  5
69
102
{ACAD_REACTORS
330
C
102
}
330
C
100
AcDbDictionary
281
     1
  3
Standard
350
6A
  0
DICTIONARY
  5
2A
102
{ACAD_REACTORS
330
C
102
}
330
C
100
AcDbDictionary
281
     1
  3
2dWireframe
350
2F
  3
Basic
350
32
  3
Brighten
350
36
  3
ColorChange
350
3A
  3
Conceptual
350
34
  3
Dim
350
35
  3
EdgeColorOff
350
3D
  3
Facepattern
350
39
  3
Flat
350
2B
  3
FlatWithEdges
350
2C
  3
Gouraud
350
2D
  3
GouraudWithEdges
350
2E
  3
Hidden
350
31
  3
JitterOff
350
3B
  3
Linepattern
350
38
  3
OverhangOff
350
3C
  3
Realistic
350
33
  3
Shaded
350
42
  3
Shaded with edges
350
41
  3
Shades of Gray
350
3E
  3
Sketchy
350
3F
  3
Thicken
350
37
  3
Wireframe
350
30
  3
X-Ray
350
40
  0
XRECORD
  5
198
102
{ACAD_REACTORS
330
C
102
}
330
C
100
AcDbXrecord
280
     1
 90
        1
330
6A
  0
DICTIONARY
  5
194
102
{ACAD_REACTORS
330
C
102
}
330
C
100
AcDbDictionary
281
     1
  3
CANNOSCALE
350
195
  3
CMLEADERSTYLE
350
19A
  3
CTABLESTYLE
350
199
  0
LAYOUT
  5
1E
102
{ACAD_REACTORS
330
1A
102
}
330
1A
100
AcDbPlotSettings
  1

  2
none_device
  4

  6

 40
0.0
 41
0.0
 42
0.0
 43
0.0
 44
0.0
 45
0.0
 46
0.0
 47
0.0
 48
0.0
 49
0.0
140
0.0
141
0.0
142
1.0
143
1.0
 70
   688
 72
     0
 73
     0
 74
     5
  7

 75
    16
 76
     0
 77
     2
 78
   300
147
1.0
148
0.0
149
0.0
100
AcDbLayout
  1
Layout1
 70
     1
 71
     1
 10
0.0
 20
0.0
 11
12.0
 21
9.0
 12
0.0
 22
0.0
 32
0.0
 14
1.000000000000000E+20
 24
1.000000000000000E+20
 34
1.000000000000000E+20
 15
-1.000000000000000E+20
 25
-1.000000000000000E+20
 35
-1.000000000000000E+20
146
0.0
 13
0.0
 23
0.0
 33
0.0
 16
1.0
 26
0.0
 36
0.0
 17
0.0
 27
1.0
 37
0.0
 76
     0
330
1B
  0
LAYOUT
  5
26
102
{ACAD_REACTORS
330
1A
102
}
330
1A
100
AcDbPlotSettings
  1

  2
none_device
  4

  6

 40
0.0
 41
0.0
 42
0.0
 43
0.0
 44
0.0
 45
0.0
 46
0.0
 47
0.0
 48
0.0
 49
0.0
140
0.0
141
0.0
142
1.0
143
1.0
 70
   688
 72
     0
 73
     0
 74
     5
  7

 75
    16
 76
     0
 77
     2
 78
   300
147
1.0
148
0.0
149
0.0
100
AcDbLayout
  1
Layout2
 70
     1
 71
     2
 10
0.0
 20
0.0
 11
0.0
 21
0.0
 12
0.0
 22
0.0
 32
0.0
 14
0.0
 24
0.0
 34
0.0
 15
0.0
 25
0.0
 35
0.0
146
0.0
 13
0.0
 23
0.0
 33
0.0
 16
1.0
 26
0.0
 36
0.0
 17
0.0
 27
1.0
 37
0.0
 76
     0
330
23
  0
LAYOUT
  5
22
102
{ACAD_REACTORS
330
1A
102
}
330
1A
100
AcDbPlotSettings
  1

  2
none_device
  4
Letter_(8.50_x_11.00_Inches)
  6

 40
6.35
 41
6.35
 42
6.35000508
 43
6.35000508
 44
215.9
 45
279.4
 46
0.0
 47
0.0
 48
0.0
 49
0.0
140
0.0
141
0.0
142
1.0
143
1.0
 70
  1712
 72
     0
 73
     0
 74
     0
  7

 75
     0
 76
     0
 77
     2
 78
   300
147
1.0
148
0.0
149
0.0
100
AcDbLayout
  1
Model
 70
     1
 71
     0
 10
0.0
 20
0.0
 11
12.0
 21
9.0
 12
0.0
 22
0.0
 32
0.0
 14
1.000000000000000E+20
 24
1.000000000000000E+20
 34
1.000000000000000E+20
 15
-1.000000000000000E+20
 25
-1.000000000000000E+20
 35
-1.000000000000000E+20
146
0.0
 13
0.0
 23
0.0
 33
0.0
 16
1.0
 26
0.0
 36
0.0
 17
0.0
 27
1.0
 37
0.0
 76
     0
330
1F
331
29
  0
MATERIAL
  5
45
102
{ACAD_REACTORS
330
43
102
}
330
43
100
AcDbMaterial
  1
ByBlock
 72
     1
 94
      127
  0
MATERIAL
  5
44
102
{ACAD_REACTORS
330
43
102
}
330
43
100
AcDbMaterial
  1
ByLayer
 72
     1
 94
      127
  0
MATERIAL
  5
46
102
{ACAD_REACTORS
330
43
102
}
330
43
100
AcDbMaterial
  1
Global
 72
     1
 94
      127
  0
MLEADERSTYLE
  5
6C
102
{ACAD_REACTORS
330
6B
102
}
330
6B
100
AcDbMLeaderStyle
179
     2
170
     2
171
     1
172
     0
 90
        2
 40
0.0
 41
0.0
173
     1
 91
-1056964608
340
14
 92
       -2
290
     1
 42
0.09
291
     1
 43
0.36
  3
Standard
341
0
 44
0.18
300

342
11
174
     1
178
     6
175
     1
176
     0
 93
-1056964608
 45
0.18
292
     0
297
     0
 46
0.18
343
0
 94
-1056964608
 47
1.0
 49
1.0
140
1.0
293
     1
141
0.0
294
     1
177
     0
142
1.0
295
     0
296
     0
143
0.125
271
     0
272
     9
273
     9
298
     0
  0
MLINESTYLE
  5
18
102
{ACAD_REACTORS
330
17
102
}
330
17
100
AcDbMlineStyle
  2
Standard
 70
     0
  3

 62
   256
 51
90.0
 52
90.0
 71
     2
 49
0.5
 62
   256
  6
BYLAYER
 49
-0.5
 62
   256
  6
BYLAYER
  0
ACDBPLACEHOLDER
  5
F
102
{ACAD_REACTORS
330
E
102
}
330
E
  0
SCALE
  5
48
102
{ACAD_REACTORS
330
47
102
}
330
47
100
AcDbScale
 70
     0
300
1:1
140
1.0
141
1.0
290
     1
  0
SCALE
  5
49
102
{ACAD_REACTORS
330
47
102
}
330
47
100
AcDbScale
 70
     0
300
1:2
140
1.0
141
2.0
290
     0
  0
SCALE
  5
4A
102
{ACAD_REACTORS
330
47
102
}
330
47
100
AcDbScale
 70
     0
300
1:4
140
1.0
141
4.0
290
     0
  0
SCALE
  5
4B
102
{ACAD_REACTORS
330
47
102
}
330
47
100
AcDbScale
 70
     0
300
1:5
140
1.0
141
5.0
290
     0
  0
SCALE
  5
4C
102
{ACAD_REACTORS
330
47
102
}
330
47
100
AcDbScale
 70
     0
300
1:8
140
1.0
141
8.0
290
     0
  0
SCALE
  5
4D
102
{ACAD_REACTORS
330
47
102
}
330
47
100
AcDbScale
 70
     0
300
1:10
140
1.0
141
10.0
290
     0
  0
SCALE
  5
4E
102
{ACAD_REACTORS
330
47
102
}
330
47
100
AcDbScale
 70
     0
300
1:16
140
1.0
141
16.0
290
     0
  0
SCALE
  5
4F
102
{ACAD_REACTORS
330
47
102
}
330
47
100
AcDbScale
 70
     0
300
1:20
140
1.0
141
20.0
290
     0
  0
SCALE
  5
50
102
{ACAD_REACTORS
330
47
102
}
330
47
100
AcDbScale
 70
     0
300
1:30
140
1.0
141
30.0
290
     0
  0
SCALE
  5
51
102
{ACAD_REACTORS
330
47
102
}
330
47
100
AcDbScale
 70
     0
300
1:40
140
1.0
141
40.0
290
     0
  0
SCALE
  5
52
102
{ACAD_REACTORS
330
47
102
}
330
47
100
AcDbScale
 70
     0
300
1:50
140
1.0
141
50.0
290
     0
  0
SCALE
  5
53
102
{ACAD_REACTORS
330
47
102
}
330
47
100
AcDbScale
 70
     0
300
1:100
140
1.0
141
100.0
290
     0
  0
SCALE
  5
54
102
{ACAD_REACTORS
330
47
102
}
330
47
100
AcDbScale
 70
     0
300
2:1
140
2.0
141
1.0
290
     0
  0
SCALE
  5
55
102
{ACAD_REACTORS
330
47
102
}
330
47
100
AcDbScale
 70
     0
300
4:1
140
4.0
141
1.0
290
     0
  0
SCALE
  5
56
102
{ACAD_REACTORS
330
47
102
}
330
47
100
AcDbScale
 70
     0
300
8:1
140
8.0
141
1.0
290
     0
  0
SCALE
  5
57
102
{ACAD_REACTORS
330
47
102
}
330
47
100
AcDbScale
 70
     0
300
10:1
140
10.0
141
1.0
290
     0
  0
SCALE
  5
58
102
{ACAD_REACTORS
330
47
102
}
330
47
100
AcDbScale
 70
     0
300
100:1
140
100.0
141
1.0
290
     0
  0
SCALE
  5
59
102
{ACAD_REACTORS
330
47
102
}
330
47
100
AcDbScale
 70
     0
300
1/128" = 1'-0"
140
0.0078125
141
12.0
290
     0
  0
SCALE
  5
5A
102
{ACAD_REACTORS
330
47
102
}
330
47
100
AcDbScale
 70
     0
300
1/64" = 1'-0"
140
0.015625
141
12.0
290
     0
  0
SCALE
  5
5B
102
{ACAD_REACTORS
330
47
102
}
330
47
100
AcDbScale
 70
     0
300
1/32" = 1'-0"
140
0.03125
141
12.0
290
     0
  0
SCALE
  5
5C
102
{ACAD_REACTORS
330
47
102
}
330
47
100
AcDbScale
 70
     0
300
1/16" = 1'-0"
140
0.0625
141
12.0
290
     0
  0
SCALE
  5
5D
102
{ACAD_REACTORS
330
47
102
}
330
47
100
AcDbScale
 70
     0
300
3/32" = 1'-0"
140
0.09375
141
12.0
290
     0
  0
SCALE
  5
5E
102
{ACAD_REACTORS
330
47
102
}
330
47
100
AcDbScale
 70
     0
300
1/8" = 1'-0"
140
0.125
141
12.0
290
     0
  0
SCALE
  5
5F
102
{ACAD_REACTORS
330
47
102
}
330
47
100
AcDbScale
 70
     0
300
3/16" = 1'-0"
140
0.1875
141
12.0
290
     0
  0
SCALE
  5
60
102
{ACAD_REACTORS
330
47
102
}
330
47
100
AcDbScale
 70
     0
300
1/4" = 1'-0"
140
0.25
141
12.0
290
     0
  0
SCALE
  5
61
102
{ACAD_REACTORS
330
47
102
}
330
47
100
AcDbScale
 70
     0
300
3/8" = 1'-0"
140
0.375
141
12.0
290
     0
  0
SCALE
  5
62
102
{ACAD_REACTORS
330
47
102
}
330
47
100
AcDbScale
 70
     0
300
1/2" = 1'-0"
140
0.5
141
12.0
290
     0
  0
SCALE
  5
63
102
{ACAD_REACTORS
330
47
102
}
330
47
100
AcDbScale
 70
     0
300
3/4" = 1'-0"
140
0.75
141
12.0
290
     0
  0
SCALE
  5
64
102
{ACAD_REACTORS
330
47
102
}
330
47
100
AcDbScale
 70
     0
300
1" = 1'-0"
140
1.0
141
12.0
290
     0
  0
SCALE
  5
65
102
{ACAD_REACTORS
330
47
102
}
330
47
100
AcDbScale
 70
     0
300
1-1/2" = 1'-0"
140
1.5
141
12.0
290
     0
  0
SCALE
  5
66
102
{ACAD_REACTORS
330
47
102
}
330
47
100
AcDbScale
 70
     0
300
3" = 1'-0"
140
3.0
141
12.0
290
     0
  0
SCALE
  5
67
102
{ACAD_REACTORS
330
47
102
}
330
47
100
AcDbScale
 70
     0
300
6" = 1'-0"
140
6.0
141
12.0
290
     0
  0
SCALE
  5
68
102
{ACAD_REACTORS
330
47
102
}
330
47
100
AcDbScale
 70
     0
300
1'-0" = 1'-0"
140
12.0
141
12.0
290
     0
  0
TABLESTYLE
  5
6A
102
{ACAD_REACTORS
330
69
102
}
102
{ACAD_XDICTIONARY
360
196
102
}
330
69
100
AcDbTableStyle
  3
Standard
 70
     0
 71
     0
 40
0.06
 41
0.06
280
     0
281
     0
  7
Standard
140
0.18
170
     2
 62
     0
 63
   257
283
     0
 90
        4
 91
        0
  1

274
    -2
284
     1
 64
     0
275
    -2
285
     1
 65
     0
276
    -2
286
     1
 66
     0
277
    -2
287
     1
 67
     0
278
    -2
288
     1
 68
     0
279
    -2
289
     1
 69
     0
  7
Standard
140
0.25
170
     5
 62
     0
 63
   257
283
     0
 90
        4
 91
        0
  1

274
    -2
284
     1
 64
     0
275
    -2
285
     1
 65
     0
276
    -2
286
     1
 66
     0
277
    -2
287
     1
 67
     0
278
    -2
288
     1
 68
     0
279
    -2
289
     1
 69
     0
  7
Standard
140
0.18
170
     5
 62
     0
 63
   257
283
     0
 90
        4
 91
        0
  1

274
    -2
284
     1
 64
     0
275
    -2
285
     1
 65
     0
276
    -2
286
     1
 66
     0
277
    -2
287
     1
 67
     0
278
    -2
288
     1
 68
     0
279
    -2
289
     1
 69
     0
  0
VISUALSTYLE
  5
2F
102
{ACAD_REACTORS
330
2A
102
}
330
2A
100
AcDbVisualStyle
  2
2dWireframe
 70
     4
177
     3
291
     0
 70
    58
 90
        0
176
     1
 90
        2
176
     1
 90
        0
176
     1
 90
        0
176
     1
 40
0.6
176
     1
 40
30.0
176
     1
 62
     7
420
 16777215
176
     1
 90
        1
176
     1
 90
        4
176
     1
 62
     7
176
     1
 62
   257
176
     1
 90
        1
176
     1
 90
        1
176
     1
 40
1.0
176
     1
 90
        0
176
     1
 62
   257
176
     1
 40
1.0
176
     1
 90
        1
176
     1
 90
        6
176
     1
 90
        2
176
     1
 62
     7
176
     1
 90
        5
176
     1
 90
        0
176
     1
 90
        0
176
     1
290
     0
176
     1
 90
        1
176
     1
 40
0.0
176
     1
 90
        0
176
     1
290
     1
176
     1
290
     1
176
     1
290
     0
176
     1
290
     0
176
     1
290
     0
176
     1
290
     0
176
     1
290
     0
176
     1
290
     0
176
     1
290
     0
176
     1
 90
       50
176
     1
 40
0.0
176
     1
 40
1.0
176
     1
 90
        0
176
     1
 62
    18
420
        0
176
     1
 90
       50
176
     1
 90
        3
176
     1
 62
     5
420
      255
176
     1
290
     0
176
     1
 90
       50
176
     1
 90
       50
176
     1
 90
       50
176
     1
290
     0
176
     1
 90
       50
176
     1
 62
   256
176
     0
 40
1.0
176
     0
 90
        2
176
     1
  1
strokes_ogs.tif
176
     1
290
     0
176
     1
 40
1.0
176
     1
 40
1.0
176
     1
  0
VISUALSTYLE
  5
32
102
{ACAD_REACTORS
330
2A
102
}
330
2A
100
AcDbVisualStyle
  2
Basic
 70
     7
177
     3
291
     1
 70
    58
 90
        1
176
     1
 90
        0
176
     1
 90
        1
176
     1
 90
        0
176
     1
 40
0.6
176
     1
 40
30.0
176
     1
 62
     7
420
 16777215
176
     1
 90
        0
176
     1
 90
        4
176
     1
 62
     7
176
     1
 62
   257
176
     1
 90
        1
176
     1
 90
        1
176
     1
 40
1.0
176
     1
 90
        8
176
     1
 62
     7
176
     1
 40
1.0
176
     1
 90
        1
176
     1
 90
        6
176
     1
 90
        2
176
     1
 62
     7
176
     1
 90
        5
176
     1
 90
        0
176
     1
 90
        0
176
     1
290
     0
176
     1
 90
        1
176
     1
 40
0.0
176
     1
 90
        0
176
     1
290
     0
176
     1
290
     1
176
     1
290
     1
176
     1
290
     0
176
     1
290
     0
176
     1
290
     0
176
     1
290
     0
176
     1
290
     0
176
     1
290
     0
176
     1
 90
       50
176
     1
 40
0.0
176
     1
 40
1.0
176
     1
 90
        0
176
     1
 62
    18
420
        0
176
     1
 90
       50
176
     1
 90
        3
176
     1
 62
     5
420
      255
176
     1
290
     0
176
     1
 90
       50
176
     1
 90
       50
176
     1
 90
       50
176
     1
290
     0
176
     1
 90
       50
176
     1
 62
   256
176
     0
 40
1.0
176
     0
 90
        2
176
     1
  1
strokes_ogs.tif
176
     1
290
     0
176
     1
 40
1.0
176
     1
 40
1.0
176
     1
  0
VISUALSTYLE
  5
36
102
{ACAD_REACTORS
330
2A
102
}
330
2A
100
AcDbVisualStyle
  2
Brighten
 70
    12
177
     3
291
     1
 70
    58
 90
        2
176
     1
 90
        2
176
     1
 90
        0
176
     1
 90
        0
176
     1
 40
0.6
176
     1
 40
30.0
176
     1
 62
     7
420
 16777215
176
     1
 90
        1
176
     1
 90
        4
176
     1
 62
     7
176
     1
 62
   257
176
     1
 90
        1
176
     1
 90
        1
176
     1
 40
1.0
176
     1
 90
        8
176
     1
 62
     7
176
     1
 40
1.0
176
     1
 90
        1
176
     1
 90
        6
176
     1
 90
        2
176
     1
 62
     7
176
     1
 90
        5
176
     1
 90
        0
176
     1
 90
        0
176
     1
290
     0
176
     1
 90
        1
176
     1
 40
50.0
176
     1
 90
        0
176
     1
290
     0
176
     1
290
     1
176
     1
290
     1
176
     1
290
     0
176
     1
290
     0
176
     1
290
     0
176
     1
290
     0
176
     1
290
     0
176
     1
290
     0
176
     1
 90
       50
176
     1
 40
0.0
176
     1
 40
1.0
176
     1
 90
        0
176
     1
 62
    18
420
        0
176
     1
 90
       50
176
     1
 90
        3
176
     1
 62
     5
420
      255
176
     1
290
     0
176
     1
 90
       50
176
     1
 90
       50
176
     1
 90
       50
176
     1
290
     0
176
     1
 90
       50
176
     1
 62
   256
176
     0
 40
1.0
176
     0
 90
        2
176
     1
  1
strokes_ogs.tif
176
     1
290
     0
176
     1
 40
1.0
176
     1
 40
1.0
176
     1
  0
VISUALSTYLE
  5
3A
102
{ACAD_REACTORS
330
2A
102
}
330
2A
100
AcDbVisualStyle
  2
ColorChange
 70
    16
177
     3
291
     1
 70
    58
 90
        2
176
     1
 90
        2
176
     1
 90
        3
176
     1
 90
        0
176
     1
 40
0.6
176
     1
 40
30.0
176
     1
 62
     8
420
  8421504
176
     1
 90
        1
176
     1
 90
        4
176
     1
 62
     7
176
     1
 62
   257
176
     1
 90
        1
176
     1
 90
        1
176
     1
 40
1.0
176
     1
 90
        8
176
     1
 62
     8
420
  8421504
176
     1
 40
1.0
176
     1
 90
        1
176
     1
 90
        6
176
     1
 90
        2
176
     1
 62
     7
176
     1
 90
        5
176
     1
 90
        0
176
     1
 90
        0
176
     1
290
     0
176
     1
 90
        1
176
     1
 40
0.0
176
     1
 90
        0
176
     1
290
     0
176
     1
290
     1
176
     1
290
     1
176
     1
290
     0
176
     1
290
     0
176
     1
290
     0
176
     1
290
     0
176
     1
290
     0
176
     1
290
     0
176
     1
 90
       50
176
     1
 40
0.0
176
     1
 40
1.0
176
     1
 90
        0
176
     1
 62
    18
420
        0
176
     1
 90
       50
176
     1
 90
        3
176
     1
 62
     5
420
      255
176
     1
290
     0
176
     1
 90
       50
176
     1
 90
       50
176
     1
 90
       50
176
     1
290
     0
176
     1
 90
       50
176
     1
 62
   256
176
     0
 40
1.0
176
     0
 90
        2
176
     1
  1
strokes_ogs.tif
176
     1
290
     0
176
     1
 40
1.0
176
     1
 40
1.0
176
     1
  0
VISUALSTYLE
  5
34
102
{ACAD_REACTORS
330
2A
102
}
330
2A
100
AcDbVisualStyle
  2
Conceptual
 70
     9
177
     3
291
     0
 70
    58
 90
        3
176
     1
 90
        2
176
     1
 90
        0
176
     1
 90
        0
176
     1
 40
0.6
176
     1
 40
30.0
176
     1
 62
     7
420
 16777215
176
     1
 90
        2
176
     1
 90
        2
176
     1
 62
     7
176
     1
 62
   257
176
     1
 90
        1
176
     1
 90
        1
176
     1
 40
179.0
176
     1
 90
        8
176
     1
 62
     7
176
     1
 40
1.0
176
     1
 90
        1
176
     1
 90
        6
176
     1
 90
        2
176
     1
 62
     7
176
     1
 90
        3
176
     1
 90
        0
176
     1
 90
        0
176
     1
290
     0
176
     1
 90
        1
176
     1
 40
0.0
176
     1
 90
        0
176
     1
290
     0
176
     1
290
     1
176
     1
290
     1
176
     1
290
     0
176
     1
290
     0
176
     1
290
     0
176
     1
290
     0
176
     1
290
     0
176
     1
290
     0
176
     1
 90
       50
176
     1
 40
0.0
176
     1
 40
1.0
176
     1
 90
        0
176
     1
 62
    18
420
        0
176
     1
 90
       50
176
     1
 90
        3
176
     1
 62
     5
420
      255
176
     1
290
     0
176
     1
 90
       50
176
     1
 90
       50
176
     1
 90
       50
176
     1
290
     0
176
     1
 90
       50
176
     1
 62
   256
176
     0
 40
1.0
176
     0
 90
        2
176
     1
  1
strokes_ogs.tif
176
     1
290
     0
176
     1
 40
1.0
176
     1
 40
1.0
176
     1
  0
VISUALSTYLE
  5
35
102
{ACAD_REACTORS
330
2A
102
}
330
2A
100
AcDbVisualStyle
  2
Dim
 70
    11
177
     3
291
     1
 70
    58
 90
        2
176
     1
 90
        2
176
     1
 90
        0
176
     1
 90
        0
176
     1
 40
0.6
176
     1
 40
30.0
176
     1
 62
     7
420
 16777215
176
     1
 90
        1
176
     1
 90
        4
176
     1
 62
     7
176
     1
 62
   257
176
     1
 90
        1
176
     1
 90
        1
176
     1
 40
1.0
176
     1
 90
        8
176
     1
 62
     7
176
     1
 40
1.0
176
     1
 90
        1
176
     1
 90
        6
176
     1
 90
        2
176
     1
 62
     7
176
     1
 90
        5
176
     1
 90
        0
176
     1
 90
        0
176
     1
290
     0
176
     1
 90
        1
176
     1
 40
-50.0
176
     1
 90
        0
176
     1
290
     0
176
     1
290
     1
176
     1
290
     1
176
     1
290
     0
176
     1
290
     0
176
     1
290
     0
176
     1
290
     0
176
     1
290
     0
176
     1
290
     0
176
     1
 90
       50
176
     1
 40
0.0
176
     1
 40
1.0
176
     1
 90
        0
176
     1
 62
    18
420
        0
176
     1
 90
       50
176
     1
 90
        3
176
     1
 62
     5
420
      255
176
     1
290
     0
176
     1
 90
       50
176
     1
 90
       50
176
     1
 90
       50
176
     1
290
     0
176
     1
 90
       50
176
     1
 62
   256
176
     0
 40
1.0
176
     0
 90
        2
176
     1
  1
strokes_ogs.tif
176
     1
290
     0
176
     1
 40
1.0
176
     1
 40
1.0
176
     1
  0
VISUALSTYLE
  5
3D
102
{ACAD_REACTORS
330
2A
102
}
330
2A
100
AcDbVisualStyle
  2
EdgeColorOff
 70
    22
177
     3
291
     1
 70
    58
 90
        2
176
     0
 90
        2
176
     0
 90
        0
176
     0
 90
        0
176
     0
 40
0.6
176
     0
 40
30.0
176
     0
 62
     7
420
 16777215
176
     0
 90
        1
176
     0
 90
        4
176
     0
 62
     7
176
     0
 62
   257
176
     0
 90
        1
176
     0
 90
        1
176
     0
 40
1.0
176
     0
 90
        8
176
     2
 62
     7
176
     0
 40
1.0
176
     0
 90
        1
176
     0
 90
        6
176
     0
 90
        2
176
     0
 62
     7
176
     0
 90
        5
176
     0
 90
        0
176
     0
 90
        0
176
     0
290
     0
176
     0
 90
        1
176
     0
 40
0.0
176
     0
 90
        0
176
     0
290
     0
176
     0
290
     1
176
     0
290
     1
176
     0
290
     0
176
     0
290
     0
176
     0
290
     0
176
     0
290
     0
176
     0
290
     0
176
     0
290
     0
176
     0
 90
       50
176
     0
 40
0.0
176
     0
 40
1.0
176
     0
 90
        0
176
     0
 62
    18
420
        0
176
     0
 90
       50
176
     0
 90
        3
176
     0
 62
     5
420
      255
176
     0
290
     0
176
     0
 90
       50
176
     0
 90
       50
176
     0
 90
       50
176
     0
290
     0
176
     0
 90
       50
176
     0
 62
   256
176
     0
 40
1.0
176
     0
 90
        2
176
     0
  1
strokes_ogs.tif
176
     0
290
     0
176
     0
 40
1.0
176
     0
 40
1.0
176
     0
  0
VISUALSTYLE
  5
39
102
{ACAD_REACTORS
330
2A
102
}
330
2A
100
AcDbVisualStyle
  2
Facepattern
 70
    15
177
     3
291
     1
 70
    58
 90
        2
176
     1
 90
        2
176
     1
 90
        0
176
     1
 90
        0
176
     1
 40
0.6
176
     1
 40
30.0
176
     1
 62
     7
420
 16777215
176
     1
 90
        1
176
     1
 90
        4
176
     1
 62
     7
176
     1
 62
   257
176
     1
 90
        1
176
     1
 90
        1
176
     1
 40
1.0
176
     1
 90
        8
176
     1
 62
     7
176
     1
 40
1.0
176
     1
 90
        1
176
     1
 90
        6
176
     1
 90
        2
176
     1
 62
     7
176
     1
 90
        5
176
     1
 90
        0
176
     1
 90
        0
176
     1
290
     0
176
     1
 90
        1
176
     1
 40
0.0
176
     1
 90
        0
176
     1
290
     0
176
     1
290
     1
176
     1
290
     1
176
     1
290
     0
176
     1
290
     0
176
     1
290
     0
176
     1
290
     0
176
     1
290
     0
176
     1
290
     0
176
     1
 90
       50
176
     1
 40
0.0
176
     1
 40
1.0
176
     1
 90
        0
176
     1
 62
    18
420
        0
176
     1
 90
       50
176
     1
 90
        3
176
     1
 62
     5
420
      255
176
     1
290
     0
176
     1
 90
       50
176
     1
 90
       50
176
     1
 90
       50
176
     1
290
     0
176
     1
 90
       50
176
     1
 62
   256
176
     0
 40
1.0
176
     0
 90
        2
176
     1
  1
strokes_ogs.tif
176
     1
290
     0
176
     1
 40
1.0
176
     1
 40
1.0
176
     1
  0
VISUALSTYLE
  5
2B
102
{ACAD_REACTORS
330
2A
102
}
330
2A
100
AcDbVisualStyle
  2
Flat
 70
     0
177
     3
291
     1
 70
    58
 90
        2
176
     1
 90
        1
176
     1
 90
        1
176
     1
 90
        2
176
     1
 40
0.6
176
     1
 40
30.0
176
     1
 62
     7
420
 16777215
176
     1
 90
        0
176
     1
 90
        0
176
     1
 62
     7
176
     1
 62
   257
176
     1
 90
        1
176
     1
 90
        1
176
     1
 40
1.0
176
     1
 90
        8
176
     1
 62
     7
176
     1
 40
1.0
176
     1
 90
        1
176
     1
 90
        6
176
     1
 90
        2
176
     1
 62
     7
176
     1
 90
        5
176
     1
 90
        0
176
     1
 90
        0
176
     1
290
     0
176
     1
 90
       13
176
     1
 40
0.0
176
     1
 90
        0
176
     1
290
     0
176
     1
290
     1
176
     1
290
     1
176
     1
290
     0
176
     1
290
     0
176
     1
290
     0
176
     1
290
     0
176
     1
290
     0
176
     1
290
     0
176
     1
 90
       50
176
     1
 40
0.0
176
     1
 40
1.0
176
     1
 90
        0
176
     1
 62
    18
420
        0
176
     1
 90
       50
176
     1
 90
        3
176
     1
 62
     5
420
      255
176
     1
290
     0
176
     1
 90
       50
176
     1
 90
       50
176
     1
 90
       50
176
     1
290
     0
176
     1
 90
       50
176
     1
 62
   256
176
     0
 40
1.0
176
     0
 90
        2
176
     1
  1
strokes_ogs.tif
176
     1
290
     0
176
     1
 40
1.0
176
     1
 40
1.0
176
     1
  0
VISUALSTYLE
  5
2C
102
{ACAD_REACTORS
330
2A
102
}
330
2A
100
AcDbVisualStyle
  2
FlatWithEdges
 70
     1
177
     3
291
     1
 70
    58
 90
        2
176
     1
 90
        1
176
     1
 90
        1
176
     1
 90
        2
176
     1
 40
0.6
176
     1
 40
30.0
176
     1
 62
     7
420
 16777215
176
     1
 90
        1
176
     1
 90
        0
176
     1
 62
     7
176
     1
 62
   257
176
     1
 90
        1
176
     1
 90
        1
176
     1
 40
1.0
176
     1
 90
        0
176
     1
 62
   257
176
     1
 40
1.0
176
     1
 90
        1
176
     1
 90
        6
176
     1
 90
        2
176
     1
 62
     7
176
     1
 90
        5
176
     1
 90
        0
176
     1
 90
        0
176
     1
290
     0
176
     1
 90
       13
176
     1
 40
0.0
176
     1
 90
        0
176
     1
290
     0
176
     1
290
     1
176
     1
290
     1
176
     1
290
     0
176
     1
290
     0
176
     1
290
     0
176
     1
290
     0
176
     1
290
     0
176
     1
290
     0
176
     1
 90
       50
176
     1
 40
0.0
176
     1
 40
1.0
176
     1
 90
        0
176
     1
 62
    18
420
        0
176
     1
 90
       50
176
     1
 90
        3
176
     1
 62
     5
420
      255
176
     1
290
     0
176
     1
 90
       50
176
     1
 90
       50
176
     1
 90
       50
176
     1
290
     0
176
     1
 90
       50
176
     1
 62
   256
176
     0
 40
1.0
176
     0
 90
        2
176
     1
  1
strokes_ogs.tif
176
     1
290
     0
176
     1
 40
1.0
176
     1
 40
1.0
176
     1
  0
VISUALSTYLE
  5
2D
102
{ACAD_REACTORS
330
2A
102
}
330
2A
100
AcDbVisualStyle
  2
Gouraud
 70
     2
177
     3
291
     1
 70
    58
 90
        2
176
     1
 90
        2
176
     1
 90
        1
176
     1
 90
        2
176
     1
 40
0.6
176
     1
 40
30.0
176
     1
 62
     7
420
 16777215
176
     1
 90
        0
176
     1
 90
        0
176
     1
 62
     7
176
     1
 62
   257
176
     1
 90
        1
176
     1
 90
        1
176
     1
 40
1.0
176
     1
 90
        0
176
     1
 62
     7
176
     1
 40
1.0
176
     1
 90
        1
176
     1
 90
        6
176
     1
 90
        2
176
     1
 62
     7
176
     1
 90
        5
176
     1
 90
        0
176
     1
 90
        0
176
     1
290
     0
176
     1
 90
       13
176
     1
 40
0.0
176
     1
 90
        0
176
     1
290
     0
176
     1
290
     1
176
     1
290
     1
176
     1
290
     0
176
     1
290
     0
176
     1
290
     0
176
     1
290
     0
176
     1
290
     0
176
     1
290
     0
176
     1
 90
       50
176
     1
 40
0.0
176
     1
 40
1.0
176
     1
 90
        0
176
     1
 62
    18
420
        0
176
     1
 90
       50
176
     1
 90
        3
176
     1
 62
     5
420
      255
176
     1
290
     0
176
     1
 90
       50
176
     1
 90
       50
176
     1
 90
       50
176
     1
290
     0
176
     1
 90
       50
176
     1
 62
   256
176
     0
 40
1.0
176
     0
 90
        2
176
     1
  1
strokes_ogs.tif
176
     1
290
     0
176
     1
 40
1.0
176
     1
 40
1.0
176
     1
  0
VISUALSTYLE
  5
2E
102
{ACAD_REACTORS
330
2A
102
}
330
2A
100
AcDbVisualStyle
  2
GouraudWithEdges
 70
     3
177
     3
291
     1
 70
    58
 90
        2
176
     1
 90
        2
176
     1
 90
        1
176
     1
 90
        2
176
     1
 40
0.6
176
     1
 40
30.0
176
     1
 62
     7
420
 16777215
176
     1
 90
        1
176
     1
 90
        0
176
     1
 62
     7
176
     1
 62
   257
176
     1
 90
        1
176
     1
 90
        1
176
     1
 40
1.0
176
     1
 90
        0
176
     1
 62
   257
176
     1
 40
1.0
176
     1
 90
        1
176
     1
 90
        6
176
     1
 90
        2
176
     1
 62
     7
176
     1
 90
        5
176
     1
 90
        0
176
     1
 90
        0
176
     1
290
     0
176
     1
 90
       13
176
     1
 40
0.0
176
     1
 90
        0
176
     1
290
     0
176
     1
290
     1
176
     1
290
     1
176
     1
290
     0
176
     1
290
     0
176
     1
290
     0
176
     1
290
     0
176
     1
290
     0
176
     1
290
     0
176
     1
 90
       50
176
     1
 40
0.0
176
     1
 40
1.0
176
     1
 90
        0
176
     1
 62
    18
420
        0
176
     1
 90
       50
176
     1
 90
        3
176
     1
 62
     5
420
      255
176
     1
290
     0
176
     1
 90
       50
176
     1
 90
       50
176
     1
 90
       50
176
     1
290
     0
176
     1
 90
       50
176
     1
 62
   256
176
     0
 40
1.0
176
     0
 90
        2
176
     1
  1
strokes_ogs.tif
176
     1
290
     0
176
     1
 40
1.0
176
     1
 40
1.0
176
     1
  0
VISUALSTYLE
  5
31
102
{ACAD_REACTORS
330
2A
102
}
330
2A
100
AcDbVisualStyle
  2
Hidden
 70
     6
177
     3
291
     0
 70
    58
 90
        1
176
     1
 90
        2
176
     1
 90
        2
176
     1
 90
        0
176
     1
 40
0.6
176
     1
 40
30.0
176
     1
 62
     7
420
 16777215
176
     1
 90
        2
176
     1
 90
        2
176
     1
 62
     7
176
     1
 62
   257
176
     1
 90
        2
176
     1
 90
        1
176
     1
 40
40.0
176
     1
 90
        0
176
     1
 62
   257
176
     1
 40
1.0
176
     1
 90
        1
176
     1
 90
        6
176
     1
 90
        2
176
     1
 62
     7
176
     1
 90
        3
176
     1
 90
        0
176
     1
 90
        0
176
     1
290
     0
176
     1
 90
        1
176
     1
 40
0.0
176
     1
 90
        0
176
     1
290
     0
176
     1
290
     1
176
     1
290
     1
176
     1
290
     0
176
     1
290
     0
176
     1
290
     0
176
     1
290
     0
176
     1
290
     0
176
     1
290
     0
176
     1
 90
       50
176
     1
 40
0.0
176
     1
 40
1.0
176
     1
 90
        0
176
     1
 62
    18
420
        0
176
     1
 90
       50
176
     1
 90
        3
176
     1
 62
     5
420
      255
176
     1
290
     0
176
     1
 90
       50
176
     1
 90
       50
176
     1
 90
       50
176
     1
290
     0
176
     1
 90
       50
176
     1
 62
   256
176
     0
 40
1.0
176
     0
 90
        2
176
     1
  1
strokes_ogs.tif
176
     1
290
     0
176
     1
 40
1.0
176
     1
 40
1.0
176
     1
  0
VISUALSTYLE
  5
3B
102
{ACAD_REACTORS
330
2A
102
}
330
2A
100
AcDbVisualStyle
  2
JitterOff
 70
    20
177
     3
291
     1
 70
    58
 90
        2
176
     0
 90
        2
176
     0
 90
        0
176
     0
 90
        0
176
     0
 40
0.6
176
     0
 40
30.0
176
     0
 62
     7
420
 16777215
176
     0
 90
        1
176
     0
 90
        4
176
     0
 62
     7
176
     0
 62
   257
176
     0
 90
        1
176
     0
 90
        1
176
     0
 40
1.0
176
     0
 90
       10
176
     2
 62
     7
176
     0
 40
1.0
176
     0
 90
        1
176
     0
 90
        6
176
     0
 90
        2
176
     0
 62
     7
176
     0
 90
        5
176
     0
 90
        0
176
     0
 90
        0
176
     0
290
     0
176
     0
 90
        1
176
     0
 40
0.0
176
     0
 90
        0
176
     0
290
     0
176
     0
290
     1
176
     0
290
     1
176
     0
290
     0
176
     0
290
     0
176
     0
290
     0
176
     0
290
     0
176
     0
290
     0
176
     0
290
     0
176
     0
 90
       50
176
     0
 40
0.0
176
     0
 40
1.0
176
     0
 90
        0
176
     0
 62
    18
420
        0
176
     0
 90
       50
176
     0
 90
        3
176
     0
 62
     5
420
      255
176
     0
290
     0
176
     0
 90
       50
176
     0
 90
       50
176
     0
 90
       50
176
     0
290
     0
176
     0
 90
       50
176
     0
 62
   256
176
     0
 40
1.0
176
     0
 90
        2
176
     0
  1
strokes_ogs.tif
176
     0
290
     0
176
     0
 40
1.0
176
     0
 40
1.0
176
     0
  0
VISUALSTYLE
  5
38
102
{ACAD_REACTORS
330
2A
102
}
330
2A
100
AcDbVisualStyle
  2
Linepattern
 70
    14
177
     3
291
     1
 70
    58
 90
        2
176
     1
 90
        2
176
     1
 90
        0
176
     1
 90
        0
176
     1
 40
0.6
176
     1
 40
30.0
176
     1
 62
     7
420
 16777215
176
     1
 90
        1
176
     1
 90
        4
176
     1
 62
     7
176
     1
 62
   257
176
     1
 90
        7
176
     1
 90
        7
176
     1
 40
1.0
176
     1
 90
        8
176
     1
 62
     7
176
     1
 40
1.0
176
     1
 90
        1
176
     1
 90
        6
176
     1
 90
        2
176
     1
 62
     7
176
     1
 90
        5
176
     1
 90
        0
176
     1
 90
        0
176
     1
290
     0
176
     1
 90
        1
176
     1
 40
0.0
176
     1
 90
        0
176
     1
290
     0
176
     1
290
     1
176
     1
290
     1
176
     1
290
     0
176
     1
290
     0
176
     1
290
     0
176
     1
290
     0
176
     1
290
     0
176
     1
290
     0
176
     1
 90
       50
176
     1
 40
0.0
176
     1
 40
1.0
176
     1
 90
        0
176
     1
 62
    18
420
        0
176
     1
 90
       50
176
     1
 90
        3
176
     1
 62
     5
420
      255
176
     1
290
     0
176
     1
 90
       50
176
     1
 90
       50
176
     1
 90
       50
176
     1
290
     0
176
     1
 90
       50
176
     1
 62
   256
176
     0
 40
1.0
176
     0
 90
        2
176
     1
  1
strokes_ogs.tif
176
     1
290
     0
176
     1
 40
1.0
176
     1
 40
1.0
176
     1
  0
VISUALSTYLE
  5
3C
102
{ACAD_REACTORS
330
2A
102
}
330
2A
100
AcDbVisualStyle
  2
OverhangOff
 70
    21
177
     3
291
     1
 70
    58
 90
        2
176
     0
 90
        2
176
     0
 90
        0
176
     0
 90
        0
176
     0
 40
0.6
176
     0
 40
30.0
176
     0
 62
     7
420
 16777215
176
     0
 90
        1
176
     0
 90
        4
176
     0
 62
     7
176
     0
 62
   257
176
     0
 90
        1
176
     0
 90
        1
176
     0
 40
1.0
176
     0
 90
        9
176
     2
 62
     7
176
     0
 40
1.0
176
     0
 90
        1
176
     0
 90
        6
176
     0
 90
        2
176
     0
 62
     7
176
     0
 90
        5
176
     0
 90
        0
176
     0
 90
        0
176
     0
290
     0
176
     0
 90
        1
176
     0
 40
0.0
176
     0
 90
        0
176
     0
290
     0
176
     0
290
     1
176
     0
290
     1
176
     0
290
     0
176
     0
290
     0
176
     0
290
     0
176
     0
290
     0
176
     0
290
     0
176
     0
290
     0
176
     0
 90
       50
176
     0
 40
0.0
176
     0
 40
1.0
176
     0
 90
        0
176
     0
 62
    18
420
        0
176
     0
 90
       50
176
     0
 90
        3
176
     0
 62
     5
420
      255
176
     0
290
     0
176
     0
 90
       50
176
     0
 90
       50
176
     0
 90
       50
176
     0
290
     0
176
     0
 90
       50
176
     0
 62
   256
176
     0
 40
1.0
176
     0
 90
        2
176
     0
  1
strokes_ogs.tif
176
     0
290
     0
176
     0
 40
1.0
176
     0
 40
1.0
176
     0
  0
VISUALSTYLE
  5
33
102
{ACAD_REACTORS
330
2A
102
}
330
2A
100
AcDbVisualStyle
  2
Realistic
 70
     8
177
     3
291
     0
 70
    58
 90
        2
176
     1
 90
        3
176
     1
 90
        0
176
     1
 90
        2
176
     1
 40
0.6
176
     1
 40
30.0
176
     1
 62
     7
420
 16777215
176
     1
 90
        0
176
     1
 90
        0
176
     1
 62
     7
176
     1
 62
   257
176
     1
 90
        1
176
     1
 90
        1
176
     1
 40
1.0
176
     1
 90
        8
176
     1
 62
   257
176
     1
 40
1.0
176
     1
 90
        1
176
     1
 90
        6
176
     1
 90
        2
176
     1
 62
     7
176
     1
 90
        3
176
     1
 90
        0
176
     1
 90
        0
176
     1
290
     0
176
     1
 90
       13
176
     1
 40
0.0
176
     1
 90
        0
176
     1
290
     0
176
     1
290
     1
176
     1
290
     1
176
     1
290
     0
176
     1
290
     0
176
     1
290
     0
176
     1
290
     0
176
     1
290
     0
176
     1
290
     0
176
     1
 90
       50
176
     1
 40
0.0
176
     1
 40
1.0
176
     1
 90
        0
176
     1
 62
    18
420
        0
176
     1
 90
       50
176
     1
 90
        3
176
     1
 62
     5
420
      255
176
     1
290
     0
176
     1
 90
       50
176
     1
 90
       50
176
     1
 90
       50
176
     1
290
     0
176
     1
 90
       50
176
     1
 62
   256
176
     0
 40
1.0
176
     0
 90
        2
176
     1
  1
strokes_ogs.tif
176
     1
290
     0
176
     1
 40
1.0
176
     1
 40
1.0
176
     1
  0
VISUALSTYLE
  5
42
102
{ACAD_REACTORS
330
2A
102
}
330
2A
100
AcDbVisualStyle
  2
Shaded
 70
    27
177
     3
291
     0
 70
    58
 90
        2
176
     1
 90
        2
176
     1
 90
        1
176
     1
 90
        2
176
     1
 40
0.6
176
     1
 40
30.0
176
     1
 62
     7
420
 16777215
176
     1
 90
        0
176
     1
 90
        4
176
     1
 62
     7
176
     1
 62
   257
176
     1
 90
        1
176
     1
 90
        1
176
     1
 40
1.0
176
     1
 90
        8
176
     1
 62
   257
176
     1
 40
1.0
176
     1
 90
        1
176
     1
 90
        6
176
     1
 90
        2
176
     1
 62
     8
420
  7895160
176
     1
 90
        3
176
     1
 90
        0
176
     1
 90
        0
176
     1
290
     0
176
     1
 90
        5
176
     1
 40
0.0
176
     1
 90
        0
176
     1
290
     0
176
     1
290
     1
176
     1
290
     1
176
     1
290
     0
176
     1
290
     0
176
     1
290
     0
176
     1
290
     0
176
     1
290
     0
176
     1
290
     0
176
     1
 90
       50
176
     1
 40
0.0
176
     1
 40
1.0
176
     1
 90
        0
176
     1
 62
    18
420
        0
176
     1
 90
       50
176
     1
 90
        3
176
     1
 62
     5
420
      255
176
     1
290
     0
176
     1
 90
       50
176
     1
 90
       50
176
     1
 90
       50
176
     1
290
     0
176
     1
 90
       50
176
     1
 62
   256
176
     0
 40
1.0
176
     0
 90
        2
176
     1
  1
strokes_ogs.tif
176
     1
290
     0
176
     1
 40
1.0
176
     1
 40
1.0
176
     1
  0
VISUALSTYLE
  5
41
102
{ACAD_REACTORS
330
2A
102
}
330
2A
100
AcDbVisualStyle
  2
Shaded with edges
 70
    26
177
     3
291
     0
 70
    58
 90
        2
176
     1
 90
        2
176
     1
 90
        1
176
     1
 90
        2
176
     1
 40
0.6
176
     1
 40
30.0
176
     1
 62
     7
420
 16777215
176
     1
 90
        1
176
     1
 90
       10
176
     1
 62
     7
176
     1
 62
   257
176
     1
 90
        2
176
     1
 90
        1
176
     1
 40
1.0
176
     1
 90
        8
176
     1
 62
   257
176
     1
 40
1.0
176
     1
 90
        1
176
     1
 90
        6
176
     1
 90
        2
176
     1
 62
     7
176
     1
 90
        3
176
     1
 90
        0
176
     1
 90
        0
176
     1
290
     0
176
     1
 90
        5
176
     1
 40
0.0
176
     1
 90
        0
176
     1
290
     0
176
     1
290
     1
176
     1
290
     1
176
     1
290
     0
176
     1
290
     0
176
     1
290
     0
176
     1
290
     0
176
     1
290
     0
176
     1
290
     0
176
     1
 90
       50
176
     1
 40
0.0
176
     1
 40
1.0
176
     1
 90
        0
176
     1
 62
    18
420
        0
176
     1
 90
       50
176
     1
 90
        3
176
     1
 62
     5
420
      255
176
     1
290
     0
176
     1
 90
       50
176
     1
 90
       50
176
     1
 90
       50
176
     1
290
     0
176
     1
 90
       50
176
     1
 62
   256
176
     0
 40
1.0
176
     0
 90
        2
176
     1
  1
strokes_ogs.tif
176
     1
290
     0
176
     1
 40
1.0
176
     1
 40
1.0
176
     1
  0
VISUALSTYLE
  5
3E
102
{ACAD_REACTORS
330
2A
102
}
330
2A
100
AcDbVisualStyle
  2
Shades of Gray
 70
    23
177
     3
291
     0
 70
    58
 90
        2
176
     1
 90
        2
176
     1
 90
        3
176
     1
 90
        0
176
     1
 40
0.6
176
     1
 40
30.0
176
     1
 62
     7
420
 16777215
176
     1
 90
        2
176
     1
 90
        2
176
     1
 62
     7
176
     1
 62
     7
176
     1
 90
        1
176
     1
 90
        1
176
     1
 40
40.0
176
     1
 90
        8
176
     1
 62
     7
176
     1
 40
1.0
176
     1
 90
        1
176
     1
 90
        6
176
     1
 90
        2
176
     1
 62
     7
176
     1
 90
        3
176
     1
 90
        0
176
     1
 90
        0
176
     1
290
     0
176
     1
 90
        1
176
     1
 40
0.0
176
     1
 90
        0
176
     1
290
     0
176
     1
290
     1
176
     1
290
     1
176
     1
290
     0
176
     1
290
     0
176
     1
290
     0
176
     1
290
     0
176
     1
290
     0
176
     1
290
     0
176
     1
 90
       50
176
     1
 40
0.0
176
     1
 40
1.0
176
     1
 90
        0
176
     1
 62
    18
420
        0
176
     1
 90
       50
176
     1
 90
        3
176
     1
 62
     5
420
      255
176
     1
290
     0
176
     1
 90
       50
176
     1
 90
       50
176
     1
 90
       50
176
     1
290
     0
176
     1
 90
       50
176
     1
 62
   256
176
     0
 40
1.0
176
     0
 90
        2
176
     1
  1
strokes_ogs.tif
176
     1
290
     0
176
     1
 40
1.0
176
     1
 40
1.0
176
     1
  0
VISUALSTYLE
  5
3F
102
{ACAD_REACTORS
330
2A
102
}
330
2A
100
AcDbVisualStyle
  2
Sketchy
 70
    24
177
     3
291
     0
 70
    58
 90
        1
176
     1
 90
        2
176
     1
 90
        2
176
     1
 90
        0
176
     1
 40
0.6
176
     1
 40
30.0
176
     1
 62
     7
420
 16777215
176
     1
 90
        2
176
     1
 90
        2
176
     1
 62
     7
176
     1
 62
     7
176
     1
 90
        1
176
     1
 90
        1
176
     1
 40
40.0
176
     1
 90
       11
176
     1
 62
     7
176
     1
 40
1.0
176
     1
 90
        1
176
     1
 90
        6
176
     1
 90
        2
176
     1
 62
     7
176
     1
 90
        6
176
     1
 90
        0
176
     1
 90
        0
176
     1
290
     0
176
     1
 90
        1
176
     1
 40
0.0
176
     1
 90
        0
176
     1
290
     0
176
     1
290
     1
176
     1
290
     1
176
     1
290
     0
176
     1
290
     0
176
     1
290
     0
176
     1
290
     0
176
     1
290
     0
176
     1
290
     0
176
     1
 90
       50
176
     1
 40
0.0
176
     1
 40
1.0
176
     1
 90
        0
176
     1
 62
    18
420
        0
176
     1
 90
       50
176
     1
 90
        3
176
     1
 62
     5
420
      255
176
     1
290
     0
176
     1
 90
       50
176
     1
 90
       50
176
     1
 90
       50
176
     1
290
     0
176
     1
 90
       50
176
     1
 62
   256
176
     0
 40
1.0
176
     0
 90
        2
176
     1
  1
strokes_ogs.tif
176
     1
290
     0
176
     1
 40
1.0
176
     1
 40
1.0
176
     1
  0
VISUALSTYLE
  5
37
102
{ACAD_REACTORS
330
2A
102
}
330
2A
100
AcDbVisualStyle
  2
Thicken
 70
    13
177
     3
291
     1
 70
    58
 90
        2
176
     1
 90
        2
176
     1
 90
        0
176
     1
 90
        0
176
     1
 40
0.6
176
     1
 40
30.0
176
     1
 62
     7
420
 16777215
176
     1
 90
        1
176
     1
 90
        4
176
     1
 62
     7
176
     1
 62
   257
176
     1
 90
        1
176
     1
 90
        1
176
     1
 40
1.0
176
     1
 90
       12
176
     1
 62
     7
176
     1
 40
1.0
176
     1
 90
        1
176
     1
 90
        6
176
     1
 90
        2
176
     1
 62
     7
176
     1
 90
        5
176
     1
 90
        0
176
     1
 90
        0
176
     1
290
     0
176
     1
 90
        1
176
     1
 40
0.0
176
     1
 90
        0
176
     1
290
     0
176
     1
290
     1
176
     1
290
     1
176
     1
290
     0
176
     1
290
     0
176
     1
290
     0
176
     1
290
     0
176
     1
290
     0
176
     1
290
     0
176
     1
 90
       50
176
     1
 40
0.0
176
     1
 40
1.0
176
     1
 90
        0
176
     1
 62
    18
420
        0
176
     1
 90
       50
176
     1
 90
        3
176
     1
 62
     5
420
      255
176
     1
290
     0
176
     1
 90
       50
176
     1
 90
       50
176
     1
 90
       50
176
     1
290
     0
176
     1
 90
       50
176
     1
 62
   256
176
     0
 40
1.0
176
     0
 90
        2
176
     1
  1
strokes_ogs.tif
176
     1
290
     0
176
     1
 40
1.0
176
     1
 40
1.0
176
     1
  0
VISUALSTYLE
  5
30
102
{ACAD_REACTORS
330
2A
102
}
330
2A
100
AcDbVisualStyle
  2
Wireframe
 70
     5
177
     3
291
     0
 70
    58
 90
        0
176
     1
 90
        2
176
     1
 90
        0
176
     1
 90
        0
176
     1
 40
0.6
176
     1
 40
30.0
176
     1
 62
     7
420
 16777215
176
     1
 90
        1
176
     1
 90
        4
176
     1
 62
     7
176
     1
 62
   257
176
     1
 90
        1
176
     1
 90
        1
176
     1
 40
1.0
176
     1
 90
        0
176
     1
 62
   257
176
     1
 40
1.0
176
     1
 90
        1
176
     1
 90
        6
176
     1
 90
        2
176
     1
 62
     7
176
     1
 90
        3
176
     1
 90
        0
176
     1
 90
        0
176
     1
290
     0
176
     1
 90
        1
176
     1
 40
0.0
176
     1
 90
        0
176
     1
290
     0
176
     1
290
     1
176
     1
290
     1
176
     1
290
     0
176
     1
290
     0
176
     1
290
     0
176
     1
290
     0
176
     1
290
     0
176
     1
290
     0
176
     1
 90
       50
176
     1
 40
0.0
176
     1
 40
1.0
176
     1
 90
        0
176
     1
 62
    18
420
        0
176
     1
 90
       50
176
     1
 90
        3
176
     1
 62
     5
420
      255
176
     1
290
     0
176
     1
 90
       50
176
     1
 90
       50
176
     1
 90
       50
176
     1
290
     0
176
     1
 90
       50
176
     1
 62
   256
176
     0
 40
1.0
176
     0
 90
        2
176
     1
  1
strokes_ogs.tif
176
     1
290
     0
176
     1
 40
1.0
176
     1
 40
1.0
176
     1
  0
VISUALSTYLE
  5
40
102
{ACAD_REACTORS
330
2A
102
}
330
2A
100
AcDbVisualStyle
  2
X-Ray
 70
    25
177
     3
291
     0
 70
    58
 90
        2
176
     1
 90
        2
176
     1
 90
        1
176
     1
 90
        1
176
     1
 40
0.5
176
     1
 40
30.0
176
     1
 62
     7
420
 16777215
176
     1
 90
        1
176
     1
 90
        0
176
     1
 62
     7
176
     1
 62
   257
176
     1
 90
        1
176
     1
 90
        1
176
     1
 40
1.0
176
     1
 90
        8
176
     1
 62
     7
176
     1
 40
1.0
176
     1
 90
        1
176
     1
 90
        6
176
     1
 90
        2
176
     1
 62
     7
176
     1
 90
        3
176
     1
 90
        0
176
     1
 90
        0
176
     1
290
     0
176
     1
 90
       13
176
     1
 40
0.0
176
     1
 90
        0
176
     1
290
     0
176
     1
290
     1
176
     1
290
     1
176
     1
290
     0
176
     1
290
     0
176
     1
290
     0
176
     1
290
     0
176
     1
290
     0
176
     1
290
     0
176
     1
 90
       50
176
     1
 40
0.0
176
     1
 40
1.0
176
     1
 90
        0
176
     1
 62
    18
420
        0
176
     1
 90
       50
176
     1
 90
        3
176
     1
 62
     5
420
      255
176
     1
290
     0
176
     1
 90
       50
176
     1
 90
       50
176
     1
 90
       50
176
     1
290
     0
176
     1
 90
       50
176
     1
 62
   256
176
     0
 40
1.0
176
     0
 90
        2
176
     1
  1
strokes_ogs.tif
176
     1
290
     0
176
     1
 40
1.0
176
     1
 40
1.0
176
     1
  0
DICTIONARYVAR
  5
195
102
{ACAD_REACTORS
330
194
102
}
330
194
100
DictionaryVariables
280
     0
  1
1:1
  0
DICTIONARYVAR
  5
19A
102
{ACAD_REACTORS
330
194
102
}
330
194
100
DictionaryVariables
280
     0
  1
Standard
  0
DICTIONARYVAR
  5
199
102
{ACAD_REACTORS
330
194
102
}
330
194
100
DictionaryVariables
280
     0
  1
Standard
  0
DICTIONARY
  5
196
330
6A
100
AcDbDictionary
280
     1
281
     1
  3
ACAD_ROUNDTRIP_2008_TABLESTYLE_CELLSTYLEMAP
360
197
  0
CELLSTYLEMAP
  5
197
102
{ACAD_REACTORS
330
196
102
}
330
196
100
AcDbCellStyleMap
 90
        3
300
CELLSTYLE
  1
TABLEFORMAT_BEGIN
 90
        5
170
     1
 91
        0
 92
    32768
 62
   257
 93
        1
300
CONTENTFORMAT
  1
CONTENTFORMAT_BEGIN
 90
        0
 91
        0
 92
        4
 93
        0
300

 40
0.0
140
1.0
 94
        5
 62
     0
340
11
144
0.25
309
CONTENTFORMAT_END
171
     1
301
MARGIN
  1
CELLMARGIN_BEGIN
 40
0.06
 40
0.06
 40
0.06
 40
0.06
 40
0.06
 40
0.06
309
CELLMARGIN_END
 94
        6
 95
        1
302
GRIDFORMAT
  1
GRIDFORMAT_BEGIN
 90
        0
 91
        1
 62
     0
 92
       -2
340
14
 93
        0
 40
0.045
309
GRIDFORMAT_END
 95
        2
302
GRIDFORMAT
  1
GRIDFORMAT_BEGIN
 90
        0
 91
        1
 62
     0
 92
       -2
340
14
 93
        0
 40
0.045
309
GRIDFORMAT_END
 95
        4
302
GRIDFORMAT
  1
GRIDFORMAT_BEGIN
 90
        0
 91
        1
 62
     0
 92
       -2
340
14
 93
        0
 40
0.045
309
GRIDFORMAT_END
 95
        8
302
GRIDFORMAT
  1
GRIDFORMAT_BEGIN
 90
        0
 91
        1
 62
     0
 92
       -2
340
14
 93
        0
 40
0.045
309
GRIDFORMAT_END
 95
       16
302
GRIDFORMAT
  1
GRIDFORMAT_BEGIN
 90
        0
 91
        1
 62
     0
 92
       -2
340
14
 93
        0
 40
0.045
309
GRIDFORMAT_END
 95
       32
302
GRIDFORMAT
  1
GRIDFORMAT_BEGIN
 90
        0
 91
        1
 62
     0
 92
       -2
340
14
 93
        0
 40
0.045
309
GRIDFORMAT_END
309
TABLEFORMAT_END
  1
CELLSTYLE_BEGIN
 90
        1
 91
        1
300
_TITLE
309
CELLSTYLE_END
300
CELLSTYLE
  1
TABLEFORMAT_BEGIN
 90
        5
170
     1
 91
        0
 92
        0
 62
   257
 93
        1
300
CONTENTFORMAT
  1
CONTENTFORMAT_BEGIN
 90
        0
 91
        0
 92
        4
 93
        0
300

 40
0.0
140
1.0
 94
        5
 62
     0
340
11
144
0.18
309
CONTENTFORMAT_END
171
     1
301
MARGIN
  1
CELLMARGIN_BEGIN
 40
0.06
 40
0.06
 40
0.06
 40
0.06
 40
0.06
 40
0.06
309
CELLMARGIN_END
 94
        6
 95
        1
302
GRIDFORMAT
  1
GRIDFORMAT_BEGIN
 90
        0
 91
        1
 62
     0
 92
       -2
340
14
 93
        0
 40
0.045
309
GRIDFORMAT_END
 95
        2
302
GRIDFORMAT
  1
GRIDFORMAT_BEGIN
 90
        0
 91
        1
 62
     0
 92
       -2
340
14
 93
        0
 40
0.045
309
GRIDFORMAT_END
 95
        4
302
GRIDFORMAT
  1
GRIDFORMAT_BEGIN
 90
        0
 91
        1
 62
     0
 92
       -2
340
14
 93
        0
 40
0.045
309
GRIDFORMAT_END
 95
        8
302
GRIDFORMAT
  1
GRIDFORMAT_BEGIN
 90
        0
 91
        1
 62
     0
 92
       -2
340
14
 93
        0
 40
0.045
309
GRIDFORMAT_END
 95
       16
302
GRIDFORMAT
  1
GRIDFORMAT_BEGIN
 90
        0
 91
        1
 62
     0
 92
       -2
340
14
 93
        0
 40
0.045
309
GRIDFORMAT_END
 95
       32
302
GRIDFORMAT
  1
GRIDFORMAT_BEGIN
 90
        0
 91
        1
 62
     0
 92
       -2
340
14
 93
        0
 40
0.045
309
GRIDFORMAT_END
309
TABLEFORMAT_END
  1
CELLSTYLE_BEGIN
 90
        2
 91
        1
300
_HEADER
309
CELLSTYLE_END
300
CELLSTYLE
  1
TABLEFORMAT_BEGIN
 90
        5
170
     1
 91
        0
 92
        0
 62
   257
 93
        1
300
CONTENTFORMAT
  1
CONTENTFORMAT_BEGIN
 90
        0
 91
        0
 92
        4
 93
        0
300

 40
0.0
140
1.0
 94
        2
 62
     0
340
11
144
0.18
309
CONTENTFORMAT_END
171
     1
301
MARGIN
  1
CELLMARGIN_BEGIN
 40
0.06
 40
0.06
 40
0.06
 40
0.06
 40
0.06
 40
0.06
309
CELLMARGIN_END
 94
        6
 95
        1
302
GRIDFORMAT
  1
GRIDFORMAT_BEGIN
 90
        0
 91
        1
 62
     0
 92
       -2
340
14
 93
        0
 40
0.045
309
GRIDFORMAT_END
 95
        2
302
GRIDFORMAT
  1
GRIDFORMAT_BEGIN
 90
        0
 91
        1
 62
     0
 92
       -2
340
14
 93
        0
 40
0.045
309
GRIDFORMAT_END
 95
        4
302
GRIDFORMAT
  1
GRIDFORMAT_BEGIN
 90
        0
 91
        1
 62
     0
 92
       -2
340
14
 93
        0
 40
0.045
309
GRIDFORMAT_END
 95
        8
302
GRIDFORMAT
  1
GRIDFORMAT_BEGIN
 90
        0
 91
        1
 62
     0
 92
       -2
340
14
 93
        0
 40
0.045
309
GRIDFORMAT_END
 95
       16
302
GRIDFORMAT
  1
GRIDFORMAT_BEGIN
 90
        0
 91
        1
 62
     0
 92
       -2
340
14
 93
        0
 40
0.045
309
GRIDFORMAT_END
 95
       32
302
GRIDFORMAT
  1
GRIDFORMAT_BEGIN
 90
        0
 91
        1
 62
     0
 92
       -2
340
14
 93
        0
 40
0.045
309
GRIDFORMAT_END
309
TABLEFORMAT_END
  1
CELLSTYLE_BEGIN
 90
        3
 91
        2
300
_DATA
309
CELLSTYLE_END
  0
ENDSEC
  0
EOF