0
SECTION
  2
HEADER
  9
$ACADVER
  1
AC1027
  9
$ACADMAINTVER
 70
     8
  9
$DWGCODEPAGE
  3
ANSI_1252
  9
$REQUIREDVERSIONS
160
                 0
  9
$COMMENTS
  1
File was created by Cadenas
  9
$CUSTOMPROPERTYTAG
  1
NN
  9
$CUSTOMPROPERTY
  1
Set Screw Flange Bracket Inch Bore - Polymer Housing, Corrosion Resistant Insert
  9
$CUSTOMPROPERTYTAG
  1
NT
  9
$CUSTOMPROPERTY
  1
SC 3 Bolt Flange Bearings -(Normal Duty) -Polymer Housed -Corrosion Resistant Insert -E-Z KLEEN
  9
$CUSTOMPROPERTYTAG
  1
NB
  9
$CUSTOMPROPERTY
  1
127533
  9
$CUSTOMPROPERTYTAG
  1
NBSYN
  9
$CUSTOMPROPERTY
  1
$PN.
  9
$CUSTOMPROPERTYTAG
  1
LINA
  9
$CUSTOMPROPERTY
  1
127533
  9
$CUSTOMPROPERTYTAG
  1
SERIES
  9
$CUSTOMPROPERTY
  1
204
  9
$CUSTOMPROPERTYTAG
  1
SS
  9
$CUSTOMPROPERTY
  1
3/4
  9
$CUSTOMPROPERTYTAG
  1
PN
  9
$CUSTOMPROPERTY
  1
127533
  9
$CUSTOMPROPERTYTAG
  1
DESCRIPTION
  9
$CUSTOMPROPERTY
  1
FB-SCEZ-012-PCR
  9
$CUSTOMPROPERTYTAG
  1
WEIGHT
  9
$CUSTOMPROPERTY
  1
0.47
  9
$CUSTOMPROPERTYTAG
  1
A
  9
$CUSTOMPROPERTY
  1
1.23
  9
$CUSTOMPROPERTYTAG
  1
B
  9
$CUSTOMPROPERTY
  1
4.39
  9
$CUSTOMPROPERTYTAG
  1
C
  9
$CUSTOMPROPERTY
  1
1.44
  9
$CUSTOMPROPERTYTAG
  1
D
  9
$CUSTOMPROPERTY
  1
1.50
  9
$CUSTOMPROPERTYTAG
  1
E
  9
$CUSTOMPROPERTY
  1
1.69
  9
$CUSTOMPROPERTYTAG
  1
F
  9
$CUSTOMPROPERTY
  1
3/8
  9
$CUSTOMPROPERTYTAG
  1
G
  9
$CUSTOMPROPERTY
  1
0.88
  9
$CUSTOMPROPERTYTAG
  1
H
  9
$CUSTOMPROPERTY
  1
0.53
  9
$CUSTOMPROPERTYTAG
  1
I
  9
$CUSTOMPROPERTY
  1
3.22
  9
$CUSTOMPROPERTYTAG
  1
J
  9
$CUSTOMPROPERTY
  1
2.34
  9
$CUSTOMPROPERTYTAG
  1
K
  9
$CUSTOMPROPERTY
  1
1.12
  9
$CUSTOMPROPERTYTAG
  1
L
  9
$CUSTOMPROPERTY
  1
1.12
  9
$CUSTOMPROPERTYTAG
  1
COMPANY
  9
$CUSTOMPROPERTY
  1
baldor
  9
$INSBASE
 10
0.0
 20
0.0
 30
0.0
  9
$EXTMIN
 10
1.000000000000000E+20
 20
1.000000000000000E+20
 30
1.000000000000000E+20
  9
$EXTMAX
 10
-1.000000000000000E+20
 20
-1.000000000000000E+20
 30
-1.000000000000000E+20
  9
$LIMMIN
 10
0.0
 20
0.0
  9
$LIMMAX
 10
12.0
 20
9.0
  9
$ORTHOMODE
 70
     0
  9
$REGENMODE
 70
     1
  9
$FILLMODE
 70
     1
  9
$QTEXTMODE
 70
     0
  9
$MIRRTEXT
 70
     1
  9
$LTSCALE
 40
1.0
  9
$ATTMODE
 70
     1
  9
$TEXTSIZE
 40
0.2
  9
$TRACEWID
 40
0.05
  9
$TEXTSTYLE
  7
Standard
  9
$CLAYER
  8
0
  9
$CELTYPE
  6
ByLayer
  9
$CECOLOR
 62
   256
  9
$CELTSCALE
 40
1.0
  9
$DISPSILH
 70
     0
  9
$DIMSCALE
 40
1.0
  9
$DIMASZ
 40
0.18
  9
$DIMEXO
 40
0.0625
  9
$DIMDLI
 40
0.38
  9
$DIMRND
 40
0.0
  9
$DIMDLE
 40
0.0
  9
$DIMEXE
 40
0.18
  9
$DIMTP
 40
0.0
  9
$DIMTM
 40
0.0
  9
$DIMTXT
 40
0.18
  9
$DIMCEN
 40
0.09
  9
$DIMTSZ
 40
0.0
  9
$DIMTOL
 70
     0
  9
$DIMLIM
 70
     0
  9
$DIMTIH
 70
     1
  9
$DIMTOH
 70
     1
  9
$DIMSE1
 70
     0
  9
$DIMSE2
 70
     0
  9
$DIMTAD
 70
     0
  9
$DIMZIN
 70
     0
  9
$DIMBLK
  1

  9
$DIMASO
 70
     1
  9
$DIMSHO
 70
     1
  9
$DIMPOST
  1

  9
$DIMAPOST
  1

  9
$DIMALT
 70
     0
  9
$DIMALTD
 70
     2
  9
$DIMALTF
 40
25.4
  9
$DIMLFAC
 40
1.0
  9
$DIMTOFL
 70
     0
  9
$DIMTVP
 40
0.0
  9
$DIMTIX
 70
     0
  9
$DIMSOXD
 70
     0
  9
$DIMSAH
 70
     0
  9
$DIMBLK1
  1

  9
$DIMBLK2
  1

  9
$DIMSTYLE
  2
Standard
  9
$DIMCLRD
 70
     0
  9
$DIMCLRE
 70
     0
  9
$DIMCLRT
 70
     0
  9
$DIMTFAC
 40
1.0
  9
$DIMGAP
 40
0.09
  9
$DIMJUST
 70
     0
  9
$DIMSD1
 70
     0
  9
$DIMSD2
 70
     0
  9
$DIMTOLJ
 70
     1
  9
$DIMTZIN
 70
     0
  9
$DIMALTZ
 70
     0
  9
$DIMALTTZ
 70
     0
  9
$DIMUPT
 70
     0
  9
$DIMDEC
 70
     4
  9
$DIMTDEC
 70
     4
  9
$DIMALTU
 70
     2
  9
$DIMALTTD
 70
     2
  9
$DIMTXSTY
  7
Standard
  9
$DIMAUNIT
 70
     0
  9
$DIMADEC
 70
     0
  9
$DIMALTRND
 40
0.0
  9
$DIMAZIN
 70
     0
  9
$DIMDSEP
 70
    46
  9
$DIMATFIT
 70
     3
  9
$DIMFRAC
 70
     0
  9
$DIMLDRBLK
  1

  9
$DIMLUNIT
 70
     2
  9
$DIMLWD
 70
    -2
  9
$DIMLWE
 70
    -2
  9
$DIMTMOVE
 70
     0
  9
$DIMFXL
 40
1.0
  9
$DIMFXLON
 70
     0
  9
$DIMJOGANG
 40
0.7853981633974483
  9
$DIMTFILL
 70
     0
  9
$DIMTFILLCLR
 70
     0
  9
$DIMARCSYM
 70
     0
  9
$DIMLTYPE
  6

  9
$DIMLTEX1
  6

  9
$DIMLTEX2
  6

  9
$DIMTXTDIRECTION
 70
     0
  9
$LUNITS
 70
     2
  9
$LUPREC
 70
     4
  9
$SKETCHINC
 40
0.1
  9
$FILLETRAD
 40
0.5
  9
$AUNITS
 70
     0
  9
$AUPREC
 70
     0
  9
$MENU
  1
.
  9
$ELEVATION
 40
0.0
  9
$PELEVATION
 40
0.0
  9
$THICKNESS
 40
0.0
  9
$LIMCHECK
 70
     0
  9
$CHAMFERA
 40
0.0
  9
$CHAMFERB
 40
0.0
  9
$CHAMFERC
 40
0.0
  9
$CHAMFERD
 40
0.0
  9
$SKPOLY
 70
     0
  9
$TDCREATE
 40
2458168.997647037
  9
$TDUCREATE
 40
2458168.95598037
  9
$TDUPDATE
 40
2458168.997647222
  9
$TDUUPDATE
 40
2458168.955980556
  9
$TDINDWG
 40
0.0000000116
  9
$TDUSRTIMER
 40
0.0000000116
  9
$USRTIMER
 70
     1
  9
$ANGBASE
 50
0.0
  9
$ANGDIR
 70
     0
  9
$PDMODE
 70
     0
  9
$PDSIZE
 40
0.0
  9
$PLINEWID
 40
0.0
  9
$SPLFRAME
 70
     0
  9
$SPLINETYPE
 70
     6
  9
$SPLINESEGS
 70
     8
  9
$HANDSEED
  5
18E
  9
$SURFTAB1
 70
     6
  9
$SURFTAB2
 70
     6
  9
$SURFTYPE
 70
     6
  9
$SURFU
 70
     6
  9
$SURFV
 70
     6
  9
$UCSBASE
  2

  9
$UCSNAME
  2

  9
$UCSORG
 10
0.0
 20
0.0
 30
0.0
  9
$UCSXDIR
 10
1.0
 20
0.0
 30
0.0
  9
$UCSYDIR
 10
0.0
 20
1.0
 30
0.0
  9
$UCSORTHOREF
  2

  9
$UCSORTHOVIEW
 70
     0
  9
$UCSORGTOP
 10
0.0
 20
0.0
 30
0.0
  9
$UCSORGBOTTOM
 10
0.0
 20
0.0
 30
0.0
  9
$UCSORGLEFT
 10
0.0
 20
0.0
 30
0.0
  9
$UCSORGRIGHT
 10
0.0
 20
0.0
 30
0.0
  9
$UCSORGFRONT
 10
0.0
 20
0.0
 30
0.0
  9
$UCSORGBACK
 10
0.0
 20
0.0
 30
0.0
  9
$PUCSBASE
  2

  9
$PUCSNAME
  2

  9
$PUCSORG
 10
0.0
 20
0.0
 30
0.0
  9
$PUCSXDIR
 10
1.0
 20
0.0
 30
0.0
  9
$PUCSYDIR
 10
0.0
 20
1.0
 30
0.0
  9
$PUCSORTHOREF
  2

  9
$PUCSORTHOVIEW
 70
     0
  9
$PUCSORGTOP
 10
0.0
 20
0.0
 30
0.0
  9
$PUCSORGBOTTOM
 10
0.0
 20
0.0
 30
0.0
  9
$PUCSORGLEFT
 10
0.0
 20
0.0
 30
0.0
  9
$PUCSORGRIGHT
 10
0.0
 20
0.0
 30
0.0
  9
$PUCSORGFRONT
 10
0.0
 20
0.0
 30
0.0
  9
$PUCSORGBACK
 10
0.0
 20
0.0
 30
0.0
  9
$USERI1
 70
     0
  9
$USERI2
 70
     0
  9
$USERI3
 70
     0
  9
$USERI4
 70
     0
  9
$USERI5
 70
     0
  9
$USERR1
 40
0.0
  9
$USERR2
 40
0.0
  9
$USERR3
 40
0.0
  9
$USERR4
 40
0.0
  9
$USERR5
 40
0.0
  9
$WORLDVIEW
 70
     1
  9
$SHADEDGE
 70
     3
  9
$SHADEDIF
 70
    70
  9
$TILEMODE
 70
     1
  9
$MAXACTVP
 70
    64
  9
$PINSBASE
 10
0.0
 20
0.0
 30
0.0
  9
$PLIMCHECK
 70
     0
  9
$PEXTMIN
 10
1.000000000000000E+20
 20
1.000000000000000E+20
 30
1.000000000000000E+20
  9
$PEXTMAX
 10
-1.000000000000000E+20
 20
-1.000000000000000E+20
 30
-1.000000000000000E+20
  9
$PLIMMIN
 10
0.0
 20
0.0
  9
$PLIMMAX
 10
12.0
 20
9.0
  9
$UNITMODE
 70
     0
  9
$VISRETAIN
 70
     1
  9
$PLINEGEN
 70
     0
  9
$PSLTSCALE
 70
     1
  9
$TREEDEPTH
 70
  3020
  9
$CMLSTYLE
  2
Standard
  9
$CMLJUST
 70
     0
  9
$CMLSCALE
 40
1.0
  9
$PROXYGRAPHICS
 70
     1
  9
$MEASUREMENT
 70
     0
  9
$CELWEIGHT
370
    -1
  9
$ENDCAPS
280
     0
  9
$JOINSTYLE
280
     0
  9
$LWDISPLAY
290
     0
  9
$INSUNITS
 70
     1
  9
$HYPERLINKBASE
  1

  9
$STYLESHEET
  1

  9
$XEDIT
290
     1
  9
$CEPSNTYPE
380
     0
  9
$PSTYLEMODE
290
     1
  9
$FINGERPRINTGUID
  2
{EF98E5B7-9CC9-4D7A-86DB-27D29859BC6C}
  9
$VERSIONGUID
  2
{FAEB1C32-E019-11D5-929B-00C0DF256EC4}
  9
$EXTNAMES
290
     1
  9
$PSVPSCALE
 40
0.0
  9
$OLESTARTUP
290
     0
  9
$SORTENTS
280
   127
  9
$INDEXCTL
280
     0
  9
$HIDETEXT
280
     1
  9
$XCLIPFRAME
280
     2
  9
$HALOGAP
280
     0
  9
$OBSCOLOR
 70
   257
  9
$OBSLTYPE
280
     0
  9
$INTERSECTIONDISPLAY
280
     0
  9
$INTERSECTIONCOLOR
 70
   257
  9
$DIMASSOC
280
     2
  9
$PROJECTNAME
  1

  9
$CAMERADISPLAY
290
     0
  9
$LENSLENGTH
 40
50.0
  9
$CAMERAHEIGHT
 40
0.0
  9
$STEPSPERSEC
 40
2.0
  9
$STEPSIZE
 40
6.0
  9
$3DDWFPREC
 40
2.0
  9
$PSOLWIDTH
 40
0.25
  9
$PSOLHEIGHT
 40
4.0
  9
$LOFTANG1
 40
1.570796326794897
  9
$LOFTANG2
 40
1.570796326794897
  9
$LOFTMAG1
 40
0.0
  9
$LOFTMAG2
 40
0.0
  9
$LOFTPARAM
 70
     7
  9
$LOFTNORMALS
280
     1
  9
$LATITUDE
 40
37.795
  9
$LONGITUDE
 40
-122.394
  9
$NORTHDIRECTION
 40
0.0
  9
$TIMEZONE
 70
 -8000
  9
$LIGHTGLYPHDISPLAY
280
     1
  9
$TILEMODELIGHTSYNCH
280
     1
  9
$CMATERIAL
347
44
  9
$SOLIDHIST
280
     0
  9
$SHOWHIST
280
     1
  9
$DWFFRAME
280
     2
  9
$DGNFRAME
280
     2
  9
$REALWORLDSCALE
290
     1
  9
$INTERFERECOLOR
 62
   256
  9
$CSHADOW
280
     0
  9
$SHADOWPLANELOCATION
 40
0.0
  0
ENDSEC
  0
SECTION
  2
CLASSES
  0
CLASS
  1
ACDBDICTIONARYWDFLT
  2
AcDbDictionaryWithDefault
  3
ObjectDBX Classes
 90
        0
 91
        4
280
     0
281
     0
  0
CLASS
  1
VISUALSTYLE
  2
AcDbVisualStyle
  3
ObjectDBX Classes
 90
     4095
 91
        4
280
     0
281
     0
  0
CLASS
  1
MATERIAL
  2
AcDbMaterial
  3
ObjectDBX Classes
 90
     1153
 91
        4
280
     0
281
     0
  0
CLASS
  1
SCALE
  2
AcDbScale
  3
ObjectDBX Classes
 90
     1153
 91
        4
280
     0
281
     0
  0
CLASS
  1
TABLESTYLE
  2
AcDbTableStyle
  3
ObjectDBX Classes
 90
     4095
 91
        4
280
     0
281
     0
  0
CLASS
  1
MLEADERSTYLE
  2
AcDbMLeaderStyle
  3
ACDB_MLEADERSTYLE_CLASS
 90
     4095
 91
        4
280
     0
281
     0
  0
CLASS
  1
SUN
  2
AcDbSun
  3
SCENEOE
 90
     1153
 91
        4
280
     0
281
     0
  0
CLASS
  1
DICTIONARYVAR
  2
AcDbDictionaryVar
  3
ObjectDBX Classes
 90
        0
 91
        4
280
     0
281
     0
  0
CLASS
  1
CELLSTYLEMAP
  2
AcDbCellStyleMap
  3
ObjectDBX Classes
 90
     1152
 91
        4
280
     0
281
     0
  0
ENDSEC
  0
SECTION
  2
TABLES
  0
TABLE
  2
VPORT
  5
8
330
0
100
AcDbSymbolTable
 70
     1
  0
VPORT
  5
29
330
8
100
AcDbSymbolTableRecord
100
AcDbViewportTableRecord
  2
*Active
 70
     0
 10
0.0
 20
0.0
 11
1.0
 21
1.0
 12
-0.7227500000000013
 22
-1.545
 13
0.0
 23
0.0
 14
0.5
 24
0.5
 15
0.5
 25
0.5
 16
0.0
 26
0.0
 36
1.0
 17
0.0
 27
0.0
 37
0.0
 40
5.5386
 41
0.2868324125230198
 42
50.0
 43
0.0
 44
0.0
 50
0.0
 51
0.0
 71
     0
 72
   100
 73
     1
 74
     3
 75
     0
 76
     0
 77
     0
 78
     0
281
     0
 65
     1
110
0.0
120
0.0
130
0.0
111
1.0
121
0.0
131
0.0
112
0.0
122
1.0
132
0.0
 79
     0
146
0.0
348
2F
 60
     3
 61
     5
292
     1
282
     1
141
0.0
142
0.0
 63
   250
361
6D
  0
ENDTAB
  0
TABLE
  2
LTYPE
  5
5
330
0
100
AcDbSymbolTable
 70
     3
  0
LTYPE
  5
14
330
5
100
AcDbSymbolTableRecord
100
AcDbLinetypeTableRecord
  2
ByBlock
 70
     0
  3

 72
    65
 73
     0
 40
0.0
  0
LTYPE
  5
15
330
5
100
AcDbSymbolTableRecord
100
AcDbLinetypeTableRecord
  2
ByLayer
 70
     0
  3

 72
    65
 73
     0
 40
0.0
  0
LTYPE
  5
16
330
5
100
AcDbSymbolTableRecord
100
AcDbLinetypeTableRecord
  2
Continuous
 70
     0
  3
Solid line
 72
    65
 73
     0
 40
0.0
  0
LTYPE
  5
9C
330
5
100
AcDbSymbolTableRecord
100
AcDbLinetypeTableRecord
  2
Dashed
 70
     0
  3

 72
    65
 73
     2
 40
2.0
 49
1.0
 74
     0
 49
-1.0
 74
     0
  0
LTYPE
  5
169
330
5
100
AcDbSymbolTableRecord
100
AcDbLinetypeTableRecord
  2
Center
 70
     0
  3

 72
    65
 73
     4
 40
1.5
 49
0.45
 74
     0
 49
-0.5
 74
     0
 49
0.05
 74
     0
 49
-0.5
 74
     0
  0
ENDTAB
  0
TABLE
  2
LAYER
  5
2
330
0
100
AcDbSymbolTable
 70
     6
  0
LAYER
  5
10
330
2
100
AcDbSymbolTableRecord
100
AcDbLayerTableRecord
  2
0
 70
     0
 62
     7
  6
Continuous
370
    -3
390
F
347
46
348
0
  0
LAYER
  5
72
330
2
100
AcDbSymbolTableRecord
100
AcDbLayerTableRecord
  2
AM_6
 70
     0
 62
    -2
  6
Continuous
370
    35
390
F
347
46
348
0
  0
LAYER
  5
9D
330
2
100
AcDbSymbolTableRecord
100
AcDbLayerTableRecord
  2
AM_9
 70
     0
 62
     6
  6
Dashed
370
    25
390
F
347
46
348
0
  0
LAYER
  5
B9
330
2
100
AcDbSymbolTableRecord
100
AcDbLayerTableRecord
  2
AM_4
 70
     0
 62
     7
  6
Continuous
370
    50
390
F
347
46
348
0
  0
LAYER
  5
16A
330
2
100
AcDbSymbolTableRecord
100
AcDbLayerTableRecord
  2
AM_7
 70
     0
 62
     7
  6
Center
370
    25
390
F
347
46
348
0
  0
LAYER
  5
180
330
2
100
AcDbSymbolTableRecord
100
AcDbLayerTableRecord
  2
ConnectionPoints
 70
     0
 62
     7
  6
Continuous
370
    50
390
F
347
46
348
0
  0
ENDTAB
  0
TABLE
  2
STYLE
  5
3
330
0
100
AcDbSymbolTable
 70
     1
  0
STYLE
  5
11
330
3
100
AcDbSymbolTableRecord
100
AcDbTextStyleTableRecord
  2
Standard
 70
     0
 40
0.0
 41
1.0
 50
0.0
 71
     0
 42
0.2
  3
txt
  4

  0
ENDTAB
  0
TABLE
  2
VIEW
  5
6
330
0
100
AcDbSymbolTable
 70
     0
  0
ENDTAB
  0
TABLE
  2
UCS
  5
7
330
0
100
AcDbSymbolTable
 70
     0
  0
ENDTAB
  0
TABLE
  2
APPID
  5
9
330
0
100
AcDbSymbolTable
 70
     1
  0
APPID
  5
12
330
9
100
AcDbSymbolTableRecord
100
AcDbRegAppTableRecord
  2
ACAD
 70
     0
  0
ENDTAB
  0
TABLE
  2
DIMSTYLE
  5
A
330
0
100
AcDbSymbolTable
 70
     1
100
AcDbDimStyleTable
  0
DIMSTYLE
105
27
330
A
100
AcDbSymbolTableRecord
100
AcDbDimStyleTableRecord
  2
Standard
 70
     0
178
     0
340
11
  0
ENDTAB
  0
TABLE
  2
BLOCK_RECORD
  5
1
330
0
100
AcDbSymbolTable
 70
     5
  0
BLOCK_RECORD
  5
1F
330
1
100
AcDbSymbolTableRecord
100
AcDbBlockTableRecord
  2
*Model_Space
340
22
 70
     0
280
     1
281
     0
  0
BLOCK_RECORD
  5
1B
330
1
100
AcDbSymbolTableRecord
100
AcDbBlockTableRecord
  2
*Paper_Space
340
1E
 70
     0
280
     1
281
     0
  0
BLOCK_RECORD
  5
23
330
1
100
AcDbSymbolTableRecord
100
AcDbBlockTableRecord
  2
*Paper_Space0
340
26
 70
     0
280
     1
281
     0
  0
BLOCK_RECORD
  5
6E
330
1
100
AcDbSymbolTableRecord
100
AcDbBlockTableRecord
  2
1_127533_2
340
0
102
{BLKREFS
331
6F
102
}
 70
     0
280
     1
281
     0
  0
BLOCK_RECORD
  5
8A
330
1
100
AcDbSymbolTableRecord
100
AcDbBlockTableRecord
  2
2_405020c_Inch_0_in_127533_2
340
0
102
{BLKREFS
331
8B
102
}
 70
     0
280
     1
281
     0
  0
BLOCK_RECORD
  5
D7
330
1
100
AcDbSymbolTableRecord
100
AcDbBlockTableRecord
  2
3_045600_0_in_127533_2
340
0
102
{BLKREFS
331
D8
102
}
 70
     0
280
     1
281
     0
  0
BLOCK_RECORD
  5
135
330
1
100
AcDbSymbolTableRecord
100
AcDbBlockTableRecord
  2
4_127533H_0_in_127533_2
340
0
102
{BLKREFS
331
136
102
}
 70
     0
280
     1
281
     0
  0
ENDTAB
  0
ENDSEC
  0
SECTION
  2
BLOCKS
  0
BLOCK
  5
20
330
1F
100
AcDbEntity
  8
0
100
AcDbBlockBegin
  2
*Model_Space
 70
     0
 10
0.0
 20
0.0
 30
0.0
  3
*Model_Space
  1

  0
ENDBLK
  5
21
330
1F
100
AcDbEntity
  8
0
100
AcDbBlockEnd
  0
BLOCK
  5
1C
330
1B
100
AcDbEntity
 67
     1
  8
0
100
AcDbBlockBegin
  2
*Paper_Space
 70
     0
 10
0.0
 20
0.0
 30
0.0
  3
*Paper_Space
  1

  0
ENDBLK
  5
1D
330
1B
100
AcDbEntity
 67
     1
  8
0
100
AcDbBlockEnd
  0
BLOCK
  5
24
330
23
100
AcDbEntity
  8
0
100
AcDbBlockBegin
  2
*Paper_Space0
 70
     0
 10
0.0
 20
0.0
 30
0.0
  3
*Paper_Space0
  1

  0
ENDBLK
  5
25
330
23
100
AcDbEntity
  8
0
100
AcDbBlockEnd
  0
BLOCK
  5
70
330
6E
100
AcDbEntity
  8
0
100
AcDbBlockBegin
  2
1_127533_2
 70
     2
 10
0.0
 20
0.0
 30
0.0
  3
1_127533_2
  1

  0
ATTDEF
  5
73
330
6E
100
AcDbEntity
  8
AM_6
100
AcDbText
 10
5.056
 20
1.17
 30
0.0
 40
0.5
  1
Set Screw Flange Bracket Inch Bore - Polymer Housing, Corrosion Resistant Insert
100
AcDbAttributeDefinition
  3

  2
NN
 70
     8
280
     0
  0
ATTDEF
  5
74
330
6E
100
AcDbEntity
  8
AM_6
100
AcDbText
 10
5.056
 20
0.6699999999999999
 30
0.0
 40
0.5
  1
SC 3 Bolt Flange Bearings -(Normal Duty) -Polymer Housed -Corrosion Resistant Insert -E-Z KLEEN
100
AcDbAttributeDefinition
  3

  2
NT
 70
     8
280
     0
  0
ATTDEF
  5
75
330
6E
100
AcDbEntity
  8
AM_6
100
AcDbText
 10
5.056
 20
0.1699999999999999
 30
0.0
 40
0.5
  1
127533
100
AcDbAttributeDefinition
  3

  2
NB
 70
     8
280
     0
  0
ATTDEF
  5
76
330
6E
100
AcDbEntity
  8
AM_6
100
AcDbText
 10
5.056
 20
-0.3300000000000001
 30
0.0
 40
0.5
  1
$PN.
100
AcDbAttributeDefinition
  3

  2
NBSYN
 70
     8
280
     0
  0
ATTDEF
  5
77
330
6E
100
AcDbEntity
  8
AM_6
100
AcDbText
 10
5.056
 20
-0.8300000000000001
 30
0.0
 40
0.5
  1
127533
100
AcDbAttributeDefinition
  3

  2
LINA
 70
     8
280
     0
  0
ATTDEF
  5
78
330
6E
100
AcDbEntity
  8
AM_6
100
AcDbText
 10
5.056
 20
-1.33
 30
0.0
 40
0.5
  1
204
100
AcDbAttributeDefinition
  3

  2
SERIES
 70
     8
280
     0
  0
ATTDEF
  5
79
330
6E
100
AcDbEntity
  8
AM_6
100
AcDbText
 10
5.056
 20
-1.83
 30
0.0
 40
0.5
  1
3/4
100
AcDbAttributeDefinition
  3

  2
SS
 70
     8
280
     0
  0
ATTDEF
  5
7A
330
6E
100
AcDbEntity
  8
AM_6
100
AcDbText
 10
5.056
 20
-2.33
 30
0.0
 40
0.5
  1
127533
100
AcDbAttributeDefinition
  3

  2
PN
 70
     8
280
     0
  0
ATTDEF
  5
7B
330
6E
100
AcDbEntity
  8
AM_6
100
AcDbText
 10
5.056
 20
-2.83
 30
0.0
 40
0.5
  1
FB-SCEZ-012-PCR
100
AcDbAttributeDefinition
  3

  2
DESCRIPTION
 70
     8
280
     0
  0
ATTDEF
  5
7C
330
6E
100
AcDbEntity
  8
AM_6
100
AcDbText
 10
5.056
 20
-3.33
 30
0.0
 40
0.5
  1
0.47
100
AcDbAttributeDefinition
  3

  2
WEIGHT
 70
     8
280
     0
  0
ATTDEF
  5
7D
330
6E
100
AcDbEntity
  8
AM_6
100
AcDbText
 10
5.056
 20
-3.83
 30
0.0
 40
0.5
  1
1.23
100
AcDbAttributeDefinition
  3

  2
A
 70
     8
280
     0
  0
ATTDEF
  5
7E
330
6E
100
AcDbEntity
  8
AM_6
100
AcDbText
 10
5.056
 20
-4.33
 30
0.0
 40
0.5
  1
4.39
100
AcDbAttributeDefinition
  3

  2
B
 70
     8
280
     0
  0
ATTDEF
  5
7F
330
6E
100
AcDbEntity
  8
AM_6
100
AcDbText
 10
5.056
 20
-4.83
 30
0.0
 40
0.5
  1
1.44
100
AcDbAttributeDefinition
  3

  2
C
 70
     8
280
     0
  0
ATTDEF
  5
80
330
6E
100
AcDbEntity
  8
AM_6
100
AcDbText
 10
5.056
 20
-5.33
 30
0.0
 40
0.5
  1
1.50
100
AcDbAttributeDefinition
  3

  2
D
 70
     8
280
     0
  0
ATTDEF
  5
81
330
6E
100
AcDbEntity
  8
AM_6
100
AcDbText
 10
5.056
 20
-5.83
 30
0.0
 40
0.5
  1
1.69
100
AcDbAttributeDefinition
  3

  2
E
 70
     8
280
     0
  0
ATTDEF
  5
82
330
6E
100
AcDbEntity
  8
AM_6
100
AcDbText
 10
5.056
 20
-6.33
 30
0.0
 40
0.5
  1
3/8
100
AcDbAttributeDefinition
  3

  2
F
 70
     8
280
     0
  0
ATTDEF
  5
83
330
6E
100
AcDbEntity
  8
AM_6
100
AcDbText
 10
5.056
 20
-6.83
 30
0.0
 40
0.5
  1
0.88
100
AcDbAttributeDefinition
  3

  2
G
 70
     8
280
     0
  0
ATTDEF
  5
84
330
6E
100
AcDbEntity
  8
AM_6
100
AcDbText
 10
5.056
 20
-7.33
 30
0.0
 40
0.5
  1
0.53
100
AcDbAttributeDefinition
  3

  2
H
 70
     8
280
     0
  0
ATTDEF
  5
85
330
6E
100
AcDbEntity
  8
AM_6
100
AcDbText
 10
5.056
 20
-7.83
 30
0.0
 40
0.5
  1
3.22
100
AcDbAttributeDefinition
  3

  2
I
 70
     8
280
     0
  0
ATTDEF
  5
86
330
6E
100
AcDbEntity
  8
AM_6
100
AcDbText
 10
5.056
 20
-8.33
 30
0.0
 40
0.5
  1
2.34
100
AcDbAttributeDefinition
  3

  2
J
 70
     8
280
     0
  0
ATTDEF
  5
87
330
6E
100
AcDbEntity
  8
AM_6
100
AcDbText
 10
5.056
 20
-8.83
 30
0.0
 40
0.5
  1
1.12
100
AcDbAttributeDefinition
  3

  2
K
 70
     8
280
     0
  0
ATTDEF
  5
88
330
6E
100
AcDbEntity
  8
AM_6
100
AcDbText
 10
5.056
 20
-9.33
 30
0.0
 40
0.5
  1
1.12
100
AcDbAttributeDefinition
  3

  2
L
 70
     8
280
     0
  0
ATTDEF
  5
89
330
6E
100
AcDbEntity
  8
AM_6
100
AcDbText
 10
5.056
 20
-9.83
 30
0.0
 40
0.5
  1
baldor
100
AcDbAttributeDefinition
  3

  2
COMPANY
 70
     8
280
     0
  0
INSERT
  5
8B
330
6E
100
AcDbEntity
  8
0
100
AcDbBlockReference
  2
2_405020c_Inch_0_in_127533_2
 10
0.0
 20
0.0
 30
0.0
  0
INSERT
  5
D8
330
6E
100
AcDbEntity
  8
0
100
AcDbBlockReference
  2
3_045600_0_in_127533_2
 10
0.0
 20
0.0
 30
0.0
  0
INSERT
  5
136
330
6E
100
AcDbEntity
  8
0
100
AcDbBlockReference
  2
4_127533H_0_in_127533_2
 10
0.0
 20
0.0
 30
0.0
  0
ENDBLK
  5
71
330
6E
100
AcDbEntity
  8
0
100
AcDbBlockEnd
  0
BLOCK
  5
8C
330
8A
100
AcDbEntity
  8
0
100
AcDbBlockBegin
  2
2_405020c_Inch_0_in_127533_2
 70
     2
 10
0.0
 20
0.0
 30
0.0
  3
2_405020c_Inch_0_in_127533_2
  1

  0
ATTDEF
  5
8E
330
8A
100
AcDbEntity
  8
AM_6
100
AcDbText
 10
4.315650000000002
 20
1.135727878384128
 30
0.0
 40
0.5
  1
405020C -Inch
100
AcDbAttributeDefinition
  3

  2
NN
 70
     8
280
     0
  0
ATTDEF
  5
8F
330
8A
100
AcDbEntity
  8
AM_6
100
AcDbText
 10
4.315650000000002
 20
0.6357278783841283
 30
0.0
 40
0.5
  1
Grease fitting
100
AcDbAttributeDefinition
  3

  2
NT
 70
     8
280
     0
  0
ATTDEF
  5
90
330
8A
100
AcDbEntity
  8
AM_6
100
AcDbText
 10
4.315650000000002
 20
0.1357278783841283
 30
0.0
 40
0.5
  1
405020c-Inch
100
AcDbAttributeDefinition
  3

  2
NB
 70
     8
280
     0
  0
ATTDEF
  5
91
330
8A
100
AcDbEntity
  8
AM_6
100
AcDbText
 10
4.315650000000002
 20
-0.3642721216158717
 30
0.0
 40
0.5
  1
$MN.-Inch
100
AcDbAttributeDefinition
  3

  2
NBSYN
 70
     8
280
     0
  0
ATTDEF
  5
92
330
8A
100
AcDbEntity
  8
AM_6
100
AcDbText
 10
4.315650000000002
 20
-0.8642721216158717
 30
0.0
 40
0.5
  1
405020c
100
AcDbAttributeDefinition
  3

  2
LINA
 70
     8
280
     0
  0
ATTDEF
  5
93
330
8A
100
AcDbEntity
  8
AM_6
100
AcDbText
 10
4.315650000000002
 20
-1.364272121615872
 30
0.0
 40
0.5
  1
405020c
100
AcDbAttributeDefinition
  3

  2
MN
 70
     8
280
     0
  0
ATTDEF
  5
94
330
8A
100
AcDbEntity
  8
AM_6
100
AcDbText
 10
4.315650000000002
 20
-1.864272121615872
 30
0.0
 40
0.5
  1
0.230
100
AcDbAttributeDefinition
  3

  2
NDR
 70
     8
280
     0
  0
ATTDEF
  5
95
330
8A
100
AcDbEntity
  8
AM_6
100
AcDbText
 10
4.315650000000002
 20
-2.364272121615872
 30
0.0
 40
0.5
  1
0.210
100
AcDbAttributeDefinition
  3

  2
KDR
 70
     8
280
     0
  0
ATTDEF
  5
96
330
8A
100
AcDbEntity
  8
AM_6
100
AcDbText
 10
4.315650000000002
 20
-2.864272121615872
 30
0.0
 40
0.5
  1
0.157
100
AcDbAttributeDefinition
  3

  2
BZE
 70
     8
280
     0
  0
ATTDEF
  5
97
330
8A
100
AcDbEntity
  8
AM_6
100
AcDbText
 10
4.315650000000002
 20
-3.364272121615872
 30
0.0
 40
0.5
  1
9/32
100
AcDbAttributeDefinition
  3

  2
WAF
 70
     8
280
     0
  0
ATTDEF
  5
98
330
8A
100
AcDbEntity
  8
AM_6
100
AcDbText
 10
4.315650000000002
 20
-3.864272121615872
 30
0.0
 40
0.5
  1
0.2813
100
AcDbAttributeDefinition
  3

  2
WAF1
 70
     8
280
     0
  0
ATTDEF
  5
99
330
8A
100
AcDbEntity
  8
AM_6
100
AcDbText
 10
4.315650000000002
 20
-4.364272121615872
 30
0.0
 40
0.5
  1
0.545
100
AcDbAttributeDefinition
  3

  2
BL
 70
     8
280
     0
  0
ATTDEF
  5
9A
330
8A
100
AcDbEntity
  8
AM_6
100
AcDbText
 10
4.315650000000002
 20
-4.864272121615872
 30
0.0
 40
0.5
  1
0.200
100
AcDbAttributeDefinition
  3

  2
TL
 70
     8
280
     0
  0
ATTDEF
  5
9B
330
8A
100
AcDbEntity
  8
AM_6
100
AcDbText
 10
4.315650000000002
 20
-5.364272121615872
 30
0.0
 40
0.5
  1
baldor
100
AcDbAttributeDefinition
  3

  2
COMPANY
 70
     8
280
     0
  0
LWPOLYLINE
  5
9E
330
8A
100
AcDbEntity
  8
AM_9
100
AcDbPolyline
 90
        3
 70
     0
 43
0.0
 10
-0.8953250000000001
 20
0.913445117068874
 10
-0.8601625
 20
0.9288882968572231
 10
-0.8250000000000001
 20
0.9462777573763899
  0
LWPOLYLINE
  5
9F
330
8A
100
AcDbEntity
  8
AM_9
100
AcDbPolyline
 90
        3
 70
     0
 43
0.0
 10
-0.8250000000000001
 20
0.9462777573763899
 10
-0.7899956000683012
 20
0.9289624541227821
 10
-0.7546750000000002
 20
0.913445117068874
  0
ELLIPSE
  5
A0
330
8A
100
AcDbEntity
  8
AM_9
100
AcDbEllipse
 10
-0.8250000000000001
 20
0.685893577750951
 30
0.0
 11
0.1000886227036577
 21
0.0
 31
0.0
210
0.0
220
0.0
230
1.0
 40
0.7071067811865474
 41
0.0
 42
6.283185307179586
  0
LWPOLYLINE
  5
A1
330
8A
100
AcDbEntity
  8
AM_9
100
AcDbPolyline
 90
        3
 70
     0
 43
0.0
 10
-0.8250000000000001
 20
0.9851730508942036
 10
-0.8600043999316991
 20
0.9739073812861526
 10
-0.8953250000000001
 20
0.9605855691479771
  0
LWPOLYLINE
  5
A2
330
8A
100
AcDbEntity
  8
AM_9
100
AcDbPolyline
 90
        3
 70
     0
 43
0.0
 10
-0.7546750000000001
 20
0.9605855691479771
 10
-0.7898375000000001
 20
0.9738524503864991
 10
-0.8250000000000001
 20
0.9851730508942036
  0
LWPOLYLINE
  5
A3
330
8A
100
AcDbEntity
  8
AM_9
100
AcDbPolyline
 90
        3
 70
     0
 43
0.0
 10
-0.7546750000000002
 20
0.913445117068874
 10
-0.7195125
 20
0.900178235830352
 10
-0.68435
 20
0.8888576353226475
  0
LINE
  5
A4
330
8A
100
AcDbEntity
  8
AM_9
100
AcDbLine
 10
-0.8250000000000001
 20
0.9851730508942036
 30
0.0
 11
-0.8250000000000001
 21
0.9462777573763899
 31
0.0
  0
LWPOLYLINE
  5
A5
330
8A
100
AcDbEntity
  8
AM_9
100
AcDbPolyline
 90
        3
 70
     0
 43
0.0
 10
-0.9656500000000001
 20
0.8888576353226475
 10
-0.9306456000683012
 20
0.9001233049306986
 10
-0.8953250000000001
 20
0.913445117068874
  0
LWPOLYLINE
  5
A6
330
8A
100
AcDbEntity
  8
AM_9
100
AcDbPolyline
 90
        3
 70
     0
 43
0.0
 10
-0.7098092060604438
 20
0.9405189184249602
 10
-0.719354399931699
 20
0.9450682320940692
 10
-0.7546750000000001
 20
0.9605855691479771
  0
LWPOLYLINE
  5
A7
330
8A
100
AcDbEntity
  8
AM_9
100
AcDbPolyline
 90
        3
 70
     0
 43
0.0
 10
-0.8953250000000001
 20
0.9605855691479771
 10
-0.9304875000000001
 20
0.945142389359628
 10
-0.9401895236091906
 20
0.9405195330938413
  0
LINE
  5
A8
330
8A
100
AcDbEntity
  8
AM_9
100
AcDbLine
 10
-0.7146376731557814
 20
0.6907563202132364
 30
0.0
 11
-0.7087130109081058
 21
0.8247439460714445
 31
0.0
  0
LINE
  5
A9
330
8A
100
AcDbEntity
  8
AM_9
100
AcDbLine
 10
-0.9412869890918943
 20
0.8247439460714445
 30
0.0
 11
-0.9353623268442187
 21
0.6907563202132364
 31
0.0
  0
ELLIPSE
  5
AA
330
8A
100
AcDbEntity
  8
AM_9
100
AcDbEllipse
 10
-0.8250000000000031
 20
0.874455386067361
 30
0.0
 11
-0.1406500000000047
 21
1.722465723000810E-17
 31
0.0
210
0.0
220
0.0
230
1.0
 40
0.7071067811865476
 41
3.798906696793626
 42
4.571707701171663
  0
ELLIPSE
  5
AB
330
8A
100
AcDbEntity
  8
AM_9
100
AcDbEllipse
 10
-0.824999999999998
 20
0.8744553860673342
 30
0.0
 11
-0.1406500000000251
 21
1.722465723001060E-17
 31
0.0
210
0.0
220
0.0
230
1.0
 40
0.7071067811866312
 41
4.695424344531176
 42
5.625871263975593
  0
ELLIPSE
  5
AC
330
8A
100
AcDbEntity
  8
AM_9
100
AcDbEllipse
 10
-0.8250000000000001
 20
0.896602358952897
 30
0.0
 11
-0.1093294505797715
 21
1.629135779712973E-9
 31
0.0
210
0.0
220
0.0
230
1.0
 40
0.7071067811865399
 41
5.368176027134289
 42
5.928986685971778
  0
ELLIPSE
  5
AD
330
8A
100
AcDbEntity
  8
AM_9
100
AcDbEllipse
 10
-0.8250000000000011
 20
0.8966023589528946
 30
0.0
 11
-0.1093294505797726
 21
1.338899617050573E-17
 31
0.0
210
0.0
220
0.0
230
1.0
 40
0.70710678118655
 41
3.49579129460351
 42
4.131710254272671
  0
LWPOLYLINE
  5
AE
330
8A
100
AcDbEntity
  8
AM_9
100
AcDbPolyline
 90
        4
 70
     0
 43
0.0
 10
-0.7333242653999356
 20
0.9098344666496136
 10
-0.7333274596417103
 20
0.9098280931575196
 10
-0.7355949515091098
 20
0.9059173963876782
 10
-0.736985647831679
 20
0.9039272409794931
  0
LWPOLYLINE
  5
AF
330
8A
100
AcDbEntity
  8
AM_9
100
AcDbPolyline
 90
       21
 70
     0
 43
0.0
 10
-0.8250000000000001
 20
0.9739099548412515
 10
-0.8201294741189914
 20
0.9738331974670142
 10
-0.8103478134275504
 20
0.9732120310776172
 10
-0.8007418653254061
 20
0.9719788986368054
 10
-0.7914326090812922
 20
0.9701600241422268
 10
-0.782532092714994
 20
0.9677944891505854
 10
-0.7741446647677102
 20
0.9649339682235436
 10
-0.766364351555652
 20
0.9616420385030143
 10
-0.7592720512852161
 20
0.9579930282930551
 10
-0.752932601036928
 20
0.9540701998886466
 10
-0.7473923771819122
 20
0.9499634219481576
 10
-0.7426814026166122
 20
0.9457702286205674
 10
-0.738799573852181
 20
0.9415818801944178
 10
-0.7357209649955687
 20
0.9374775987912592
 10
-0.7333955401117928
 20
0.9335116993353519
 10
-0.7317559863719453
 20
0.9296933045226695
 10
-0.7307359491143891
 20
0.925950288906421
 10
-0.7303198516732231
 20
0.9220577811634996
 10
-0.7306824763097148
 20
0.9175414633413458
 10
-0.7317007438257435
 20
0.9136701751796618
 10
-0.7333242653999356
 20
0.9098344666496136
  0
LWPOLYLINE
  5
B0
330
8A
100
AcDbEntity
  8
AM_9
100
AcDbPolyline
 90
       22
 70
     0
 43
0.0
 10
-0.9156643987399513
 20
0.9079572673106115
 10
-0.9168816251850812
 20
0.9102524045371396
 10
-0.9184281220103034
 20
0.9140528940632916
 10
-0.919362388399431
 20
0.9177986541409973
 10
-0.9196843297602133
 20
0.9217457106956498
 10
-0.9191739532751596
 20
0.9263959025400579
 10
-0.9180440931802115
 20
0.9302445864806761
 10
-0.9163017044621644
 20
0.934095637119171
 10
-0.9139105547803736
 20
0.9380217874313944
 10
-0.9104635749789388
 20
0.9424448575448681
 10
-0.9062148700570183
 20
0.9468253953027818
 10
-0.9011607522455218
 20
0.9511095495616582
 10
-0.8953098688642662
 20
0.955230633041447
 10
-0.8886915064975152
 20
0.9591125030757688
 10
-0.8813560516064624
 20
0.9626770077603234
 10
-0.8733744803994289
 20
0.9658492165593867
 10
-0.8648256850745503
 20
0.9685647044616439
 10
-0.8558013226255854
 20
0.9707674627047228
 10
-0.8464034794941572
 20
0.9724116076401207
 10
-0.8367423127136921
 20
0.9734625628264342
 10
-0.8274451581192239
 20
0.9738906175854463
 10
-0.8250000000000001
 20
0.9739099548412515
  0
LWPOLYLINE
  5
B1
330
8A
100
AcDbEntity
  8
AM_9
100
AcDbPolyline
 90
        3
 70
     0
 43
0.0
 10
-0.9130521117498885
 20
0.9039783825891414
 10
-0.9146595592601282
 20
0.9063086339067697
 10
-0.9156643987399513
 20
0.9079572673106115
  0
ELLIPSE
  5
B2
330
8A
100
AcDbEntity
  8
AM_9
100
AcDbEllipse
 10
-0.8250000000000001
 20
0.9365441708894017
 30
0.0
 11
-0.09936940028726626
 21
1.216924179949927E-17
 31
0.0
210
0.0
220
0.0
230
1.0
 40
0.7071067811865485
 41
2.656480407116017
 42
4.71238898038469
  0
ELLIPSE
  5
B3
330
8A
100
AcDbEntity
  8
AM_9
100
AcDbEllipse
 10
-0.825
 20
0.9848754995938773
 30
0.0
 11
-0.1312419113468906
 21
1.607249866449502E-17
 31
0.0
210
0.0
220
0.0
230
1.0
 40
0.7071067811865471
 41
2.65567965692392
 42
6.768297553653365
  0
ELLIPSE
  5
B4
330
8A
100
AcDbEntity
  8
AM_9
100
AcDbEllipse
 10
-0.8250000000000004
 20
1.013631743059155
 30
0.0
 11
-0.1319517646676792
 21
1.615943062421182E-17
 31
0.0
210
0.0
220
0.0
230
1.0
 40
0.7071067811865497
 41
3.579974428543792
 42
5.839895827306123
  0
ELLIPSE
  5
B5
330
8A
100
AcDbEntity
  8
AM_9
100
AcDbEllipse
 10
-0.8249999999999158
 20
1.060496319732372
 30
0.0
 11
-0.1038190510529445
 21
1.271416685625042E-17
 31
0.0
210
0.0
220
0.0
230
1.0
 40
0.7071067811865465
 41
3.596016032852168
 42
4.71238898038469
  0
ELLIPSE
  5
B6
330
8A
100
AcDbEntity
  8
AM_9
100
AcDbEllipse
 10
-0.8250000000000001
 20
0.8273149339882603
 30
0.0
 11
-0.1163438171532771
 21
1.424800832773458E-17
 31
0.0
210
0.0
220
0.0
230
1.0
 40
0.707106781186549
 41
0.0
 42
6.283185307179586
  0
ELLIPSE
  5
B7
330
8A
100
AcDbEntity
  8
AM_9
100
AcDbEllipse
 10
-0.825
 20
0.6931963198297367
 30
0.0
 11
-0.110416259593989
 21
1.352209188856019E-17
 31
0.0
210
0.0
220
0.0
230
1.0
 40
0.7071067811865457
 41
0.0
 42
6.283185307179586
  0
ELLIPSE
  5
B8
330
8A
100
AcDbEntity
  8
AM_9
100
AcDbEllipse
 10
-0.8249999999999988
 20
0.8273149339882611
 30
0.0
 11
-0.1406500000000013
 21
1.722465723000768E-17
 31
0.0
210
0.0
220
0.0
230
1.0
 40
0.7071067811865475
 41
0.0
 42
6.283185307179586
  0
LINE
  5
BA
330
8A
100
AcDbEntity
  8
AM_4
100
AcDbLine
 10
-0.68435
 20
0.9277529288404613
 30
0.0
 11
-0.7091075571334012
 21
0.9401790495084107
 31
0.0
  0
LINE
  5
BB
330
8A
100
AcDbEntity
  8
AM_4
100
AcDbLine
 10
-0.9401895236091906
 20
0.9405195330938413
 30
0.0
 11
-0.9656500000000001
 21
0.9277529288404613
 31
0.0
  0
LWPOLYLINE
  5
BC
330
8A
100
AcDbEntity
  8
AM_4
100
AcDbPolyline
 90
        3
 70
     0
 43
0.0
 10
-0.7546750000000001
 20
0.741184750907647
 10
-0.7898375000000001
 20
0.727917869669125
 10
-0.8250000000000001
 20
0.7165972691614205
  0
LWPOLYLINE
  5
BD
330
8A
100
AcDbEntity
  8
AM_4
100
AcDbPolyline
 90
        3
 70
     0
 43
0.0
 10
-0.68435
 20
0.7740173912151629
 10
-0.719354399931699
 20
0.7567020879615549
 10
-0.7546750000000001
 20
0.741184750907647
  0
LINE
  5
BE
330
8A
100
AcDbEntity
  8
AM_4
100
AcDbLine
 10
-0.68435
 20
0.9277529288404613
 30
0.0
 11
-0.68435
 21
0.7740173912151629
 31
0.0
  0
LWPOLYLINE
  5
BF
330
8A
100
AcDbEntity
  8
AM_4
100
AcDbPolyline
 90
        3
 70
     0
 43
0.0
 10
-0.7546750000000001
 20
0.7883252029867501
 10
-0.7195125
 20
0.8015920842252722
 10
-0.68435
 20
0.8129126847329766
  0
LWPOLYLINE
  5
C0
330
8A
100
AcDbEntity
  8
AM_4
100
AcDbPolyline
 90
        3
 70
     0
 43
0.0
 10
-0.8250000000000001
 20
0.7554925626792343
 10
-0.7899956000683012
 20
0.7728078659328422
 10
-0.7546750000000001
 20
0.7883252029867501
  0
LINE
  5
C1
330
8A
100
AcDbEntity
  8
AM_4
100
AcDbLine
 10
-0.9656500000000001
 20
0.9277529288404613
 30
0.0
 11
-0.9656500000000001
 21
0.7740173912151629
 31
0.0
  0
LWPOLYLINE
  5
C2
330
8A
100
AcDbEntity
  8
AM_4
100
AcDbPolyline
 90
        3
 70
     0
 43
0.0
 10
-0.8953250000000001
 20
0.741184750907647
 10
-0.9304875000000001
 20
0.7566279306959961
 10
-0.9656500000000001
 20
0.7740173912151629
  0
LWPOLYLINE
  5
C3
330
8A
100
AcDbEntity
  8
AM_4
100
AcDbPolyline
 90
        3
 70
     0
 43
0.0
 10
-0.8250000000000001
 20
0.7165972691614205
 10
-0.8600043999316991
 20
0.7278629387694716
 10
-0.8953250000000001
 20
0.741184750907647
  0
LINE
  5
C4
330
8A
100
AcDbEntity
  8
AM_4
100
AcDbLine
 10
-0.8250000000000001
 20
0.7554925626792343
 30
0.0
 11
-0.8250000000000001
 21
0.7165972691614205
 31
0.0
  0
LWPOLYLINE
  5
C5
330
8A
100
AcDbEntity
  8
AM_4
100
AcDbPolyline
 90
        3
 70
     0
 43
0.0
 10
-0.8953250000000001
 20
0.7883252029867501
 10
-0.8601625
 20
0.772882023198401
 10
-0.8250000000000001
 20
0.7554925626792343
  0
LWPOLYLINE
  5
C6
330
8A
100
AcDbEntity
  8
AM_4
100
AcDbPolyline
 90
        3
 70
     0
 43
0.0
 10
-0.9656500000000001
 20
0.8129126847329766
 10
-0.9306456000683012
 20
0.8016470151249256
 10
-0.8953250000000001
 20
0.7883252029867501
  0
ELLIPSE
  5
C7
330
8A
100
AcDbEntity
  8
AM_4
100
AcDbEllipse
 10
-0.8249999999999982
 20
0.8744553860673632
 30
0.0
 11
-0.1406500000000019
 21
1.722465723000776E-17
 31
0.0
210
0.0
220
0.0
230
1.0
 40
0.7071067811865474
 41
5.625871263975766
 42
10.08209200397322
  0
ELLIPSE
  5
C8
330
8A
100
AcDbEntity
  8
AM_4
100
AcDbEllipse
 10
-0.8250000000000001
 20
0.8966023589528958
 30
0.0
 11
-0.1093294505797714
 21
1.338899617050558E-17
 31
0.0
210
0.0
220
0.0
230
1.0
 40
0.7071067811865488
 41
5.928986666165877
 42
9.778976601783086
  0
LINE
  5
C9
330
8A
100
AcDbEntity
  8
AM_4
100
AcDbLine
 10
-0.7370955814367077
 20
0.9037791673757405
 30
0.0
 11
-0.7089004374109931
 21
0.9416011950897821
 31
0.0
  0
LINE
  5
CA
330
8A
100
AcDbEntity
  8
AM_4
100
AcDbLine
 10
-0.9410995625890072
 20
0.9416011950897821
 30
0.0
 11
-0.9129044185632924
 21
0.9037791673757405
 31
0.0
  0
ELLIPSE
  5
CB
330
8A
100
AcDbEntity
  8
AM_4
100
AcDbEllipse
 10
-0.8250000000000001
 20
0.9365441708894017
 30
0.0
 11
-0.09936940028726615
 21
1.216924179949926E-17
 31
0.0
210
0.0
220
0.0
230
1.0
 40
0.707106781186547
 41
0.4851122464737792
 42
2.656480407116015
  0
LWPOLYLINE
  5
CC
330
8A
100
AcDbEntity
  8
AM_4
100
AcDbPolyline
 90
       14
 70
     0
 43
0.0
 10
-0.9441235432564157
 20
1.053762660295309
 10
-0.9486126999933112
 20
1.046444516636804
 10
-0.9532275347926566
 20
1.037048610623465
 10
-0.9567633619335413
 20
1.02739924177261
 10
-0.9592158227506793
 20
1.017588565002073
 10
-0.9605915803995315
 20
1.007703266684028
 10
-0.9609051523620864
 20
0.9978241155029631
 10
-0.9601763648853068
 20
0.9880257177638844
 10
-0.9584300334038155
 20
0.9783841241916105
 10
-0.9556938401182474
 20
0.9689638604380563
 10
-0.9519948454775753
 20
0.959820260919644
 10
-0.9473587779716405
 20
0.9510045236201646
 10
-0.9418103135099423
 20
0.9425657925782234
 10
-0.9405213343961267
 20
0.9408327115850706
  0
LWPOLYLINE
  5
CD
330
8A
100
AcDbEntity
  8
AM_4
100
AcDbPolyline
 90
       13
 70
     0
 43
0.0
 10
-0.7089619970219299
 20
0.9415186989881625
 10
-0.7031167942203322
 20
0.9502069400468909
 10
-0.6981545714837565
 20
0.9594998344423599
 10
-0.6942669402732147
 20
0.9690771783876048
 10
-0.6914626416616338
 20
0.9788452139578134
 10
-0.6897382123507354
 20
0.9887154118930758
 10
-0.6890813823894825
 20
0.9986050464254426
 10
-0.689473801069792
 20
1.008437490845201
 10
-0.690892445513672
 20
1.018138179985297
 10
-0.693309926808863
 20
1.027636700794155
 10
-0.6966988787614903
 20
1.036876001918586
 10
-0.7010331113601928
 20
1.045803746406857
 10
-0.7056117694849559
 20
1.053366656034758
  0
ELLIPSE
  5
CE
330
8A
100
AcDbEntity
  8
AM_4
100
AcDbEllipse
 10
-0.825
 20
0.9848754995938772
 30
0.0
 11
-0.1312419113468903
 21
1.607249866449500E-17
 31
0.0
210
0.0
220
0.0
230
1.0
 40
0.7071067811865475
 41
0.492660829486697
 42
2.655679656923923
  0
ELLIPSE
  5
CF
330
8A
100
AcDbEntity
  8
AM_4
100
AcDbEllipse
 10
-0.8250000000000001
 20
1.071266773497619
 30
0.0
 11
0.08080642971672802
 21
0.0
 31
0.0
210
0.0
220
0.0
230
1.0
 40
0.707106781186549
 41
0.0
 42
6.283185307179586
  0
LWPOLYLINE
  5
D0
330
8A
100
AcDbEntity
  8
AM_4
100
AcDbPolyline
 90
       13
 70
     0
 43
0.0
 10
-0.8250000000000001
 20
1.135727878384128
 10
-0.8308664630280294
 20
1.135604228805264
 10
-0.8413943440143185
 20
1.134756831153008
 10
-0.8517821671091288
 20
1.133108073019014
 10
-0.8619317002665888
 20
1.13066428721907
 10
-0.8717475341560056
 20
1.127435430588778
 10
-0.8811329518780013
 20
1.123436063620872
 10
-0.8899881809055269
 20
1.118687572799456
 10
-0.8982066948950148
 20
1.113223984226066
 10
-0.9056833251957432
 20
1.107092988591617
 10
-0.9123161941771153
 20
1.10036042711759
 10
-0.9180141867757955
 20
1.093111050195749
 10
-0.9187499439707416
 20
1.092035103228044
  0
LWPOLYLINE
  5
D1
330
8A
100
AcDbEntity
  8
AM_4
100
AcDbPolyline
 90
       12
 70
     0
 43
0.0
 10
-0.7318322698459274
 20
1.092889697886007
 10
-0.7361533017330604
 20
1.098574635592555
 10
-0.7422524990053098
 20
1.105151059848544
 10
-0.749195183165502
 20
1.111237113042808
 10
-0.756920048573367
 20
1.11676588778743
 10
-0.7653485502859044
 20
1.121673736997843
 10
-0.7743883280141168
 20
1.125905156367955
 10
-0.7839387236153871
 20
1.129415682835611
 10
-0.7938943233010564
 20
1.132171901962991
 10
-0.8041510576477886
 20
1.134151170498362
 10
-0.8146091044997814
 20
1.135339281811233
 10
-0.8250000000000001
 20
1.135727878384128
  0
ELLIPSE
  5
D2
330
8A
100
AcDbEntity
  8
AM_4
100
AcDbEllipse
 10
-0.8250000000033704
 20
1.060496319734648
 30
0.0
 11
-0.1038190510567779
 21
1.271416685671987E-17
 31
0.0
210
0.0
220
0.0
230
1.0
 40
0.7071067811721965
 41
3.579974428509367
 42
3.596016032817704
  0
LINE
  5
D3
330
8A
100
AcDbEntity
  8
AM_4
100
AcDbLine
 10
-0.9190018950300904
 20
1.091657506265475
 30
0.0
 11
-0.9444743720494001
 21
1.053236936041366
 31
0.0
  0
LINE
  5
D4
330
8A
100
AcDbEntity
  8
AM_4
100
AcDbLine
 10
-0.7055256279506001
 20
1.053236936041366
 30
0.0
 11
-0.7309981049699096
 21
1.091657506265475
 31
0.0
  0
ELLIPSE
  5
D5
330
8A
100
AcDbEntity
  8
AM_4
100
AcDbEllipse
 10
-0.8250000000000002
 20
1.013631743059155
 30
0.0
 11
-0.1319517646676801
 21
1.615943062421193E-17
 31
0.0
210
0.0
220
0.0
230
1.0
 40
0.7071067811865466
 41
5.844803532225581
 42
9.863159735723386
  0
ELLIPSE
  5
D6
330
8A
100
AcDbEntity
  8
AM_4
100
AcDbEllipse
 10
-0.825
 20
1.060496319732342
 30
0.0
 11
-0.103819051053039
 21
1.547024427447800E-9
 31
0.0
210
0.0
220
0.0
230
1.0
 40
0.7071067811865468
 41
5.844803551400511
 42
9.863159754898318
  0
ENDBLK
  5
8D
330
8A
100
AcDbEntity
  8
0
100
AcDbBlockEnd
  0
BLOCK
  5
D9
330
D7
100
AcDbEntity
  8
0
100
AcDbBlockBegin
  2
3_045600_0_in_127533_2
 70
     2
 10
0.0
 20
0.0
 30
0.0
  3
3_045600_0_in_127533_2
  1

  0
ATTDEF
  5
DB
330
D7
100
AcDbEntity
  8
AM_6
100
AcDbText
 10
4.79
 20
0.9244661082478252
 30
0.0
 40
0.5
  1
Set Screw Insert Inch Bore - Corrosion Resistant
100
AcDbAttributeDefinition
  3

  2
NN
 70
     8
280
     0
  0
ATTDEF
  5
DC
330
D7
100
AcDbEntity
  8
AM_6
100
AcDbText
 10
4.79
 20
0.4244661082478252
 30
0.0
 40
0.5
  1
SC Normal Duty Bearing Inserts
100
AcDbAttributeDefinition
  3

  2
NT
 70
     8
280
     0
  0
ATTDEF
  5
DD
330
D7
100
AcDbEntity
  8
AM_6
100
AcDbText
 10
4.79
 20
-0.0755338917521748
 30
0.0
 40
0.5
  1
045600
100
AcDbAttributeDefinition
  3

  2
NB
 70
     8
280
     0
  0
ATTDEF
  5
DE
330
D7
100
AcDbEntity
  8
AM_6
100
AcDbText
 10
4.79
 20
-0.5755338917521748
 30
0.0
 40
0.5
  1
$PN.
100
AcDbAttributeDefinition
  3

  2
NBSYN
 70
     8
280
     0
  0
ATTDEF
  5
DF
330
D7
100
AcDbEntity
  8
AM_6
100
AcDbText
 10
4.79
 20
-1.075533891752175
 30
0.0
 40
0.5
  1
045600
100
AcDbAttributeDefinition
  3

  2
LINA
 70
     8
280
     0
  0
ATTDEF
  5
E0
330
D7
100
AcDbEntity
  8
AM_6
100
AcDbText
 10
4.79
 20
-1.575533891752175
 30
0.0
 40
0.5
  1
204
100
AcDbAttributeDefinition
  3

  2
SERIES
 70
     8
280
     0
  0
ATTDEF
  5
E1
330
D7
100
AcDbEntity
  8
AM_6
100
AcDbText
 10
4.79
 20
-2.075533891752175
 30
0.0
 40
0.5
  1
3/4
100
AcDbAttributeDefinition
  3

  2
SS
 70
     8
280
     0
  0
ATTDEF
  5
E2
330
D7
100
AcDbEntity
  8
AM_6
100
AcDbText
 10
4.79
 20
-2.575533891752175
 30
0.0
 40
0.5
  1
045600
100
AcDbAttributeDefinition
  3

  2
PN
 70
     8
280
     0
  0
ATTDEF
  5
E3
330
D7
100
AcDbEntity
  8
AM_6
100
AcDbText
 10
4.79
 20
-3.075533891752175
 30
0.0
 40
0.5
  1
INS-SC-012-CR
100
AcDbAttributeDefinition
  3

  2
DESCRIPTION
 70
     8
280
     0
  0
ATTDEF
  5
E4
330
D7
100
AcDbEntity
  8
AM_6
100
AcDbText
 10
4.79
 20
-3.575533891752175
 30
0.0
 40
0.5
  1
1.23
100
AcDbAttributeDefinition
  3

  2
A
 70
     8
280
     0
  0
ATTDEF
  5
E5
330
D7
100
AcDbEntity
  8
AM_6
100
AcDbText
 10
4.79
 20
-4.075533891752174
 30
0.0
 40
0.5
  1
0.58
100
AcDbAttributeDefinition
  3

  2
C
 70
     8
280
     0
  0
ATTDEF
  5
E6
330
D7
100
AcDbEntity
  8
AM_6
100
AcDbText
 10
4.79
 20
-4.575533891752174
 30
0.0
 40
0.5
  1
1.8504
100
AcDbAttributeDefinition
  3

  2
D
 70
     8
280
     0
  0
ATTDEF
  5
E7
330
D7
100
AcDbEntity
  8
AM_6
100
AcDbText
 10
4.79
 20
-5.075533891752174
 30
0.0
 40
0.5
  1
0.15
100
AcDbAttributeDefinition
  3

  2
J
 70
     8
280
     0
  0
ATTDEF
  5
E8
330
D7
100
AcDbEntity
  8
AM_6
100
AcDbText
 10
4.79
 20
-5.575533891752174
 30
0.0
 40
0.5
  1
1.12
100
AcDbAttributeDefinition
  3

  2
L
 70
     8
280
     0
  0
ATTDEF
  5
E9
330
D7
100
AcDbEntity
  8
AM_6
100
AcDbText
 10
4.79
 20
-6.075533891752174
 30
0.0
 40
0.5
  1
10 - 32
100
AcDbAttributeDefinition
  3

  2
N
 70
     8
280
     0
  0
ATTDEF
  5
EA
330
D7
100
AcDbEntity
  8
AM_6
100
AcDbText
 10
4.79
 20
-6.575533891752174
 30
0.0
 40
0.5
  1
0.5
100
AcDbAttributeDefinition
  3

  2
W
 70
     8
280
     0
  0
ATTDEF
  5
EB
330
D7
100
AcDbEntity
  8
AM_6
100
AcDbText
 10
4.79
 20
-7.075533891752174
 30
0.0
 40
0.5
  1
0.73
100
AcDbAttributeDefinition
  3

  2
Y
 70
     8
280
     0
  0
ATTDEF
  5
EC
330
D7
100
AcDbEntity
  8
AM_6
100
AcDbText
 10
4.79
 20
-7.575533891752174
 30
0.0
 40
0.5
  1
baldor
100
AcDbAttributeDefinition
  3

  2
COMPANY
 70
     8
280
     0
  0
ELLIPSE
  5
ED
330
D7
100
AcDbEntity
  8
AM_9
100
AcDbEllipse
 10
-0.5599999999999999
 20
-0.833722656223279
 30
0.0
 11
-0.01060606060605551
 21
1.298867817276872E-18
 31
0.0
210
0.0
220
0.0
230
1.0
 40
0.5000000000000052
 41
0.0
 42
6.283185307179586
  0
LWPOLYLINE
  5
EE
330
D7
100
AcDbEntity
  8
AM_9
100
AcDbPolyline
 90
        4
 70
     0
 43
0.0
 10
-0.4998206680470128
 20
-0.8064919179862439
 10
-0.4984909174021978
 20
-0.8021607066748029
 10
-0.4970215625226093
 20
-0.7943193705508768
 10
-0.4966666763509621
 20
-0.7880922492765597
  0
LWPOLYLINE
  5
EF
330
D7
100
AcDbEntity
  8
AM_9
100
AcDbPolyline
 90
       23
 70
     0
 43
0.0
 10
-0.6201793319529872
 20
-0.8064919179862439
 10
-0.6188742642343112
 20
-0.8098482462531853
 10
-0.6156898586432301
 20
-0.8161748536951965
 10
-0.6118080858978687
 20
-0.8219601539472582
 10
-0.6073098786954919
 20
-0.8271679887668998
 10
-0.6022626059307167
 20
-0.8317770657770278
 10
-0.5967133654231553
 20
-0.835777961441855
 10
-0.5906822146986328
 20
-0.8391671502462458
 10
-0.5841603383796647
 20
-0.8419361913181221
 10
-0.5771254390030153
 20
-0.8440558372882535
 10
-0.5695872071971372
 20
-0.8454633512275175
 10
-0.5616451751734373
 20
-0.8460714945465826
 10
-0.5534082207417463
 20
-0.8457948792567709
 10
-0.5449052596423338
 20
-0.8445185670148057
 10
-0.5373553375126647
 20
-0.8424640853507168
 10
-0.5302684772680406
 20
-0.839624427840576
 10
-0.5237381326906109
 20
-0.8360633179966023
 10
-0.5177914066680419
 20
-0.8318208603538724
 10
-0.5124625440943396
 20
-0.8269329801182284
 10
-0.5078053621184513
 20
-0.8214481984177725
 10
-0.5038836190767498
 20
-0.8154329667116614
 10
-0.500760455827579
 20
-0.8089710769751388
 10
-0.4998206680470128
 20
-0.8064919179862439
  0
LWPOLYLINE
  5
F0
330
D7
100
AcDbEntity
  8
AM_9
100
AcDbPolyline
 90
        3
 70
     0
 43
0.0
 10
-0.6217011781802545
 20
-0.8014089303298804
 10
-0.6212721632039373
 20
-0.8030327577995252
 10
-0.6201793319529872
 20
-0.8064919179862439
  0
LWPOLYLINE
  5
F1
330
D7
100
AcDbEntity
  8
AM_9
100
AcDbPolyline
 90
       11
 70
     0
 43
0.0
 10
-0.6217078163125086
 20
-0.8013821457262345
 10
-0.622117287839801
 20
-0.7964105664178289
 10
-0.6208219064056509
 20
-0.7909174449238342
 10
-0.6177982707423626
 20
-0.7853608345920804
 10
-0.6131080622960603
 20
-0.7798996711921191
 10
-0.6069050242223056
 20
-0.7746865901163086
 10
-0.5993589962216832
 20
-0.7698837253618487
 10
-0.5906909198406277
 20
-0.765612427698148
 10
-0.5811590803839866
 20
-0.7620125110273345
 10
-0.5710234355302181
 20
-0.7591653717760047
 10
-0.55522145163759
 20
-0.7564830968320586
  0
ELLIPSE
  5
F2
330
D7
100
AcDbEntity
  8
AM_9
100
AcDbEllipse
 10
-0.5600000000000003
 20
-0.7880594985691906
 30
0.0
 11
0.06333333333333213
 21
0.0
 31
0.0
210
0.0
220
0.0
230
1.0
 40
0.4999999999999982
 41
4.78791151592465
 42
6.283185307179586
  0
LINE
  5
F3
330
D7
100
AcDbEntity
  8
AM_9
100
AcDbLine
 10
-0.4966666666666681
 20
-0.7880594985691906
 30
0.0
 11
-0.4966666666666681
 21
-0.7796760671152803
 31
0.0
  0
LWPOLYLINE
  5
F4
330
D7
100
AcDbEntity
  8
AM_9
100
AcDbPolyline
 90
       11
 70
     0
 43
0.0
 10
-0.4966666670808699
 20
-0.7796520374402482
 10
-0.4967052906118877
 20
-0.7786524510345662
 10
-0.4979157291966425
 20
-0.7735777876528419
 10
-0.5008487668846545
 20
-0.7689512295470349
 10
-0.5053935631352529
 20
-0.7648729377746681
 10
-0.5114698350570342
 20
-0.7614468940184177
 10
-0.5188618422605386
 20
-0.758774980858447
 10
-0.527478351402053
 20
-0.7569196734929644
 10
-0.5369823606611797
 20
-0.7559501798378365
 10
-0.5459522490634033
 20
-0.7558591291753505
 10
-0.5552214516375902
 20
-0.7564830968320586
  0
LINE
  5
F5
330
D7
100
AcDbEntity
  8
AM_9
100
AcDbLine
 10
-1.14755
 20
0.1874801975871068
 30
0.0
 11
-1.14755
 21
0.2759415699020356
 31
0.0
  0
LINE
  5
F6
330
D7
100
AcDbEntity
  8
AM_9
100
AcDbLine
 10
-1.29245
 20
0.2759415699020356
 30
0.0
 11
-1.29245
 21
0.1875
 31
0.0
  0
ELLIPSE
  5
F7
330
D7
100
AcDbEntity
  8
AM_9
100
AcDbEllipse
 10
-1.22
 20
0.2759415699020353
 30
0.0
 11
0.07244999999999968
 21
0.0
 31
0.0
210
0.0
220
0.0
230
1.0
 40
0.8660254037844385
 41
0.0
 42
5.479184788954548
  0
ELLIPSE
  5
F8
330
D7
100
AcDbEntity
  8
AM_9
100
AcDbEllipse
 10
-1.22
 20
0.275941569902036
 30
0.0
 11
0.0724499999999999
 21
0.0
 31
0.0
210
0.0
220
0.0
230
1.0
 40
0.86602540378444
 41
5.479184788954539
 42
6.283185307179586
  0
LWPOLYLINE
  5
F9
330
D7
100
AcDbEntity
  8
AM_9
100
AcDbPolyline
 90
       21
 70
     0
 43
0.0
 10
-1.147550000430971
 20
0.1874931562909533
 10
-1.147626680663246
 20
0.1847513653916531
 10
-1.149153679682361
 20
0.1742184826195623
 10
-1.152625617439206
 20
0.1639710006971147
 10
-1.157917571313839
 20
0.1542246590338281
 10
-1.164992830699195
 20
0.1451870037731916
 10
-1.173583862474267
 20
0.1372496856886683
 10
-1.183627833170563
 20
0.1306084881296561
 10
-1.194719704509586
 20
0.1256011881917032
 10
-1.206499462101293
 20
0.1224548834801272
 10
-1.218673247356186
 20
0.1212355637793797
 10
-1.230680847967681
 20
0.1219946790222681
 10
-1.24238657633217
 20
0.1246344608700979
 10
-1.253432785031947
 20
0.1290690427197721
 10
-1.263557993419414
 20
0.135114467001835
 10
-1.272612805411078
 20
0.1427119857570529
 10
-1.280199761886192
 20
0.1515030194973428
 10
-1.286134528468776
 20
0.1613104836211554
 10
-1.290188478585097
 20
0.1717305639769444
 10
-1.291879744288507
 20
0.1796045641685288
 10
-1.29245
 20
0.1875
  0
LINE
  5
FA
330
D7
100
AcDbEntity
  8
AM_9
100
AcDbLine
 10
-1.147827808420823
 20
0.5492306164857725
 30
0.0
 11
-1.139914653242212
 21
0.5570834323107425
 31
0.0
  0
LINE
  5
FB
330
D7
100
AcDbEntity
  8
AM_9
100
AcDbLine
 10
-1.300123775881357
 20
0.5571215684047393
 30
0.0
 11
-1.292172191579177
 21
0.5492306164857725
 31
0.0
  0
ELLIPSE
  5
FC
330
D7
100
AcDbEntity
  8
AM_9
100
AcDbEllipse
 10
-1.22
 20
0.5497830578390411
 30
0.0
 11
0.0724499999999999
 21
0.0
 31
0.0
210
0.0
220
0.0
230
1.0
 40
0.0871557427476646
 41
3.229193313562996
 42
6.708551377741596
  0
ELLIPSE
  5
FD
330
D7
100
AcDbEntity
  8
AM_9
100
AcDbEllipse
 10
-1.219999999999997
 20
0.5497830578390412
 30
0.0
 11
0.07245000000000323
 21
0.0
 31
0.0
210
0.0
220
0.0
230
1.0
 40
0.0871557427476606
 41
2.717026112489827
 42
3.141592653589793
  0
LINE
  5
FE
330
D7
100
AcDbEntity
  8
AM_9
100
AcDbLine
 10
-1.14755
 20
0.3735544295073883
 30
0.0
 11
-1.14755
 21
0.5495063065631322
 31
0.0
  0
LINE
  5
FF
330
D7
100
AcDbEntity
  8
AM_9
100
AcDbLine
 10
-1.29245
 20
0.5495063065631322
 30
0.0
 11
-1.29245
 21
0.3735257850128995
 31
0.0
  0
LWPOLYLINE
  5
100
330
D7
100
AcDbEntity
  8
AM_9
100
AcDbPolyline
 90
       21
 70
     0
 43
0.0
 10
-1.292449999799727
 20
0.3735734812516899
 10
-1.292034930549452
 20
0.3728184019707282
 10
-1.289816341433856
 20
0.3713879606333408
 10
-1.285601743845792
 20
0.3696353110286181
 10
-1.279704325164068
 20
0.3677519633148008
 10
-1.271982381624283
 20
0.3657762808540433
 10
-1.262907872005995
 20
0.3639307285761644
 10
-1.252327276894559
 20
0.3622957140837008
 10
-1.241101649130724
 20
0.3610963115441341
 10
-1.228911006634294
 20
0.3603756622245018
 10
-1.217003269280198
 20
0.3602377980402124
 10
-1.20483420959407
 20
0.3606713652820508
 10
-1.193532751693325
 20
0.3616037812502844
 10
-1.182661667823977
 20
0.3630059118027547
 10
-1.172990168237149
 20
0.3647095712284905
 10
-1.164377120768214
 20
0.3666533966779189
 10
-1.157436686062431
 20
0.368611509393758
 10
-1.152105017482794
 20
0.3705192888763473
 10
-1.148854595414939
 20
0.3721312003490417
 10
-1.147562335034779
 20
0.3734541229014234
 10
-1.147550000263451
 20
0.3735724732409851
  0
LWPOLYLINE
  5
101
330
D7
100
AcDbEntity
  8
AM_9
100
AcDbPolyline
 90
        4
 70
     0
 43
0.0
 10
-1.147550000263451
 20
0.3735724732409851
 10
-1.148315679408316
 20
0.3743419899202841
 10
-1.151095258548732
 20
0.3748578552185728
 10
-1.155352467821456
 20
0.3749999992984449
  0
LWPOLYLINE
  5
102
330
D7
100
AcDbEntity
  8
AM_9
100
AcDbPolyline
 90
       20
 70
     0
 43
0.0
 10
-1.29245
 20
0.1875
 10
-1.291435607431981
 20
0.1978262753439765
 10
-1.288453077076966
 20
0.2076761550343608
 10
-1.283569810498004
 20
0.2167789049649806
 10
-1.27695122475405
 20
0.2249417936216127
 10
-1.268657707273187
 20
0.2320488825319325
 10
-1.259000836722709
 20
0.2378747865112026
 10
-1.248129170399233
 20
0.2423196617290835
 10
-1.236438054189058
 20
0.2452581330361519
 10
-1.224406152348262
 20
0.2466027626079883
 10
-1.212246775662799
 20
0.2463914577041126
 10
-1.200480335036236
 20
0.2446443935947569
 10
-1.189258171620757
 20
0.2414235194459624
 10
-1.178832974758073
 20
0.2367395111939413
 10
-1.169542768225478
 20
0.2307147875016226
 10
-1.161530218150926
 20
0.2233156764143127
 10
-1.155164280257023
 20
0.2148017935379787
 10
-1.150647667869096
 20
0.2053338944703126
 10
-1.148101277725846
 20
0.1951723657034648
 10
-1.147550000430971
 20
0.1874931562909533
  0
LWPOLYLINE
  5
103
330
D7
100
AcDbEntity
  8
AM_9
100
AcDbPolyline
 90
        8
 70
     0
 43
0.0
 10
-1.22
 20
0.372849104097995
 10
-1.231863238449596
 20
0.3729543521497749
 10
-1.243726476899193
 20
0.3732622034244618
 10
-1.25458833658625
 20
0.3736990608359879
 10
-1.264774024007435
 20
0.3742028828969917
 10
-1.273553252163762
 20
0.3746497084954157
 10
-1.281053858949933
 20
0.3749462167489201
 10
-1.284603756932146
 20
0.3749999839683293
  0
LINE
  5
104
330
D7
100
AcDbEntity
  8
AM_9
100
AcDbLine
 10
-1.4176
 20
-0.3749999999999999
 30
0.0
 11
-0.2324
 21
-0.3749999999999999
 31
0.0
  0
LINE
  5
105
330
D7
100
AcDbEntity
  8
AM_9
100
AcDbLine
 10
-0.2324
 20
0.3749999999999999
 30
0.0
 11
-1.155397763601799
 21
0.3749999999999999
 31
0.0
  0
LINE
  5
106
330
D7
100
AcDbEntity
  8
AM_9
100
AcDbLine
 10
-1.28438673195447
 20
0.3749999999999999
 30
0.0
 11
-1.4176
 21
0.3749999999999999
 31
0.0
  0
LWPOLYLINE
  5
107
330
D7
100
AcDbEntity
  8
AM_9
100
AcDbPolyline
 90
        5
 70
     0
 43
0.0
 10
-1.284603756932146
 20
0.3749999839683293
 10
-1.28669244259642
 20
0.3749742584101505
 10
-1.290559185392759
 20
0.3746468580860642
 10
-1.292304259981714
 20
0.3739453034114716
 10
-1.292449999799727
 20
0.3735734812516899
  0
LWPOLYLINE
  5
108
330
D7
100
AcDbEntity
  8
AM_9
100
AcDbPolyline
 90
        9
 70
     0
 43
0.0
 10
-1.155352467821456
 20
0.3749999992984449
 10
-1.155653069961679
 20
0.3749994993970147
 10
-1.162113922391085
 20
0.374840372431653
 10
-1.170080168029184
 20
0.3744691656091069
 10
-1.179694739897475
 20
0.3739744233189259
 10
-1.190272528560455
 20
0.3734874804792743
 10
-1.202045918063151
 20
0.3730882684087263
 10
-1.210876307526102
 20
0.3729115075033077
 10
-1.22
 20
0.372849104097995
  0
LINE
  5
109
330
D7
100
AcDbEntity
  8
AM_9
100
AcDbLine
 10
-0.2324
 20
-0.3749999999999999
 30
0.0
 11
-0.2099999999999999
 21
-0.3974
 31
0.0
  0
LINE
  5
10A
330
D7
100
AcDbEntity
  8
AM_9
100
AcDbLine
 10
-0.2099999999999999
 20
0.3974
 30
0.0
 11
-0.2324
 21
0.3749999999999999
 31
0.0
  0
LINE
  5
10B
330
D7
100
AcDbEntity
  8
AM_9
100
AcDbLine
 10
-1.4176
 20
0.3749999999999999
 30
0.0
 11
-1.44
 21
0.3974
 31
0.0
  0
LINE
  5
10C
330
D7
100
AcDbEntity
  8
AM_9
100
AcDbLine
 10
-1.44
 20
-0.3974
 30
0.0
 11
-1.4176
 21
-0.3749999999999999
 31
0.0
  0
LINE
  5
10D
330
D7
100
AcDbEntity
  8
AM_9
100
AcDbLine
 10
-0.42
 20
-0.5599999999999996
 30
0.0
 11
-0.2323999999999999
 21
-0.5599999999999996
 31
0.0
  0
LINE
  5
10E
330
D7
100
AcDbEntity
  8
AM_9
100
AcDbLine
 10
-0.2323999999999999
 20
0.5599999999999996
 30
0.0
 11
-0.42
 21
0.5599999999999996
 31
0.0
  0
LWPOLYLINE
  5
10F
330
D7
100
AcDbEntity
  8
AM_9
100
AcDbPolyline
 90
       39
 70
     0
 43
0.0
 10
-1.16362684053039
 20
0.2320533082869765
 10
-1.155720603077549
 20
0.2397292027968972
 10
-1.149169565074505
 20
0.2483230664993642
 10
-1.143714036077406
 20
0.2587771355752326
 10
-1.140412263499395
 20
0.2697985381074436
 10
-1.139443335180206
 20
0.2803467998865946
 10
-1.140550038446206
 20
0.290755842767904
 10
-1.143596837036301
 20
0.3004308107918621
 10
-1.148441974517588
 20
0.3094512059295089
 10
-1.155123676577219
 20
0.3178037357040592
 10
-1.163302040465001
 20
0.3251048385210013
 10
-1.173367361052146
 20
0.3315604536661098
 10
-1.184559773404501
 20
0.3366116376998349
 10
-1.197362946786771
 20
0.3403531849584765
 10
-1.210755424343956
 20
0.342396959368315
 10
-1.224910313207652
 20
0.342678588874275
 10
-1.238929003840099
 20
0.3411028530712404
 10
-1.252541778461967
 20
0.3376241442777203
 10
-1.265210640184966
 20
0.3323160836891513
 10
-1.276326502861888
 20
0.3253746623820521
 10
-1.285761202206183
 20
0.316863099643534
 10
-1.29280163453362
 20
0.3074669964451457
 10
-1.297710878951767
 20
0.2970414242300105
 10
-1.300133025239484
 20
0.286657276540542
 10
-1.300411130601911
 20
0.2759359326045758
 10
-1.298631449880731
 20
0.2656934949156552
 10
-1.294956686545356
 20
0.2557354511060007
 10
-1.289448920335299
 20
0.2462741669314595
 10
-1.282342200306819
 20
0.2376280757048022
 10
-1.273352502103724
 20
0.2296475217492051
 10
-1.263099690941197
 20
0.2229959435787355
 10
-1.251083709236956
 20
0.2175608597595159
 10
-1.23827831402243
 20
0.2139386355001727
 10
-1.224374709329331
 20
0.212208012818316
 10
-1.210351989263592
 20
0.2126052683284571
 10
-1.196339982838713
 20
0.2152172678623201
 10
-1.18300519813212
 20
0.2199563904617667
 10
-1.172836942695151
 20
0.2253796001425458
 10
-1.163626840520905
 20
0.232053308252101
  0
LINE
  5
110
330
D7
100
AcDbEntity
  8
AM_9
100
AcDbLine
 10
-1.12
 20
-0.56
 30
0.0
 11
-1.0
 21
-0.56
 31
0.0
  0
LINE
  5
111
330
D7
100
AcDbEntity
  8
AM_9
100
AcDbLine
 10
-1.0
 20
0.56
 30
0.0
 11
-1.12
 21
0.56
 31
0.0
  0
LINE
  5
112
330
D7
100
AcDbEntity
  8
AM_9
100
AcDbLine
 10
-0.2099999999999999
 20
0.5376000000000001
 30
0.0
 11
-0.2323999999999999
 21
0.56
 31
0.0
  0
LINE
  5
113
330
D7
100
AcDbEntity
  8
AM_9
100
AcDbLine
 10
-0.2323999999999999
 20
-0.56
 30
0.0
 11
-0.2099999999999999
 21
-0.5376000000000001
 31
0.0
  0
LINE
  5
114
330
D7
100
AcDbEntity
  8
AM_9
100
AcDbLine
 10
-0.2323999999999999
 20
0.56
 30
0.0
 11
-0.2323999999999999
 21
-0.56
 31
0.0
  0
LINE
  5
115
330
D7
100
AcDbEntity
  8
AM_9
100
AcDbLine
 10
-0.2099999999999999
 20
0.5376000000000001
 30
0.0
 11
-0.2099999999999999
 21
-0.5376000000000001
 31
0.0
  0
LINE
  5
116
330
D7
100
AcDbEntity
  8
AM_9
100
AcDbLine
 10
-0.8899999999999998
 20
-0.8752
 30
0.0
 11
-0.8299999999999998
 21
-0.8752
 31
0.0
  0
LINE
  5
117
330
D7
100
AcDbEntity
  8
AM_9
100
AcDbLine
 10
-0.8299999999999998
 20
0.8752
 30
0.0
 11
-0.8899999999999998
 21
0.8752
 31
0.0
  0
LINE
  5
118
330
D7
100
AcDbEntity
  8
AM_9
100
AcDbLine
 10
-1.0
 20
0.8566113704592063
 30
0.0
 11
-1.0
 21
-0.8566113704592063
 31
0.0
  0
ARC
  5
119
330
D7
100
AcDbEntity
  8
AM_9
100
AcDbCircle
 10
-0.9699999999999996
 20
-0.8566113704592063
 30
0.0
 40
0.0300000000000004
100
AcDbArc
 50
179.9999991462263
 51
253.1158262695222
  0
ARC
  5
11A
330
D7
100
AcDbEntity
  8
AM_9
100
AcDbCircle
 10
-0.9699999999999996
 20
0.8566113704592063
 30
0.0
 40
0.0300000000000004
100
AcDbArc
 50
106.8841737304778
 51
179.9999991462263
  0
LINE
  5
11B
330
D7
100
AcDbEntity
  8
AM_9
100
AcDbLine
 10
-0.42
 20
0.8566113704592064
 30
0.0
 11
-0.42
 21
-0.8566113704592064
 31
0.0
  0
ARC
  5
11C
330
D7
100
AcDbEntity
  8
AM_9
100
AcDbCircle
 10
-0.4500000000000021
 20
-0.8566113704592049
 30
0.0
 40
0.0300000000000021
100
AcDbArc
 50
286.8841721900861
 51
0.0
  0
ARC
  5
11D
330
D7
100
AcDbEntity
  8
AM_9
100
AcDbCircle
 10
-0.4500000000000004
 20
0.8566113704592061
 30
0.0
 40
0.0300000000000004
100
AcDbArc
 50
0.0
 51
73.11582780991648
  0
ARC
  5
11E
330
D7
100
AcDbEntity
  8
AM_9
100
AcDbCircle
 10
-0.7100000000157897
 20
0.0000000000630803
 30
0.0
 40
0.9251999999350394
100
AcDbArc
 50
101.2185847843114
 51
106.8841737306773
  0
ARC
  5
11F
330
D7
100
AcDbEntity
  8
AM_9
100
AcDbCircle
 10
-0.7099999999919265
 20
0.0000000000323022
 30
0.0
 40
0.9252000000332143
100
AcDbArc
 50
253.1158262696237
 51
258.7814152153878
  0
LINE
  5
120
330
D7
100
AcDbEntity
  8
AM_9
100
AcDbLine
 10
-0.9787131367292221
 20
0.885318185823107
 30
0.0
 11
-0.9787131367292221
 21
-0.8853181858230791
 31
0.0
  0
LINE
  5
121
330
D7
100
AcDbEntity
  8
AM_9
100
AcDbLine
 10
-0.8899999999999999
 20
0.907521371649161
 30
0.0
 11
-0.8899999999999999
 21
-0.9075213716491329
 31
0.0
  0
LWPOLYLINE
  5
122
330
D7
100
AcDbEntity
  8
AM_9
100
AcDbPolyline
 90
       11
 70
     0
 43
0.0
 10
-0.5552214516375893
 20
-0.8196359003063229
 10
-0.5656709479255466
 20
-0.821073668081834
 10
-0.5759569449901054
 20
-0.8216084753664114
 10
-0.5858059232175075
 20
-0.821210795004239
 10
-0.5949242587896422
 20
-0.819903217254413
 10
-0.6030507860348104
 20
-0.8177082832598093
 10
-0.6099625391695147
 20
-0.8147017338017762
 10
-0.6154590768845469
 20
-0.8109488057150546
 10
-0.619389726156622
 20
-0.8065719308088845
 10
-0.6216259989730674
 20
-0.8016740342718657
 10
-0.6217078163125086
 20
-0.8013821457262345
  0
LWPOLYLINE
  5
123
330
D7
100
AcDbEntity
  8
AM_9
100
AcDbPolyline
 90
       10
 70
     0
 43
0.0
 10
-0.5552214516375893
 20
-0.8196359003063227
 10
-0.54461737685597
 20
-0.8172594266550718
 10
-0.5344433011747324
 20
-0.8140616761876369
 10
-0.5249730611470822
 20
-0.8101083934233407
 10
-0.5164983291885622
 20
-0.8055267807015882
 10
-0.509334114219538
 20
-0.8004762703167899
 10
-0.5036136818351277
 20
-0.7950769860569535
 10
-0.4995790899543548
 20
-0.7895570885919622
 10
-0.4972448478616758
 20
-0.7840082160657362
 10
-0.4966666670808699
 20
-0.7796520374402482
  0
ARC
  5
124
330
D7
100
AcDbEntity
  8
AM_9
100
AcDbCircle
 10
-0.7100000000000005
 20
0.0000000000000079
 30
0.0
 40
0.9252000000000077
100
AcDbArc
 50
262.5476457553006
 51
286.8841736805301
  0
ARC
  5
125
330
D7
100
AcDbEntity
  8
AM_9
100
AcDbCircle
 10
-0.7099999999999995
 20
0.0000000000000071
 30
0.0
 40
0.925199999999993
100
AcDbArc
 50
73.11582631946972
 51
97.4523542446996
  0
LINE
  5
126
330
D7
100
AcDbEntity
  8
AM_9
100
AcDbLine
 10
-0.8299999999999998
 20
0.917384891961929
 30
0.0
 11
-0.8299999999999998
 21
-0.9173848919619289
 31
0.0
  0
LINE
  5
127
330
D7
100
AcDbEntity
  8
AM_9
100
AcDbLine
 10
-0.4412868640425592
 20
0.8853181860573733
 30
0.0
 11
-0.4412868640425592
 21
-0.8853181860573733
 31
0.0
  0
LWPOLYLINE
  5
128
330
D7
100
AcDbEntity
  8
AM_4
100
AcDbPolyline
 90
       19
 70
     0
 43
0.0
 10
-1.139786334905507
 20
0.5572107722038205
 10
-1.140941887003745
 20
0.5564169883165598
 10
-1.144452320275325
 20
0.5549775802868324
 10
-1.14963617808826
 20
0.5534701643297665
 10
-1.156606559113072
 20
0.5518862631008064
 10
-1.165250946236862
 20
0.5503197761969665
 10
-1.175428559348658
 20
0.5488712912487018
 10
-1.187107669727785
 20
0.5476329434454876
 10
-1.19993788748658
 20
0.5467301256681534
 10
-1.213573680102004
 20
0.546258051680375
 10
-1.22776372501767
 20
0.5462827311234413
 10
-1.24163082513035
 20
0.5468161621034829
 10
-1.255273052211044
 20
0.5478517797367307
 10
-1.267424920419652
 20
0.5492399510131907
 10
-1.278521427358075
 20
0.5509596816215159
 10
-1.287191597369381
 20
0.552703959034586
 10
-1.294101941781874
 20
0.554513021467144
 10
-1.298298243916647
 20
0.5560414726309811
 10
-1.300213945117695
 20
0.5572110500991035
  0
LWPOLYLINE
  5
129
330
D7
100
AcDbEntity
  8
AM_4
100
AcDbPolyline
 90
        7
 70
     0
 43
0.0
 10
-1.300213945117695
 20
0.5572110500991035
 10
-1.300392125394185
 20
0.5574149867432105
 10
-1.300232814769358
 20
0.5584245147195261
 10
-1.298014852391072
 20
0.5591937211859933
 10
-1.294019442882181
 20
0.5596742716669143
 10
-1.28816377804815
 20
0.5599330900163657
 10
-1.28135424397635
 20
0.5599999976432223
  0
ELLIPSE
  5
12A
330
D7
100
AcDbEntity
  8
AM_4
100
AcDbEllipse
 10
-1.22
 20
0.549783057839041
 30
0.0
 11
0.07245000000000035
 21
0.0
 31
0.0
210
0.0
220
0.0
230
1.0
 40
0.0871557427476579
 41
1.570796326794897
 42
2.717026112489765
  0
ELLIPSE
  5
12B
330
D7
100
AcDbEntity
  8
AM_4
100
AcDbEllipse
 10
-1.22
 20
0.549783057839041
 30
0.0
 11
0.0724499999999999
 21
0.0
 31
0.0
210
0.0
220
0.0
230
1.0
 40
0.08715574274766
 41
0.4253660705620481
 42
1.570796326794897
  0
LINE
  5
12C
330
D7
100
AcDbEntity
  8
AM_4
100
AcDbLine
 10
-1.44
 20
-0.5376000000000001
 30
0.0
 11
-1.4176
 21
-0.56
 31
0.0
  0
LINE
  5
12D
330
D7
100
AcDbEntity
  8
AM_4
100
AcDbLine
 10
-1.4176
 20
0.56
 30
0.0
 11
-1.44
 21
0.5376000000000001
 31
0.0
  0
LINE
  5
12E
330
D7
100
AcDbEntity
  8
AM_4
100
AcDbLine
 10
-1.44
 20
0.5376000000000001
 30
0.0
 11
-1.44
 21
-0.5376000000000001
 31
0.0
  0
LINE
  5
12F
330
D7
100
AcDbEntity
  8
AM_4
100
AcDbLine
 10
-1.4176
 20
-0.56
 30
0.0
 11
-1.12
 21
-0.56
 31
0.0
  0
LINE
  5
130
330
D7
100
AcDbEntity
  8
AM_4
100
AcDbLine
 10
-1.12
 20
0.56
 30
0.0
 11
-1.158624738764968
 21
0.56
 31
0.0
  0
LINE
  5
131
330
D7
100
AcDbEntity
  8
AM_4
100
AcDbLine
 10
-1.281297513569525
 20
0.56
 30
0.0
 11
-1.4176
 21
0.56
 31
0.0
  0
LINE
  5
132
330
D7
100
AcDbEntity
  8
AM_4
100
AcDbLine
 10
-1.4176
 20
0.56
 30
0.0
 11
-1.4176
 21
-0.56
 31
0.0
  0
LWPOLYLINE
  5
133
330
D7
100
AcDbEntity
  8
AM_4
100
AcDbPolyline
 90
       12
 70
     0
 43
0.0
 10
-1.28135424397635
 20
0.5599999976432223
 10
-1.280634274850853
 20
0.5599993756684026
 10
-1.271479189409976
 20
0.5599237666231286
 10
-1.260720170954487
 20
0.559761005947919
 10
-1.248662936294243
 20
0.5595747402061276
 10
-1.235506449704978
 20
0.5594244188167774
 10
-1.221574039368065
 20
0.5593585517037287
 10
-1.207569931986018
 20
0.5594009050983482
 10
-1.193520845207329
 20
0.5595448863385178
 10
-1.180590521049197
 20
0.5597398128403698
 10
-1.168445201067409
 20
0.5599247418072157
 10
-1.158610733902472
 20
0.5599999998572367
  0
LWPOLYLINE
  5
134
330
D7
100
AcDbEntity
  8
AM_4
100
AcDbPolyline
 90
        6
 70
     0
 43
0.0
 10
-1.158610733902472
 20
0.5599999998572367
 10
-1.158463590833185
 20
0.5599999797339753
 10
-1.150038243060699
 20
0.5598825753403627
 10
-1.144330423394103
 20
0.5595280840222095
 10
-1.140661673646025
 20
0.558858471421267
 10
-1.13948731324535
 20
0.5576215198908698
  0
ENDBLK
  5
DA
330
D7
100
AcDbEntity
  8
0
100
AcDbBlockEnd
  0
BLOCK
  5
137
330
135
100
AcDbEntity
  8
0
100
AcDbBlockBegin
  2
4_127533H_0_in_127533_2
 70
     2
 10
0.0
 20
0.0
 30
0.0
  3
4_127533H_0_in_127533_2
  1

  0
ATTDEF
  5
139
330
135
100
AcDbEntity
  8
AM_6
100
AcDbText
 10
5.056
 20
1.17
 30
0.0
 40
0.5
  1
FB-SCEZ-PCR -I-Housing
100
AcDbAttributeDefinition
  3

  2
NN
 70
     8
280
     0
  0
ATTDEF
  5
13A
330
135
100
AcDbEntity
  8
AM_6
100
AcDbText
 10
5.056
 20
0.6699999999999999
 30
0.0
 40
0.5
  1
SC 3 Bolt Flange Bearings -(Normal Duty) -Polymer Housed -Corrosion Resistant Insert -E-Z KLEEN
100
AcDbAttributeDefinition
  3

  2
NT
 70
     8
280
     0
  0
ATTDEF
  5
13B
330
135
100
AcDbEntity
  8
AM_6
100
AcDbText
 10
5.056
 20
0.1699999999999999
 30
0.0
 40
0.5
  1
127533H
100
AcDbAttributeDefinition
  3

  2
NB
 70
     8
280
     0
  0
ATTDEF
  5
13C
330
135
100
AcDbEntity
  8
AM_6
100
AcDbText
 10
5.056
 20
-0.3300000000000001
 30
0.0
 40
0.5
  1
$PN.H
100
AcDbAttributeDefinition
  3

  2
NBSYN
 70
     8
280
     0
  0
ATTDEF
  5
13D
330
135
100
AcDbEntity
  8
AM_6
100
AcDbText
 10
5.056
 20
-0.8300000000000001
 30
0.0
 40
0.5
  1
127533
100
AcDbAttributeDefinition
  3

  2
LINA
 70
     8
280
     0
  0
ATTDEF
  5
13E
330
135
100
AcDbEntity
  8
AM_6
100
AcDbText
 10
5.056
 20
-1.33
 30
0.0
 40
0.5
  1
204
100
AcDbAttributeDefinition
  3

  2
SERIES
 70
     8
280
     0
  0
ATTDEF
  5
13F
330
135
100
AcDbEntity
  8
AM_6
100
AcDbText
 10
5.056
 20
-1.83
 30
0.0
 40
0.5
  1
3/4
100
AcDbAttributeDefinition
  3

  2
SS
 70
     8
280
     0
  0
ATTDEF
  5
140
330
135
100
AcDbEntity
  8
AM_6
100
AcDbText
 10
5.056
 20
-2.33
 30
0.0
 40
0.5
  1
127533
100
AcDbAttributeDefinition
  3

  2
PN
 70
     8
280
     0
  0
ATTDEF
  5
141
330
135
100
AcDbEntity
  8
AM_6
100
AcDbText
 10
5.056
 20
-2.83
 30
0.0
 40
0.5
  1
FB-SCEZ-012-PCR
100
AcDbAttributeDefinition
  3

  2
DESCRIPTION
 70
     8
280
     0
  0
ATTDEF
  5
142
330
135
100
AcDbEntity
  8
AM_6
100
AcDbText
 10
5.056
 20
-3.33
 30
0.0
 40
0.5
  1
1
100
AcDbAttributeDefinition
  3

  2
INSERTHELP
 70
     8
280
     0
  0
ATTDEF
  5
143
330
135
100
AcDbEntity
  8
AM_6
100
AcDbText
 10
5.056
 20
-3.83
 30
0.0
 40
0.5
  1
1.23
100
AcDbAttributeDefinition
  3

  2
A
 70
     8
280
     0
  0
ATTDEF
  5
144
330
135
100
AcDbEntity
  8
AM_6
100
AcDbText
 10
5.056
 20
-4.33
 30
0.0
 40
0.5
  1
4.39
100
AcDbAttributeDefinition
  3

  2
B
 70
     8
280
     0
  0
ATTDEF
  5
145
330
135
100
AcDbEntity
  8
AM_6
100
AcDbText
 10
5.056
 20
-4.83
 30
0.0
 40
0.5
  1
1.44
100
AcDbAttributeDefinition
  3

  2
C
 70
     8
280
     0
  0
ATTDEF
  5
146
330
135
100
AcDbEntity
  8
AM_6
100
AcDbText
 10
5.056
 20
-5.33
 30
0.0
 40
0.5
  1
1.50
100
AcDbAttributeDefinition
  3

  2
D
 70
     8
280
     0
  0
ATTDEF
  5
147
330
135
100
AcDbEntity
  8
AM_6
100
AcDbText
 10
5.056
 20
-5.83
 30
0.0
 40
0.5
  1
1.69
100
AcDbAttributeDefinition
  3

  2
E
 70
     8
280
     0
  0
ATTDEF
  5
148
330
135
100
AcDbEntity
  8
AM_6
100
AcDbText
 10
5.056
 20
-6.33
 30
0.0
 40
0.5
  1
3/8
100
AcDbAttributeDefinition
  3

  2
F
 70
     8
280
     0
  0
ATTDEF
  5
149
330
135
100
AcDbEntity
  8
AM_6
100
AcDbText
 10
5.056
 20
-6.83
 30
0.0
 40
0.5
  1
0.88
100
AcDbAttributeDefinition
  3

  2
G
 70
     8
280
     0
  0
ATTDEF
  5
14A
330
135
100
AcDbEntity
  8
AM_6
100
AcDbText
 10
5.056
 20
-7.33
 30
0.0
 40
0.5
  1
0.53
100
AcDbAttributeDefinition
  3

  2
H
 70
     8
280
     0
  0
ATTDEF
  5
14B
330
135
100
AcDbEntity
  8
AM_6
100
AcDbText
 10
5.056
 20
-7.83
 30
0.0
 40
0.5
  1
3.22
100
AcDbAttributeDefinition
  3

  2
I
 70
     8
280
     0
  0
ATTDEF
  5
14C
330
135
100
AcDbEntity
  8
AM_6
100
AcDbText
 10
5.056
 20
-8.33
 30
0.0
 40
0.5
  1
2.34
100
AcDbAttributeDefinition
  3

  2
J
 70
     8
280
     0
  0
ATTDEF
  5
14D
330
135
100
AcDbEntity
  8
AM_6
100
AcDbText
 10
5.056
 20
-8.83
 30
0.0
 40
0.5
  1
1.12
100
AcDbAttributeDefinition
  3

  2
K
 70
     8
280
     0
  0
ATTDEF
  5
14E
330
135
100
AcDbEntity
  8
AM_6
100
AcDbText
 10
5.056
 20
-9.33
 30
0.0
 40
0.5
  1
1.12
100
AcDbAttributeDefinition
  3

  2
L
 70
     8
280
     0
  0
ATTDEF
  5
14F
330
135
100
AcDbEntity
  8
AM_6
100
AcDbText
 10
5.056
 20
-9.83
 30
0.0
 40
0.5
  1
baldor
100
AcDbAttributeDefinition
  3

  2
COMPANY
 70
     8
280
     0
  0
LINE
  5
150
330
135
100
AcDbEntity
  8
AM_9
100
AcDbLine
 10
-0.7280000000000001
 20
0.8921284748929438
 30
0.0
 11
-0.0662500000000001
 21
0.8921284748929434
 31
0.0
  0
LINE
  5
151
330
135
100
AcDbEntity
  8
AM_9
100
AcDbLine
 10
-0.7280000000000001
 20
0.3617983890030332
 30
0.0
 11
-0.0662500000000001
 21
0.3617983890030332
 31
0.0
  0
LINE
  5
152
330
135
100
AcDbEntity
  8
AM_9
100
AcDbLine
 10
-0.7280000000000001
 20
0.3329026956934034
 30
0.0
 11
-0.7280000000000001
 21
0.8921284748929438
 31
0.0
  0
LINE
  5
153
330
135
100
AcDbEntity
  8
AM_9
100
AcDbLine
 10
-0.53
 20
-2.7575
 30
0.0
 11
0.0
 21
-2.7575
 31
0.0
  0
LINE
  5
154
330
135
100
AcDbEntity
  8
AM_9
100
AcDbLine
 10
0.0
 20
-2.382499999999999
 30
0.0
 11
-0.53
 21
-2.382499999999999
 31
0.0
  0
LINE
  5
155
330
135
100
AcDbEntity
  8
AM_9
100
AcDbLine
 10
-0.7280000000000001
 20
-0.8921284748929438
 30
0.0
 11
-0.06625
 21
-0.8921284748929438
 31
0.0
  0
LINE
  5
156
330
135
100
AcDbEntity
  8
AM_9
100
AcDbLine
 10
-0.7280000000000001
 20
-0.8921284748929438
 30
0.0
 11
-0.7280000000000001
 21
-0.3329026956934034
 31
0.0
  0
LINE
  5
157
330
135
100
AcDbEntity
  8
AM_9
100
AcDbLine
 10
-0.7280000000000001
 20
-0.3617983890030327
 30
0.0
 11
-0.06625
 21
-0.3617983890030327
 31
0.0
  0
LINE
  5
158
330
135
100
AcDbEntity
  8
AM_9
100
AcDbLine
 10
-0.7280000000000001
 20
0.863232781583314
 30
0.0
 11
-0.0662500000000002
 21
0.8632327815833138
 31
0.0
  0
LINE
  5
159
330
135
100
AcDbEntity
  8
AM_9
100
AcDbLine
 10
-0.0662500000000001
 20
-0.3329026956934035
 30
0.0
 11
-0.7280000000000001
 21
-0.3329026956934034
 31
0.0
  0
LINE
  5
15A
330
135
100
AcDbEntity
  8
AM_9
100
AcDbLine
 10
-0.7280000000000001
 20
-0.863232781583314
 30
0.0
 11
-0.0662500000000001
 21
-0.8632327815833138
 31
0.0
  0
LINE
  5
15B
330
135
100
AcDbEntity
  8
AM_9
100
AcDbLine
 10
-0.0662500000000002
 20
0.3329026956934035
 30
0.0
 11
-0.7280000000000001
 21
0.3329026956934034
 31
0.0
  0
LINE
  5
15C
330
135
100
AcDbEntity
  8
AM_9
100
AcDbLine
 10
-1.05375
 20
-0.9252
 30
0.0
 11
-0.0662500000000001
 21
-0.9252
 31
0.0
  0
LINE
  5
15D
330
135
100
AcDbEntity
  8
AM_9
100
AcDbLine
 10
-0.0662500000000001
 20
0.9252
 30
0.0
 11
-1.05375
 21
0.9252
 31
0.0
  0
LINE
  5
15E
330
135
100
AcDbEntity
  8
AM_9
100
AcDbLine
 10
-0.5299999999999999
 20
-1.8775
 30
0.0
 11
0.0
 21
-1.8775
 31
0.0
  0
LINE
  5
15F
330
135
100
AcDbEntity
  8
AM_9
100
AcDbLine
 10
0.0
 20
-1.5025
 30
0.0
 11
-0.5299999999999999
 21
-1.5025
 31
0.0
  0
LINE
  5
160
330
135
100
AcDbEntity
  8
AM_9
100
AcDbLine
 10
-0.0317999999999997
 20
-1.0577
 30
0.0
 11
0.0
 21
-1.0577
 31
0.0
  0
LINE
  5
161
330
135
100
AcDbEntity
  8
AM_9
100
AcDbLine
 10
0.0
 20
1.0577
 30
0.0
 11
-0.0317999999999997
 21
1.0577
 31
0.0
  0
LINE
  5
162
330
135
100
AcDbEntity
  8
AM_9
100
AcDbLine
 10
-1.12
 20
-1.0577
 30
0.0
 11
-1.05375
 21
-1.0577
 31
0.0
  0
LINE
  5
163
330
135
100
AcDbEntity
  8
AM_9
100
AcDbLine
 10
-1.05375
 20
1.0577
 30
0.0
 11
-1.12
 21
1.0577
 31
0.0
  0
LINE
  5
164
330
135
100
AcDbEntity
  8
AM_9
100
AcDbLine
 10
-1.05375
 20
1.0577
 30
0.0
 11
-1.05375
 21
-1.0577
 31
0.0
  0
LINE
  5
165
330
135
100
AcDbEntity
  8
AM_9
100
AcDbLine
 10
-0.06625
 20
1.02325
 30
0.0
 11
-0.06625
 21
-1.02325
 31
0.0
  0
ARC
  5
166
330
135
100
AcDbEntity
  8
AM_9
100
AcDbCircle
 10
-0.0318000000000001
 20
-1.02325
 30
0.0
 40
0.0344499999999999
100
AcDbArc
 50
180.0
 51
270.0
  0
ARC
  5
167
330
135
100
AcDbEntity
  8
AM_9
100
AcDbCircle
 10
-0.0318000000000001
 20
1.02325
 30
0.0
 40
0.0344499999999999
100
AcDbArc
 50
90.0
 51
180.0
  0
LINE
  5
168
330
135
100
AcDbEntity
  8
AM_9
100
AcDbLine
 10
-0.0317999999999997
 20
1.0577
 30
0.0
 11
-0.0317999999999997
 21
-1.0577
 31
0.0
  0
LINE
  5
16B
330
135
100
AcDbEntity
  8
AM_7
100
AcDbLine
 10
0.027825
 20
-2.57
 30
0.0
 11
-0.5843250000000001
 21
-2.57
 31
0.0
  0
LINE
  5
16C
330
135
100
AcDbEntity
  8
AM_7
100
AcDbLine
 10
0.027825
 20
-1.69
 30
0.0
 11
-0.5843250000000002
 21
-1.69
 31
0.0
  0
LINE
  5
16D
330
135
100
AcDbEntity
  8
AM_7
100
AcDbLine
 10
-1.5015
 20
0.0
 30
0.0
 11
0.056
 21
0.0
 31
0.0
  0
LINE
  5
16E
330
135
100
AcDbEntity
  8
AM_4
100
AcDbLine
 10
-0.53
 20
-2.888749999999999
 30
0.0
 11
-0.53
 21
-2.25125
 31
0.0
  0
LINE
  5
16F
330
135
100
AcDbEntity
  8
AM_4
100
AcDbLine
 10
-0.53
 20
-2.888749999999999
 30
0.0
 11
-0.3975
 21
-2.888749999999999
 31
0.0
  0
LINE
  5
170
330
135
100
AcDbEntity
  8
AM_4
100
AcDbLine
 10
-0.3975
 20
-2.25125
 30
0.0
 11
-0.53
 21
-2.25125
 31
0.0
  0
LINE
  5
171
330
135
100
AcDbEntity
  8
AM_4
100
AcDbLine
 10
-1.12
 20
-1.17
 30
0.0
 11
-0.3975000000000001
 21
-1.17
 31
0.0
  0
LINE
  5
172
330
135
100
AcDbEntity
  8
AM_4
100
AcDbLine
 10
-1.12
 20
-1.17
 30
0.0
 11
-1.12
 21
1.17
 31
0.0
  0
LINE
  5
173
330
135
100
AcDbEntity
  8
AM_4
100
AcDbLine
 10
-1.12
 20
1.17
 30
0.0
 11
0.0
 21
1.17
 31
0.0
  0
LINE
  5
174
330
135
100
AcDbEntity
  8
AM_4
100
AcDbLine
 10
0.0
 20
-4.26
 30
0.0
 11
0.0
 21
1.17
 31
0.0
  0
LINE
  5
175
330
135
100
AcDbEntity
  8
AM_4
100
AcDbLine
 10
-0.3975
 20
-4.26
 30
0.0
 11
0.0
 21
-4.26
 31
0.0
  0
LINE
  5
176
330
135
100
AcDbEntity
  8
AM_4
100
AcDbLine
 10
-0.5299999999999999
 20
-2.00875
 30
0.0
 11
-0.5299999999999999
 21
-1.37125
 31
0.0
  0
LINE
  5
177
330
135
100
AcDbEntity
  8
AM_4
100
AcDbLine
 10
-0.5299999999999999
 20
-2.00875
 30
0.0
 11
-0.3974999999999999
 21
-2.00875
 31
0.0
  0
LINE
  5
178
330
135
100
AcDbEntity
  8
AM_4
100
AcDbLine
 10
-0.3974999999999999
 20
-1.37125
 30
0.0
 11
-0.5299999999999999
 21
-1.37125
 31
0.0
  0
LINE
  5
179
330
135
100
AcDbEntity
  8
AM_4
100
AcDbLine
 10
-1.12
 20
-0.6217038943812176
 30
0.0
 11
-0.3975
 21
-0.6217038943812176
 31
0.0
  0
LINE
  5
17A
330
135
100
AcDbEntity
  8
AM_4
100
AcDbLine
 10
-1.12
 20
0.6217038943812172
 30
0.0
 11
0.0000000000000001
 21
0.6217038943812172
 31
0.0
  0
LINE
  5
17B
330
135
100
AcDbEntity
  8
AM_4
100
AcDbLine
 10
-0.3974999999999999
 20
-3.275005169028538
 30
0.0
 11
0.0000000000000001
 21
-3.275005169028538
 31
0.0
  0
LINE
  5
17C
330
135
100
AcDbEntity
  8
AM_4
100
AcDbLine
 10
-1.12
 20
0.2907779207859126
 30
0.0
 11
0.0000000000000001
 21
0.2907779207859126
 31
0.0
  0
LINE
  5
17D
330
135
100
AcDbEntity
  8
AM_4
100
AcDbLine
 10
-1.12
 20
-0.2907779207859137
 30
0.0
 11
-0.3975
 21
-0.2907779207859137
 31
0.0
  0
LINE
  5
17E
330
135
100
AcDbEntity
  8
AM_4
100
AcDbLine
 10
-0.3975
 20
-4.26
 30
0.0
 11
-0.3975
 21
-0.2907779207859137
 31
0.0
  0
LINE
  5
17F
330
135
100
AcDbEntity
  8
AM_4
100
AcDbLine
 10
-0.3974999999999999
 20
-2.974180567695238
 30
0.0
 11
0.0000000000000001
 21
-2.974180567695238
 31
0.0
  0
ENDBLK
  5
138
330
135
100
AcDbEntity
  8
0
100
AcDbBlockEnd
  0
ENDSEC
  0
SECTION
  2
ENTITIES
  0
INSERT
  5
6F
330
1F
100
AcDbEntity
  8
0
100
AcDbBlockReference
  2
1_127533_2
 10
0.0
 20
0.0
 30
0.0
  0
POINT
  5
181
330
1F
100
AcDbEntity
  8
ConnectionPoints
100
AcDbPoint
 10
-0.21
 20
0.0
 30
0.0
  0
POINT
  5
182
330
1F
100
AcDbEntity
  8
ConnectionPoints
100
AcDbPoint
 10
-1.44
 20
0.0
 30
0.0000000000000001
  0
POINT
  5
183
330
1F
100
AcDbEntity
  8
ConnectionPoints
100
AcDbPoint
 10
-0.8250000000000001
 20
0.8273149339882605
 30
0.8273149339882606
  0
POINT
  5
184
330
1F
100
AcDbEntity
  8
ConnectionPoints
100
AcDbPoint
 10
-1.44
 20
0.0
 30
0.0000000000000001
  0
ENDSEC
  0
SECTION
  2
OBJECTS
  0
DICTIONARY
  5
C
330
0
100
AcDbDictionary
281
     1
  3
ACAD_DETAILVIEWSTYLE
350
18C
  3
ACAD_GROUP
350
D
  3
ACAD_LAYOUT
350
1A
  3
ACAD_MATERIAL
350
43
  3
ACAD_MLEADERSTYLE
350
6B
  3
ACAD_MLINESTYLE
350
17
  3
ACAD_PLOTSETTINGS
350
19
  3
ACAD_PLOTSTYLENAME
350
E
  3
ACAD_SCALELIST
350
47
  3
ACAD_SECTIONVIEWSTYLE
350
18D
  3
ACAD_TABLESTYLE
350
69
  3
ACAD_VISUALSTYLE
350
2A
  3
ACDB_RECOMPOSE_DATA
350
189
  3
AcDbVariableDictionary
350
185
  0
SUN
  5
6D
330
29
100
AcDbSun
 90
        1
290
     0
 63
     7
421
 16777215
 40
1.0
291
     1
 91
  2455826
 92
 54000000
292
     0
 70
     2
 71
   256
280
     1
  0
DICTIONARY
  5
18C
102
{ACAD_REACTORS
330
C
102
}
330
C
100
AcDbDictionary
281
     1
  0
DICTIONARY
  5
D
102
{ACAD_REACTORS
330
C
102
}
330
C
100
AcDbDictionary
281
     1
  0
DICTIONARY
  5
1A
102
{ACAD_REACTORS
330
C
102
}
330
C
100
AcDbDictionary
281
     1
  3
Layout1
350
1E
  3
Layout2
350
26
  3
Model
350
22
  0
DICTIONARY
  5
43
102
{ACAD_REACTORS
330
C
102
}
330
C
100
AcDbDictionary
281
     1
  3
ByBlock
350
45
  3
ByLayer
350
44
  3
Global
350
46
  0
DICTIONARY
  5
6B
102
{ACAD_REACTORS
330
C
102
}
330
C
100
AcDbDictionary
281
     1
  3
Standard
350
6C
  0
DICTIONARY
  5
17
102
{ACAD_REACTORS
330
C
102
}
330
C
100
AcDbDictionary
281
     1
  3
Standard
350
18
  0
DICTIONARY
  5
19
102
{ACAD_REACTORS
330
C
102
}
330
C
100
AcDbDictionary
281
     1
  0
ACDBDICTIONARYWDFLT
  5
E
102
{ACAD_REACTORS
330
C
102
}
330
C
100
AcDbDictionary
281
     1
  3
Normal
350
F
100
AcDbDictionaryWithDefault
340
F
  0
DICTIONARY
  5
47
102
{ACAD_REACTORS
330
C
102
}
330
C
100
AcDbDictionary
281
     1
  3
A0
350
48
  3
A1
350
49
  3
A2
350
4A
  3
A3
350
4B
  3
A4
350
4C
  3
A5
350
4D
  3
A6
350
4E
  3
A7
350
4F
  3
A8
350
50
  3
A9
350
51
  3
B0
350
52
  3
B1
350
53
  3
B2
350
54
  3
B3
350
55
  3
B4
350
56
  3
B5
350
57
  3
B6
350
58
  3
B7
350
59
  3
B8
350
5A
  3
B9
350
5B
  3
C0
350
5C
  3
C1
350
5D
  3
C2
350
5E
  3
C3
350
5F
  3
C4
350
60
  3
C5
350
61
  3
C6
350
62
  3
C7
350
63
  3
C8
350
64
  3
C9
350
65
  3
D0
350
66
  3
D1
350
67
  3
D2
350
68
  0
DICTIONARY
  5
18D
102
{ACAD_REACTORS
330
C
102
}
330
C
100
AcDbDictionary
281
     1
  0
DICTIONARY
  5
69
102
{ACAD_REACTORS
330
C
102
}
330
C
100
AcDbDictionary
281
     1
  3
Standard
350
6A
  0
DICTIONARY
  5
2A
102
{ACAD_REACTORS
330
C
102
}
330
C
100
AcDbDictionary
281
     1
  3
2dWireframe
350
2F
  3
Basic
350
32
  3
Brighten
350
36
  3
ColorChange
350
3A
  3
Conceptual
350
34
  3
Dim
350
35
  3
EdgeColorOff
350
3D
  3
Facepattern
350
39
  3
Flat
350
2B
  3
FlatWithEdges
350
2C
  3
Gouraud
350
2D
  3
GouraudWithEdges
350
2E
  3
Hidden
350
31
  3
JitterOff
350
3B
  3
Linepattern
350
38
  3
OverhangOff
350
3C
  3
Realistic
350
33
  3
Shaded
350
42
  3
Shaded with edges
350
41
  3
Shades of Gray
350
3E
  3
Sketchy
350
3F
  3
Thicken
350
37
  3
Wireframe
350
30
  3
X-Ray
350
40
  0
XRECORD
  5
189
102
{ACAD_REACTORS
330
C
102
}
330
C
100
AcDbXrecord
280
     1
 90
        1
330
6A
  0
DICTIONARY
  5
185
102
{ACAD_REACTORS
330
C
102
}
330
C
100
AcDbDictionary
281
     1
  3
CANNOSCALE
350
186
  3
CMLEADERSTYLE
350
18B
  3
CTABLESTYLE
350
18A
  0
LAYOUT
  5
1E
102
{ACAD_REACTORS
330
1A
102
}
330
1A
100
AcDbPlotSettings
  1

  2
none_device
  4

  6

 40
0.0
 41
0.0
 42
0.0
 43
0.0
 44
0.0
 45
0.0
 46
0.0
 47
0.0
 48
0.0
 49
0.0
140
0.0
141
0.0
142
1.0
143
1.0
 70
   688
 72
     0
 73
     0
 74
     5
  7

 75
    16
 76
     0
 77
     2
 78
   300
147
1.0
148
0.0
149
0.0
100
AcDbLayout
  1
Layout1
 70
     1
 71
     1
 10
0.0
 20
0.0
 11
12.0
 21
9.0
 12
0.0
 22
0.0
 32
0.0
 14
1.000000000000000E+20
 24
1.000000000000000E+20
 34
1.000000000000000E+20
 15
-1.000000000000000E+20
 25
-1.000000000000000E+20
 35
-1.000000000000000E+20
146
0.0
 13
0.0
 23
0.0
 33
0.0
 16
1.0
 26
0.0
 36
0.0
 17
0.0
 27
1.0
 37
0.0
 76
     0
330
1B
  0
LAYOUT
  5
26
102
{ACAD_REACTORS
330
1A
102
}
330
1A
100
AcDbPlotSettings
  1

  2
none_device
  4

  6

 40
0.0
 41
0.0
 42
0.0
 43
0.0
 44
0.0
 45
0.0
 46
0.0
 47
0.0
 48
0.0
 49
0.0
140
0.0
141
0.0
142
1.0
143
1.0
 70
   688
 72
     0
 73
     0
 74
     5
  7

 75
    16
 76
     0
 77
     2
 78
   300
147
1.0
148
0.0
149
0.0
100
AcDbLayout
  1
Layout2
 70
     1
 71
     2
 10
0.0
 20
0.0
 11
0.0
 21
0.0
 12
0.0
 22
0.0
 32
0.0
 14
0.0
 24
0.0
 34
0.0
 15
0.0
 25
0.0
 35
0.0
146
0.0
 13
0.0
 23
0.0
 33
0.0
 16
1.0
 26
0.0
 36
0.0
 17
0.0
 27
1.0
 37
0.0
 76
     0
330
23
  0
LAYOUT
  5
22
102
{ACAD_REACTORS
330
1A
102
}
330
1A
100
AcDbPlotSettings
  1

  2
none_device
  4
Letter_(8.50_x_11.00_Inches)
  6

 40
6.35
 41
6.35
 42
6.35000508
 43
6.35000508
 44
215.9
 45
279.4
 46
0.0
 47
0.0
 48
0.0
 49
0.0
140
0.0
141
0.0
142
1.0
143
1.0
 70
  1712
 72
     0
 73
     0
 74
     0
  7

 75
     0
 76
     0
 77
     2
 78
   300
147
1.0
148
0.0
149
0.0
100
AcDbLayout
  1
Model
 70
     1
 71
     0
 10
0.0
 20
0.0
 11
12.0
 21
9.0
 12
0.0
 22
0.0
 32
0.0
 14
1.000000000000000E+20
 24
1.000000000000000E+20
 34
1.000000000000000E+20
 15
-1.000000000000000E+20
 25
-1.000000000000000E+20
 35
-1.000000000000000E+20
146
0.0
 13
0.0
 23
0.0
 33
0.0
 16
1.0
 26
0.0
 36
0.0
 17
0.0
 27
1.0
 37
0.0
 76
     0
330
1F
331
29
  0
MATERIAL
  5
45
102
{ACAD_REACTORS
330
43
102
}
330
43
100
AcDbMaterial
  1
ByBlock
 72
     1
 94
      127
  0
MATERIAL
  5
44
102
{ACAD_REACTORS
330
43
102
}
330
43
100
AcDbMaterial
  1
ByLayer
 72
     1
 94
      127
  0
MATERIAL
  5
46
102
{ACAD_REACTORS
330
43
102
}
330
43
100
AcDbMaterial
  1
Global
 72
     1
 94
      127
  0
MLEADERSTYLE
  5
6C
102
{ACAD_REACTORS
330
6B
102
}
330
6B
100
AcDbMLeaderStyle
179
     2
170
     2
171
     1
172
     0
 90
        2
 40
0.0
 41
0.0
173
     1
 91
-1056964608
340
14
 92
       -2
290
     1
 42
0.09
291
     1
 43
0.36
  3
Standard
341
0
 44
0.18
300

342
11
174
     1
178
     6
175
     1
176
     0
 93
-1056964608
 45
0.18
292
     0
297
     0
 46
0.18
343
0
 94
-1056964608
 47
1.0
 49
1.0
140
1.0
293
     1
141
0.0
294
     1
177
     0
142
1.0
295
     0
296
     0
143
0.125
271
     0
272
     9
273
     9
298
     0
  0
MLINESTYLE
  5
18
102
{ACAD_REACTORS
330
17
102
}
330
17
100
AcDbMlineStyle
  2
Standard
 70
     0
  3

 62
   256
 51
90.0
 52
90.0
 71
     2
 49
0.5
 62
   256
  6
BYLAYER
 49
-0.5
 62
   256
  6
BYLAYER
  0
ACDBPLACEHOLDER
  5
F
102
{ACAD_REACTORS
330
E
102
}
330
E
  0
SCALE
  5
48
102
{ACAD_REACTORS
330
47
102
}
330
47
100
AcDbScale
 70
     0
300
1:1
140
1.0
141
1.0
290
     1
  0
SCALE
  5
49
102
{ACAD_REACTORS
330
47
102
}
330
47
100
AcDbScale
 70
     0
300
1:2
140
1.0
141
2.0
290
     0
  0
SCALE
  5
4A
102
{ACAD_REACTORS
330
47
102
}
330
47
100
AcDbScale
 70
     0
300
1:4
140
1.0
141
4.0
290
     0
  0
SCALE
  5
4B
102
{ACAD_REACTORS
330
47
102
}
330
47
100
AcDbScale
 70
     0
300
1:5
140
1.0
141
5.0
290
     0
  0
SCALE
  5
4C
102
{ACAD_REACTORS
330
47
102
}
330
47
100
AcDbScale
 70
     0
300
1:8
140
1.0
141
8.0
290
     0
  0
SCALE
  5
4D
102
{ACAD_REACTORS
330
47
102
}
330
47
100
AcDbScale
 70
     0
300
1:10
140
1.0
141
10.0
290
     0
  0
SCALE
  5
4E
102
{ACAD_REACTORS
330
47
102
}
330
47
100
AcDbScale
 70
     0
300
1:16
140
1.0
141
16.0
290
     0
  0
SCALE
  5
4F
102
{ACAD_REACTORS
330
47
102
}
330
47
100
AcDbScale
 70
     0
300
1:20
140
1.0
141
20.0
290
     0
  0
SCALE
  5
50
102
{ACAD_REACTORS
330
47
102
}
330
47
100
AcDbScale
 70
     0
300
1:30
140
1.0
141
30.0
290
     0
  0
SCALE
  5
51
102
{ACAD_REACTORS
330
47
102
}
330
47
100
AcDbScale
 70
     0
300
1:40
140
1.0
141
40.0
290
     0
  0
SCALE
  5
52
102
{ACAD_REACTORS
330
47
102
}
330
47
100
AcDbScale
 70
     0
300
1:50
140
1.0
141
50.0
290
     0
  0
SCALE
  5
53
102
{ACAD_REACTORS
330
47
102
}
330
47
100
AcDbScale
 70
     0
300
1:100
140
1.0
141
100.0
290
     0
  0
SCALE
  5
54
102
{ACAD_REACTORS
330
47
102
}
330
47
100
AcDbScale
 70
     0
300
2:1
140
2.0
141
1.0
290
     0
  0
SCALE
  5
55
102
{ACAD_REACTORS
330
47
102
}
330
47
100
AcDbScale
 70
     0
300
4:1
140
4.0
141
1.0
290
     0
  0
SCALE
  5
56
102
{ACAD_REACTORS
330
47
102
}
330
47
100
AcDbScale
 70
     0
300
8:1
140
8.0
141
1.0
290
     0
  0
SCALE
  5
57
102
{ACAD_REACTORS
330
47
102
}
330
47
100
AcDbScale
 70
     0
300
10:1
140
10.0
141
1.0
290
     0
  0
SCALE
  5
58
102
{ACAD_REACTORS
330
47
102
}
330
47
100
AcDbScale
 70
     0
300
100:1
140
100.0
141
1.0
290
     0
  0
SCALE
  5
59
102
{ACAD_REACTORS
330
47
102
}
330
47
100
AcDbScale
 70
     0
300
1/128" = 1'-0"
140
0.0078125
141
12.0
290
     0
  0
SCALE
  5
5A
102
{ACAD_REACTORS
330
47
102
}
330
47
100
AcDbScale
 70
     0
300
1/64" = 1'-0"
140
0.015625
141
12.0
290
     0
  0
SCALE
  5
5B
102
{ACAD_REACTORS
330
47
102
}
330
47
100
AcDbScale
 70
     0
300
1/32" = 1'-0"
140
0.03125
141
12.0
290
     0
  0
SCALE
  5
5C
102
{ACAD_REACTORS
330
47
102
}
330
47
100
AcDbScale
 70
     0
300
1/16" = 1'-0"
140
0.0625
141
12.0
290
     0
  0
SCALE
  5
5D
102
{ACAD_REACTORS
330
47
102
}
330
47
100
AcDbScale
 70
     0
300
3/32" = 1'-0"
140
0.09375
141
12.0
290
     0
  0
SCALE
  5
5E
102
{ACAD_REACTORS
330
47
102
}
330
47
100
AcDbScale
 70
     0
300
1/8" = 1'-0"
140
0.125
141
12.0
290
     0
  0
SCALE
  5
5F
102
{ACAD_REACTORS
330
47
102
}
330
47
100
AcDbScale
 70
     0
300
3/16" = 1'-0"
140
0.1875
141
12.0
290
     0
  0
SCALE
  5
60
102
{ACAD_REACTORS
330
47
102
}
330
47
100
AcDbScale
 70
     0
300
1/4" = 1'-0"
140
0.25
141
12.0
290
     0
  0
SCALE
  5
61
102
{ACAD_REACTORS
330
47
102
}
330
47
100
AcDbScale
 70
     0
300
3/8" = 1'-0"
140
0.375
141
12.0
290
     0
  0
SCALE
  5
62
102
{ACAD_REACTORS
330
47
102
}
330
47
100
AcDbScale
 70
     0
300
1/2" = 1'-0"
140
0.5
141
12.0
290
     0
  0
SCALE
  5
63
102
{ACAD_REACTORS
330
47
102
}
330
47
100
AcDbScale
 70
     0
300
3/4" = 1'-0"
140
0.75
141
12.0
290
     0
  0
SCALE
  5
64
102
{ACAD_REACTORS
330
47
102
}
330
47
100
AcDbScale
 70
     0
300
1" = 1'-0"
140
1.0
141
12.0
290
     0
  0
SCALE
  5
65
102
{ACAD_REACTORS
330
47
102
}
330
47
100
AcDbScale
 70
     0
300
1-1/2" = 1'-0"
140
1.5
141
12.0
290
     0
  0
SCALE
  5
66
102
{ACAD_REACTORS
330
47
102
}
330
47
100
AcDbScale
 70
     0
300
3" = 1'-0"
140
3.0
141
12.0
290
     0
  0
SCALE
  5
67
102
{ACAD_REACTORS
330
47
102
}
330
47
100
AcDbScale
 70
     0
300
6" = 1'-0"
140
6.0
141
12.0
290
     0
  0
SCALE
  5
68
102
{ACAD_REACTORS
330
47
102
}
330
47
100
AcDbScale
 70
     0
300
1'-0" = 1'-0"
140
12.0
141
12.0
290
     0
  0
TABLESTYLE
  5
6A
102
{ACAD_REACTORS
330
69
102
}
102
{ACAD_XDICTIONARY
360
187
102
}
330
69
100
AcDbTableStyle
  3
Standard
 70
     0
 71
     0
 40
0.06
 41
0.06
280
     0
281
     0
  7
Standard
140
0.18
170
     2
 62
     0
 63
   257
283
     0
 90
        4
 91
        0
  1

274
    -2
284
     1
 64
     0
275
    -2
285
     1
 65
     0
276
    -2
286
     1
 66
     0
277
    -2
287
     1
 67
     0
278
    -2
288
     1
 68
     0
279
    -2
289
     1
 69
     0
  7
Standard
140
0.25
170
     5
 62
     0
 63
   257
283
     0
 90
        4
 91
        0
  1

274
    -2
284
     1
 64
     0
275
    -2
285
     1
 65
     0
276
    -2
286
     1
 66
     0
277
    -2
287
     1
 67
     0
278
    -2
288
     1
 68
     0
279
    -2
289
     1
 69
     0
  7
Standard
140
0.18
170
     5
 62
     0
 63
   257
283
     0
 90
        4
 91
        0
  1

274
    -2
284
     1
 64
     0
275
    -2
285
     1
 65
     0
276
    -2
286
     1
 66
     0
277
    -2
287
     1
 67
     0
278
    -2
288
     1
 68
     0
279
    -2
289
     1
 69
     0
  0
VISUALSTYLE
  5
2F
102
{ACAD_REACTORS
330
2A
102
}
330
2A
100
AcDbVisualStyle
  2
2dWireframe
 70
     4
177
     3
291
     0
 70
    58
 90
        0
176
     1
 90
        2
176
     1
 90
        0
176
     1
 90
        0
176
     1
 40
0.6
176
     1
 40
30.0
176
     1
 62
     7
420
 16777215
176
     1
 90
        1
176
     1
 90
        4
176
     1
 62
     7
176
     1
 62
   257
176
     1
 90
        1
176
     1
 90
        1
176
     1
 40
1.0
176
     1
 90
        0
176
     1
 62
   257
176
     1
 40
1.0
176
     1
 90
        1
176
     1
 90
        6
176
     1
 90
        2
176
     1
 62
     7
176
     1
 90
        5
176
     1
 90
        0
176
     1
 90
        0
176
     1
290
     0
176
     1
 90
        1
176
     1
 40
0.0
176
     1
 90
        0
176
     1
290
     1
176
     1
290
     1
176
     1
290
     0
176
     1
290
     0
176
     1
290
     0
176
     1
290
     0
176
     1
290
     0
176
     1
290
     0
176
     1
290
     0
176
     1
 90
       50
176
     1
 40
0.0
176
     1
 40
1.0
176
     1
 90
        0
176
     1
 62
    18
420
        0
176
     1
 90
       50
176
     1
 90
        3
176
     1
 62
     5
420
      255
176
     1
290
     0
176
     1
 90
       50
176
     1
 90
       50
176
     1
 90
       50
176
     1
290
     0
176
     1
 90
       50
176
     1
 62
   256
176
     0
 40
1.0
176
     0
 90
        2
176
     1
  1
strokes_ogs.tif
176
     1
290
     0
176
     1
 40
1.0
176
     1
 40
1.0
176
     1
  0
VISUALSTYLE
  5
32
102
{ACAD_REACTORS
330
2A
102
}
330
2A
100
AcDbVisualStyle
  2
Basic
 70
     7
177
     3
291
     1
 70
    58
 90
        1
176
     1
 90
        0
176
     1
 90
        1
176
     1
 90
        0
176
     1
 40
0.6
176
     1
 40
30.0
176
     1
 62
     7
420
 16777215
176
     1
 90
        0
176
     1
 90
        4
176
     1
 62
     7
176
     1
 62
   257
176
     1
 90
        1
176
     1
 90
        1
176
     1
 40
1.0
176
     1
 90
        8
176
     1
 62
     7
176
     1
 40
1.0
176
     1
 90
        1
176
     1
 90
        6
176
     1
 90
        2
176
     1
 62
     7
176
     1
 90
        5
176
     1
 90
        0
176
     1
 90
        0
176
     1
290
     0
176
     1
 90
        1
176
     1
 40
0.0
176
     1
 90
        0
176
     1
290
     0
176
     1
290
     1
176
     1
290
     1
176
     1
290
     0
176
     1
290
     0
176
     1
290
     0
176
     1
290
     0
176
     1
290
     0
176
     1
290
     0
176
     1
 90
       50
176
     1
 40
0.0
176
     1
 40
1.0
176
     1
 90
        0
176
     1
 62
    18
420
        0
176
     1
 90
       50
176
     1
 90
        3
176
     1
 62
     5
420
      255
176
     1
290
     0
176
     1
 90
       50
176
     1
 90
       50
176
     1
 90
       50
176
     1
290
     0
176
     1
 90
       50
176
     1
 62
   256
176
     0
 40
1.0
176
     0
 90
        2
176
     1
  1
strokes_ogs.tif
176
     1
290
     0
176
     1
 40
1.0
176
     1
 40
1.0
176
     1
  0
VISUALSTYLE
  5
36
102
{ACAD_REACTORS
330
2A
102
}
330
2A
100
AcDbVisualStyle
  2
Brighten
 70
    12
177
     3
291
     1
 70
    58
 90
        2
176
     1
 90
        2
176
     1
 90
        0
176
     1
 90
        0
176
     1
 40
0.6
176
     1
 40
30.0
176
     1
 62
     7
420
 16777215
176
     1
 90
        1
176
     1
 90
        4
176
     1
 62
     7
176
     1
 62
   257
176
     1
 90
        1
176
     1
 90
        1
176
     1
 40
1.0
176
     1
 90
        8
176
     1
 62
     7
176
     1
 40
1.0
176
     1
 90
        1
176
     1
 90
        6
176
     1
 90
        2
176
     1
 62
     7
176
     1
 90
        5
176
     1
 90
        0
176
     1
 90
        0
176
     1
290
     0
176
     1
 90
        1
176
     1
 40
50.0
176
     1
 90
        0
176
     1
290
     0
176
     1
290
     1
176
     1
290
     1
176
     1
290
     0
176
     1
290
     0
176
     1
290
     0
176
     1
290
     0
176
     1
290
     0
176
     1
290
     0
176
     1
 90
       50
176
     1
 40
0.0
176
     1
 40
1.0
176
     1
 90
        0
176
     1
 62
    18
420
        0
176
     1
 90
       50
176
     1
 90
        3
176
     1
 62
     5
420
      255
176
     1
290
     0
176
     1
 90
       50
176
     1
 90
       50
176
     1
 90
       50
176
     1
290
     0
176
     1
 90
       50
176
     1
 62
   256
176
     0
 40
1.0
176
     0
 90
        2
176
     1
  1
strokes_ogs.tif
176
     1
290
     0
176
     1
 40
1.0
176
     1
 40
1.0
176
     1
  0
VISUALSTYLE
  5
3A
102
{ACAD_REACTORS
330
2A
102
}
330
2A
100
AcDbVisualStyle
  2
ColorChange
 70
    16
177
     3
291
     1
 70
    58
 90
        2
176
     1
 90
        2
176
     1
 90
        3
176
     1
 90
        0
176
     1
 40
0.6
176
     1
 40
30.0
176
     1
 62
     8
420
  8421504
176
     1
 90
        1
176
     1
 90
        4
176
     1
 62
     7
176
     1
 62
   257
176
     1
 90
        1
176
     1
 90
        1
176
     1
 40
1.0
176
     1
 90
        8
176
     1
 62
     8
420
  8421504
176
     1
 40
1.0
176
     1
 90
        1
176
     1
 90
        6
176
     1
 90
        2
176
     1
 62
     7
176
     1
 90
        5
176
     1
 90
        0
176
     1
 90
        0
176
     1
290
     0
176
     1
 90
        1
176
     1
 40
0.0
176
     1
 90
        0
176
     1
290
     0
176
     1
290
     1
176
     1
290
     1
176
     1
290
     0
176
     1
290
     0
176
     1
290
     0
176
     1
290
     0
176
     1
290
     0
176
     1
290
     0
176
     1
 90
       50
176
     1
 40
0.0
176
     1
 40
1.0
176
     1
 90
        0
176
     1
 62
    18
420
        0
176
     1
 90
       50
176
     1
 90
        3
176
     1
 62
     5
420
      255
176
     1
290
     0
176
     1
 90
       50
176
     1
 90
       50
176
     1
 90
       50
176
     1
290
     0
176
     1
 90
       50
176
     1
 62
   256
176
     0
 40
1.0
176
     0
 90
        2
176
     1
  1
strokes_ogs.tif
176
     1
290
     0
176
     1
 40
1.0
176
     1
 40
1.0
176
     1
  0
VISUALSTYLE
  5
34
102
{ACAD_REACTORS
330
2A
102
}
330
2A
100
AcDbVisualStyle
  2
Conceptual
 70
     9
177
     3
291
     0
 70
    58
 90
        3
176
     1
 90
        2
176
     1
 90
        0
176
     1
 90
        0
176
     1
 40
0.6
176
     1
 40
30.0
176
     1
 62
     7
420
 16777215
176
     1
 90
        2
176
     1
 90
        2
176
     1
 62
     7
176
     1
 62
   257
176
     1
 90
        1
176
     1
 90
        1
176
     1
 40
179.0
176
     1
 90
        8
176
     1
 62
     7
176
     1
 40
1.0
176
     1
 90
        1
176
     1
 90
        6
176
     1
 90
        2
176
     1
 62
     7
176
     1
 90
        3
176
     1
 90
        0
176
     1
 90
        0
176
     1
290
     0
176
     1
 90
        1
176
     1
 40
0.0
176
     1
 90
        0
176
     1
290
     0
176
     1
290
     1
176
     1
290
     1
176
     1
290
     0
176
     1
290
     0
176
     1
290
     0
176
     1
290
     0
176
     1
290
     0
176
     1
290
     0
176
     1
 90
       50
176
     1
 40
0.0
176
     1
 40
1.0
176
     1
 90
        0
176
     1
 62
    18
420
        0
176
     1
 90
       50
176
     1
 90
        3
176
     1
 62
     5
420
      255
176
     1
290
     0
176
     1
 90
       50
176
     1
 90
       50
176
     1
 90
       50
176
     1
290
     0
176
     1
 90
       50
176
     1
 62
   256
176
     0
 40
1.0
176
     0
 90
        2
176
     1
  1
strokes_ogs.tif
176
     1
290
     0
176
     1
 40
1.0
176
     1
 40
1.0
176
     1
  0
VISUALSTYLE
  5
35
102
{ACAD_REACTORS
330
2A
102
}
330
2A
100
AcDbVisualStyle
  2
Dim
 70
    11
177
     3
291
     1
 70
    58
 90
        2
176
     1
 90
        2
176
     1
 90
        0
176
     1
 90
        0
176
     1
 40
0.6
176
     1
 40
30.0
176
     1
 62
     7
420
 16777215
176
     1
 90
        1
176
     1
 90
        4
176
     1
 62
     7
176
     1
 62
   257
176
     1
 90
        1
176
     1
 90
        1
176
     1
 40
1.0
176
     1
 90
        8
176
     1
 62
     7
176
     1
 40
1.0
176
     1
 90
        1
176
     1
 90
        6
176
     1
 90
        2
176
     1
 62
     7
176
     1
 90
        5
176
     1
 90
        0
176
     1
 90
        0
176
     1
290
     0
176
     1
 90
        1
176
     1
 40
-50.0
176
     1
 90
        0
176
     1
290
     0
176
     1
290
     1
176
     1
290
     1
176
     1
290
     0
176
     1
290
     0
176
     1
290
     0
176
     1
290
     0
176
     1
290
     0
176
     1
290
     0
176
     1
 90
       50
176
     1
 40
0.0
176
     1
 40
1.0
176
     1
 90
        0
176
     1
 62
    18
420
        0
176
     1
 90
       50
176
     1
 90
        3
176
     1
 62
     5
420
      255
176
     1
290
     0
176
     1
 90
       50
176
     1
 90
       50
176
     1
 90
       50
176
     1
290
     0
176
     1
 90
       50
176
     1
 62
   256
176
     0
 40
1.0
176
     0
 90
        2
176
     1
  1
strokes_ogs.tif
176
     1
290
     0
176
     1
 40
1.0
176
     1
 40
1.0
176
     1
  0
VISUALSTYLE
  5
3D
102
{ACAD_REACTORS
330
2A
102
}
330
2A
100
AcDbVisualStyle
  2
EdgeColorOff
 70
    22
177
     3
291
     1
 70
    58
 90
        2
176
     0
 90
        2
176
     0
 90
        0
176
     0
 90
        0
176
     0
 40
0.6
176
     0
 40
30.0
176
     0
 62
     7
420
 16777215
176
     0
 90
        1
176
     0
 90
        4
176
     0
 62
     7
176
     0
 62
   257
176
     0
 90
        1
176
     0
 90
        1
176
     0
 40
1.0
176
     0
 90
        8
176
     2
 62
     7
176
     0
 40
1.0
176
     0
 90
        1
176
     0
 90
        6
176
     0
 90
        2
176
     0
 62
     7
176
     0
 90
        5
176
     0
 90
        0
176
     0
 90
        0
176
     0
290
     0
176
     0
 90
        1
176
     0
 40
0.0
176
     0
 90
        0
176
     0
290
     0
176
     0
290
     1
176
     0
290
     1
176
     0
290
     0
176
     0
290
     0
176
     0
290
     0
176
     0
290
     0
176
     0
290
     0
176
     0
290
     0
176
     0
 90
       50
176
     0
 40
0.0
176
     0
 40
1.0
176
     0
 90
        0
176
     0
 62
    18
420
        0
176
     0
 90
       50
176
     0
 90
        3
176
     0
 62
     5
420
      255
176
     0
290
     0
176
     0
 90
       50
176
     0
 90
       50
176
     0
 90
       50
176
     0
290
     0
176
     0
 90
       50
176
     0
 62
   256
176
     0
 40
1.0
176
     0
 90
        2
176
     0
  1
strokes_ogs.tif
176
     0
290
     0
176
     0
 40
1.0
176
     0
 40
1.0
176
     0
  0
VISUALSTYLE
  5
39
102
{ACAD_REACTORS
330
2A
102
}
330
2A
100
AcDbVisualStyle
  2
Facepattern
 70
    15
177
     3
291
     1
 70
    58
 90
        2
176
     1
 90
        2
176
     1
 90
        0
176
     1
 90
        0
176
     1
 40
0.6
176
     1
 40
30.0
176
     1
 62
     7
420
 16777215
176
     1
 90
        1
176
     1
 90
        4
176
     1
 62
     7
176
     1
 62
   257
176
     1
 90
        1
176
     1
 90
        1
176
     1
 40
1.0
176
     1
 90
        8
176
     1
 62
     7
176
     1
 40
1.0
176
     1
 90
        1
176
     1
 90
        6
176
     1
 90
        2
176
     1
 62
     7
176
     1
 90
        5
176
     1
 90
        0
176
     1
 90
        0
176
     1
290
     0
176
     1
 90
        1
176
     1
 40
0.0
176
     1
 90
        0
176
     1
290
     0
176
     1
290
     1
176
     1
290
     1
176
     1
290
     0
176
     1
290
     0
176
     1
290
     0
176
     1
290
     0
176
     1
290
     0
176
     1
290
     0
176
     1
 90
       50
176
     1
 40
0.0
176
     1
 40
1.0
176
     1
 90
        0
176
     1
 62
    18
420
        0
176
     1
 90
       50
176
     1
 90
        3
176
     1
 62
     5
420
      255
176
     1
290
     0
176
     1
 90
       50
176
     1
 90
       50
176
     1
 90
       50
176
     1
290
     0
176
     1
 90
       50
176
     1
 62
   256
176
     0
 40
1.0
176
     0
 90
        2
176
     1
  1
strokes_ogs.tif
176
     1
290
     0
176
     1
 40
1.0
176
     1
 40
1.0
176
     1
  0
VISUALSTYLE
  5
2B
102
{ACAD_REACTORS
330
2A
102
}
330
2A
100
AcDbVisualStyle
  2
Flat
 70
     0
177
     3
291
     1
 70
    58
 90
        2
176
     1
 90
        1
176
     1
 90
        1
176
     1
 90
        2
176
     1
 40
0.6
176
     1
 40
30.0
176
     1
 62
     7
420
 16777215
176
     1
 90
        0
176
     1
 90
        0
176
     1
 62
     7
176
     1
 62
   257
176
     1
 90
        1
176
     1
 90
        1
176
     1
 40
1.0
176
     1
 90
        8
176
     1
 62
     7
176
     1
 40
1.0
176
     1
 90
        1
176
     1
 90
        6
176
     1
 90
        2
176
     1
 62
     7
176
     1
 90
        5
176
     1
 90
        0
176
     1
 90
        0
176
     1
290
     0
176
     1
 90
       13
176
     1
 40
0.0
176
     1
 90
        0
176
     1
290
     0
176
     1
290
     1
176
     1
290
     1
176
     1
290
     0
176
     1
290
     0
176
     1
290
     0
176
     1
290
     0
176
     1
290
     0
176
     1
290
     0
176
     1
 90
       50
176
     1
 40
0.0
176
     1
 40
1.0
176
     1
 90
        0
176
     1
 62
    18
420
        0
176
     1
 90
       50
176
     1
 90
        3
176
     1
 62
     5
420
      255
176
     1
290
     0
176
     1
 90
       50
176
     1
 90
       50
176
     1
 90
       50
176
     1
290
     0
176
     1
 90
       50
176
     1
 62
   256
176
     0
 40
1.0
176
     0
 90
        2
176
     1
  1
strokes_ogs.tif
176
     1
290
     0
176
     1
 40
1.0
176
     1
 40
1.0
176
     1
  0
VISUALSTYLE
  5
2C
102
{ACAD_REACTORS
330
2A
102
}
330
2A
100
AcDbVisualStyle
  2
FlatWithEdges
 70
     1
177
     3
291
     1
 70
    58
 90
        2
176
     1
 90
        1
176
     1
 90
        1
176
     1
 90
        2
176
     1
 40
0.6
176
     1
 40
30.0
176
     1
 62
     7
420
 16777215
176
     1
 90
        1
176
     1
 90
        0
176
     1
 62
     7
176
     1
 62
   257
176
     1
 90
        1
176
     1
 90
        1
176
     1
 40
1.0
176
     1
 90
        0
176
     1
 62
   257
176
     1
 40
1.0
176
     1
 90
        1
176
     1
 90
        6
176
     1
 90
        2
176
     1
 62
     7
176
     1
 90
        5
176
     1
 90
        0
176
     1
 90
        0
176
     1
290
     0
176
     1
 90
       13
176
     1
 40
0.0
176
     1
 90
        0
176
     1
290
     0
176
     1
290
     1
176
     1
290
     1
176
     1
290
     0
176
     1
290
     0
176
     1
290
     0
176
     1
290
     0
176
     1
290
     0
176
     1
290
     0
176
     1
 90
       50
176
     1
 40
0.0
176
     1
 40
1.0
176
     1
 90
        0
176
     1
 62
    18
420
        0
176
     1
 90
       50
176
     1
 90
        3
176
     1
 62
     5
420
      255
176
     1
290
     0
176
     1
 90
       50
176
     1
 90
       50
176
     1
 90
       50
176
     1
290
     0
176
     1
 90
       50
176
     1
 62
   256
176
     0
 40
1.0
176
     0
 90
        2
176
     1
  1
strokes_ogs.tif
176
     1
290
     0
176
     1
 40
1.0
176
     1
 40
1.0
176
     1
  0
VISUALSTYLE
  5
2D
102
{ACAD_REACTORS
330
2A
102
}
330
2A
100
AcDbVisualStyle
  2
Gouraud
 70
     2
177
     3
291
     1
 70
    58
 90
        2
176
     1
 90
        2
176
     1
 90
        1
176
     1
 90
        2
176
     1
 40
0.6
176
     1
 40
30.0
176
     1
 62
     7
420
 16777215
176
     1
 90
        0
176
     1
 90
        0
176
     1
 62
     7
176
     1
 62
   257
176
     1
 90
        1
176
     1
 90
        1
176
     1
 40
1.0
176
     1
 90
        0
176
     1
 62
     7
176
     1
 40
1.0
176
     1
 90
        1
176
     1
 90
        6
176
     1
 90
        2
176
     1
 62
     7
176
     1
 90
        5
176
     1
 90
        0
176
     1
 90
        0
176
     1
290
     0
176
     1
 90
       13
176
     1
 40
0.0
176
     1
 90
        0
176
     1
290
     0
176
     1
290
     1
176
     1
290
     1
176
     1
290
     0
176
     1
290
     0
176
     1
290
     0
176
     1
290
     0
176
     1
290
     0
176
     1
290
     0
176
     1
 90
       50
176
     1
 40
0.0
176
     1
 40
1.0
176
     1
 90
        0
176
     1
 62
    18
420
        0
176
     1
 90
       50
176
     1
 90
        3
176
     1
 62
     5
420
      255
176
     1
290
     0
176
     1
 90
       50
176
     1
 90
       50
176
     1
 90
       50
176
     1
290
     0
176
     1
 90
       50
176
     1
 62
   256
176
     0
 40
1.0
176
     0
 90
        2
176
     1
  1
strokes_ogs.tif
176
     1
290
     0
176
     1
 40
1.0
176
     1
 40
1.0
176
     1
  0
VISUALSTYLE
  5
2E
102
{ACAD_REACTORS
330
2A
102
}
330
2A
100
AcDbVisualStyle
  2
GouraudWithEdges
 70
     3
177
     3
291
     1
 70
    58
 90
        2
176
     1
 90
        2
176
     1
 90
        1
176
     1
 90
        2
176
     1
 40
0.6
176
     1
 40
30.0
176
     1
 62
     7
420
 16777215
176
     1
 90
        1
176
     1
 90
        0
176
     1
 62
     7
176
     1
 62
   257
176
     1
 90
        1
176
     1
 90
        1
176
     1
 40
1.0
176
     1
 90
        0
176
     1
 62
   257
176
     1
 40
1.0
176
     1
 90
        1
176
     1
 90
        6
176
     1
 90
        2
176
     1
 62
     7
176
     1
 90
        5
176
     1
 90
        0
176
     1
 90
        0
176
     1
290
     0
176
     1
 90
       13
176
     1
 40
0.0
176
     1
 90
        0
176
     1
290
     0
176
     1
290
     1
176
     1
290
     1
176
     1
290
     0
176
     1
290
     0
176
     1
290
     0
176
     1
290
     0
176
     1
290
     0
176
     1
290
     0
176
     1
 90
       50
176
     1
 40
0.0
176
     1
 40
1.0
176
     1
 90
        0
176
     1
 62
    18
420
        0
176
     1
 90
       50
176
     1
 90
        3
176
     1
 62
     5
420
      255
176
     1
290
     0
176
     1
 90
       50
176
     1
 90
       50
176
     1
 90
       50
176
     1
290
     0
176
     1
 90
       50
176
     1
 62
   256
176
     0
 40
1.0
176
     0
 90
        2
176
     1
  1
strokes_ogs.tif
176
     1
290
     0
176
     1
 40
1.0
176
     1
 40
1.0
176
     1
  0
VISUALSTYLE
  5
31
102
{ACAD_REACTORS
330
2A
102
}
330
2A
100
AcDbVisualStyle
  2
Hidden
 70
     6
177
     3
291
     0
 70
    58
 90
        1
176
     1
 90
        2
176
     1
 90
        2
176
     1
 90
        0
176
     1
 40
0.6
176
     1
 40
30.0
176
     1
 62
     7
420
 16777215
176
     1
 90
        2
176
     1
 90
        2
176
     1
 62
     7
176
     1
 62
   257
176
     1
 90
        2
176
     1
 90
        1
176
     1
 40
40.0
176
     1
 90
        0
176
     1
 62
   257
176
     1
 40
1.0
176
     1
 90
        1
176
     1
 90
        6
176
     1
 90
        2
176
     1
 62
     7
176
     1
 90
        3
176
     1
 90
        0
176
     1
 90
        0
176
     1
290
     0
176
     1
 90
        1
176
     1
 40
0.0
176
     1
 90
        0
176
     1
290
     0
176
     1
290
     1
176
     1
290
     1
176
     1
290
     0
176
     1
290
     0
176
     1
290
     0
176
     1
290
     0
176
     1
290
     0
176
     1
290
     0
176
     1
 90
       50
176
     1
 40
0.0
176
     1
 40
1.0
176
     1
 90
        0
176
     1
 62
    18
420
        0
176
     1
 90
       50
176
     1
 90
        3
176
     1
 62
     5
420
      255
176
     1
290
     0
176
     1
 90
       50
176
     1
 90
       50
176
     1
 90
       50
176
     1
290
     0
176
     1
 90
       50
176
     1
 62
   256
176
     0
 40
1.0
176
     0
 90
        2
176
     1
  1
strokes_ogs.tif
176
     1
290
     0
176
     1
 40
1.0
176
     1
 40
1.0
176
     1
  0
VISUALSTYLE
  5
3B
102
{ACAD_REACTORS
330
2A
102
}
330
2A
100
AcDbVisualStyle
  2
JitterOff
 70
    20
177
     3
291
     1
 70
    58
 90
        2
176
     0
 90
        2
176
     0
 90
        0
176
     0
 90
        0
176
     0
 40
0.6
176
     0
 40
30.0
176
     0
 62
     7
420
 16777215
176
     0
 90
        1
176
     0
 90
        4
176
     0
 62
     7
176
     0
 62
   257
176
     0
 90
        1
176
     0
 90
        1
176
     0
 40
1.0
176
     0
 90
       10
176
     2
 62
     7
176
     0
 40
1.0
176
     0
 90
        1
176
     0
 90
        6
176
     0
 90
        2
176
     0
 62
     7
176
     0
 90
        5
176
     0
 90
        0
176
     0
 90
        0
176
     0
290
     0
176
     0
 90
        1
176
     0
 40
0.0
176
     0
 90
        0
176
     0
290
     0
176
     0
290
     1
176
     0
290
     1
176
     0
290
     0
176
     0
290
     0
176
     0
290
     0
176
     0
290
     0
176
     0
290
     0
176
     0
290
     0
176
     0
 90
       50
176
     0
 40
0.0
176
     0
 40
1.0
176
     0
 90
        0
176
     0
 62
    18
420
        0
176
     0
 90
       50
176
     0
 90
        3
176
     0
 62
     5
420
      255
176
     0
290
     0
176
     0
 90
       50
176
     0
 90
       50
176
     0
 90
       50
176
     0
290
     0
176
     0
 90
       50
176
     0
 62
   256
176
     0
 40
1.0
176
     0
 90
        2
176
     0
  1
strokes_ogs.tif
176
     0
290
     0
176
     0
 40
1.0
176
     0
 40
1.0
176
     0
  0
VISUALSTYLE
  5
38
102
{ACAD_REACTORS
330
2A
102
}
330
2A
100
AcDbVisualStyle
  2
Linepattern
 70
    14
177
     3
291
     1
 70
    58
 90
        2
176
     1
 90
        2
176
     1
 90
        0
176
     1
 90
        0
176
     1
 40
0.6
176
     1
 40
30.0
176
     1
 62
     7
420
 16777215
176
     1
 90
        1
176
     1
 90
        4
176
     1
 62
     7
176
     1
 62
   257
176
     1
 90
        7
176
     1
 90
        7
176
     1
 40
1.0
176
     1
 90
        8
176
     1
 62
     7
176
     1
 40
1.0
176
     1
 90
        1
176
     1
 90
        6
176
     1
 90
        2
176
     1
 62
     7
176
     1
 90
        5
176
     1
 90
        0
176
     1
 90
        0
176
     1
290
     0
176
     1
 90
        1
176
     1
 40
0.0
176
     1
 90
        0
176
     1
290
     0
176
     1
290
     1
176
     1
290
     1
176
     1
290
     0
176
     1
290
     0
176
     1
290
     0
176
     1
290
     0
176
     1
290
     0
176
     1
290
     0
176
     1
 90
       50
176
     1
 40
0.0
176
     1
 40
1.0
176
     1
 90
        0
176
     1
 62
    18
420
        0
176
     1
 90
       50
176
     1
 90
        3
176
     1
 62
     5
420
      255
176
     1
290
     0
176
     1
 90
       50
176
     1
 90
       50
176
     1
 90
       50
176
     1
290
     0
176
     1
 90
       50
176
     1
 62
   256
176
     0
 40
1.0
176
     0
 90
        2
176
     1
  1
strokes_ogs.tif
176
     1
290
     0
176
     1
 40
1.0
176
     1
 40
1.0
176
     1
  0
VISUALSTYLE
  5
3C
102
{ACAD_REACTORS
330
2A
102
}
330
2A
100
AcDbVisualStyle
  2
OverhangOff
 70
    21
177
     3
291
     1
 70
    58
 90
        2
176
     0
 90
        2
176
     0
 90
        0
176
     0
 90
        0
176
     0
 40
0.6
176
     0
 40
30.0
176
     0
 62
     7
420
 16777215
176
     0
 90
        1
176
     0
 90
        4
176
     0
 62
     7
176
     0
 62
   257
176
     0
 90
        1
176
     0
 90
        1
176
     0
 40
1.0
176
     0
 90
        9
176
     2
 62
     7
176
     0
 40
1.0
176
     0
 90
        1
176
     0
 90
        6
176
     0
 90
        2
176
     0
 62
     7
176
     0
 90
        5
176
     0
 90
        0
176
     0
 90
        0
176
     0
290
     0
176
     0
 90
        1
176
     0
 40
0.0
176
     0
 90
        0
176
     0
290
     0
176
     0
290
     1
176
     0
290
     1
176
     0
290
     0
176
     0
290
     0
176
     0
290
     0
176
     0
290
     0
176
     0
290
     0
176
     0
290
     0
176
     0
 90
       50
176
     0
 40
0.0
176
     0
 40
1.0
176
     0
 90
        0
176
     0
 62
    18
420
        0
176
     0
 90
       50
176
     0
 90
        3
176
     0
 62
     5
420
      255
176
     0
290
     0
176
     0
 90
       50
176
     0
 90
       50
176
     0
 90
       50
176
     0
290
     0
176
     0
 90
       50
176
     0
 62
   256
176
     0
 40
1.0
176
     0
 90
        2
176
     0
  1
strokes_ogs.tif
176
     0
290
     0
176
     0
 40
1.0
176
     0
 40
1.0
176
     0
  0
VISUALSTYLE
  5
33
102
{ACAD_REACTORS
330
2A
102
}
330
2A
100
AcDbVisualStyle
  2
Realistic
 70
     8
177
     3
291
     0
 70
    58
 90
        2
176
     1
 90
        3
176
     1
 90
        0
176
     1
 90
        2
176
     1
 40
0.6
176
     1
 40
30.0
176
     1
 62
     7
420
 16777215
176
     1
 90
        0
176
     1
 90
        0
176
     1
 62
     7
176
     1
 62
   257
176
     1
 90
        1
176
     1
 90
        1
176
     1
 40
1.0
176
     1
 90
        8
176
     1
 62
   257
176
     1
 40
1.0
176
     1
 90
        1
176
     1
 90
        6
176
     1
 90
        2
176
     1
 62
     7
176
     1
 90
        3
176
     1
 90
        0
176
     1
 90
        0
176
     1
290
     0
176
     1
 90
       13
176
     1
 40
0.0
176
     1
 90
        0
176
     1
290
     0
176
     1
290
     1
176
     1
290
     1
176
     1
290
     0
176
     1
290
     0
176
     1
290
     0
176
     1
290
     0
176
     1
290
     0
176
     1
290
     0
176
     1
 90
       50
176
     1
 40
0.0
176
     1
 40
1.0
176
     1
 90
        0
176
     1
 62
    18
420
        0
176
     1
 90
       50
176
     1
 90
        3
176
     1
 62
     5
420
      255
176
     1
290
     0
176
     1
 90
       50
176
     1
 90
       50
176
     1
 90
       50
176
     1
290
     0
176
     1
 90
       50
176
     1
 62
   256
176
     0
 40
1.0
176
     0
 90
        2
176
     1
  1
strokes_ogs.tif
176
     1
290
     0
176
     1
 40
1.0
176
     1
 40
1.0
176
     1
  0
VISUALSTYLE
  5
42
102
{ACAD_REACTORS
330
2A
102
}
330
2A
100
AcDbVisualStyle
  2
Shaded
 70
    27
177
     3
291
     0
 70
    58
 90
        2
176
     1
 90
        2
176
     1
 90
        1
176
     1
 90
        2
176
     1
 40
0.6
176
     1
 40
30.0
176
     1
 62
     7
420
 16777215
176
     1
 90
        0
176
     1
 90
        4
176
     1
 62
     7
176
     1
 62
   257
176
     1
 90
        1
176
     1
 90
        1
176
     1
 40
1.0
176
     1
 90
        8
176
     1
 62
   257
176
     1
 40
1.0
176
     1
 90
        1
176
     1
 90
        6
176
     1
 90
        2
176
     1
 62
     8
420
  7895160
176
     1
 90
        3
176
     1
 90
        0
176
     1
 90
        0
176
     1
290
     0
176
     1
 90
        5
176
     1
 40
0.0
176
     1
 90
        0
176
     1
290
     0
176
     1
290
     1
176
     1
290
     1
176
     1
290
     0
176
     1
290
     0
176
     1
290
     0
176
     1
290
     0
176
     1
290
     0
176
     1
290
     0
176
     1
 90
       50
176
     1
 40
0.0
176
     1
 40
1.0
176
     1
 90
        0
176
     1
 62
    18
420
        0
176
     1
 90
       50
176
     1
 90
        3
176
     1
 62
     5
420
      255
176
     1
290
     0
176
     1
 90
       50
176
     1
 90
       50
176
     1
 90
       50
176
     1
290
     0
176
     1
 90
       50
176
     1
 62
   256
176
     0
 40
1.0
176
     0
 90
        2
176
     1
  1
strokes_ogs.tif
176
     1
290
     0
176
     1
 40
1.0
176
     1
 40
1.0
176
     1
  0
VISUALSTYLE
  5
41
102
{ACAD_REACTORS
330
2A
102
}
330
2A
100
AcDbVisualStyle
  2
Shaded with edges
 70
    26
177
     3
291
     0
 70
    58
 90
        2
176
     1
 90
        2
176
     1
 90
        1
176
     1
 90
        2
176
     1
 40
0.6
176
     1
 40
30.0
176
     1
 62
     7
420
 16777215
176
     1
 90
        1
176
     1
 90
       10
176
     1
 62
     7
176
     1
 62
   257
176
     1
 90
        2
176
     1
 90
        1
176
     1
 40
1.0
176
     1
 90
        8
176
     1
 62
   257
176
     1
 40
1.0
176
     1
 90
        1
176
     1
 90
        6
176
     1
 90
        2
176
     1
 62
     7
176
     1
 90
        3
176
     1
 90
        0
176
     1
 90
        0
176
     1
290
     0
176
     1
 90
        5
176
     1
 40
0.0
176
     1
 90
        0
176
     1
290
     0
176
     1
290
     1
176
     1
290
     1
176
     1
290
     0
176
     1
290
     0
176
     1
290
     0
176
     1
290
     0
176
     1
290
     0
176
     1
290
     0
176
     1
 90
       50
176
     1
 40
0.0
176
     1
 40
1.0
176
     1
 90
        0
176
     1
 62
    18
420
        0
176
     1
 90
       50
176
     1
 90
        3
176
     1
 62
     5
420
      255
176
     1
290
     0
176
     1
 90
       50
176
     1
 90
       50
176
     1
 90
       50
176
     1
290
     0
176
     1
 90
       50
176
     1
 62
   256
176
     0
 40
1.0
176
     0
 90
        2
176
     1
  1
strokes_ogs.tif
176
     1
290
     0
176
     1
 40
1.0
176
     1
 40
1.0
176
     1
  0
VISUALSTYLE
  5
3E
102
{ACAD_REACTORS
330
2A
102
}
330
2A
100
AcDbVisualStyle
  2
Shades of Gray
 70
    23
177
     3
291
     0
 70
    58
 90
        2
176
     1
 90
        2
176
     1
 90
        3
176
     1
 90
        0
176
     1
 40
0.6
176
     1
 40
30.0
176
     1
 62
     7
420
 16777215
176
     1
 90
        2
176
     1
 90
        2
176
     1
 62
     7
176
     1
 62
     7
176
     1
 90
        1
176
     1
 90
        1
176
     1
 40
40.0
176
     1
 90
        8
176
     1
 62
     7
176
     1
 40
1.0
176
     1
 90
        1
176
     1
 90
        6
176
     1
 90
        2
176
     1
 62
     7
176
     1
 90
        3
176
     1
 90
        0
176
     1
 90
        0
176
     1
290
     0
176
     1
 90
        1
176
     1
 40
0.0
176
     1
 90
        0
176
     1
290
     0
176
     1
290
     1
176
     1
290
     1
176
     1
290
     0
176
     1
290
     0
176
     1
290
     0
176
     1
290
     0
176
     1
290
     0
176
     1
290
     0
176
     1
 90
       50
176
     1
 40
0.0
176
     1
 40
1.0
176
     1
 90
        0
176
     1
 62
    18
420
        0
176
     1
 90
       50
176
     1
 90
        3
176
     1
 62
     5
420
      255
176
     1
290
     0
176
     1
 90
       50
176
     1
 90
       50
176
     1
 90
       50
176
     1
290
     0
176
     1
 90
       50
176
     1
 62
   256
176
     0
 40
1.0
176
     0
 90
        2
176
     1
  1
strokes_ogs.tif
176
     1
290
     0
176
     1
 40
1.0
176
     1
 40
1.0
176
     1
  0
VISUALSTYLE
  5
3F
102
{ACAD_REACTORS
330
2A
102
}
330
2A
100
AcDbVisualStyle
  2
Sketchy
 70
    24
177
     3
291
     0
 70
    58
 90
        1
176
     1
 90
        2
176
     1
 90
        2
176
     1
 90
        0
176
     1
 40
0.6
176
     1
 40
30.0
176
     1
 62
     7
420
 16777215
176
     1
 90
        2
176
     1
 90
        2
176
     1
 62
     7
176
     1
 62
     7
176
     1
 90
        1
176
     1
 90
        1
176
     1
 40
40.0
176
     1
 90
       11
176
     1
 62
     7
176
     1
 40
1.0
176
     1
 90
        1
176
     1
 90
        6
176
     1
 90
        2
176
     1
 62
     7
176
     1
 90
        6
176
     1
 90
        0
176
     1
 90
        0
176
     1
290
     0
176
     1
 90
        1
176
     1
 40
0.0
176
     1
 90
        0
176
     1
290
     0
176
     1
290
     1
176
     1
290
     1
176
     1
290
     0
176
     1
290
     0
176
     1
290
     0
176
     1
290
     0
176
     1
290
     0
176
     1
290
     0
176
     1
 90
       50
176
     1
 40
0.0
176
     1
 40
1.0
176
     1
 90
        0
176
     1
 62
    18
420
        0
176
     1
 90
       50
176
     1
 90
        3
176
     1
 62
     5
420
      255
176
     1
290
     0
176
     1
 90
       50
176
     1
 90
       50
176
     1
 90
       50
176
     1
290
     0
176
     1
 90
       50
176
     1
 62
   256
176
     0
 40
1.0
176
     0
 90
        2
176
     1
  1
strokes_ogs.tif
176
     1
290
     0
176
     1
 40
1.0
176
     1
 40
1.0
176
     1
  0
VISUALSTYLE
  5
37
102
{ACAD_REACTORS
330
2A
102
}
330
2A
100
AcDbVisualStyle
  2
Thicken
 70
    13
177
     3
291
     1
 70
    58
 90
        2
176
     1
 90
        2
176
     1
 90
        0
176
     1
 90
        0
176
     1
 40
0.6
176
     1
 40
30.0
176
     1
 62
     7
420
 16777215
176
     1
 90
        1
176
     1
 90
        4
176
     1
 62
     7
176
     1
 62
   257
176
     1
 90
        1
176
     1
 90
        1
176
     1
 40
1.0
176
     1
 90
       12
176
     1
 62
     7
176
     1
 40
1.0
176
     1
 90
        1
176
     1
 90
        6
176
     1
 90
        2
176
     1
 62
     7
176
     1
 90
        5
176
     1
 90
        0
176
     1
 90
        0
176
     1
290
     0
176
     1
 90
        1
176
     1
 40
0.0
176
     1
 90
        0
176
     1
290
     0
176
     1
290
     1
176
     1
290
     1
176
     1
290
     0
176
     1
290
     0
176
     1
290
     0
176
     1
290
     0
176
     1
290
     0
176
     1
290
     0
176
     1
 90
       50
176
     1
 40
0.0
176
     1
 40
1.0
176
     1
 90
        0
176
     1
 62
    18
420
        0
176
     1
 90
       50
176
     1
 90
        3
176
     1
 62
     5
420
      255
176
     1
290
     0
176
     1
 90
       50
176
     1
 90
       50
176
     1
 90
       50
176
     1
290
     0
176
     1
 90
       50
176
     1
 62
   256
176
     0
 40
1.0
176
     0
 90
        2
176
     1
  1
strokes_ogs.tif
176
     1
290
     0
176
     1
 40
1.0
176
     1
 40
1.0
176
     1
  0
VISUALSTYLE
  5
30
102
{ACAD_REACTORS
330
2A
102
}
330
2A
100
AcDbVisualStyle
  2
Wireframe
 70
     5
177
     3
291
     0
 70
    58
 90
        0
176
     1
 90
        2
176
     1
 90
        0
176
     1
 90
        0
176
     1
 40
0.6
176
     1
 40
30.0
176
     1
 62
     7
420
 16777215
176
     1
 90
        1
176
     1
 90
        4
176
     1
 62
     7
176
     1
 62
   257
176
     1
 90
        1
176
     1
 90
        1
176
     1
 40
1.0
176
     1
 90
        0
176
     1
 62
   257
176
     1
 40
1.0
176
     1
 90
        1
176
     1
 90
        6
176
     1
 90
        2
176
     1
 62
     7
176
     1
 90
        3
176
     1
 90
        0
176
     1
 90
        0
176
     1
290
     0
176
     1
 90
        1
176
     1
 40
0.0
176
     1
 90
        0
176
     1
290
     0
176
     1
290
     1
176
     1
290
     1
176
     1
290
     0
176
     1
290
     0
176
     1
290
     0
176
     1
290
     0
176
     1
290
     0
176
     1
290
     0
176
     1
 90
       50
176
     1
 40
0.0
176
     1
 40
1.0
176
     1
 90
        0
176
     1
 62
    18
420
        0
176
     1
 90
       50
176
     1
 90
        3
176
     1
 62
     5
420
      255
176
     1
290
     0
176
     1
 90
       50
176
     1
 90
       50
176
     1
 90
       50
176
     1
290
     0
176
     1
 90
       50
176
     1
 62
   256
176
     0
 40
1.0
176
     0
 90
        2
176
     1
  1
strokes_ogs.tif
176
     1
290
     0
176
     1
 40
1.0
176
     1
 40
1.0
176
     1
  0
VISUALSTYLE
  5
40
102
{ACAD_REACTORS
330
2A
102
}
330
2A
100
AcDbVisualStyle
  2
X-Ray
 70
    25
177
     3
291
     0
 70
    58
 90
        2
176
     1
 90
        2
176
     1
 90
        1
176
     1
 90
        1
176
     1
 40
0.5
176
     1
 40
30.0
176
     1
 62
     7
420
 16777215
176
     1
 90
        1
176
     1
 90
        0
176
     1
 62
     7
176
     1
 62
   257
176
     1
 90
        1
176
     1
 90
        1
176
     1
 40
1.0
176
     1
 90
        8
176
     1
 62
     7
176
     1
 40
1.0
176
     1
 90
        1
176
     1
 90
        6
176
     1
 90
        2
176
     1
 62
     7
176
     1
 90
        3
176
     1
 90
        0
176
     1
 90
        0
176
     1
290
     0
176
     1
 90
       13
176
     1
 40
0.0
176
     1
 90
        0
176
     1
290
     0
176
     1
290
     1
176
     1
290
     1
176
     1
290
     0
176
     1
290
     0
176
     1
290
     0
176
     1
290
     0
176
     1
290
     0
176
     1
290
     0
176
     1
 90
       50
176
     1
 40
0.0
176
     1
 40
1.0
176
     1
 90
        0
176
     1
 62
    18
420
        0
176
     1
 90
       50
176
     1
 90
        3
176
     1
 62
     5
420
      255
176
     1
290
     0
176
     1
 90
       50
176
     1
 90
       50
176
     1
 90
       50
176
     1
290
     0
176
     1
 90
       50
176
     1
 62
   256
176
     0
 40
1.0
176
     0
 90
        2
176
     1
  1
strokes_ogs.tif
176
     1
290
     0
176
     1
 40
1.0
176
     1
 40
1.0
176
     1
  0
DICTIONARYVAR
  5
186
102
{ACAD_REACTORS
330
185
102
}
330
185
100
DictionaryVariables
280
     0
  1
1:1
  0
DICTIONARYVAR
  5
18B
102
{ACAD_REACTORS
330
185
102
}
330
185
100
DictionaryVariables
280
     0
  1
Standard
  0
DICTIONARYVAR
  5
18A
102
{ACAD_REACTORS
330
185
102
}
330
185
100
DictionaryVariables
280
     0
  1
Standard
  0
DICTIONARY
  5
187
330
6A
100
AcDbDictionary
280
     1
281
     1
  3
ACAD_ROUNDTRIP_2008_TABLESTYLE_CELLSTYLEMAP
360
188
  0
CELLSTYLEMAP
  5
188
102
{ACAD_REACTORS
330
187
102
}
330
187
100
AcDbCellStyleMap
 90
        3
300
CELLSTYLE
  1
TABLEFORMAT_BEGIN
 90
        5
170
     1
 91
        0
 92
    32768
 62
   257
 93
        1
300
CONTENTFORMAT
  1
CONTENTFORMAT_BEGIN
 90
        0
 91
        0
 92
        4
 93
        0
300

 40
0.0
140
1.0
 94
        5
 62
     0
340
11
144
0.25
309
CONTENTFORMAT_END
171
     1
301
MARGIN
  1
CELLMARGIN_BEGIN
 40
0.06
 40
0.06
 40
0.06
 40
0.06
 40
0.06
 40
0.06
309
CELLMARGIN_END
 94
        6
 95
        1
302
GRIDFORMAT
  1
GRIDFORMAT_BEGIN
 90
        0
 91
        1
 62
     0
 92
       -2
340
14
 93
        0
 40
0.045
309
GRIDFORMAT_END
 95
        2
302
GRIDFORMAT
  1
GRIDFORMAT_BEGIN
 90
        0
 91
        1
 62
     0
 92
       -2
340
14
 93
        0
 40
0.045
309
GRIDFORMAT_END
 95
        4
302
GRIDFORMAT
  1
GRIDFORMAT_BEGIN
 90
        0
 91
        1
 62
     0
 92
       -2
340
14
 93
        0
 40
0.045
309
GRIDFORMAT_END
 95
        8
302
GRIDFORMAT
  1
GRIDFORMAT_BEGIN
 90
        0
 91
        1
 62
     0
 92
       -2
340
14
 93
        0
 40
0.045
309
GRIDFORMAT_END
 95
       16
302
GRIDFORMAT
  1
GRIDFORMAT_BEGIN
 90
        0
 91
        1
 62
     0
 92
       -2
340
14
 93
        0
 40
0.045
309
GRIDFORMAT_END
 95
       32
302
GRIDFORMAT
  1
GRIDFORMAT_BEGIN
 90
        0
 91
        1
 62
     0
 92
       -2
340
14
 93
        0
 40
0.045
309
GRIDFORMAT_END
309
TABLEFORMAT_END
  1
CELLSTYLE_BEGIN
 90
        1
 91
        1
300
_TITLE
309
CELLSTYLE_END
300
CELLSTYLE
  1
TABLEFORMAT_BEGIN
 90
        5
170
     1
 91
        0
 92
        0
 62
   257
 93
        1
300
CONTENTFORMAT
  1
CONTENTFORMAT_BEGIN
 90
        0
 91
        0
 92
        4
 93
        0
300

 40
0.0
140
1.0
 94
        5
 62
     0
340
11
144
0.18
309
CONTENTFORMAT_END
171
     1
301
MARGIN
  1
CELLMARGIN_BEGIN
 40
0.06
 40
0.06
 40
0.06
 40
0.06
 40
0.06
 40
0.06
309
CELLMARGIN_END
 94
        6
 95
        1
302
GRIDFORMAT
  1
GRIDFORMAT_BEGIN
 90
        0
 91
        1
 62
     0
 92
       -2
340
14
 93
        0
 40
0.045
309
GRIDFORMAT_END
 95
        2
302
GRIDFORMAT
  1
GRIDFORMAT_BEGIN
 90
        0
 91
        1
 62
     0
 92
       -2
340
14
 93
        0
 40
0.045
309
GRIDFORMAT_END
 95
        4
302
GRIDFORMAT
  1
GRIDFORMAT_BEGIN
 90
        0
 91
        1
 62
     0
 92
       -2
340
14
 93
        0
 40
0.045
309
GRIDFORMAT_END
 95
        8
302
GRIDFORMAT
  1
GRIDFORMAT_BEGIN
 90
        0
 91
        1
 62
     0
 92
       -2
340
14
 93
        0
 40
0.045
309
GRIDFORMAT_END
 95
       16
302
GRIDFORMAT
  1
GRIDFORMAT_BEGIN
 90
        0
 91
        1
 62
     0
 92
       -2
340
14
 93
        0
 40
0.045
309
GRIDFORMAT_END
 95
       32
302
GRIDFORMAT
  1
GRIDFORMAT_BEGIN
 90
        0
 91
        1
 62
     0
 92
       -2
340
14
 93
        0
 40
0.045
309
GRIDFORMAT_END
309
TABLEFORMAT_END
  1
CELLSTYLE_BEGIN
 90
        2
 91
        1
300
_HEADER
309
CELLSTYLE_END
300
CELLSTYLE
  1
TABLEFORMAT_BEGIN
 90
        5
170
     1
 91
        0
 92
        0
 62
   257
 93
        1
300
CONTENTFORMAT
  1
CONTENTFORMAT_BEGIN
 90
        0
 91
        0
 92
        4
 93
        0
300

 40
0.0
140
1.0
 94
        2
 62
     0
340
11
144
0.18
309
CONTENTFORMAT_END
171
     1
301
MARGIN
  1
CELLMARGIN_BEGIN
 40
0.06
 40
0.06
 40
0.06
 40
0.06
 40
0.06
 40
0.06
309
CELLMARGIN_END
 94
        6
 95
        1
302
GRIDFORMAT
  1
GRIDFORMAT_BEGIN
 90
        0
 91
        1
 62
     0
 92
       -2
340
14
 93
        0
 40
0.045
309
GRIDFORMAT_END
 95
        2
302
GRIDFORMAT
  1
GRIDFORMAT_BEGIN
 90
        0
 91
        1
 62
     0
 92
       -2
340
14
 93
        0
 40
0.045
309
GRIDFORMAT_END
 95
        4
302
GRIDFORMAT
  1
GRIDFORMAT_BEGIN
 90
        0
 91
        1
 62
     0
 92
       -2
340
14
 93
        0
 40
0.045
309
GRIDFORMAT_END
 95
        8
302
GRIDFORMAT
  1
GRIDFORMAT_BEGIN
 90
        0
 91
        1
 62
     0
 92
       -2
340
14
 93
        0
 40
0.045
309
GRIDFORMAT_END
 95
       16
302
GRIDFORMAT
  1
GRIDFORMAT_BEGIN
 90
        0
 91
        1
 62
     0
 92
       -2
340
14
 93
        0
 40
0.045
309
GRIDFORMAT_END
 95
       32
302
GRIDFORMAT
  1
GRIDFORMAT_BEGIN
 90
        0
 91
        1
 62
     0
 92
       -2
340
14
 93
        0
 40
0.045
309
GRIDFORMAT_END
309
TABLEFORMAT_END
  1
CELLSTYLE_BEGIN
 90
        3
 91
        2
300
_DATA
309
CELLSTYLE_END
  0
ENDSEC
  0
EOF