0
SECTION
  2
HEADER
  9
$ACADVER
  1
AC1027
  9
$ACADMAINTVER
 70
     8
  9
$DWGCODEPAGE
  3
ANSI_1252
  9
$REQUIREDVERSIONS
160
                 0
  9
$COMMENTS
  1
File was created by Cadenas
  9
$CUSTOMPROPERTYTAG
  1
NN
  9
$CUSTOMPROPERTY
  1
Set Screw Two-Bolt Flange Inch Bore - Polymer Housing, Corrosion Resistant Insert
  9
$CUSTOMPROPERTYTAG
  1
NT
  9
$CUSTOMPROPERTY
  1
SC 2 Bolt Flange Bearings -(Normal Duty) -Corrosion Resistant Insert -Polymer Housed -E-Z KLEEN
  9
$CUSTOMPROPERTYTAG
  1
NB
  9
$CUSTOMPROPERTY
  1
127528
  9
$CUSTOMPROPERTYTAG
  1
NBSYN
  9
$CUSTOMPROPERTY
  1
$PN.
  9
$CUSTOMPROPERTYTAG
  1
LINA
  9
$CUSTOMPROPERTY
  1
127528
  9
$CUSTOMPROPERTYTAG
  1
SERIES
  9
$CUSTOMPROPERTY
  1
207
  9
$CUSTOMPROPERTYTAG
  1
SS
  9
$CUSTOMPROPERTY
  1
1-1/4
  9
$CUSTOMPROPERTYTAG
  1
PN
  9
$CUSTOMPROPERTY
  1
127528
  9
$CUSTOMPROPERTYTAG
  1
DESCRIPTION
  9
$CUSTOMPROPERTY
  1
F2B-SCEZ-104-PCR
  9
$CUSTOMPROPERTYTAG
  1
W
  9
$CUSTOMPROPERTY
  1
1.36
  9
$CUSTOMPROPERTYTAG
  1
A
  9
$CUSTOMPROPERTY
  1
1.71
  9
$CUSTOMPROPERTYTAG
  1
B
  9
$CUSTOMPROPERTY
  1
6.31
  9
$CUSTOMPROPERTYTAG
  1
C
  9
$CUSTOMPROPERTY
  1
1.82
  9
$CUSTOMPROPERTYTAG
  1
D
  9
$CUSTOMPROPERTY
  1
5.12
  9
$CUSTOMPROPERTYTAG
  1
F
  9
$CUSTOMPROPERTY
  1
1/2
  9
$CUSTOMPROPERTYTAG
  1
H
  9
$CUSTOMPROPERTY
  1
0.62
  9
$CUSTOMPROPERTYTAG
  1
J
  9
$CUSTOMPROPERTY
  1
0.54
  9
$CUSTOMPROPERTYTAG
  1
L
  9
$CUSTOMPROPERTY
  1
1.84
  9
$CUSTOMPROPERTYTAG
  1
M
  9
$CUSTOMPROPERTY
  1
3.69
  9
$CUSTOMPROPERTYTAG
  1
COMPANY
  9
$CUSTOMPROPERTY
  1
baldor
  9
$INSBASE
 10
0.0
 20
0.0
 30
0.0
  9
$EXTMIN
 10
1.000000000000000E+20
 20
1.000000000000000E+20
 30
1.000000000000000E+20
  9
$EXTMAX
 10
-1.000000000000000E+20
 20
-1.000000000000000E+20
 30
-1.000000000000000E+20
  9
$LIMMIN
 10
0.0
 20
0.0
  9
$LIMMAX
 10
12.0
 20
9.0
  9
$ORTHOMODE
 70
     0
  9
$REGENMODE
 70
     1
  9
$FILLMODE
 70
     1
  9
$QTEXTMODE
 70
     0
  9
$MIRRTEXT
 70
     1
  9
$LTSCALE
 40
1.0
  9
$ATTMODE
 70
     1
  9
$TEXTSIZE
 40
0.2
  9
$TRACEWID
 40
0.05
  9
$TEXTSTYLE
  7
Standard
  9
$CLAYER
  8
0
  9
$CELTYPE
  6
ByLayer
  9
$CECOLOR
 62
   256
  9
$CELTSCALE
 40
1.0
  9
$DISPSILH
 70
     0
  9
$DIMSCALE
 40
1.0
  9
$DIMASZ
 40
0.18
  9
$DIMEXO
 40
0.0625
  9
$DIMDLI
 40
0.38
  9
$DIMRND
 40
0.0
  9
$DIMDLE
 40
0.0
  9
$DIMEXE
 40
0.18
  9
$DIMTP
 40
0.0
  9
$DIMTM
 40
0.0
  9
$DIMTXT
 40
0.18
  9
$DIMCEN
 40
0.09
  9
$DIMTSZ
 40
0.0
  9
$DIMTOL
 70
     0
  9
$DIMLIM
 70
     0
  9
$DIMTIH
 70
     1
  9
$DIMTOH
 70
     1
  9
$DIMSE1
 70
     0
  9
$DIMSE2
 70
     0
  9
$DIMTAD
 70
     0
  9
$DIMZIN
 70
     0
  9
$DIMBLK
  1

  9
$DIMASO
 70
     1
  9
$DIMSHO
 70
     1
  9
$DIMPOST
  1

  9
$DIMAPOST
  1

  9
$DIMALT
 70
     0
  9
$DIMALTD
 70
     2
  9
$DIMALTF
 40
25.4
  9
$DIMLFAC
 40
1.0
  9
$DIMTOFL
 70
     0
  9
$DIMTVP
 40
0.0
  9
$DIMTIX
 70
     0
  9
$DIMSOXD
 70
     0
  9
$DIMSAH
 70
     0
  9
$DIMBLK1
  1

  9
$DIMBLK2
  1

  9
$DIMSTYLE
  2
Standard
  9
$DIMCLRD
 70
     0
  9
$DIMCLRE
 70
     0
  9
$DIMCLRT
 70
     0
  9
$DIMTFAC
 40
1.0
  9
$DIMGAP
 40
0.09
  9
$DIMJUST
 70
     0
  9
$DIMSD1
 70
     0
  9
$DIMSD2
 70
     0
  9
$DIMTOLJ
 70
     1
  9
$DIMTZIN
 70
     0
  9
$DIMALTZ
 70
     0
  9
$DIMALTTZ
 70
     0
  9
$DIMUPT
 70
     0
  9
$DIMDEC
 70
     4
  9
$DIMTDEC
 70
     4
  9
$DIMALTU
 70
     2
  9
$DIMALTTD
 70
     2
  9
$DIMTXSTY
  7
Standard
  9
$DIMAUNIT
 70
     0
  9
$DIMADEC
 70
     0
  9
$DIMALTRND
 40
0.0
  9
$DIMAZIN
 70
     0
  9
$DIMDSEP
 70
    46
  9
$DIMATFIT
 70
     3
  9
$DIMFRAC
 70
     0
  9
$DIMLDRBLK
  1

  9
$DIMLUNIT
 70
     2
  9
$DIMLWD
 70
    -2
  9
$DIMLWE
 70
    -2
  9
$DIMTMOVE
 70
     0
  9
$DIMFXL
 40
1.0
  9
$DIMFXLON
 70
     0
  9
$DIMJOGANG
 40
0.7853981633974483
  9
$DIMTFILL
 70
     0
  9
$DIMTFILLCLR
 70
     0
  9
$DIMARCSYM
 70
     0
  9
$DIMLTYPE
  6

  9
$DIMLTEX1
  6

  9
$DIMLTEX2
  6

  9
$DIMTXTDIRECTION
 70
     0
  9
$LUNITS
 70
     2
  9
$LUPREC
 70
     4
  9
$SKETCHINC
 40
0.1
  9
$FILLETRAD
 40
0.5
  9
$AUNITS
 70
     0
  9
$AUPREC
 70
     0
  9
$MENU
  1
.
  9
$ELEVATION
 40
0.0
  9
$PELEVATION
 40
0.0
  9
$THICKNESS
 40
0.0
  9
$LIMCHECK
 70
     0
  9
$CHAMFERA
 40
0.0
  9
$CHAMFERB
 40
0.0
  9
$CHAMFERC
 40
0.0
  9
$CHAMFERD
 40
0.0
  9
$SKPOLY
 70
     0
  9
$TDCREATE
 40
2458168.997912546
  9
$TDUCREATE
 40
2458168.95624588
  9
$TDUPDATE
 40
2458168.99791272
  9
$TDUUPDATE
 40
2458168.956246053
  9
$TDINDWG
 40
0.0000000116
  9
$TDUSRTIMER
 40
0.0000000116
  9
$USRTIMER
 70
     1
  9
$ANGBASE
 50
0.0
  9
$ANGDIR
 70
     0
  9
$PDMODE
 70
     0
  9
$PDSIZE
 40
0.0
  9
$PLINEWID
 40
0.0
  9
$SPLFRAME
 70
     0
  9
$SPLINETYPE
 70
     6
  9
$SPLINESEGS
 70
     8
  9
$HANDSEED
  5
181
  9
$SURFTAB1
 70
     6
  9
$SURFTAB2
 70
     6
  9
$SURFTYPE
 70
     6
  9
$SURFU
 70
     6
  9
$SURFV
 70
     6
  9
$UCSBASE
  2

  9
$UCSNAME
  2

  9
$UCSORG
 10
0.0
 20
0.0
 30
0.0
  9
$UCSXDIR
 10
1.0
 20
0.0
 30
0.0
  9
$UCSYDIR
 10
0.0
 20
1.0
 30
0.0
  9
$UCSORTHOREF
  2

  9
$UCSORTHOVIEW
 70
     0
  9
$UCSORGTOP
 10
0.0
 20
0.0
 30
0.0
  9
$UCSORGBOTTOM
 10
0.0
 20
0.0
 30
0.0
  9
$UCSORGLEFT
 10
0.0
 20
0.0
 30
0.0
  9
$UCSORGRIGHT
 10
0.0
 20
0.0
 30
0.0
  9
$UCSORGFRONT
 10
0.0
 20
0.0
 30
0.0
  9
$UCSORGBACK
 10
0.0
 20
0.0
 30
0.0
  9
$PUCSBASE
  2

  9
$PUCSNAME
  2

  9
$PUCSORG
 10
0.0
 20
0.0
 30
0.0
  9
$PUCSXDIR
 10
1.0
 20
0.0
 30
0.0
  9
$PUCSYDIR
 10
0.0
 20
1.0
 30
0.0
  9
$PUCSORTHOREF
  2

  9
$PUCSORTHOVIEW
 70
     0
  9
$PUCSORGTOP
 10
0.0
 20
0.0
 30
0.0
  9
$PUCSORGBOTTOM
 10
0.0
 20
0.0
 30
0.0
  9
$PUCSORGLEFT
 10
0.0
 20
0.0
 30
0.0
  9
$PUCSORGRIGHT
 10
0.0
 20
0.0
 30
0.0
  9
$PUCSORGFRONT
 10
0.0
 20
0.0
 30
0.0
  9
$PUCSORGBACK
 10
0.0
 20
0.0
 30
0.0
  9
$USERI1
 70
     0
  9
$USERI2
 70
     0
  9
$USERI3
 70
     0
  9
$USERI4
 70
     0
  9
$USERI5
 70
     0
  9
$USERR1
 40
0.0
  9
$USERR2
 40
0.0
  9
$USERR3
 40
0.0
  9
$USERR4
 40
0.0
  9
$USERR5
 40
0.0
  9
$WORLDVIEW
 70
     1
  9
$SHADEDGE
 70
     3
  9
$SHADEDIF
 70
    70
  9
$TILEMODE
 70
     1
  9
$MAXACTVP
 70
    64
  9
$PINSBASE
 10
0.0
 20
0.0
 30
0.0
  9
$PLIMCHECK
 70
     0
  9
$PEXTMIN
 10
1.000000000000000E+20
 20
1.000000000000000E+20
 30
1.000000000000000E+20
  9
$PEXTMAX
 10
-1.000000000000000E+20
 20
-1.000000000000000E+20
 30
-1.000000000000000E+20
  9
$PLIMMIN
 10
0.0
 20
0.0
  9
$PLIMMAX
 10
12.0
 20
9.0
  9
$UNITMODE
 70
     0
  9
$VISRETAIN
 70
     1
  9
$PLINEGEN
 70
     0
  9
$PSLTSCALE
 70
     1
  9
$TREEDEPTH
 70
  3020
  9
$CMLSTYLE
  2
Standard
  9
$CMLJUST
 70
     0
  9
$CMLSCALE
 40
1.0
  9
$PROXYGRAPHICS
 70
     1
  9
$MEASUREMENT
 70
     0
  9
$CELWEIGHT
370
    -1
  9
$ENDCAPS
280
     0
  9
$JOINSTYLE
280
     0
  9
$LWDISPLAY
290
     0
  9
$INSUNITS
 70
     1
  9
$HYPERLINKBASE
  1

  9
$STYLESHEET
  1

  9
$XEDIT
290
     1
  9
$CEPSNTYPE
380
     0
  9
$PSTYLEMODE
290
     1
  9
$FINGERPRINTGUID
  2
{979DDA9E-E8C8-42E1-8398-829CD91AFFCF}
  9
$VERSIONGUID
  2
{FAEB1C32-E019-11D5-929B-00C0DF256EC4}
  9
$EXTNAMES
290
     1
  9
$PSVPSCALE
 40
0.0
  9
$OLESTARTUP
290
     0
  9
$SORTENTS
280
   127
  9
$INDEXCTL
280
     0
  9
$HIDETEXT
280
     1
  9
$XCLIPFRAME
280
     2
  9
$HALOGAP
280
     0
  9
$OBSCOLOR
 70
   257
  9
$OBSLTYPE
280
     0
  9
$INTERSECTIONDISPLAY
280
     0
  9
$INTERSECTIONCOLOR
 70
   257
  9
$DIMASSOC
280
     2
  9
$PROJECTNAME
  1

  9
$CAMERADISPLAY
290
     0
  9
$LENSLENGTH
 40
50.0
  9
$CAMERAHEIGHT
 40
0.0
  9
$STEPSPERSEC
 40
2.0
  9
$STEPSIZE
 40
6.0
  9
$3DDWFPREC
 40
2.0
  9
$PSOLWIDTH
 40
0.25
  9
$PSOLHEIGHT
 40
4.0
  9
$LOFTANG1
 40
1.570796326794897
  9
$LOFTANG2
 40
1.570796326794897
  9
$LOFTMAG1
 40
0.0
  9
$LOFTMAG2
 40
0.0
  9
$LOFTPARAM
 70
     7
  9
$LOFTNORMALS
280
     1
  9
$LATITUDE
 40
37.795
  9
$LONGITUDE
 40
-122.394
  9
$NORTHDIRECTION
 40
0.0
  9
$TIMEZONE
 70
 -8000
  9
$LIGHTGLYPHDISPLAY
280
     1
  9
$TILEMODELIGHTSYNCH
280
     1
  9
$CMATERIAL
347
44
  9
$SOLIDHIST
280
     0
  9
$SHOWHIST
280
     1
  9
$DWFFRAME
280
     2
  9
$DGNFRAME
280
     2
  9
$REALWORLDSCALE
290
     1
  9
$INTERFERECOLOR
 62
   256
  9
$CSHADOW
280
     0
  9
$SHADOWPLANELOCATION
 40
0.0
  0
ENDSEC
  0
SECTION
  2
CLASSES
  0
CLASS
  1
ACDBDICTIONARYWDFLT
  2
AcDbDictionaryWithDefault
  3
ObjectDBX Classes
 90
        0
 91
        4
280
     0
281
     0
  0
CLASS
  1
VISUALSTYLE
  2
AcDbVisualStyle
  3
ObjectDBX Classes
 90
     4095
 91
        4
280
     0
281
     0
  0
CLASS
  1
MATERIAL
  2
AcDbMaterial
  3
ObjectDBX Classes
 90
     1153
 91
        4
280
     0
281
     0
  0
CLASS
  1
SCALE
  2
AcDbScale
  3
ObjectDBX Classes
 90
     1153
 91
        4
280
     0
281
     0
  0
CLASS
  1
TABLESTYLE
  2
AcDbTableStyle
  3
ObjectDBX Classes
 90
     4095
 91
        4
280
     0
281
     0
  0
CLASS
  1
MLEADERSTYLE
  2
AcDbMLeaderStyle
  3
ACDB_MLEADERSTYLE_CLASS
 90
     4095
 91
        4
280
     0
281
     0
  0
CLASS
  1
SUN
  2
AcDbSun
  3
SCENEOE
 90
     1153
 91
        4
280
     0
281
     0
  0
CLASS
  1
DICTIONARYVAR
  2
AcDbDictionaryVar
  3
ObjectDBX Classes
 90
        0
 91
        4
280
     0
281
     0
  0
CLASS
  1
CELLSTYLEMAP
  2
AcDbCellStyleMap
  3
ObjectDBX Classes
 90
     1152
 91
        4
280
     0
281
     0
  0
ENDSEC
  0
SECTION
  2
TABLES
  0
TABLE
  2
VPORT
  5
8
330
0
100
AcDbSymbolTable
 70
     1
  0
VPORT
  5
29
330
8
100
AcDbSymbolTableRecord
100
AcDbViewportTableRecord
  2
*Active
 70
     0
 10
0.0
 20
0.0
 11
1.0
 21
1.0
 12
-0.9184750000000008
 22
0.0
 13
0.0
 23
0.0
 14
0.5
 24
0.5
 15
0.5
 25
0.5
 16
0.0
 26
0.0
 36
1.0
 17
0.0
 27
0.0
 37
0.0
 40
6.436199999999999
 41
0.3128446909667193
 42
50.0
 43
0.0
 44
0.0
 50
0.0
 51
0.0
 71
     0
 72
   100
 73
     1
 74
     3
 75
     0
 76
     0
 77
     0
 78
     0
281
     0
 65
     1
110
0.0
120
0.0
130
0.0
111
1.0
121
0.0
131
0.0
112
0.0
122
1.0
132
0.0
 79
     0
146
0.0
348
2F
 60
     3
 61
     5
292
     1
282
     1
141
0.0
142
0.0
 63
   250
361
6D
  0
ENDTAB
  0
TABLE
  2
LTYPE
  5
5
330
0
100
AcDbSymbolTable
 70
     3
  0
LTYPE
  5
14
330
5
100
AcDbSymbolTableRecord
100
AcDbLinetypeTableRecord
  2
ByBlock
 70
     0
  3

 72
    65
 73
     0
 40
0.0
  0
LTYPE
  5
15
330
5
100
AcDbSymbolTableRecord
100
AcDbLinetypeTableRecord
  2
ByLayer
 70
     0
  3

 72
    65
 73
     0
 40
0.0
  0
LTYPE
  5
16
330
5
100
AcDbSymbolTableRecord
100
AcDbLinetypeTableRecord
  2
Continuous
 70
     0
  3
Solid line
 72
    65
 73
     0
 40
0.0
  0
LTYPE
  5
99
330
5
100
AcDbSymbolTableRecord
100
AcDbLinetypeTableRecord
  2
Dashed
 70
     0
  3

 72
    65
 73
     2
 40
2.0
 49
1.0
 74
     0
 49
-1.0
 74
     0
  0
LTYPE
  5
121
330
5
100
AcDbSymbolTableRecord
100
AcDbLinetypeTableRecord
  2
Center
 70
     0
  3

 72
    65
 73
     4
 40
1.5
 49
0.45
 74
     0
 49
-0.5
 74
     0
 49
0.05
 74
     0
 49
-0.5
 74
     0
  0
ENDTAB
  0
TABLE
  2
LAYER
  5
2
330
0
100
AcDbSymbolTable
 70
     7
  0
LAYER
  5
10
330
2
100
AcDbSymbolTableRecord
100
AcDbLayerTableRecord
  2
0
 70
     0
 62
     7
  6
Continuous
370
    -3
390
F
347
46
348
0
  0
LAYER
  5
72
330
2
100
AcDbSymbolTableRecord
100
AcDbLayerTableRecord
  2
AM_6
 70
     0
 62
    -2
  6
Continuous
370
    35
390
F
347
46
348
0
  0
LAYER
  5
9A
330
2
100
AcDbSymbolTableRecord
100
AcDbLayerTableRecord
  2
AM_9
 70
     0
 62
     6
  6
Dashed
370
    25
390
F
347
46
348
0
  0
LAYER
  5
B7
330
2
100
AcDbSymbolTableRecord
100
AcDbLayerTableRecord
  2
AM_4
 70
     0
 62
     7
  6
Continuous
370
    50
390
F
347
46
348
0
  0
LAYER
  5
11E
330
2
100
AcDbSymbolTableRecord
100
AcDbLayerTableRecord
  2
AM_5
 70
     0
 62
     3
  6
Continuous
370
    25
390
F
347
46
348
0
  0
LAYER
  5
122
330
2
100
AcDbSymbolTableRecord
100
AcDbLayerTableRecord
  2
AM_7
 70
     0
 62
     7
  6
Center
370
    25
390
F
347
46
348
0
  0
LAYER
  5
173
330
2
100
AcDbSymbolTableRecord
100
AcDbLayerTableRecord
  2
ConnectionPoints
 70
     0
 62
     7
  6
Continuous
370
    50
390
F
347
46
348
0
  0
ENDTAB
  0
TABLE
  2
STYLE
  5
3
330
0
100
AcDbSymbolTable
 70
     1
  0
STYLE
  5
11
330
3
100
AcDbSymbolTableRecord
100
AcDbTextStyleTableRecord
  2
Standard
 70
     0
 40
0.0
 41
1.0
 50
0.0
 71
     0
 42
0.2
  3
txt
  4

  0
ENDTAB
  0
TABLE
  2
VIEW
  5
6
330
0
100
AcDbSymbolTable
 70
     0
  0
ENDTAB
  0
TABLE
  2
UCS
  5
7
330
0
100
AcDbSymbolTable
 70
     0
  0
ENDTAB
  0
TABLE
  2
APPID
  5
9
330
0
100
AcDbSymbolTable
 70
     1
  0
APPID
  5
12
330
9
100
AcDbSymbolTableRecord
100
AcDbRegAppTableRecord
  2
ACAD
 70
     0
  0
ENDTAB
  0
TABLE
  2
DIMSTYLE
  5
A
330
0
100
AcDbSymbolTable
 70
     1
100
AcDbDimStyleTable
  0
DIMSTYLE
105
27
330
A
100
AcDbSymbolTableRecord
100
AcDbDimStyleTableRecord
  2
Standard
 70
     0
178
     0
340
11
  0
ENDTAB
  0
TABLE
  2
BLOCK_RECORD
  5
1
330
0
100
AcDbSymbolTable
 70
     5
  0
BLOCK_RECORD
  5
1F
330
1
100
AcDbSymbolTableRecord
100
AcDbBlockTableRecord
  2
*Model_Space
340
22
 70
     0
280
     1
281
     0
  0
BLOCK_RECORD
  5
1B
330
1
100
AcDbSymbolTableRecord
100
AcDbBlockTableRecord
  2
*Paper_Space
340
1E
 70
     0
280
     1
281
     0
  0
BLOCK_RECORD
  5
23
330
1
100
AcDbSymbolTableRecord
100
AcDbBlockTableRecord
  2
*Paper_Space0
340
26
 70
     0
280
     1
281
     0
  0
BLOCK_RECORD
  5
6E
330
1
100
AcDbSymbolTableRecord
100
AcDbBlockTableRecord
  2
1_127528_2
340
0
102
{BLKREFS
331
6F
102
}
 70
     0
280
     1
281
     0
  0
BLOCK_RECORD
  5
87
330
1
100
AcDbSymbolTableRecord
100
AcDbBlockTableRecord
  2
2_405020c_Inch_0_in_127528_2
340
0
102
{BLKREFS
331
88
102
}
 70
     0
280
     1
281
     0
  0
BLOCK_RECORD
  5
D5
330
1
100
AcDbSymbolTableRecord
100
AcDbBlockTableRecord
  2
3_045412_0_in_127528_2
340
0
102
{BLKREFS
331
D6
102
}
 70
     0
280
     1
281
     0
  0
BLOCK_RECORD
  5
133
330
1
100
AcDbSymbolTableRecord
100
AcDbBlockTableRecord
  2
4_127528H_0_in_127528_2
340
0
102
{BLKREFS
331
134
102
}
 70
     0
280
     1
281
     0
  0
ENDTAB
  0
ENDSEC
  0
SECTION
  2
BLOCKS
  0
BLOCK
  5
20
330
1F
100
AcDbEntity
  8
0
100
AcDbBlockBegin
  2
*Model_Space
 70
     0
 10
0.0
 20
0.0
 30
0.0
  3
*Model_Space
  1

  0
ENDBLK
  5
21
330
1F
100
AcDbEntity
  8
0
100
AcDbBlockEnd
  0
BLOCK
  5
1C
330
1B
100
AcDbEntity
 67
     1
  8
0
100
AcDbBlockBegin
  2
*Paper_Space
 70
     0
 10
0.0
 20
0.0
 30
0.0
  3
*Paper_Space
  1

  0
ENDBLK
  5
1D
330
1B
100
AcDbEntity
 67
     1
  8
0
100
AcDbBlockEnd
  0
BLOCK
  5
24
330
23
100
AcDbEntity
  8
0
100
AcDbBlockBegin
  2
*Paper_Space0
 70
     0
 10
0.0
 20
0.0
 30
0.0
  3
*Paper_Space0
  1

  0
ENDBLK
  5
25
330
23
100
AcDbEntity
  8
0
100
AcDbBlockEnd
  0
BLOCK
  5
70
330
6E
100
AcDbEntity
  8
0
100
AcDbBlockBegin
  2
1_127528_2
 70
     2
 10
0.0
 20
0.0
 30
0.0
  3
1_127528_2
  1

  0
ATTDEF
  5
73
330
6E
100
AcDbEntity
  8
AM_6
100
AcDbText
 10
5.06855
 20
3.154999999999999
 30
0.0
 40
0.5
  1
Set Screw Two-Bolt Flange Inch Bore - Polymer Housing, Corrosion Resistant Insert
100
AcDbAttributeDefinition
  3

  2
NN
 70
     8
280
     0
  0
ATTDEF
  5
74
330
6E
100
AcDbEntity
  8
AM_6
100
AcDbText
 10
5.06855
 20
2.654999999999999
 30
0.0
 40
0.5
  1
SC 2 Bolt Flange Bearings -(Normal Duty) -Corrosion Resistant Insert -Polymer Housed -E-Z KLEEN
100
AcDbAttributeDefinition
  3

  2
NT
 70
     8
280
     0
  0
ATTDEF
  5
75
330
6E
100
AcDbEntity
  8
AM_6
100
AcDbText
 10
5.06855
 20
2.154999999999999
 30
0.0
 40
0.5
  1
127528
100
AcDbAttributeDefinition
  3

  2
NB
 70
     8
280
     0
  0
ATTDEF
  5
76
330
6E
100
AcDbEntity
  8
AM_6
100
AcDbText
 10
5.06855
 20
1.654999999999999
 30
0.0
 40
0.5
  1
$PN.
100
AcDbAttributeDefinition
  3

  2
NBSYN
 70
     8
280
     0
  0
ATTDEF
  5
77
330
6E
100
AcDbEntity
  8
AM_6
100
AcDbText
 10
5.06855
 20
1.154999999999999
 30
0.0
 40
0.5
  1
127528
100
AcDbAttributeDefinition
  3

  2
LINA
 70
     8
280
     0
  0
ATTDEF
  5
78
330
6E
100
AcDbEntity
  8
AM_6
100
AcDbText
 10
5.06855
 20
0.6549999999999994
 30
0.0
 40
0.5
  1
207
100
AcDbAttributeDefinition
  3

  2
SERIES
 70
     8
280
     0
  0
ATTDEF
  5
79
330
6E
100
AcDbEntity
  8
AM_6
100
AcDbText
 10
5.06855
 20
0.1549999999999994
 30
0.0
 40
0.5
  1
1-1/4
100
AcDbAttributeDefinition
  3

  2
SS
 70
     8
280
     0
  0
ATTDEF
  5
7A
330
6E
100
AcDbEntity
  8
AM_6
100
AcDbText
 10
5.06855
 20
-0.3450000000000006
 30
0.0
 40
0.5
  1
127528
100
AcDbAttributeDefinition
  3

  2
PN
 70
     8
280
     0
  0
ATTDEF
  5
7B
330
6E
100
AcDbEntity
  8
AM_6
100
AcDbText
 10
5.06855
 20
-0.8450000000000006
 30
0.0
 40
0.5
  1
F2B-SCEZ-104-PCR
100
AcDbAttributeDefinition
  3

  2
DESCRIPTION
 70
     8
280
     0
  0
ATTDEF
  5
7C
330
6E
100
AcDbEntity
  8
AM_6
100
AcDbText
 10
5.06855
 20
-1.345000000000001
 30
0.0
 40
0.5
  1
1.36
100
AcDbAttributeDefinition
  3

  2
W
 70
     8
280
     0
  0
ATTDEF
  5
7D
330
6E
100
AcDbEntity
  8
AM_6
100
AcDbText
 10
5.06855
 20
-1.845000000000001
 30
0.0
 40
0.5
  1
1.71
100
AcDbAttributeDefinition
  3

  2
A
 70
     8
280
     0
  0
ATTDEF
  5
7E
330
6E
100
AcDbEntity
  8
AM_6
100
AcDbText
 10
5.06855
 20
-2.345000000000001
 30
0.0
 40
0.5
  1
6.31
100
AcDbAttributeDefinition
  3

  2
B
 70
     8
280
     0
  0
ATTDEF
  5
7F
330
6E
100
AcDbEntity
  8
AM_6
100
AcDbText
 10
5.06855
 20
-2.845000000000001
 30
0.0
 40
0.5
  1
1.82
100
AcDbAttributeDefinition
  3

  2
C
 70
     8
280
     0
  0
ATTDEF
  5
80
330
6E
100
AcDbEntity
  8
AM_6
100
AcDbText
 10
5.06855
 20
-3.345000000000001
 30
0.0
 40
0.5
  1
5.12
100
AcDbAttributeDefinition
  3

  2
D
 70
     8
280
     0
  0
ATTDEF
  5
81
330
6E
100
AcDbEntity
  8
AM_6
100
AcDbText
 10
5.06855
 20
-3.845000000000001
 30
0.0
 40
0.5
  1
1/2
100
AcDbAttributeDefinition
  3

  2
F
 70
     8
280
     0
  0
ATTDEF
  5
82
330
6E
100
AcDbEntity
  8
AM_6
100
AcDbText
 10
5.06855
 20
-4.345000000000001
 30
0.0
 40
0.5
  1
0.62
100
AcDbAttributeDefinition
  3

  2
H
 70
     8
280
     0
  0
ATTDEF
  5
83
330
6E
100
AcDbEntity
  8
AM_6
100
AcDbText
 10
5.06855
 20
-4.845000000000001
 30
0.0
 40
0.5
  1
0.54
100
AcDbAttributeDefinition
  3

  2
J
 70
     8
280
     0
  0
ATTDEF
  5
84
330
6E
100
AcDbEntity
  8
AM_6
100
AcDbText
 10
5.06855
 20
-5.345000000000001
 30
0.0
 40
0.5
  1
1.84
100
AcDbAttributeDefinition
  3

  2
L
 70
     8
280
     0
  0
ATTDEF
  5
85
330
6E
100
AcDbEntity
  8
AM_6
100
AcDbText
 10
5.06855
 20
-5.845000000000001
 30
0.0
 40
0.5
  1
3.69
100
AcDbAttributeDefinition
  3

  2
M
 70
     8
280
     0
  0
ATTDEF
  5
86
330
6E
100
AcDbEntity
  8
AM_6
100
AcDbText
 10
5.06855
 20
-6.345000000000001
 30
0.0
 40
0.5
  1
baldor
100
AcDbAttributeDefinition
  3

  2
COMPANY
 70
     8
280
     0
  0
INSERT
  5
88
330
6E
100
AcDbEntity
  8
0
100
AcDbBlockReference
  2
2_405020c_Inch_0_in_127528_2
 10
0.0
 20
0.0
 30
0.0
  0
INSERT
  5
D6
330
6E
100
AcDbEntity
  8
0
100
AcDbBlockReference
  2
3_045412_0_in_127528_2
 10
0.0
 20
0.0
 30
0.0
  0
INSERT
  5
134
330
6E
100
AcDbEntity
  8
0
100
AcDbBlockReference
  2
4_127528H_0_in_127528_2
 10
0.0
 20
0.0
 30
0.0
  0
ENDBLK
  5
71
330
6E
100
AcDbEntity
  8
0
100
AcDbBlockEnd
  0
BLOCK
  5
89
330
87
100
AcDbEntity
  8
0
100
AcDbBlockBegin
  2
2_405020c_Inch_0_in_127528_2
 70
     2
 10
0.0
 20
0.0
 30
0.0
  3
2_405020c_Inch_0_in_127528_2
  1

  0
ATTDEF
  5
8B
330
87
100
AcDbEntity
  8
AM_6
100
AcDbText
 10
4.190650000000003
 20
1.613024955685048
 30
0.0
 40
0.5
  1
405020C -Inch
100
AcDbAttributeDefinition
  3

  2
NN
 70
     8
280
     0
  0
ATTDEF
  5
8C
330
87
100
AcDbEntity
  8
AM_6
100
AcDbText
 10
4.190650000000003
 20
1.113024955685048
 30
0.0
 40
0.5
  1
Grease fitting
100
AcDbAttributeDefinition
  3

  2
NT
 70
     8
280
     0
  0
ATTDEF
  5
8D
330
87
100
AcDbEntity
  8
AM_6
100
AcDbText
 10
4.190650000000003
 20
0.6130249556850482
 30
0.0
 40
0.5
  1
405020c-Inch
100
AcDbAttributeDefinition
  3

  2
NB
 70
     8
280
     0
  0
ATTDEF
  5
8E
330
87
100
AcDbEntity
  8
AM_6
100
AcDbText
 10
4.190650000000003
 20
0.1130249556850482
 30
0.0
 40
0.5
  1
$MN.-Inch
100
AcDbAttributeDefinition
  3

  2
NBSYN
 70
     8
280
     0
  0
ATTDEF
  5
8F
330
87
100
AcDbEntity
  8
AM_6
100
AcDbText
 10
4.190650000000003
 20
-0.3869750443149518
 30
0.0
 40
0.5
  1
405020c
100
AcDbAttributeDefinition
  3

  2
LINA
 70
     8
280
     0
  0
ATTDEF
  5
90
330
87
100
AcDbEntity
  8
AM_6
100
AcDbText
 10
4.190650000000003
 20
-0.8869750443149518
 30
0.0
 40
0.5
  1
405020c
100
AcDbAttributeDefinition
  3

  2
MN
 70
     8
280
     0
  0
ATTDEF
  5
91
330
87
100
AcDbEntity
  8
AM_6
100
AcDbText
 10
4.190650000000003
 20
-1.386975044314952
 30
0.0
 40
0.5
  1
0.230
100
AcDbAttributeDefinition
  3

  2
NDR
 70
     8
280
     0
  0
ATTDEF
  5
92
330
87
100
AcDbEntity
  8
AM_6
100
AcDbText
 10
4.190650000000003
 20
-1.886975044314952
 30
0.0
 40
0.5
  1
0.210
100
AcDbAttributeDefinition
  3

  2
KDR
 70
     8
280
     0
  0
ATTDEF
  5
93
330
87
100
AcDbEntity
  8
AM_6
100
AcDbText
 10
4.190650000000003
 20
-2.386975044314952
 30
0.0
 40
0.5
  1
0.157
100
AcDbAttributeDefinition
  3

  2
BZE
 70
     8
280
     0
  0
ATTDEF
  5
94
330
87
100
AcDbEntity
  8
AM_6
100
AcDbText
 10
4.190650000000003
 20
-2.886975044314952
 30
0.0
 40
0.5
  1
9/32
100
AcDbAttributeDefinition
  3

  2
WAF
 70
     8
280
     0
  0
ATTDEF
  5
95
330
87
100
AcDbEntity
  8
AM_6
100
AcDbText
 10
4.190650000000003
 20
-3.386975044314952
 30
0.0
 40
0.5
  1
0.2813
100
AcDbAttributeDefinition
  3

  2
WAF1
 70
     8
280
     0
  0
ATTDEF
  5
96
330
87
100
AcDbEntity
  8
AM_6
100
AcDbText
 10
4.190650000000003
 20
-3.886975044314952
 30
0.0
 40
0.5
  1
0.545
100
AcDbAttributeDefinition
  3

  2
BL
 70
     8
280
     0
  0
ATTDEF
  5
97
330
87
100
AcDbEntity
  8
AM_6
100
AcDbText
 10
4.190650000000003
 20
-4.386975044314951
 30
0.0
 40
0.5
  1
0.200
100
AcDbAttributeDefinition
  3

  2
TL
 70
     8
280
     0
  0
ATTDEF
  5
98
330
87
100
AcDbEntity
  8
AM_6
100
AcDbText
 10
4.190650000000003
 20
-4.886975044314951
 30
0.0
 40
0.5
  1
baldor
100
AcDbAttributeDefinition
  3

  2
COMPANY
 70
     8
280
     0
  0
LWPOLYLINE
  5
9B
330
87
100
AcDbEntity
  8
AM_9
100
AcDbPolyline
 90
        3
 70
     0
 43
0.0
 10
-0.9499999999999998
 20
1.42357483467731
 10
-0.9149956000683008
 20
1.406259531423702
 10
-0.879675
 20
1.390742194369794
  0
LWPOLYLINE
  5
9C
330
87
100
AcDbEntity
  8
AM_9
100
AcDbPolyline
 90
        3
 70
     0
 43
0.0
 10
-1.020325
 20
1.390742194369794
 10
-0.9851624999999998
 20
1.406185374158143
 10
-0.9499999999999998
 20
1.42357483467731
  0
ELLIPSE
  5
9D
330
87
100
AcDbEntity
  8
AM_9
100
AcDbEllipse
 10
-0.9499999999999998
 20
1.163190655051871
 30
0.0
 11
0.1000886227036577
 21
0.0
 31
0.0
210
0.0
220
0.0
230
1.0
 40
0.7071067811865474
 41
0.0
 42
6.283185307179586
  0
LWPOLYLINE
  5
9E
330
87
100
AcDbEntity
  8
AM_9
100
AcDbPolyline
 90
        3
 70
     0
 43
0.0
 10
-0.8796749999999998
 20
1.437882646448897
 10
-0.9148374999999999
 20
1.451149527687419
 10
-0.9499999999999998
 20
1.462470128195124
  0
LWPOLYLINE
  5
9F
330
87
100
AcDbEntity
  8
AM_9
100
AcDbPolyline
 90
        3
 70
     0
 43
0.0
 10
-0.9499999999999998
 20
1.462470128195124
 10
-0.9850043999316987
 20
1.451204458587072
 10
-1.020325
 20
1.437882646448897
  0
LWPOLYLINE
  5
A0
330
87
100
AcDbEntity
  8
AM_9
100
AcDbPolyline
 90
        3
 70
     0
 43
0.0
 10
-1.09065
 20
1.366154712623567
 10
-1.055645600068301
 20
1.377420382231618
 10
-1.020325
 20
1.390742194369794
  0
LINE
  5
A1
330
87
100
AcDbEntity
  8
AM_9
100
AcDbLine
 10
-0.9499999999999998
 20
1.462470128195124
 30
0.0
 11
-0.9499999999999998
 21
1.42357483467731
 31
0.0
  0
LWPOLYLINE
  5
A2
330
87
100
AcDbEntity
  8
AM_9
100
AcDbPolyline
 90
        3
 70
     0
 43
0.0
 10
-0.879675
 20
1.390742194369794
 10
-0.8445124999999998
 20
1.377475313131272
 10
-0.8093499999999998
 20
1.366154712623567
  0
LWPOLYLINE
  5
A3
330
87
100
AcDbEntity
  8
AM_9
100
AcDbPolyline
 90
        3
 70
     0
 43
0.0
 10
-1.020325
 20
1.437882646448897
 10
-1.0554875
 20
1.422439466660548
 10
-1.06518952360919
 20
1.417816610394761
  0
LWPOLYLINE
  5
A4
330
87
100
AcDbEntity
  8
AM_9
100
AcDbPolyline
 90
        3
 70
     0
 43
0.0
 10
-0.8348092060604435
 20
1.41781599572588
 10
-0.8443543999316988
 20
1.422365309394989
 10
-0.8796749999999998
 20
1.437882646448897
  0
LINE
  5
A5
330
87
100
AcDbEntity
  8
AM_9
100
AcDbLine
 10
-0.8396376731557812
 20
1.168053397514156
 30
0.0
 11
-0.8337130109081056
 21
1.302041023372364
 31
0.0
  0
LINE
  5
A6
330
87
100
AcDbEntity
  8
AM_9
100
AcDbLine
 10
-1.066286989091894
 20
1.302041023372364
 30
0.0
 11
-1.060362326844218
 21
1.168053397514156
 31
0.0
  0
ELLIPSE
  5
A7
330
87
100
AcDbEntity
  8
AM_9
100
AcDbEllipse
 10
-0.9500000000000015
 20
1.351752463368277
 30
0.0
 11
-0.1406500000000022
 21
1.722465723000779E-17
 31
0.0
210
0.0
220
0.0
230
1.0
 40
0.7071067811865793
 41
3.798906696793644
 42
4.544687665947271
  0
ELLIPSE
  5
A8
330
87
100
AcDbEntity
  8
AM_9
100
AcDbEllipse
 10
-0.9499999999999987
 20
1.351752463368255
 30
0.0
 11
-0.1406500000000407
 21
1.722465723001251E-17
 31
0.0
210
0.0
220
0.0
230
1.0
 40
0.7071067811865482
 41
4.642931468930099
 42
5.625871263975537
  0
ELLIPSE
  5
A9
330
87
100
AcDbEntity
  8
AM_9
100
AcDbEllipse
 10
-0.9499999999999968
 20
1.373899436253814
 30
0.0
 11
-0.1093294505797751
 21
1.338899617050603E-17
 31
0.0
210
0.0
220
0.0
230
1.0
 40
0.7071067811865475
 41
5.382855324275606
 42
5.928986666165865
  0
ELLIPSE
  5
AA
330
87
100
AcDbEntity
  8
AM_9
100
AcDbEllipse
 10
-0.9500000000000004
 20
1.373899436253814
 30
0.0
 11
-0.1093294505797722
 21
1.338899617050567E-17
 31
0.0
210
0.0
220
0.0
230
1.0
 40
0.7071067811865539
 41
3.495791294603523
 42
4.068043470056772
  0
LWPOLYLINE
  5
AB
330
87
100
AcDbEntity
  8
AM_9
100
AcDbPolyline
 90
        4
 70
     0
 43
0.0
 10
-0.8582764803553137
 20
1.387227282261114
 10
-0.8584490023767154
 20
1.386885031034707
 10
-0.8610853779156482
 20
1.382485919341535
 10
-0.8619322843786068
 20
1.381296636352627
  0
LWPOLYLINE
  5
AC
330
87
100
AcDbEntity
  8
AM_9
100
AcDbPolyline
 90
       19
 70
     0
 43
0.0
 10
-0.9499999999999998
 20
1.451207032142172
 10
-0.9445265678872432
 20
1.451110080801034
 10
-0.9335483161344978
 20
1.450325930013431
 10
-0.9228193358978733
 20
1.448773276664326
 10
-0.9125100469473018
 20
1.446494014261371
 10
-0.9027761200769797
 20
1.443550476971093
 10
-0.8937591770796277
 20
1.440024779482304
 10
-0.8855818923411912
 20
1.436017225934345
 10
-0.8783427554979566
 20
1.431643565585271
 10
-0.8721107266358575
 20
1.427030532139926
 10
-0.8669287244877332
 20
1.422317450899873
 10
-0.8627921841696371
 20
1.417634075170346
 10
-0.8596545865320626
 20
1.413087666425814
 10
-0.8574326426397655
 20
1.408737826648223
 10
-0.8560243223188119
 20
1.404553769407289
 10
-0.855361024710462
 20
1.40033069303489
 10
-0.855568731674241
 20
1.395527930084735
 10
-0.8566262669247928
 20
1.391186226428368
 10
-0.8582764803553137
 20
1.387227282261114
  0
LWPOLYLINE
  5
AD
330
87
100
AcDbEntity
  8
AM_9
100
AcDbPolyline
 90
       19
 70
     0
 43
0.0
 10
-1.042044948368285
 20
1.387891652823047
 10
-1.043594336057255
 20
1.391872953477709
 10
-1.044502768377728
 20
1.396043983182933
 10
-1.044622545621642
 20
1.400567890464914
 10
-1.04384389245146
 20
1.405061407033959
 10
-1.042301856380766
 20
1.409347624054808
 10
-1.039967350550012
 20
1.4137068041795
 10
-1.036779861524927
 20
1.41817278657582
 10
-1.032253997762207
 20
1.423130476822452
 10
-1.026706340905893
 20
1.427981179954229
 10
-1.020152459500417
 20
1.432628727081821
 10
-1.012632471917099
 20
1.43696789770166
 10
-1.004220325872206
 20
1.440889293731651
 10
-0.9950201257784532
 20
1.444290001211189
 10
-0.9851494341964792
 20
1.447083261805339
 10
-0.9747448411970893
 20
1.44919648616184
 10
-0.9639577882511468
 20
1.450574003800654
 10
-0.9529503959378585
 20
1.451178876182745
 10
-0.9499999999999998
 20
1.451207032142172
  0
LWPOLYLINE
  5
AE
330
87
100
AcDbEntity
  8
AM_9
100
AcDbPolyline
 90
        4
 70
     0
 43
0.0
 10
-1.038056381176614
 20
1.381281251570735
 10
-1.039414465927839
 20
1.383228783056158
 10
-1.041928069785303
 20
1.387645785143304
 10
-1.042044948368285
 20
1.387891652823047
  0
ELLIPSE
  5
AF
330
87
100
AcDbEntity
  8
AM_9
100
AcDbEllipse
 10
-0.9499999999999996
 20
1.413841248190322
 30
0.0
 11
-0.09936940028726593
 21
1.216924179949923E-17
 31
0.0
210
0.0
220
0.0
230
1.0
 40
0.7071067811865475
 41
2.656480407116012
 42
4.71238898038469
  0
ELLIPSE
  5
B0
330
87
100
AcDbEntity
  8
AM_9
100
AcDbEllipse
 10
-0.9499999999999998
 20
1.462172576894798
 30
0.0
 11
-0.1312419113468904
 21
1.607249866449501E-17
 31
0.0
210
0.0
220
0.0
230
1.0
 40
0.7071067811865477
 41
2.656480407116011
 42
4.71238898038469
  0
ELLIPSE
  5
B1
330
87
100
AcDbEntity
  8
AM_9
100
AcDbEllipse
 10
-0.9499999999999992
 20
1.490928820360074
 30
0.0
 11
-0.1319517646676812
 21
1.615943062421206E-17
 31
0.0
210
0.0
220
0.0
230
1.0
 40
0.7071067811865474
 41
3.587647615149292
 42
5.835311832353414
  0
ELLIPSE
  5
B2
330
87
100
AcDbEntity
  8
AM_9
100
AcDbEllipse
 10
-0.9499999999999994
 20
1.537793397033261
 30
0.0
 11
-0.1038190510530398
 21
1.271416685626208E-17
 31
0.0
210
0.0
220
0.0
230
1.0
 40
0.7071067811865436
 41
3.579974428543803
 42
5.769556150345368
  0
ELLIPSE
  5
B3
330
87
100
AcDbEntity
  8
AM_9
100
AcDbEllipse
 10
-0.9500000000010835
 20
1.537793397033655
 30
0.0
 11
-0.1038190510518211
 21
1.547024427429652E-9
 31
0.0
210
0.0
220
0.0
230
1.0
 40
0.7071067811865478
 41
-0.4873892034069272
 42
-0.4553918772061305
  0
ELLIPSE
  5
B4
330
87
100
AcDbEntity
  8
AM_9
100
AcDbEllipse
 10
-0.9499999999999995
 20
1.304612011289181
 30
0.0
 11
-0.1163438171532767
 21
1.424800832773452E-17
 31
0.0
210
0.0
220
0.0
230
1.0
 40
0.707106781186548
 41
0.0
 42
6.283185307179586
  0
ELLIPSE
  5
B5
330
87
100
AcDbEntity
  8
AM_9
100
AcDbEllipse
 10
-0.9499999999999998
 20
1.170493397130657
 30
0.0
 11
-0.1104162595939889
 21
1.352209188856018E-17
 31
0.0
210
0.0
220
0.0
230
1.0
 40
0.7071067811865485
 41
0.0
 42
6.283185307179586
  0
ELLIPSE
  5
B6
330
87
100
AcDbEntity
  8
AM_9
100
AcDbEllipse
 10
-0.9499999999999981
 20
1.304612011289181
 30
0.0
 11
-0.1406500000000018
 21
1.722465723000775E-17
 31
0.0
210
0.0
220
0.0
230
1.0
 40
0.7071067811865462
 41
0.0
 42
6.283185307179586
  0
LINE
  5
B8
330
87
100
AcDbEntity
  8
AM_4
100
AcDbLine
 10
-1.06518952360919
 20
1.417816610394761
 30
0.0
 11
-1.09065
 21
1.405050006141381
 31
0.0
  0
LINE
  5
B9
330
87
100
AcDbEntity
  8
AM_4
100
AcDbLine
 10
-0.8093499999999998
 20
1.405050006141381
 30
0.0
 11
-0.8348092060604435
 21
1.41781599572588
 31
0.0
  0
LINE
  5
BA
330
87
100
AcDbEntity
  8
AM_4
100
AcDbLine
 10
-1.09065
 20
1.405050006141381
 30
0.0
 11
-1.09065
 21
1.251314468516083
 31
0.0
  0
LWPOLYLINE
  5
BB
330
87
100
AcDbEntity
  8
AM_4
100
AcDbPolyline
 90
        3
 70
     0
 43
0.0
 10
-1.020325
 20
1.218481828208567
 10
-1.0554875
 20
1.233925007996916
 10
-1.09065
 20
1.251314468516083
  0
LWPOLYLINE
  5
BC
330
87
100
AcDbEntity
  8
AM_4
100
AcDbPolyline
 90
        3
 70
     0
 43
0.0
 10
-0.9499999999999998
 20
1.19389434646234
 10
-0.9850043999316987
 20
1.205160016070391
 10
-1.020325
 20
1.218481828208567
  0
LWPOLYLINE
  5
BD
330
87
100
AcDbEntity
  8
AM_4
100
AcDbPolyline
 90
        3
 70
     0
 43
0.0
 10
-1.09065
 20
1.290209762033897
 10
-1.055645600068301
 20
1.278944092425846
 10
-1.020325
 20
1.26562228028767
  0
LINE
  5
BE
330
87
100
AcDbEntity
  8
AM_4
100
AcDbLine
 10
-0.9499999999999998
 20
1.232789639980154
 30
0.0
 11
-0.9499999999999998
 21
1.19389434646234
 31
0.0
  0
LWPOLYLINE
  5
BF
330
87
100
AcDbEntity
  8
AM_4
100
AcDbPolyline
 90
        3
 70
     0
 43
0.0
 10
-0.879675
 20
1.218481828208567
 10
-0.9148374999999999
 20
1.205214946970045
 10
-0.9499999999999998
 20
1.19389434646234
  0
LWPOLYLINE
  5
C0
330
87
100
AcDbEntity
  8
AM_4
100
AcDbPolyline
 90
        3
 70
     0
 43
0.0
 10
-0.8093499999999998
 20
1.251314468516083
 10
-0.8443543999316988
 20
1.233999165262475
 10
-0.879675
 20
1.218481828208567
  0
LINE
  5
C1
330
87
100
AcDbEntity
  8
AM_4
100
AcDbLine
 10
-0.8093499999999998
 20
1.405050006141381
 30
0.0
 11
-0.8093499999999998
 21
1.251314468516083
 31
0.0
  0
LWPOLYLINE
  5
C2
330
87
100
AcDbEntity
  8
AM_4
100
AcDbPolyline
 90
        3
 70
     0
 43
0.0
 10
-0.8796749999999998
 20
1.26562228028767
 10
-0.8445124999999998
 20
1.278889161526192
 10
-0.8093499999999998
 20
1.290209762033897
  0
LWPOLYLINE
  5
C3
330
87
100
AcDbEntity
  8
AM_4
100
AcDbPolyline
 90
        3
 70
     0
 43
0.0
 10
-1.020325
 20
1.26562228028767
 10
-0.9851624999999998
 20
1.250179100499321
 10
-0.9499999999999998
 20
1.232789639980154
  0
LWPOLYLINE
  5
C4
330
87
100
AcDbEntity
  8
AM_4
100
AcDbPolyline
 90
        3
 70
     0
 43
0.0
 10
-0.9499999999999998
 20
1.232789639980154
 10
-0.9149956000683008
 20
1.250104943233762
 10
-0.8796749999999998
 20
1.26562228028767
  0
ELLIPSE
  5
C5
330
87
100
AcDbEntity
  8
AM_4
100
AcDbEllipse
 10
-0.9500000000000012
 20
1.351752463368285
 30
0.0
 11
-0.1406499999999987
 21
1.722465723000737E-17
 31
0.0
210
0.0
220
0.0
230
1.0
 40
0.7071067811865446
 41
5.625871263975762
 42
10.08209200397319
  0
ELLIPSE
  5
C6
330
87
100
AcDbEntity
  8
AM_4
100
AcDbEllipse
 10
-0.9499999999999998
 20
1.373899436253815
 30
0.0
 11
-0.1093294505797712
 21
1.338899617050555E-17
 31
0.0
210
0.0
220
0.0
230
1.0
 40
0.7071067811865481
 41
5.928986666165874
 42
9.77897660178309
  0
LINE
  5
C7
330
87
100
AcDbEntity
  8
AM_4
100
AcDbLine
 10
-0.8620955814367076
 20
1.38107624467666
 30
0.0
 11
-0.8339004374109928
 21
1.418898272390702
 31
0.0
  0
LINE
  5
C8
330
87
100
AcDbEntity
  8
AM_4
100
AcDbLine
 10
-1.066099562589007
 20
1.418898272390702
 30
0.0
 11
-1.037904418563292
 21
1.38107624467666
 31
0.0
  0
ELLIPSE
  5
C9
330
87
100
AcDbEntity
  8
AM_4
100
AcDbEllipse
 10
-0.9499999999999998
 20
1.413841248190322
 30
0.0
 11
-0.09936940028726615
 21
1.216924179949926E-17
 31
0.0
210
0.0
220
0.0
230
1.0
 40
0.7071067811865481
 41
0.48511224647378
 42
2.656480407116014
  0
LWPOLYLINE
  5
CA
330
87
100
AcDbEntity
  8
AM_4
100
AcDbPolyline
 90
       13
 70
     0
 43
0.0
 10
-1.068796733222223
 20
1.531543401266261
 10
-1.069947517907735
 20
1.529813959765333
 10
-1.075879308373921
 20
1.519435659870429
 10
-1.080446521640175
 20
1.508672198562999
 10
-1.083633891789866
 20
1.497662556796993
 10
-1.085448106817338
 20
1.486536392396104
 10
-1.085910944030921
 20
1.475412575064392
 10
-1.085053732229006
 20
1.464398671281127
 10
-1.082915496485527
 20
1.453601065158862
 10
-1.079539261169583
 20
1.443109040433299
 10
-1.074965788971034
 20
1.432996610397519
 10
-1.069232582874525
 20
1.423331707027119
 10
-1.06600668060213
 20
1.418773864168316
  0
LWPOLYLINE
  5
CB
330
87
100
AcDbEntity
  8
AM_4
100
AcDbPolyline
 90
       13
 70
     0
 43
0.0
 10
-0.8344973231841124
 20
1.418105228066903
 10
-0.8329516141105435
 20
1.420191079194263
 10
-0.8264561688116178
 20
1.430363843839587
 10
-0.8213104454461678
 20
1.440982364470757
 10
-0.8175412456928537
 20
1.451904646969895
 10
-0.8151502257093189
 20
1.462996835572019
 10
-0.8141212175216378
 20
1.474135414183889
 10
-0.8144263198900485
 20
1.485208026140558
 10
-0.8160300174406656
 20
1.496110022244487
 10
-0.8188896706975534
 20
1.506740328933913
 10
-0.8229633594586071
 20
1.517021273690999
 10
-0.828212209120266
 20
1.526882835130807
 10
-0.8310801053807647
 20
1.531361804840028
  0
ELLIPSE
  5
CC
330
87
100
AcDbEntity
  8
AM_4
100
AcDbEllipse
 10
-0.9499999999999998
 20
1.462172576894798
 30
0.0
 11
-0.1312419113468907
 21
1.607249866449504E-17
 31
0.0
210
0.0
220
0.0
230
1.0
 40
0.7071067811865465
 41
0.4860270895522953
 42
2.648783666238423
  0
ELLIPSE
  5
CD
330
87
100
AcDbEntity
  8
AM_4
100
AcDbEllipse
 10
-0.9499999999999998
 20
1.548563850798539
 30
0.0
 11
0.08080642971672802
 21
0.0
 31
0.0
210
0.0
220
0.0
230
1.0
 40
0.7071067811865462
 41
0.0
 42
6.283185307179586
  0
LWPOLYLINE
  5
CE
330
87
100
AcDbEntity
  8
AM_4
100
AcDbPolyline
 90
       11
 70
     0
 43
0.0
 10
-0.9499999999999998
 20
1.613024955685048
 10
-0.9565913798682866
 20
1.612868826207527
 10
-0.9684115818781351
 20
1.611798181513244
 10
-0.9800329056069962
 20
1.609715462193895
 10
-0.9913159466844103
 20
1.606630667610422
 10
-1.002124990215452
 20
1.60255966839365
 10
-1.0123215555955
 20
1.597526401563839
 10
-1.021757956984752
 20
1.591570375781226
 10
-1.030282783564885
 20
1.584752918032282
 10
-1.037748707415196
 20
1.577163174430425
 10
-1.043113545767625
 20
1.570265076115355
  0
LWPOLYLINE
  5
CF
330
87
100
AcDbEntity
  8
AM_4
100
AcDbPolyline
 90
       12
 70
     0
 43
0.0
 10
-0.8562724548313793
 20
1.569365517189152
 10
-0.8600301198190078
 20
1.57449241966422
 10
-0.866727073366325
 20
1.581933494310142
 10
-0.8744901160398505
 20
1.588766865465389
 10
-0.8832365018686412
 20
1.594899581656025
 10
-0.8928559025171303
 20
1.600242447642879
 10
-0.9032159960358611
 20
1.604718784606144
 10
-0.9141722152636538
 20
1.608269392035451
 10
-0.9255728316838989
 20
1.610852060246857
 10
-0.9372733879361811
 20
1.61244127706829
 10
-0.9485201984939642
 20
1.613017093954875
 10
-0.9499999999999998
 20
1.613024955685048
  0
LINE
  5
D0
330
87
100
AcDbEntity
  8
AM_4
100
AcDbLine
 10
-1.04400189503009
 20
1.568954583566394
 30
0.0
 11
-1.0694743720494
 21
1.530534013342286
 31
0.0
  0
LINE
  5
D1
330
87
100
AcDbEntity
  8
AM_4
100
AcDbLine
 10
-0.8305256279505998
 20
1.530534013342286
 30
0.0
 11
-0.8559981049699094
 21
1.568954583566394
 31
0.0
  0
ELLIPSE
  5
D2
330
87
100
AcDbEntity
  8
AM_4
100
AcDbEllipse
 10
-0.9499999999999997
 20
1.490928820360075
 30
0.0
 11
-0.13195176466768
 21
1.615943062421191E-17
 31
0.0
210
0.0
220
0.0
230
1.0
 40
0.7071067811865489
 41
5.844803532225582
 42
9.863159735723384
  0
ELLIPSE
  5
D3
330
87
100
AcDbEntity
  8
AM_4
100
AcDbEllipse
 10
-0.9499999999999997
 20
1.537793397033262
 30
0.0
 11
-0.1038190510530388
 21
1.271416685626196E-17
 31
0.0
210
0.0
220
0.0
230
1.0
 40
0.7071067811865482
 41
5.844803532225583
 42
9.863159735723382
  0
ELLIPSE
  5
D4
330
87
100
AcDbEntity
  8
AM_4
100
AcDbEllipse
 10
-0.950000000002123
 20
1.537793397033982
 30
0.0
 11
-0.1038190510506843
 21
1.271416685597362E-17
 31
0.0
210
0.0
220
0.0
230
1.0
 40
0.7071067811865479
 41
-0.4553918962417756
 42
-0.4383817749538039
  0
ENDBLK
  5
8A
330
87
100
AcDbEntity
  8
0
100
AcDbBlockEnd
  0
BLOCK
  5
D7
330
D5
100
AcDbEntity
  8
0
100
AcDbBlockBegin
  2
3_045412_0_in_127528_2
 70
     2
 10
0.0
 20
0.0
 30
0.0
  3
3_045412_0_in_127528_2
  1

  0
ATTDEF
  5
D9
330
D5
100
AcDbEntity
  8
AM_6
100
AcDbText
 10
4.89
 20
1.50779
 30
0.0
 40
0.5
  1
Set Screw Insert Inch Bore - Corrosion Resistant
100
AcDbAttributeDefinition
  3

  2
NN
 70
     8
280
     0
  0
ATTDEF
  5
DA
330
D5
100
AcDbEntity
  8
AM_6
100
AcDbText
 10
4.89
 20
1.00779
 30
0.0
 40
0.5
  1
SC Normal Duty Bearing Inserts
100
AcDbAttributeDefinition
  3

  2
NT
 70
     8
280
     0
  0
ATTDEF
  5
DB
330
D5
100
AcDbEntity
  8
AM_6
100
AcDbText
 10
4.89
 20
0.5077899999999997
 30
0.0
 40
0.5
  1
045412
100
AcDbAttributeDefinition
  3

  2
NB
 70
     8
280
     0
  0
ATTDEF
  5
DC
330
D5
100
AcDbEntity
  8
AM_6
100
AcDbText
 10
4.89
 20
0.0077899999999997
 30
0.0
 40
0.5
  1
$PN.
100
AcDbAttributeDefinition
  3

  2
NBSYN
 70
     8
280
     0
  0
ATTDEF
  5
DD
330
D5
100
AcDbEntity
  8
AM_6
100
AcDbText
 10
4.89
 20
-0.4922100000000003
 30
0.0
 40
0.5
  1
045412
100
AcDbAttributeDefinition
  3

  2
LINA
 70
     8
280
     0
  0
ATTDEF
  5
DE
330
D5
100
AcDbEntity
  8
AM_6
100
AcDbText
 10
4.89
 20
-0.9922100000000003
 30
0.0
 40
0.5
  1
207
100
AcDbAttributeDefinition
  3

  2
SERIES
 70
     8
280
     0
  0
ATTDEF
  5
DF
330
D5
100
AcDbEntity
  8
AM_6
100
AcDbText
 10
4.89
 20
-1.49221
 30
0.0
 40
0.5
  1
1-1/4
100
AcDbAttributeDefinition
  3

  2
SS
 70
     8
280
     0
  0
ATTDEF
  5
E0
330
D5
100
AcDbEntity
  8
AM_6
100
AcDbText
 10
4.89
 20
-1.99221
 30
0.0
 40
0.5
  1
045412
100
AcDbAttributeDefinition
  3

  2
PN
 70
     8
280
     0
  0
ATTDEF
  5
E1
330
D5
100
AcDbEntity
  8
AM_6
100
AcDbText
 10
4.89
 20
-2.49221
 30
0.0
 40
0.5
  1
INS-SC-104-CR
100
AcDbAttributeDefinition
  3

  2
DESCRIPTION
 70
     8
280
     0
  0
ATTDEF
  5
E2
330
D5
100
AcDbEntity
  8
AM_6
100
AcDbText
 10
4.89
 20
-2.99221
 30
0.0
 40
0.5
  1
1.71
100
AcDbAttributeDefinition
  3

  2
A
 70
     8
280
     0
  0
ATTDEF
  5
E3
330
D5
100
AcDbEntity
  8
AM_6
100
AcDbText
 10
4.89
 20
-3.49221
 30
0.0
 40
0.5
  1
0.75
100
AcDbAttributeDefinition
  3

  2
C
 70
     8
280
     0
  0
ATTDEF
  5
E4
330
D5
100
AcDbEntity
  8
AM_6
100
AcDbText
 10
4.89
 20
-3.99221
 30
0.0
 40
0.5
  1
2.8346
100
AcDbAttributeDefinition
  3

  2
D
 70
     8
280
     0
  0
ATTDEF
  5
E5
330
D5
100
AcDbEntity
  8
AM_6
100
AcDbText
 10
4.89
 20
-4.49221
 30
0.0
 40
0.5
  1
0.2
100
AcDbAttributeDefinition
  3

  2
J
 70
     8
280
     0
  0
ATTDEF
  5
E6
330
D5
100
AcDbEntity
  8
AM_6
100
AcDbText
 10
4.89
 20
-4.99221
 30
0.0
 40
0.5
  1
1.84
100
AcDbAttributeDefinition
  3

  2
L
 70
     8
280
     0
  0
ATTDEF
  5
E7
330
D5
100
AcDbEntity
  8
AM_6
100
AcDbText
 10
4.89
 20
-5.49221
 30
0.0
 40
0.5
  1
5/16 - 24
100
AcDbAttributeDefinition
  3

  2
N
 70
     8
280
     0
  0
ATTDEF
  5
E8
330
D5
100
AcDbEntity
  8
AM_6
100
AcDbText
 10
4.89
 20
-5.99221
 30
0.0
 40
0.5
  1
0.67
100
AcDbAttributeDefinition
  3

  2
W
 70
     8
280
     0
  0
ATTDEF
  5
E9
330
D5
100
AcDbEntity
  8
AM_6
100
AcDbText
 10
4.89
 20
-6.49221
 30
0.0
 40
0.5
  1
1.04
100
AcDbAttributeDefinition
  3

  2
Y
 70
     8
280
     0
  0
ATTDEF
  5
EA
330
D5
100
AcDbEntity
  8
AM_6
100
AcDbText
 10
4.89
 20
-6.99221
 30
0.0
 40
0.5
  1
baldor
100
AcDbAttributeDefinition
  3

  2
COMPANY
 70
     8
280
     0
  0
LINE
  5
EB
330
D5
100
AcDbEntity
  8
AM_9
100
AcDbLine
 10
-0.5440151515151459
 20
1.4798
 30
0.0
 11
-0.615984848484854
 21
1.4798
 31
0.0
  0
ARC
  5
EC
330
D5
100
AcDbEntity
  8
AM_9
100
AcDbCircle
 10
-0.6159848484848436
 20
1.411618181818182
 30
0.0
 40
0.0681818181818181
100
AcDbArc
 50
90.0
 51
177.9984714245109
  0
ARC
  5
ED
330
D5
100
AcDbEntity
  8
AM_9
100
AcDbCircle
 10
-0.5440151515151563
 20
1.411618181818181
 30
0.0
 40
0.0681818181818183
100
AcDbArc
 50
0.0
 51
90.0
  0
LINE
  5
EE
330
D5
100
AcDbEntity
  8
AM_9
100
AcDbLine
 10
-0.475833333333338
 20
1.384299799507563
 30
0.0
 11
-0.475833333333338
 21
1.411618181818182
 31
0.0
  0
LINE
  5
EF
330
D5
100
AcDbEntity
  8
AM_9
100
AcDbLine
 10
-0.475833333333338
 20
1.411618181818182
 30
0.0
 11
-0.66694323921031
 21
1.411618181818185
 31
0.0
  0
ELLIPSE
  5
F0
330
D5
100
AcDbEntity
  8
AM_9
100
AcDbEllipse
 10
-1.4875
 20
-0.5552527717982502
 30
0.0
 11
-0.1262000000000021
 21
1.545504260523985E-17
 31
0.0
210
0.0
220
0.0
230
1.0
 40
0.4226182617406915
 41
1.368021328389961
 42
1.773571325199831
  0
ELLIPSE
  5
F1
330
D5
100
AcDbEntity
  8
AM_9
100
AcDbEllipse
 10
-1.4875
 20
-0.555252771798251
 30
0.0
 11
-0.126200000000003
 21
1.545504260523996E-17
 31
0.0
210
0.0
220
0.0
230
1.0
 40
0.4226182617406964
 41
4.509613981979767
 42
4.915163978789613
  0
LINE
  5
F2
330
D5
100
AcDbEntity
  8
AM_9
100
AcDbLine
 10
-1.6137
 20
-0.5664092550835846
 30
0.0
 11
-1.6137
 21
-0.8148925094304427
 31
0.0
  0
LINE
  5
F3
330
D5
100
AcDbEntity
  8
AM_9
100
AcDbLine
 10
-1.3613
 20
-0.8148925094304427
 30
0.0
 11
-1.3613
 21
-0.5664092550835849
 31
0.0
  0
LWPOLYLINE
  5
F4
330
D5
100
AcDbEntity
  8
AM_9
100
AcDbPolyline
 90
       10
 70
     0
 43
0.0
 10
-1.613699999463194
 20
-0.566437447519225
 10
-1.612330752810568
 20
-0.5739896542562118
 10
-1.607577356135929
 20
-0.58175884474975
 10
-1.599536636985253
 20
-0.5885282887470387
 10
-1.588477643554194
 20
-0.5942632466702885
 10
-1.574416647775198
 20
-0.599002586772556
 10
-1.557930131590426
 20
-0.6026909811408597
 10
-1.539224357692738
 20
-0.6053982395913929
 10
-1.519009693777457
 20
-0.6071545506709888
 10
-1.51291519658931
 20
-0.60749445395976
  0
LWPOLYLINE
  5
F5
330
D5
100
AcDbEntity
  8
AM_9
100
AcDbPolyline
 90
       10
 70
     0
 43
0.0
 10
-1.361300000536806
 20
-0.5664472860801147
 10
-1.362669247189432
 20
-0.558392667412292
 10
-1.367422643864071
 20
-0.5489372260612013
 10
-1.375463363014747
 20
-0.5394513156659237
 10
-1.386522356445807
 20
-0.5302818259085434
 10
-1.400583352224803
 20
-0.5216785326351162
 10
-1.417069868409575
 20
-0.5141787883836271
 10
-1.435775642307264
 20
-0.508112539171631
 10
-1.455990306222544
 20
-0.5038640910798808
 10
-1.462084803410692
 20
-0.5030110896367399
  0
ELLIPSE
  5
F6
330
D5
100
AcDbEntity
  8
AM_9
100
AcDbEllipse
 10
-1.487499999999999
 20
-0.8148925094304432
 30
0.0
 11
-0.126200000000001
 21
1.545504260523972E-17
 31
0.0
210
0.0
220
0.0
230
1.0
 40
0.4226182617407005
 41
3.509440659640486
 42
5.914952223687601
  0
LINE
  5
F7
330
D5
100
AcDbEntity
  8
AM_9
100
AcDbLine
 10
-1.599139373797339
 20
-0.7900222587814014
 30
0.0
 11
-1.615223573655302
 21
-0.8029176110143219
 31
0.0
  0
LINE
  5
F8
330
D5
100
AcDbEntity
  8
AM_9
100
AcDbLine
 10
-1.359647868793264
 20
-0.8030206807922765
 30
0.0
 11
-1.375860626202661
 21
-0.7900222587814014
 31
0.0
  0
LWPOLYLINE
  5
F9
330
D5
100
AcDbEntity
  8
AM_9
100
AcDbPolyline
 90
        5
 70
     0
 43
0.0
 10
-1.51291519658931
 20
-0.6074944539597598
 10
-1.504284978834104
 20
-0.6079335657027942
 10
-1.486878965044173
 20
-0.6082651758518465
 10
-1.46892258290199
 20
-0.6078579523601161
 10
-1.462084803410691
 20
-0.6074944539597598
  0
LWPOLYLINE
  5
FA
330
D5
100
AcDbEntity
  8
AM_9
100
AcDbPolyline
 90
       10
 70
     0
 43
0.0
 10
-1.462084803410691
 20
-0.6074944539597598
 10
-1.441749193443588
 20
-0.6060263768575114
 10
-1.422725330044757
 20
-0.6036453025922364
 10
-1.405571032162478
 20
-0.6002839588198202
 10
-1.39070452419877
 20
-0.5958899040343147
 10
-1.378445773203587
 20
-0.5903397788686092
 10
-1.369279124700161
 20
-0.5836901489583447
 10
-1.363549710461277
 20
-0.5760272425893009
 10
-1.361323731635991
 20
-0.567472300143138
 10
-1.361300000536806
 20
-0.5664472860801147
  0
LWPOLYLINE
  5
FB
330
D5
100
AcDbEntity
  8
AM_9
100
AcDbPolyline
 90
        4
 70
     0
 43
0.0
 10
-1.462084803410692
 20
-0.5030110896367405
 10
-1.483837750294389
 20
-0.5010755558929062
 10
-1.498335710527354
 20
-0.5013917278724979
 10
-1.512915196589308
 20
-0.5030110896367405
  0
LWPOLYLINE
  5
FC
330
D5
100
AcDbEntity
  8
AM_9
100
AcDbPolyline
 90
       10
 70
     0
 43
0.0
 10
-1.512915196589308
 20
-0.5030110896367405
 10
-1.533250806556411
 20
-0.5066253678126182
 10
-1.552274669955242
 20
-0.512099193942586
 10
-1.569428967837522
 20
-0.5191626773985215
 10
-1.58429547580123
 20
-0.527446222908971
 10
-1.596554226796413
 20
-0.5366794483332499
 10
-1.605720875299839
 20
-0.5463629820422427
 10
-1.611450289538723
 20
-0.5560371619326889
 10
-1.613676268364009
 20
-0.5654037485781024
 10
-1.613699999463194
 20
-0.566437447519225
  0
LINE
  5
FD
330
D5
100
AcDbEntity
  8
AM_9
100
AcDbLine
 10
-1.7832
 20
-0.625
 30
0.0
 11
-0.1468000000000001
 21
-0.625
 31
0.0
  0
LINE
  5
FE
330
D5
100
AcDbEntity
  8
AM_9
100
AcDbLine
 10
-0.1468000000000001
 20
0.625
 30
0.0
 11
-1.7832
 21
0.625
 31
0.0
  0
LINE
  5
FF
330
D5
100
AcDbEntity
  8
AM_9
100
AcDbLine
 10
-0.1468000000000001
 20
-0.625
 30
0.0
 11
-0.1099999999999999
 21
-0.6617999999999999
 31
0.0
  0
LINE
  5
100
330
D5
100
AcDbEntity
  8
AM_9
100
AcDbLine
 10
-0.1099999999999999
 20
0.6617999999999999
 30
0.0
 11
-0.1468000000000001
 21
0.625
 31
0.0
  0
LINE
  5
101
330
D5
100
AcDbEntity
  8
AM_9
100
AcDbLine
 10
-1.7832
 20
0.6250000000000001
 30
0.0
 11
-1.82
 21
0.6618000000000002
 31
0.0
  0
LINE
  5
102
330
D5
100
AcDbEntity
  8
AM_9
100
AcDbLine
 10
-1.82
 20
-0.6618000000000002
 30
0.0
 11
-1.7832
 21
-0.6250000000000001
 31
0.0
  0
LINE
  5
103
330
D5
100
AcDbEntity
  8
AM_9
100
AcDbLine
 10
-1.28
 20
-0.92
 30
0.0
 11
-1.155
 21
-0.92
 31
0.0
  0
LINE
  5
104
330
D5
100
AcDbEntity
  8
AM_9
100
AcDbLine
 10
-1.155
 20
0.92
 30
0.0
 11
-1.28
 21
0.92
 31
0.0
  0
LINE
  5
105
330
D5
100
AcDbEntity
  8
AM_9
100
AcDbLine
 10
-0.1099999999999999
 20
0.8832000000000002
 30
0.0
 11
-0.1099999999999999
 21
-0.8832000000000002
 31
0.0
  0
LINE
  5
106
330
D5
100
AcDbEntity
  8
AM_9
100
AcDbLine
 10
-0.1099999999999999
 20
0.8832000000000002
 30
0.0
 11
-0.1468000000000001
 21
0.9200000000000002
 31
0.0
  0
LINE
  5
107
330
D5
100
AcDbEntity
  8
AM_9
100
AcDbLine
 10
-0.1468000000000001
 20
-0.9200000000000002
 30
0.0
 11
-0.1099999999999999
 21
-0.8832000000000002
 31
0.0
  0
LINE
  5
108
330
D5
100
AcDbEntity
  8
AM_9
100
AcDbLine
 10
-0.1468000000000001
 20
0.9200000000000002
 30
0.0
 11
-0.1468000000000001
 21
-0.9199999999999997
 31
0.0
  0
LINE
  5
109
330
D5
100
AcDbEntity
  8
AM_9
100
AcDbLine
 10
-0.405
 20
-0.9199999999999997
 30
0.0
 11
-0.1468000000000001
 21
-0.9199999999999997
 31
0.0
  0
LINE
  5
10A
330
D5
100
AcDbEntity
  8
AM_9
100
AcDbLine
 10
-0.1468000000000001
 20
0.9199999999999997
 30
0.0
 11
-0.405
 21
0.9199999999999997
 31
0.0
  0
LINE
  5
10B
330
D5
100
AcDbEntity
  8
AM_9
100
AcDbLine
 10
-1.02
 20
-1.350633333333333
 30
0.0
 11
-0.94
 21
-1.350633333333333
 31
0.0
  0
LINE
  5
10C
330
D5
100
AcDbEntity
  8
AM_9
100
AcDbLine
 10
-0.94
 20
1.350633333333333
 30
0.0
 11
-1.02
 21
1.350633333333333
 31
0.0
  0
LINE
  5
10D
330
D5
100
AcDbEntity
  8
AM_9
100
AcDbLine
 10
-0.405
 20
1.335937981344943
 30
0.0
 11
-0.405
 21
-1.335937981344377
 31
0.0
  0
ARC
  5
10E
330
D5
100
AcDbEntity
  8
AM_9
100
AcDbCircle
 10
-0.4449999999999998
 20
-1.335937981344943
 30
0.0
 40
0.0399999999999997
100
AcDbArc
 50
284.0772302633402
 51
0.0
  0
ARC
  5
10F
330
D5
100
AcDbEntity
  8
AM_9
100
AcDbCircle
 10
-0.4449999999999998
 20
1.335937981344943
 30
0.0
 40
0.0399999999999998
100
AcDbArc
 50
0.0
 51
75.92276973665984
  0
LINE
  5
110
330
D5
100
AcDbEntity
  8
AM_9
100
AcDbLine
 10
-1.155
 20
1.335937981344943
 30
0.0
 11
-1.155
 21
-1.335937981344377
 31
0.0
  0
ARC
  5
111
330
D5
100
AcDbEntity
  8
AM_9
100
AcDbCircle
 10
-1.115
 20
-1.335937981344942
 30
0.0
 40
0.0400000000000003
100
AcDbArc
 50
180.0
 51
255.9227727932864
  0
ARC
  5
112
330
D5
100
AcDbEntity
  8
AM_9
100
AcDbCircle
 10
-1.115
 20
1.335937981344942
 30
0.0
 40
0.0400000000000003
100
AcDbArc
 50
104.0772272067136
 51
180.0
  0
LINE
  5
113
330
D5
100
AcDbEntity
  8
AM_9
100
AcDbLine
 10
-1.124729180280259
 20
1.374736731983001
 30
0.0
 11
-1.124729180280259
 21
-1.37473673198297
 31
0.0
  0
LINE
  5
114
330
D5
100
AcDbEntity
  8
AM_9
100
AcDbLine
 10
-1.02
 20
1.396831876068126
 30
0.0
 11
-1.02
 21
-1.396831876068094
 31
0.0
  0
ARC
  5
115
330
D5
100
AcDbEntity
  8
AM_9
100
AcDbCircle
 10
-0.7799999999912077
 20
0.0000000000417544
 30
0.0
 40
1.417300000042609
100
AcDbArc
 50
255.9227727933522
 51
260.2507814750213
  0
ARC
  5
116
330
D5
100
AcDbEntity
  8
AM_9
100
AcDbCircle
 10
-0.7800000000189324
 20
0.0000000000896587
 30
0.0
 40
1.417299999908399
100
AcDbArc
 50
99.7492185247737
 51
104.0772272068528
  0
LINE
  5
117
330
D5
100
AcDbEntity
  8
AM_9
100
AcDbLine
 10
-0.94
 20
1.40823978426971
 30
0.0
 11
-0.94
 21
-1.40823978426971
 31
0.0
  0
LINE
  5
118
330
D5
100
AcDbEntity
  8
AM_9
100
AcDbLine
 10
-0.4352708176498978
 20
1.374736731463967
 30
0.0
 11
-0.4352708176498979
 21
-1.374736731463966
 31
0.0
  0
ARC
  5
119
330
D5
100
AcDbEntity
  8
AM_9
100
AcDbCircle
 10
-0.7799999999999961
 20
-0.0000000000000466
 30
0.0
 40
1.417299999999954
100
AcDbArc
 50
263.5180207994816
 51
284.0772272929798
  0
ARC
  5
11A
330
D5
100
AcDbEntity
  8
AM_9
100
AcDbCircle
 10
-0.7800000000010467
 20
-0.000000000004557
 30
0.0
 40
1.417300000004674
100
AcDbArc
 50
75.92277270702434
 51
77.61380765864551
  0
ARC
  5
11B
330
D5
100
AcDbEntity
  8
AM_9
100
AcDbCircle
 10
-0.779999999999961
 20
-0.0000000000005569
 30
0.0
 40
1.417300000000557
100
AcDbArc
 50
92.26098410693564
 51
96.48197920051705
  0
ARC
  5
11C
330
D5
100
AcDbEntity
  8
AM_9
100
AcDbCircle
 10
-0.7799999999999986
 20
-0.0000000000000686
 30
0.0
 40
1.417300000000068
100
AcDbArc
 50
86.105904804881
 51
92.09385403672236
  0
LINE
  5
11D
330
D5
100
AcDbEntity
  8
AM_9
100
AcDbLine
 10
-0.4758333333388705
 20
1.384276680758259
 30
0.0
 11
-0.6841231652195905
 21
1.414053366232152
 31
0.0
  0
ARC
  5
11F
330
D5
100
AcDbEntity
  8
AM_5
100
AcDbCircle
 10
-1.4875
 20
0.0
 30
0.0
 40
0.15625
100
AcDbArc
 50
74.99999999999996
 51
15.0
  0
ARC
  5
120
330
D5
100
AcDbEntity
  8
AM_5
100
AcDbCircle
 10
-1.5075
 20
0.0
 30
0.0
 40
0.15625
100
AcDbArc
 50
75.0
 51
14.99999999999997
  0
LINE
  5
123
330
D5
100
AcDbEntity
  8
AM_7
100
AcDbLine
 10
-1.4875
 20
-0.13251
 30
0.0
 11
-1.4875
 21
0.13251
 31
0.0
  0
LINE
  5
124
330
D5
100
AcDbEntity
  8
AM_7
100
AcDbLine
 10
-0.58
 20
1.50779
 30
0.0
 11
-0.58
 21
0.8920100000000001
 31
0.0
  0
ELLIPSE
  5
125
330
D5
100
AcDbEntity
  8
AM_4
100
AcDbEllipse
 10
-1.4875
 20
-0.8148925094304427
 30
0.0
 11
-0.1262000000000001
 21
1.545504260523961E-17
 31
0.0
210
0.0
220
0.0
230
1.0
 40
0.4226182617406991
 41
5.914952223687608
 42
9.792625966820061
  0
LWPOLYLINE
  5
126
330
D5
100
AcDbEntity
  8
AM_4
100
AcDbPolyline
 90
       14
 70
     0
 43
0.0
 10
-1.615393302188435
 20
-0.8030536920670432
 10
-1.611295558663527
 20
-0.799946475955041
 10
-1.59728363479781
 20
-0.7912915877057912
 10
-1.580767127281401
 20
-0.7836061445765111
 10
-1.560772242004618
 20
-0.7767412176447328
 10
-1.538988278381379
 20
-0.771521188565616
 10
-1.51451362704652
 20
-0.7680136773610051
 10
-1.489323221429411
 20
-0.7667070585634598
 10
-1.463299974210065
 20
-0.7677560775678577
 10
-1.437957872439703
 20
-0.7711554158505997
 10
-1.413998489361334
 20
-0.7768109492897658
 10
-1.392199127722069
 20
-0.7844399761037789
 10
-1.373834546057553
 20
-0.7934534387992556
 10
-1.359592840311665
 20
-0.803064799386377
  0
LWPOLYLINE
  5
127
330
D5
100
AcDbEntity
  8
AM_4
100
AcDbPolyline
 90
        6
 70
     0
 43
0.0
 10
-1.359592840311665
 20
-0.803064799386377
 10
-1.358887730866234
 20
-0.8036359003476897
 10
-1.348626074280927
 20
-0.8138338949555558
 10
-1.342359048713396
 20
-0.8242576997106629
 10
-1.340686268088152
 20
-0.8304150206999563
 10
-1.340587895833631
 20
-0.8364200418006986
  0
LINE
  5
128
330
D5
100
AcDbEntity
  8
AM_4
100
AcDbLine
 10
-1.82
 20
0.8832
 30
0.0
 11
-1.82
 21
-0.8832
 31
0.0
  0
LINE
  5
129
330
D5
100
AcDbEntity
  8
AM_4
100
AcDbLine
 10
-1.82
 20
-0.8832
 30
0.0
 11
-1.7832
 21
-0.92
 31
0.0
  0
LINE
  5
12A
330
D5
100
AcDbEntity
  8
AM_4
100
AcDbLine
 10
-1.7832
 20
0.92
 30
0.0
 11
-1.82
 21
0.8832
 31
0.0
  0
CIRCLE
  5
12B
330
D5
100
AcDbEntity
  8
AM_4
100
AcDbCircle
 10
-1.4875
 20
0.0
 30
0.0
 40
0.1262
  0
LINE
  5
12C
330
D5
100
AcDbEntity
  8
AM_4
100
AcDbLine
 10
-1.7832
 20
0.92
 30
0.0
 11
-1.7832
 21
-0.92
 31
0.0
  0
LWPOLYLINE
  5
12D
330
D5
100
AcDbEntity
  8
AM_4
100
AcDbPolyline
 90
       39
 70
     0
 43
0.0
 10
-1.38618143700423
 20
0.0990834330639697
 10
-1.371687218831369
 20
0.084227053524363
 10
-1.359313964111615
 20
0.0669681475490529
 10
-1.349091594188536
 20
0.0461710098732804
 10
-1.342556210024947
 20
0.0231139790003437
 10
-1.340444092066901
 20
0.0015676258759983
 10
-1.342132856383575
 20
-0.020694660079328
 10
-1.347208884942602
 20
-0.0409755909830389
 10
-1.355737401136482
 20
-0.0606773322778276
 10
-1.36730182454522
 20
-0.0787355157368327
 10
-1.381919379660177
 20
-0.0951532253816025
 10
-1.399625130926781
 20
-0.1096395699417921
 10
-1.419897328290216
 20
-0.1214666823348717
 10
-1.44272102344004
 20
-0.1303109567384669
 10
-1.467323160109408
 20
-0.1355338288805017
 10
-1.49283093357559
 20
-0.1367427051778834
 10
-1.518905759595552
 20
-0.1336639999275327
 10
-1.543667926452418
 20
-0.1264221979832151
 10
-1.567508596106985
 20
-0.1147418003498326
 10
-1.587950695161804
 20
-0.099845627736629
 10
-1.605973913522221
 20
-0.080963402422981
 10
-1.619118001804216
 20
-0.0609477324307625
 10
-1.628724767186288
 20
-0.038108187957825
 10
-1.633492592610008
 20
-0.0164660334176918
 10
-1.63440379892908
 20
0.0064038383597319
 10
-1.631612859322334
 20
0.0272285804617179
 10
-1.625238399453746
 20
0.0478689225270828
 10
-1.615799587205847
 20
0.0667800430447169
 10
-1.603172799736616
 20
0.0843932464781528
 10
-1.587458466812009
 20
0.1002724782663171
 10
-1.568993253454556
 20
0.1138322299328559
 10
-1.547679360323451
 20
0.124809464472325
 10
-1.524278107339604
 20
0.1324680822367561
 10
-1.499313533502227
 20
0.1363890040729782
 10
-1.473334843220143
 20
0.1361941960916929
 10
-1.447921003811312
 20
0.1317649089748035
 10
-1.422917525169868
 20
0.1228845007114305
 10
-1.403862640651568
 20
0.1124758416585894
 10
-1.386181436964264
 20
0.099083433124887
  0
LWPOLYLINE
  5
12E
330
D5
100
AcDbEntity
  8
AM_4
100
AcDbPolyline
 90
       23
 70
     0
 43
0.0
 10
-1.340587895833631
 20
-0.8364200418006986
 10
-1.34356803566994
 20
-0.84523522179502
 10
-1.35017294150792
 20
-0.8532824103906758
 10
-1.359923739369652
 20
-0.8602397306751867
 10
-1.372545338161938
 20
-0.8662397807921377
 10
-1.388634546105366
 20
-0.8715099360739705
 10
-1.407020047003139
 20
-0.8756964721186201
 10
-1.428751955752624
 20
-0.879015258710987
 10
-1.451959314178339
 20
-0.8811831958308243
 10
-1.477331216822105
 20
-0.8822617265662864
 10
-1.50297882914705
 20
-0.8821386239732293
 10
-1.528722166329964
 20
-0.8807631372408959
 10
-1.55328707486616
 20
-0.8780978394089982
 10
-1.575751488410156
 20
-0.8741084630623616
 10
-1.595592100612283
 20
-0.8687299636509869
 10
-1.611435801956261
 20
-0.8622062848454316
 10
-1.623571312991382
 20
-0.8543798591777444
 10
-1.630962801603789
 20
-0.8460197404765809
 10
-1.634364995150952
 20
-0.8367914119524856
 10
-1.633728340589699
 20
-0.8276050497532312
 10
-1.629496834881177
 20
-0.818157690520508
 10
-1.621921484303224
 20
-0.8088816593979681
 10
-1.615393302188435
 20
-0.8030536920670432
  0
LINE
  5
12F
330
D5
100
AcDbEntity
  8
AM_4
100
AcDbLine
 10
-1.7832
 20
-0.92
 30
0.0
 11
-1.28
 21
-0.92
 31
0.0
  0
LINE
  5
130
330
D5
100
AcDbEntity
  8
AM_4
100
AcDbLine
 10
-1.28
 20
0.92
 30
0.0
 11
-1.7832
 21
0.92
 31
0.0
  0
ARC
  5
131
330
D5
100
AcDbEntity
  8
AM_5
100
AcDbCircle
 10
-1.4875
 20
0.0
 30
0.0
 40
0.1562499999999999
100
AcDbArc
 50
345.0
 51
285.0
  0
ARC
  5
132
330
D5
100
AcDbEntity
  8
AM_5
100
AcDbCircle
 10
-1.5075
 20
-0.0000000000000001
 30
0.0
 40
0.1562499999999998
100
AcDbArc
 50
345.0
 51
285.0
  0
ENDBLK
  5
D8
330
D5
100
AcDbEntity
  8
0
100
AcDbBlockEnd
  0
BLOCK
  5
135
330
133
100
AcDbEntity
  8
0
100
AcDbBlockBegin
  2
4_127528H_0_in_127528_2
 70
     2
 10
0.0
 20
0.0
 30
0.0
  3
4_127528H_0_in_127528_2
  1

  0
ATTDEF
  5
137
330
133
100
AcDbEntity
  8
AM_6
100
AcDbText
 10
5.06855
 20
3.154999999999999
 30
0.0
 40
0.5
  1
F2B-SCEZ-PCR -Inch - Housing
100
AcDbAttributeDefinition
  3

  2
NN
 70
     8
280
     0
  0
ATTDEF
  5
138
330
133
100
AcDbEntity
  8
AM_6
100
AcDbText
 10
5.06855
 20
2.654999999999999
 30
0.0
 40
0.5
  1
SC 2 Bolt Flange Bearings -(Normal Duty) -Corrosion Resistant Insert -Polymer Housed -E-Z KLEEN
100
AcDbAttributeDefinition
  3

  2
NT
 70
     8
280
     0
  0
ATTDEF
  5
139
330
133
100
AcDbEntity
  8
AM_6
100
AcDbText
 10
5.06855
 20
2.154999999999999
 30
0.0
 40
0.5
  1
127528H
100
AcDbAttributeDefinition
  3

  2
NB
 70
     8
280
     0
  0
ATTDEF
  5
13A
330
133
100
AcDbEntity
  8
AM_6
100
AcDbText
 10
5.06855
 20
1.654999999999999
 30
0.0
 40
0.5
  1
$PN.H
100
AcDbAttributeDefinition
  3

  2
NBSYN
 70
     8
280
     0
  0
ATTDEF
  5
13B
330
133
100
AcDbEntity
  8
AM_6
100
AcDbText
 10
5.06855
 20
1.154999999999999
 30
0.0
 40
0.5
  1
127528
100
AcDbAttributeDefinition
  3

  2
LINA
 70
     8
280
     0
  0
ATTDEF
  5
13C
330
133
100
AcDbEntity
  8
AM_6
100
AcDbText
 10
5.06855
 20
0.6549999999999994
 30
0.0
 40
0.5
  1
207
100
AcDbAttributeDefinition
  3

  2
SERIES
 70
     8
280
     0
  0
ATTDEF
  5
13D
330
133
100
AcDbEntity
  8
AM_6
100
AcDbText
 10
5.06855
 20
0.1549999999999994
 30
0.0
 40
0.5
  1
1-1/4
100
AcDbAttributeDefinition
  3

  2
SS
 70
     8
280
     0
  0
ATTDEF
  5
13E
330
133
100
AcDbEntity
  8
AM_6
100
AcDbText
 10
5.06855
 20
-0.3450000000000006
 30
0.0
 40
0.5
  1
127528
100
AcDbAttributeDefinition
  3

  2
PN
 70
     8
280
     0
  0
ATTDEF
  5
13F
330
133
100
AcDbEntity
  8
AM_6
100
AcDbText
 10
5.06855
 20
-0.8450000000000006
 30
0.0
 40
0.5
  1
F2B-SCEZ-104-PCR
100
AcDbAttributeDefinition
  3

  2
DESCRIPTION
 70
     8
280
     0
  0
ATTDEF
  5
140
330
133
100
AcDbEntity
  8
AM_6
100
AcDbText
 10
5.06855
 20
-1.345000000000001
 30
0.0
 40
0.5
  1
1.36
100
AcDbAttributeDefinition
  3

  2
W
 70
     8
280
     0
  0
ATTDEF
  5
141
330
133
100
AcDbEntity
  8
AM_6
100
AcDbText
 10
5.06855
 20
-1.845000000000001
 30
0.0
 40
0.5
  1
1.71
100
AcDbAttributeDefinition
  3

  2
A
 70
     8
280
     0
  0
ATTDEF
  5
142
330
133
100
AcDbEntity
  8
AM_6
100
AcDbText
 10
5.06855
 20
-2.345000000000001
 30
0.0
 40
0.5
  1
6.31
100
AcDbAttributeDefinition
  3

  2
B
 70
     8
280
     0
  0
ATTDEF
  5
143
330
133
100
AcDbEntity
  8
AM_6
100
AcDbText
 10
5.06855
 20
-2.845000000000001
 30
0.0
 40
0.5
  1
1.82
100
AcDbAttributeDefinition
  3

  2
C
 70
     8
280
     0
  0
ATTDEF
  5
144
330
133
100
AcDbEntity
  8
AM_6
100
AcDbText
 10
5.06855
 20
-3.345000000000001
 30
0.0
 40
0.5
  1
5.12
100
AcDbAttributeDefinition
  3

  2
D
 70
     8
280
     0
  0
ATTDEF
  5
145
330
133
100
AcDbEntity
  8
AM_6
100
AcDbText
 10
5.06855
 20
-3.845000000000001
 30
0.0
 40
0.5
  1
1/2
100
AcDbAttributeDefinition
  3

  2
F
 70
     8
280
     0
  0
ATTDEF
  5
146
330
133
100
AcDbEntity
  8
AM_6
100
AcDbText
 10
5.06855
 20
-4.345000000000001
 30
0.0
 40
0.5
  1
0.62
100
AcDbAttributeDefinition
  3

  2
H
 70
     8
280
     0
  0
ATTDEF
  5
147
330
133
100
AcDbEntity
  8
AM_6
100
AcDbText
 10
5.06855
 20
-4.845000000000001
 30
0.0
 40
0.5
  1
0.54
100
AcDbAttributeDefinition
  3

  2
J
 70
     8
280
     0
  0
ATTDEF
  5
148
330
133
100
AcDbEntity
  8
AM_6
100
AcDbText
 10
5.06855
 20
-5.345000000000001
 30
0.0
 40
0.5
  1
1.84
100
AcDbAttributeDefinition
  3

  2
L
 70
     8
280
     0
  0
ATTDEF
  5
149
330
133
100
AcDbEntity
  8
AM_6
100
AcDbText
 10
5.06855
 20
-5.845000000000001
 30
0.0
 40
0.5
  1
3.69
100
AcDbAttributeDefinition
  3

  2
M
 70
     8
280
     0
  0
ATTDEF
  5
14A
330
133
100
AcDbEntity
  8
AM_6
100
AcDbText
 10
5.06855
 20
-6.345000000000001
 30
0.0
 40
0.5
  1
3065
100
AcDbAttributeDefinition
  3

  2
CAPS
 70
     8
280
     0
  0
ATTDEF
  5
14B
330
133
100
AcDbEntity
  8
AM_6
100
AcDbText
 10
5.06855
 20
-6.845000000000001
 30
0.0
 40
0.5
  1
5759
100
AcDbAttributeDefinition
  3

  2
CAPD
 70
     8
280
     0
  0
ATTDEF
  5
14C
330
133
100
AcDbEntity
  8
AM_6
100
AcDbText
 10
5.06855
 20
-7.345000000000001
 30
0.0
 40
0.5
  1
baldor
100
AcDbAttributeDefinition
  3

  2
COMPANY
 70
     8
280
     0
  0
LINE
  5
14D
330
133
100
AcDbEntity
  8
AM_9
100
AcDbLine
 10
-0.62
 20
-2.81
 30
0.0
 11
0.0
 21
-2.81
 31
0.0
  0
LINE
  5
14E
330
133
100
AcDbEntity
  8
AM_9
100
AcDbLine
 10
0.0
 20
-2.31
 30
0.0
 11
-0.62
 21
-2.31
 31
0.0
  0
LINE
  5
14F
330
133
100
AcDbEntity
  8
AM_9
100
AcDbLine
 10
-0.62
 20
2.31
 30
0.0
 11
0.0
 21
2.31
 31
0.0
  0
LINE
  5
150
330
133
100
AcDbEntity
  8
AM_9
100
AcDbLine
 10
0.0
 20
2.81
 30
0.0
 11
-0.62
 21
2.81
 31
0.0
  0
LINE
  5
151
330
133
100
AcDbEntity
  8
AM_9
100
AcDbLine
 10
-0.8320000000000001
 20
-1.354910712925395
 30
0.0
 11
0.0
 21
-1.354910712925395
 31
0.0
  0
LINE
  5
152
330
133
100
AcDbEntity
  8
AM_9
100
AcDbLine
 10
-0.8320000000000001
 20
-1.4798
 30
0.0
 11
0.0
 21
-1.4798
 31
0.0
  0
LINE
  5
153
330
133
100
AcDbEntity
  8
AM_9
100
AcDbLine
 10
-0.8320000000000001
 20
-1.4798
 30
0.0
 11
-0.8320000000000001
 21
-1.286356983888998
 31
0.0
  0
LINE
  5
154
330
133
100
AcDbEntity
  8
AM_9
100
AcDbLine
 10
-0.8320000000000001
 20
1.286356983888998
 30
0.0
 11
-0.8320000000000001
 21
1.4798
 31
0.0
  0
LINE
  5
155
330
133
100
AcDbEntity
  8
AM_9
100
AcDbLine
 10
-0.8320000000000001
 20
1.354910712925394
 30
0.0
 11
0.0
 21
1.354910712925394
 31
0.0
  0
LINE
  5
156
330
133
100
AcDbEntity
  8
AM_9
100
AcDbLine
 10
-0.615984848484854
 20
1.4798
 30
0.0
 11
-0.8320000000000001
 21
1.4798
 31
0.0
  0
LINE
  5
157
330
133
100
AcDbEntity
  8
AM_9
100
AcDbLine
 10
0.0
 20
1.4798
 30
0.0
 11
-0.5440151515151459
 21
1.4798
 31
0.0
  0
LINE
  5
158
330
133
100
AcDbEntity
  8
AM_9
100
AcDbLine
 10
-0.8320000000000001
 20
1.286356983888998
 30
0.0
 11
0.0
 21
1.286356983888998
 31
0.0
  0
LINE
  5
159
330
133
100
AcDbEntity
  8
AM_9
100
AcDbLine
 10
0.0
 20
-1.286356983888998
 30
0.0
 11
-0.8320000000000001
 21
-1.286356983888998
 31
0.0
  0
LINE
  5
15A
330
133
100
AcDbEntity
  8
AM_9
100
AcDbLine
 10
-1.28
 20
-1.4173
 30
0.0
 11
-0.8320000000000001
 21
-1.4173
 31
0.0
  0
LINE
  5
15B
330
133
100
AcDbEntity
  8
AM_9
100
AcDbLine
 10
-0.8320000000000001
 20
1.4173
 30
0.0
 11
-1.28
 21
1.4173
 31
0.0
  0
LINE
  5
15C
330
133
100
AcDbEntity
  8
AM_7
100
AcDbLine
 10
0.031
 20
2.56
 30
0.0
 11
-0.651
 21
2.56
 31
0.0
  0
LINE
  5
15D
330
133
100
AcDbEntity
  8
AM_7
100
AcDbLine
 10
0.031
 20
-2.56
 30
0.0
 11
-0.651
 21
-2.56
 31
0.0
  0
LINE
  5
15E
330
133
100
AcDbEntity
  8
AM_7
100
AcDbLine
 10
0.06855
 20
0.0
 30
0.0
 11
-1.9055
 21
0.0
 31
0.0
  0
LINE
  5
15F
330
133
100
AcDbEntity
  8
AM_4
100
AcDbLine
 10
-0.62
 20
-3.154999999999999
 30
0.0
 11
-0.62
 21
-1.845
 31
0.0
  0
LINE
  5
160
330
133
100
AcDbEntity
  8
AM_4
100
AcDbLine
 10
-0.62
 20
1.845
 30
0.0
 11
-0.62
 21
3.154999999999999
 31
0.0
  0
LINE
  5
161
330
133
100
AcDbEntity
  8
AM_4
100
AcDbLine
 10
-1.28
 20
-1.845
 30
0.0
 11
-0.5579999999999998
 21
-1.845
 31
0.0
  0
LINE
  5
162
330
133
100
AcDbEntity
  8
AM_4
100
AcDbLine
 10
-1.28
 20
-1.845
 30
0.0
 11
-1.28
 21
1.845
 31
0.0
  0
LINE
  5
163
330
133
100
AcDbEntity
  8
AM_4
100
AcDbLine
 10
-1.28
 20
1.845
 30
0.0
 11
-0.5579999999999998
 21
1.845
 31
0.0
  0
LINE
  5
164
330
133
100
AcDbEntity
  8
AM_4
100
AcDbLine
 10
-0.62
 20
-2.90091789416663
 30
0.0
 11
-0.5579999999999999
 21
-2.900917894166628
 31
0.0
  0
LINE
  5
165
330
133
100
AcDbEntity
  8
AM_4
100
AcDbLine
 10
-0.62
 20
-3.154999999999999
 30
0.0
 11
0.0
 21
-3.154999999999999
 31
0.0
  0
LINE
  5
166
330
133
100
AcDbEntity
  8
AM_4
100
AcDbLine
 10
0.0
 20
-3.154999999999999
 30
0.0
 11
0.0
 21
3.154999999999999
 31
0.0
  0
LINE
  5
167
330
133
100
AcDbEntity
  8
AM_4
100
AcDbLine
 10
-0.5579999999999999
 20
2.900917894166627
 30
0.0
 11
-0.62
 21
2.900917894166632
 31
0.0
  0
LINE
  5
168
330
133
100
AcDbEntity
  8
AM_4
100
AcDbLine
 10
-0.62
 20
3.154999999999999
 30
0.0
 11
0.0
 21
3.154999999999999
 31
0.0
  0
LINE
  5
169
330
133
100
AcDbEntity
  8
AM_4
100
AcDbLine
 10
-1.28
 20
-0.8550209204105318
 30
0.0
 11
-0.5579999999999997
 21
-0.8550209204105318
 31
0.0
  0
LINE
  5
16A
330
133
100
AcDbEntity
  8
AM_4
100
AcDbLine
 10
-1.28
 20
0.8550209204105308
 30
0.0
 11
-0.5579999999999997
 21
0.8550209204105308
 31
0.0
  0
LINE
  5
16B
330
133
100
AcDbEntity
  8
AM_4
100
AcDbLine
 10
-0.5579999999999997
 20
0.635817818242701
 30
0.0
 11
-0.5579999999999999
 21
2.900917894166627
 31
0.0
  0
LINE
  5
16C
330
133
100
AcDbEntity
  8
AM_4
100
AcDbLine
 10
-1.28
 20
0.635817818242701
 30
0.0
 11
-0.5579999999999997
 21
0.635817818242701
 31
0.0
  0
LINE
  5
16D
330
133
100
AcDbEntity
  8
AM_4
100
AcDbLine
 10
-1.28
 20
-0.6358178182427021
 30
0.0
 11
-0.5579999999999997
 21
-0.6358178182427021
 31
0.0
  0
LINE
  5
16E
330
133
100
AcDbEntity
  8
AM_4
100
AcDbLine
 10
-0.5579999999999999
 20
-2.900917894166628
 30
0.0
 11
-0.5579999999999997
 21
-0.6358178182427021
 31
0.0
  0
LINE
  5
16F
330
133
100
AcDbEntity
  8
AM_4
100
AcDbLine
 10
-0.5579999999999998
 20
-0.8361597729247133
 30
0.0
 11
0.0000000000000001
 21
-0.8361597729247133
 31
0.0
  0
LINE
  5
170
330
133
100
AcDbEntity
  8
AM_4
100
AcDbLine
 10
-0.5579999999999998
 20
-0.681159772924716
 30
0.0
 11
0.0000000000000001
 21
-0.681159772924716
 31
0.0
  0
LINE
  5
171
330
133
100
AcDbEntity
  8
AM_4
100
AcDbLine
 10
-0.5579999999999998
 20
0.6811597729247154
 30
0.0
 11
0.0000000000000001
 21
0.6811597729247125
 31
0.0
  0
LINE
  5
172
330
133
100
AcDbEntity
  8
AM_4
100
AcDbLine
 10
-0.5579999999999998
 20
0.8361597729247128
 30
0.0
 11
0.0000000000000001
 21
0.8361597729247128
 31
0.0
  0
ENDBLK
  5
136
330
133
100
AcDbEntity
  8
0
100
AcDbBlockEnd
  0
ENDSEC
  0
SECTION
  2
ENTITIES
  0
INSERT
  5
6F
330
1F
100
AcDbEntity
  8
0
100
AcDbBlockReference
  2
1_127528_2
 10
0.0
 20
0.0
 30
0.0
  0
POINT
  5
174
330
1F
100
AcDbEntity
  8
ConnectionPoints
100
AcDbPoint
 10
-0.11
 20
0.0
 30
0.0
  0
POINT
  5
175
330
1F
100
AcDbEntity
  8
ConnectionPoints
100
AcDbPoint
 10
-1.82
 20
0.0
 30
0.0000000000000001
  0
POINT
  5
176
330
1F
100
AcDbEntity
  8
ConnectionPoints
100
AcDbPoint
 10
-0.9499999999999998
 20
1.30461201128918
 30
1.30461201128918
  0
POINT
  5
177
330
1F
100
AcDbEntity
  8
ConnectionPoints
100
AcDbPoint
 10
-1.82
 20
0.0
 30
0.0000000000000001
  0
ENDSEC
  0
SECTION
  2
OBJECTS
  0
DICTIONARY
  5
C
330
0
100
AcDbDictionary
281
     1
  3
ACAD_DETAILVIEWSTYLE
350
17F
  3
ACAD_GROUP
350
D
  3
ACAD_LAYOUT
350
1A
  3
ACAD_MATERIAL
350
43
  3
ACAD_MLEADERSTYLE
350
6B
  3
ACAD_MLINESTYLE
350
17
  3
ACAD_PLOTSETTINGS
350
19
  3
ACAD_PLOTSTYLENAME
350
E
  3
ACAD_SCALELIST
350
47
  3
ACAD_SECTIONVIEWSTYLE
350
180
  3
ACAD_TABLESTYLE
350
69
  3
ACAD_VISUALSTYLE
350
2A
  3
ACDB_RECOMPOSE_DATA
350
17C
  3
AcDbVariableDictionary
350
178
  0
SUN
  5
6D
330
29
100
AcDbSun
 90
        1
290
     0
 63
     7
421
 16777215
 40
1.0
291
     1
 91
  2455826
 92
 54000000
292
     0
 70
     2
 71
   256
280
     1
  0
DICTIONARY
  5
17F
102
{ACAD_REACTORS
330
C
102
}
330
C
100
AcDbDictionary
281
     1
  0
DICTIONARY
  5
D
102
{ACAD_REACTORS
330
C
102
}
330
C
100
AcDbDictionary
281
     1
  0
DICTIONARY
  5
1A
102
{ACAD_REACTORS
330
C
102
}
330
C
100
AcDbDictionary
281
     1
  3
Layout1
350
1E
  3
Layout2
350
26
  3
Model
350
22
  0
DICTIONARY
  5
43
102
{ACAD_REACTORS
330
C
102
}
330
C
100
AcDbDictionary
281
     1
  3
ByBlock
350
45
  3
ByLayer
350
44
  3
Global
350
46
  0
DICTIONARY
  5
6B
102
{ACAD_REACTORS
330
C
102
}
330
C
100
AcDbDictionary
281
     1
  3
Standard
350
6C
  0
DICTIONARY
  5
17
102
{ACAD_REACTORS
330
C
102
}
330
C
100
AcDbDictionary
281
     1
  3
Standard
350
18
  0
DICTIONARY
  5
19
102
{ACAD_REACTORS
330
C
102
}
330
C
100
AcDbDictionary
281
     1
  0
ACDBDICTIONARYWDFLT
  5
E
102
{ACAD_REACTORS
330
C
102
}
330
C
100
AcDbDictionary
281
     1
  3
Normal
350
F
100
AcDbDictionaryWithDefault
340
F
  0
DICTIONARY
  5
47
102
{ACAD_REACTORS
330
C
102
}
330
C
100
AcDbDictionary
281
     1
  3
A0
350
48
  3
A1
350
49
  3
A2
350
4A
  3
A3
350
4B
  3
A4
350
4C
  3
A5
350
4D
  3
A6
350
4E
  3
A7
350
4F
  3
A8
350
50
  3
A9
350
51
  3
B0
350
52
  3
B1
350
53
  3
B2
350
54
  3
B3
350
55
  3
B4
350
56
  3
B5
350
57
  3
B6
350
58
  3
B7
350
59
  3
B8
350
5A
  3
B9
350
5B
  3
C0
350
5C
  3
C1
350
5D
  3
C2
350
5E
  3
C3
350
5F
  3
C4
350
60
  3
C5
350
61
  3
C6
350
62
  3
C7
350
63
  3
C8
350
64
  3
C9
350
65
  3
D0
350
66
  3
D1
350
67
  3
D2
350
68
  0
DICTIONARY
  5
180
102
{ACAD_REACTORS
330
C
102
}
330
C
100
AcDbDictionary
281
     1
  0
DICTIONARY
  5
69
102
{ACAD_REACTORS
330
C
102
}
330
C
100
AcDbDictionary
281
     1
  3
Standard
350
6A
  0
DICTIONARY
  5
2A
102
{ACAD_REACTORS
330
C
102
}
330
C
100
AcDbDictionary
281
     1
  3
2dWireframe
350
2F
  3
Basic
350
32
  3
Brighten
350
36
  3
ColorChange
350
3A
  3
Conceptual
350
34
  3
Dim
350
35
  3
EdgeColorOff
350
3D
  3
Facepattern
350
39
  3
Flat
350
2B
  3
FlatWithEdges
350
2C
  3
Gouraud
350
2D
  3
GouraudWithEdges
350
2E
  3
Hidden
350
31
  3
JitterOff
350
3B
  3
Linepattern
350
38
  3
OverhangOff
350
3C
  3
Realistic
350
33
  3
Shaded
350
42
  3
Shaded with edges
350
41
  3
Shades of Gray
350
3E
  3
Sketchy
350
3F
  3
Thicken
350
37
  3
Wireframe
350
30
  3
X-Ray
350
40
  0
XRECORD
  5
17C
102
{ACAD_REACTORS
330
C
102
}
330
C
100
AcDbXrecord
280
     1
 90
        1
330
6A
  0
DICTIONARY
  5
178
102
{ACAD_REACTORS
330
C
102
}
330
C
100
AcDbDictionary
281
     1
  3
CANNOSCALE
350
179
  3
CMLEADERSTYLE
350
17E
  3
CTABLESTYLE
350
17D
  0
LAYOUT
  5
1E
102
{ACAD_REACTORS
330
1A
102
}
330
1A
100
AcDbPlotSettings
  1

  2
none_device
  4

  6

 40
0.0
 41
0.0
 42
0.0
 43
0.0
 44
0.0
 45
0.0
 46
0.0
 47
0.0
 48
0.0
 49
0.0
140
0.0
141
0.0
142
1.0
143
1.0
 70
   688
 72
     0
 73
     0
 74
     5
  7

 75
    16
 76
     0
 77
     2
 78
   300
147
1.0
148
0.0
149
0.0
100
AcDbLayout
  1
Layout1
 70
     1
 71
     1
 10
0.0
 20
0.0
 11
12.0
 21
9.0
 12
0.0
 22
0.0
 32
0.0
 14
1.000000000000000E+20
 24
1.000000000000000E+20
 34
1.000000000000000E+20
 15
-1.000000000000000E+20
 25
-1.000000000000000E+20
 35
-1.000000000000000E+20
146
0.0
 13
0.0
 23
0.0
 33
0.0
 16
1.0
 26
0.0
 36
0.0
 17
0.0
 27
1.0
 37
0.0
 76
     0
330
1B
  0
LAYOUT
  5
26
102
{ACAD_REACTORS
330
1A
102
}
330
1A
100
AcDbPlotSettings
  1

  2
none_device
  4

  6

 40
0.0
 41
0.0
 42
0.0
 43
0.0
 44
0.0
 45
0.0
 46
0.0
 47
0.0
 48
0.0
 49
0.0
140
0.0
141
0.0
142
1.0
143
1.0
 70
   688
 72
     0
 73
     0
 74
     5
  7

 75
    16
 76
     0
 77
     2
 78
   300
147
1.0
148
0.0
149
0.0
100
AcDbLayout
  1
Layout2
 70
     1
 71
     2
 10
0.0
 20
0.0
 11
0.0
 21
0.0
 12
0.0
 22
0.0
 32
0.0
 14
0.0
 24
0.0
 34
0.0
 15
0.0
 25
0.0
 35
0.0
146
0.0
 13
0.0
 23
0.0
 33
0.0
 16
1.0
 26
0.0
 36
0.0
 17
0.0
 27
1.0
 37
0.0
 76
     0
330
23
  0
LAYOUT
  5
22
102
{ACAD_REACTORS
330
1A
102
}
330
1A
100
AcDbPlotSettings
  1

  2
none_device
  4
Letter_(8.50_x_11.00_Inches)
  6

 40
6.35
 41
6.35
 42
6.35000508
 43
6.35000508
 44
215.9
 45
279.4
 46
0.0
 47
0.0
 48
0.0
 49
0.0
140
0.0
141
0.0
142
1.0
143
1.0
 70
  1712
 72
     0
 73
     0
 74
     0
  7

 75
     0
 76
     0
 77
     2
 78
   300
147
1.0
148
0.0
149
0.0
100
AcDbLayout
  1
Model
 70
     1
 71
     0
 10
0.0
 20
0.0
 11
12.0
 21
9.0
 12
0.0
 22
0.0
 32
0.0
 14
1.000000000000000E+20
 24
1.000000000000000E+20
 34
1.000000000000000E+20
 15
-1.000000000000000E+20
 25
-1.000000000000000E+20
 35
-1.000000000000000E+20
146
0.0
 13
0.0
 23
0.0
 33
0.0
 16
1.0
 26
0.0
 36
0.0
 17
0.0
 27
1.0
 37
0.0
 76
     0
330
1F
331
29
  0
MATERIAL
  5
45
102
{ACAD_REACTORS
330
43
102
}
330
43
100
AcDbMaterial
  1
ByBlock
 72
     1
 94
      127
  0
MATERIAL
  5
44
102
{ACAD_REACTORS
330
43
102
}
330
43
100
AcDbMaterial
  1
ByLayer
 72
     1
 94
      127
  0
MATERIAL
  5
46
102
{ACAD_REACTORS
330
43
102
}
330
43
100
AcDbMaterial
  1
Global
 72
     1
 94
      127
  0
MLEADERSTYLE
  5
6C
102
{ACAD_REACTORS
330
6B
102
}
330
6B
100
AcDbMLeaderStyle
179
     2
170
     2
171
     1
172
     0
 90
        2
 40
0.0
 41
0.0
173
     1
 91
-1056964608
340
14
 92
       -2
290
     1
 42
0.09
291
     1
 43
0.36
  3
Standard
341
0
 44
0.18
300

342
11
174
     1
178
     6
175
     1
176
     0
 93
-1056964608
 45
0.18
292
     0
297
     0
 46
0.18
343
0
 94
-1056964608
 47
1.0
 49
1.0
140
1.0
293
     1
141
0.0
294
     1
177
     0
142
1.0
295
     0
296
     0
143
0.125
271
     0
272
     9
273
     9
298
     0
  0
MLINESTYLE
  5
18
102
{ACAD_REACTORS
330
17
102
}
330
17
100
AcDbMlineStyle
  2
Standard
 70
     0
  3

 62
   256
 51
90.0
 52
90.0
 71
     2
 49
0.5
 62
   256
  6
BYLAYER
 49
-0.5
 62
   256
  6
BYLAYER
  0
ACDBPLACEHOLDER
  5
F
102
{ACAD_REACTORS
330
E
102
}
330
E
  0
SCALE
  5
48
102
{ACAD_REACTORS
330
47
102
}
330
47
100
AcDbScale
 70
     0
300
1:1
140
1.0
141
1.0
290
     1
  0
SCALE
  5
49
102
{ACAD_REACTORS
330
47
102
}
330
47
100
AcDbScale
 70
     0
300
1:2
140
1.0
141
2.0
290
     0
  0
SCALE
  5
4A
102
{ACAD_REACTORS
330
47
102
}
330
47
100
AcDbScale
 70
     0
300
1:4
140
1.0
141
4.0
290
     0
  0
SCALE
  5
4B
102
{ACAD_REACTORS
330
47
102
}
330
47
100
AcDbScale
 70
     0
300
1:5
140
1.0
141
5.0
290
     0
  0
SCALE
  5
4C
102
{ACAD_REACTORS
330
47
102
}
330
47
100
AcDbScale
 70
     0
300
1:8
140
1.0
141
8.0
290
     0
  0
SCALE
  5
4D
102
{ACAD_REACTORS
330
47
102
}
330
47
100
AcDbScale
 70
     0
300
1:10
140
1.0
141
10.0
290
     0
  0
SCALE
  5
4E
102
{ACAD_REACTORS
330
47
102
}
330
47
100
AcDbScale
 70
     0
300
1:16
140
1.0
141
16.0
290
     0
  0
SCALE
  5
4F
102
{ACAD_REACTORS
330
47
102
}
330
47
100
AcDbScale
 70
     0
300
1:20
140
1.0
141
20.0
290
     0
  0
SCALE
  5
50
102
{ACAD_REACTORS
330
47
102
}
330
47
100
AcDbScale
 70
     0
300
1:30
140
1.0
141
30.0
290
     0
  0
SCALE
  5
51
102
{ACAD_REACTORS
330
47
102
}
330
47
100
AcDbScale
 70
     0
300
1:40
140
1.0
141
40.0
290
     0
  0
SCALE
  5
52
102
{ACAD_REACTORS
330
47
102
}
330
47
100
AcDbScale
 70
     0
300
1:50
140
1.0
141
50.0
290
     0
  0
SCALE
  5
53
102
{ACAD_REACTORS
330
47
102
}
330
47
100
AcDbScale
 70
     0
300
1:100
140
1.0
141
100.0
290
     0
  0
SCALE
  5
54
102
{ACAD_REACTORS
330
47
102
}
330
47
100
AcDbScale
 70
     0
300
2:1
140
2.0
141
1.0
290
     0
  0
SCALE
  5
55
102
{ACAD_REACTORS
330
47
102
}
330
47
100
AcDbScale
 70
     0
300
4:1
140
4.0
141
1.0
290
     0
  0
SCALE
  5
56
102
{ACAD_REACTORS
330
47
102
}
330
47
100
AcDbScale
 70
     0
300
8:1
140
8.0
141
1.0
290
     0
  0
SCALE
  5
57
102
{ACAD_REACTORS
330
47
102
}
330
47
100
AcDbScale
 70
     0
300
10:1
140
10.0
141
1.0
290
     0
  0
SCALE
  5
58
102
{ACAD_REACTORS
330
47
102
}
330
47
100
AcDbScale
 70
     0
300
100:1
140
100.0
141
1.0
290
     0
  0
SCALE
  5
59
102
{ACAD_REACTORS
330
47
102
}
330
47
100
AcDbScale
 70
     0
300
1/128" = 1'-0"
140
0.0078125
141
12.0
290
     0
  0
SCALE
  5
5A
102
{ACAD_REACTORS
330
47
102
}
330
47
100
AcDbScale
 70
     0
300
1/64" = 1'-0"
140
0.015625
141
12.0
290
     0
  0
SCALE
  5
5B
102
{ACAD_REACTORS
330
47
102
}
330
47
100
AcDbScale
 70
     0
300
1/32" = 1'-0"
140
0.03125
141
12.0
290
     0
  0
SCALE
  5
5C
102
{ACAD_REACTORS
330
47
102
}
330
47
100
AcDbScale
 70
     0
300
1/16" = 1'-0"
140
0.0625
141
12.0
290
     0
  0
SCALE
  5
5D
102
{ACAD_REACTORS
330
47
102
}
330
47
100
AcDbScale
 70
     0
300
3/32" = 1'-0"
140
0.09375
141
12.0
290
     0
  0
SCALE
  5
5E
102
{ACAD_REACTORS
330
47
102
}
330
47
100
AcDbScale
 70
     0
300
1/8" = 1'-0"
140
0.125
141
12.0
290
     0
  0
SCALE
  5
5F
102
{ACAD_REACTORS
330
47
102
}
330
47
100
AcDbScale
 70
     0
300
3/16" = 1'-0"
140
0.1875
141
12.0
290
     0
  0
SCALE
  5
60
102
{ACAD_REACTORS
330
47
102
}
330
47
100
AcDbScale
 70
     0
300
1/4" = 1'-0"
140
0.25
141
12.0
290
     0
  0
SCALE
  5
61
102
{ACAD_REACTORS
330
47
102
}
330
47
100
AcDbScale
 70
     0
300
3/8" = 1'-0"
140
0.375
141
12.0
290
     0
  0
SCALE
  5
62
102
{ACAD_REACTORS
330
47
102
}
330
47
100
AcDbScale
 70
     0
300
1/2" = 1'-0"
140
0.5
141
12.0
290
     0
  0
SCALE
  5
63
102
{ACAD_REACTORS
330
47
102
}
330
47
100
AcDbScale
 70
     0
300
3/4" = 1'-0"
140
0.75
141
12.0
290
     0
  0
SCALE
  5
64
102
{ACAD_REACTORS
330
47
102
}
330
47
100
AcDbScale
 70
     0
300
1" = 1'-0"
140
1.0
141
12.0
290
     0
  0
SCALE
  5
65
102
{ACAD_REACTORS
330
47
102
}
330
47
100
AcDbScale
 70
     0
300
1-1/2" = 1'-0"
140
1.5
141
12.0
290
     0
  0
SCALE
  5
66
102
{ACAD_REACTORS
330
47
102
}
330
47
100
AcDbScale
 70
     0
300
3" = 1'-0"
140
3.0
141
12.0
290
     0
  0
SCALE
  5
67
102
{ACAD_REACTORS
330
47
102
}
330
47
100
AcDbScale
 70
     0
300
6" = 1'-0"
140
6.0
141
12.0
290
     0
  0
SCALE
  5
68
102
{ACAD_REACTORS
330
47
102
}
330
47
100
AcDbScale
 70
     0
300
1'-0" = 1'-0"
140
12.0
141
12.0
290
     0
  0
TABLESTYLE
  5
6A
102
{ACAD_REACTORS
330
69
102
}
102
{ACAD_XDICTIONARY
360
17A
102
}
330
69
100
AcDbTableStyle
  3
Standard
 70
     0
 71
     0
 40
0.06
 41
0.06
280
     0
281
     0
  7
Standard
140
0.18
170
     2
 62
     0
 63
   257
283
     0
 90
        4
 91
        0
  1

274
    -2
284
     1
 64
     0
275
    -2
285
     1
 65
     0
276
    -2
286
     1
 66
     0
277
    -2
287
     1
 67
     0
278
    -2
288
     1
 68
     0
279
    -2
289
     1
 69
     0
  7
Standard
140
0.25
170
     5
 62
     0
 63
   257
283
     0
 90
        4
 91
        0
  1

274
    -2
284
     1
 64
     0
275
    -2
285
     1
 65
     0
276
    -2
286
     1
 66
     0
277
    -2
287
     1
 67
     0
278
    -2
288
     1
 68
     0
279
    -2
289
     1
 69
     0
  7
Standard
140
0.18
170
     5
 62
     0
 63
   257
283
     0
 90
        4
 91
        0
  1

274
    -2
284
     1
 64
     0
275
    -2
285
     1
 65
     0
276
    -2
286
     1
 66
     0
277
    -2
287
     1
 67
     0
278
    -2
288
     1
 68
     0
279
    -2
289
     1
 69
     0
  0
VISUALSTYLE
  5
2F
102
{ACAD_REACTORS
330
2A
102
}
330
2A
100
AcDbVisualStyle
  2
2dWireframe
 70
     4
177
     3
291
     0
 70
    58
 90
        0
176
     1
 90
        2
176
     1
 90
        0
176
     1
 90
        0
176
     1
 40
0.6
176
     1
 40
30.0
176
     1
 62
     7
420
 16777215
176
     1
 90
        1
176
     1
 90
        4
176
     1
 62
     7
176
     1
 62
   257
176
     1
 90
        1
176
     1
 90
        1
176
     1
 40
1.0
176
     1
 90
        0
176
     1
 62
   257
176
     1
 40
1.0
176
     1
 90
        1
176
     1
 90
        6
176
     1
 90
        2
176
     1
 62
     7
176
     1
 90
        5
176
     1
 90
        0
176
     1
 90
        0
176
     1
290
     0
176
     1
 90
        1
176
     1
 40
0.0
176
     1
 90
        0
176
     1
290
     1
176
     1
290
     1
176
     1
290
     0
176
     1
290
     0
176
     1
290
     0
176
     1
290
     0
176
     1
290
     0
176
     1
290
     0
176
     1
290
     0
176
     1
 90
       50
176
     1
 40
0.0
176
     1
 40
1.0
176
     1
 90
        0
176
     1
 62
    18
420
        0
176
     1
 90
       50
176
     1
 90
        3
176
     1
 62
     5
420
      255
176
     1
290
     0
176
     1
 90
       50
176
     1
 90
       50
176
     1
 90
       50
176
     1
290
     0
176
     1
 90
       50
176
     1
 62
   256
176
     0
 40
1.0
176
     0
 90
        2
176
     1
  1
strokes_ogs.tif
176
     1
290
     0
176
     1
 40
1.0
176
     1
 40
1.0
176
     1
  0
VISUALSTYLE
  5
32
102
{ACAD_REACTORS
330
2A
102
}
330
2A
100
AcDbVisualStyle
  2
Basic
 70
     7
177
     3
291
     1
 70
    58
 90
        1
176
     1
 90
        0
176
     1
 90
        1
176
     1
 90
        0
176
     1
 40
0.6
176
     1
 40
30.0
176
     1
 62
     7
420
 16777215
176
     1
 90
        0
176
     1
 90
        4
176
     1
 62
     7
176
     1
 62
   257
176
     1
 90
        1
176
     1
 90
        1
176
     1
 40
1.0
176
     1
 90
        8
176
     1
 62
     7
176
     1
 40
1.0
176
     1
 90
        1
176
     1
 90
        6
176
     1
 90
        2
176
     1
 62
     7
176
     1
 90
        5
176
     1
 90
        0
176
     1
 90
        0
176
     1
290
     0
176
     1
 90
        1
176
     1
 40
0.0
176
     1
 90
        0
176
     1
290
     0
176
     1
290
     1
176
     1
290
     1
176
     1
290
     0
176
     1
290
     0
176
     1
290
     0
176
     1
290
     0
176
     1
290
     0
176
     1
290
     0
176
     1
 90
       50
176
     1
 40
0.0
176
     1
 40
1.0
176
     1
 90
        0
176
     1
 62
    18
420
        0
176
     1
 90
       50
176
     1
 90
        3
176
     1
 62
     5
420
      255
176
     1
290
     0
176
     1
 90
       50
176
     1
 90
       50
176
     1
 90
       50
176
     1
290
     0
176
     1
 90
       50
176
     1
 62
   256
176
     0
 40
1.0
176
     0
 90
        2
176
     1
  1
strokes_ogs.tif
176
     1
290
     0
176
     1
 40
1.0
176
     1
 40
1.0
176
     1
  0
VISUALSTYLE
  5
36
102
{ACAD_REACTORS
330
2A
102
}
330
2A
100
AcDbVisualStyle
  2
Brighten
 70
    12
177
     3
291
     1
 70
    58
 90
        2
176
     1
 90
        2
176
     1
 90
        0
176
     1
 90
        0
176
     1
 40
0.6
176
     1
 40
30.0
176
     1
 62
     7
420
 16777215
176
     1
 90
        1
176
     1
 90
        4
176
     1
 62
     7
176
     1
 62
   257
176
     1
 90
        1
176
     1
 90
        1
176
     1
 40
1.0
176
     1
 90
        8
176
     1
 62
     7
176
     1
 40
1.0
176
     1
 90
        1
176
     1
 90
        6
176
     1
 90
        2
176
     1
 62
     7
176
     1
 90
        5
176
     1
 90
        0
176
     1
 90
        0
176
     1
290
     0
176
     1
 90
        1
176
     1
 40
50.0
176
     1
 90
        0
176
     1
290
     0
176
     1
290
     1
176
     1
290
     1
176
     1
290
     0
176
     1
290
     0
176
     1
290
     0
176
     1
290
     0
176
     1
290
     0
176
     1
290
     0
176
     1
 90
       50
176
     1
 40
0.0
176
     1
 40
1.0
176
     1
 90
        0
176
     1
 62
    18
420
        0
176
     1
 90
       50
176
     1
 90
        3
176
     1
 62
     5
420
      255
176
     1
290
     0
176
     1
 90
       50
176
     1
 90
       50
176
     1
 90
       50
176
     1
290
     0
176
     1
 90
       50
176
     1
 62
   256
176
     0
 40
1.0
176
     0
 90
        2
176
     1
  1
strokes_ogs.tif
176
     1
290
     0
176
     1
 40
1.0
176
     1
 40
1.0
176
     1
  0
VISUALSTYLE
  5
3A
102
{ACAD_REACTORS
330
2A
102
}
330
2A
100
AcDbVisualStyle
  2
ColorChange
 70
    16
177
     3
291
     1
 70
    58
 90
        2
176
     1
 90
        2
176
     1
 90
        3
176
     1
 90
        0
176
     1
 40
0.6
176
     1
 40
30.0
176
     1
 62
     8
420
  8421504
176
     1
 90
        1
176
     1
 90
        4
176
     1
 62
     7
176
     1
 62
   257
176
     1
 90
        1
176
     1
 90
        1
176
     1
 40
1.0
176
     1
 90
        8
176
     1
 62
     8
420
  8421504
176
     1
 40
1.0
176
     1
 90
        1
176
     1
 90
        6
176
     1
 90
        2
176
     1
 62
     7
176
     1
 90
        5
176
     1
 90
        0
176
     1
 90
        0
176
     1
290
     0
176
     1
 90
        1
176
     1
 40
0.0
176
     1
 90
        0
176
     1
290
     0
176
     1
290
     1
176
     1
290
     1
176
     1
290
     0
176
     1
290
     0
176
     1
290
     0
176
     1
290
     0
176
     1
290
     0
176
     1
290
     0
176
     1
 90
       50
176
     1
 40
0.0
176
     1
 40
1.0
176
     1
 90
        0
176
     1
 62
    18
420
        0
176
     1
 90
       50
176
     1
 90
        3
176
     1
 62
     5
420
      255
176
     1
290
     0
176
     1
 90
       50
176
     1
 90
       50
176
     1
 90
       50
176
     1
290
     0
176
     1
 90
       50
176
     1
 62
   256
176
     0
 40
1.0
176
     0
 90
        2
176
     1
  1
strokes_ogs.tif
176
     1
290
     0
176
     1
 40
1.0
176
     1
 40
1.0
176
     1
  0
VISUALSTYLE
  5
34
102
{ACAD_REACTORS
330
2A
102
}
330
2A
100
AcDbVisualStyle
  2
Conceptual
 70
     9
177
     3
291
     0
 70
    58
 90
        3
176
     1
 90
        2
176
     1
 90
        0
176
     1
 90
        0
176
     1
 40
0.6
176
     1
 40
30.0
176
     1
 62
     7
420
 16777215
176
     1
 90
        2
176
     1
 90
        2
176
     1
 62
     7
176
     1
 62
   257
176
     1
 90
        1
176
     1
 90
        1
176
     1
 40
179.0
176
     1
 90
        8
176
     1
 62
     7
176
     1
 40
1.0
176
     1
 90
        1
176
     1
 90
        6
176
     1
 90
        2
176
     1
 62
     7
176
     1
 90
        3
176
     1
 90
        0
176
     1
 90
        0
176
     1
290
     0
176
     1
 90
        1
176
     1
 40
0.0
176
     1
 90
        0
176
     1
290
     0
176
     1
290
     1
176
     1
290
     1
176
     1
290
     0
176
     1
290
     0
176
     1
290
     0
176
     1
290
     0
176
     1
290
     0
176
     1
290
     0
176
     1
 90
       50
176
     1
 40
0.0
176
     1
 40
1.0
176
     1
 90
        0
176
     1
 62
    18
420
        0
176
     1
 90
       50
176
     1
 90
        3
176
     1
 62
     5
420
      255
176
     1
290
     0
176
     1
 90
       50
176
     1
 90
       50
176
     1
 90
       50
176
     1
290
     0
176
     1
 90
       50
176
     1
 62
   256
176
     0
 40
1.0
176
     0
 90
        2
176
     1
  1
strokes_ogs.tif
176
     1
290
     0
176
     1
 40
1.0
176
     1
 40
1.0
176
     1
  0
VISUALSTYLE
  5
35
102
{ACAD_REACTORS
330
2A
102
}
330
2A
100
AcDbVisualStyle
  2
Dim
 70
    11
177
     3
291
     1
 70
    58
 90
        2
176
     1
 90
        2
176
     1
 90
        0
176
     1
 90
        0
176
     1
 40
0.6
176
     1
 40
30.0
176
     1
 62
     7
420
 16777215
176
     1
 90
        1
176
     1
 90
        4
176
     1
 62
     7
176
     1
 62
   257
176
     1
 90
        1
176
     1
 90
        1
176
     1
 40
1.0
176
     1
 90
        8
176
     1
 62
     7
176
     1
 40
1.0
176
     1
 90
        1
176
     1
 90
        6
176
     1
 90
        2
176
     1
 62
     7
176
     1
 90
        5
176
     1
 90
        0
176
     1
 90
        0
176
     1
290
     0
176
     1
 90
        1
176
     1
 40
-50.0
176
     1
 90
        0
176
     1
290
     0
176
     1
290
     1
176
     1
290
     1
176
     1
290
     0
176
     1
290
     0
176
     1
290
     0
176
     1
290
     0
176
     1
290
     0
176
     1
290
     0
176
     1
 90
       50
176
     1
 40
0.0
176
     1
 40
1.0
176
     1
 90
        0
176
     1
 62
    18
420
        0
176
     1
 90
       50
176
     1
 90
        3
176
     1
 62
     5
420
      255
176
     1
290
     0
176
     1
 90
       50
176
     1
 90
       50
176
     1
 90
       50
176
     1
290
     0
176
     1
 90
       50
176
     1
 62
   256
176
     0
 40
1.0
176
     0
 90
        2
176
     1
  1
strokes_ogs.tif
176
     1
290
     0
176
     1
 40
1.0
176
     1
 40
1.0
176
     1
  0
VISUALSTYLE
  5
3D
102
{ACAD_REACTORS
330
2A
102
}
330
2A
100
AcDbVisualStyle
  2
EdgeColorOff
 70
    22
177
     3
291
     1
 70
    58
 90
        2
176
     0
 90
        2
176
     0
 90
        0
176
     0
 90
        0
176
     0
 40
0.6
176
     0
 40
30.0
176
     0
 62
     7
420
 16777215
176
     0
 90
        1
176
     0
 90
        4
176
     0
 62
     7
176
     0
 62
   257
176
     0
 90
        1
176
     0
 90
        1
176
     0
 40
1.0
176
     0
 90
        8
176
     2
 62
     7
176
     0
 40
1.0
176
     0
 90
        1
176
     0
 90
        6
176
     0
 90
        2
176
     0
 62
     7
176
     0
 90
        5
176
     0
 90
        0
176
     0
 90
        0
176
     0
290
     0
176
     0
 90
        1
176
     0
 40
0.0
176
     0
 90
        0
176
     0
290
     0
176
     0
290
     1
176
     0
290
     1
176
     0
290
     0
176
     0
290
     0
176
     0
290
     0
176
     0
290
     0
176
     0
290
     0
176
     0
290
     0
176
     0
 90
       50
176
     0
 40
0.0
176
     0
 40
1.0
176
     0
 90
        0
176
     0
 62
    18
420
        0
176
     0
 90
       50
176
     0
 90
        3
176
     0
 62
     5
420
      255
176
     0
290
     0
176
     0
 90
       50
176
     0
 90
       50
176
     0
 90
       50
176
     0
290
     0
176
     0
 90
       50
176
     0
 62
   256
176
     0
 40
1.0
176
     0
 90
        2
176
     0
  1
strokes_ogs.tif
176
     0
290
     0
176
     0
 40
1.0
176
     0
 40
1.0
176
     0
  0
VISUALSTYLE
  5
39
102
{ACAD_REACTORS
330
2A
102
}
330
2A
100
AcDbVisualStyle
  2
Facepattern
 70
    15
177
     3
291
     1
 70
    58
 90
        2
176
     1
 90
        2
176
     1
 90
        0
176
     1
 90
        0
176
     1
 40
0.6
176
     1
 40
30.0
176
     1
 62
     7
420
 16777215
176
     1
 90
        1
176
     1
 90
        4
176
     1
 62
     7
176
     1
 62
   257
176
     1
 90
        1
176
     1
 90
        1
176
     1
 40
1.0
176
     1
 90
        8
176
     1
 62
     7
176
     1
 40
1.0
176
     1
 90
        1
176
     1
 90
        6
176
     1
 90
        2
176
     1
 62
     7
176
     1
 90
        5
176
     1
 90
        0
176
     1
 90
        0
176
     1
290
     0
176
     1
 90
        1
176
     1
 40
0.0
176
     1
 90
        0
176
     1
290
     0
176
     1
290
     1
176
     1
290
     1
176
     1
290
     0
176
     1
290
     0
176
     1
290
     0
176
     1
290
     0
176
     1
290
     0
176
     1
290
     0
176
     1
 90
       50
176
     1
 40
0.0
176
     1
 40
1.0
176
     1
 90
        0
176
     1
 62
    18
420
        0
176
     1
 90
       50
176
     1
 90
        3
176
     1
 62
     5
420
      255
176
     1
290
     0
176
     1
 90
       50
176
     1
 90
       50
176
     1
 90
       50
176
     1
290
     0
176
     1
 90
       50
176
     1
 62
   256
176
     0
 40
1.0
176
     0
 90
        2
176
     1
  1
strokes_ogs.tif
176
     1
290
     0
176
     1
 40
1.0
176
     1
 40
1.0
176
     1
  0
VISUALSTYLE
  5
2B
102
{ACAD_REACTORS
330
2A
102
}
330
2A
100
AcDbVisualStyle
  2
Flat
 70
     0
177
     3
291
     1
 70
    58
 90
        2
176
     1
 90
        1
176
     1
 90
        1
176
     1
 90
        2
176
     1
 40
0.6
176
     1
 40
30.0
176
     1
 62
     7
420
 16777215
176
     1
 90
        0
176
     1
 90
        0
176
     1
 62
     7
176
     1
 62
   257
176
     1
 90
        1
176
     1
 90
        1
176
     1
 40
1.0
176
     1
 90
        8
176
     1
 62
     7
176
     1
 40
1.0
176
     1
 90
        1
176
     1
 90
        6
176
     1
 90
        2
176
     1
 62
     7
176
     1
 90
        5
176
     1
 90
        0
176
     1
 90
        0
176
     1
290
     0
176
     1
 90
       13
176
     1
 40
0.0
176
     1
 90
        0
176
     1
290
     0
176
     1
290
     1
176
     1
290
     1
176
     1
290
     0
176
     1
290
     0
176
     1
290
     0
176
     1
290
     0
176
     1
290
     0
176
     1
290
     0
176
     1
 90
       50
176
     1
 40
0.0
176
     1
 40
1.0
176
     1
 90
        0
176
     1
 62
    18
420
        0
176
     1
 90
       50
176
     1
 90
        3
176
     1
 62
     5
420
      255
176
     1
290
     0
176
     1
 90
       50
176
     1
 90
       50
176
     1
 90
       50
176
     1
290
     0
176
     1
 90
       50
176
     1
 62
   256
176
     0
 40
1.0
176
     0
 90
        2
176
     1
  1
strokes_ogs.tif
176
     1
290
     0
176
     1
 40
1.0
176
     1
 40
1.0
176
     1
  0
VISUALSTYLE
  5
2C
102
{ACAD_REACTORS
330
2A
102
}
330
2A
100
AcDbVisualStyle
  2
FlatWithEdges
 70
     1
177
     3
291
     1
 70
    58
 90
        2
176
     1
 90
        1
176
     1
 90
        1
176
     1
 90
        2
176
     1
 40
0.6
176
     1
 40
30.0
176
     1
 62
     7
420
 16777215
176
     1
 90
        1
176
     1
 90
        0
176
     1
 62
     7
176
     1
 62
   257
176
     1
 90
        1
176
     1
 90
        1
176
     1
 40
1.0
176
     1
 90
        0
176
     1
 62
   257
176
     1
 40
1.0
176
     1
 90
        1
176
     1
 90
        6
176
     1
 90
        2
176
     1
 62
     7
176
     1
 90
        5
176
     1
 90
        0
176
     1
 90
        0
176
     1
290
     0
176
     1
 90
       13
176
     1
 40
0.0
176
     1
 90
        0
176
     1
290
     0
176
     1
290
     1
176
     1
290
     1
176
     1
290
     0
176
     1
290
     0
176
     1
290
     0
176
     1
290
     0
176
     1
290
     0
176
     1
290
     0
176
     1
 90
       50
176
     1
 40
0.0
176
     1
 40
1.0
176
     1
 90
        0
176
     1
 62
    18
420
        0
176
     1
 90
       50
176
     1
 90
        3
176
     1
 62
     5
420
      255
176
     1
290
     0
176
     1
 90
       50
176
     1
 90
       50
176
     1
 90
       50
176
     1
290
     0
176
     1
 90
       50
176
     1
 62
   256
176
     0
 40
1.0
176
     0
 90
        2
176
     1
  1
strokes_ogs.tif
176
     1
290
     0
176
     1
 40
1.0
176
     1
 40
1.0
176
     1
  0
VISUALSTYLE
  5
2D
102
{ACAD_REACTORS
330
2A
102
}
330
2A
100
AcDbVisualStyle
  2
Gouraud
 70
     2
177
     3
291
     1
 70
    58
 90
        2
176
     1
 90
        2
176
     1
 90
        1
176
     1
 90
        2
176
     1
 40
0.6
176
     1
 40
30.0
176
     1
 62
     7
420
 16777215
176
     1
 90
        0
176
     1
 90
        0
176
     1
 62
     7
176
     1
 62
   257
176
     1
 90
        1
176
     1
 90
        1
176
     1
 40
1.0
176
     1
 90
        0
176
     1
 62
     7
176
     1
 40
1.0
176
     1
 90
        1
176
     1
 90
        6
176
     1
 90
        2
176
     1
 62
     7
176
     1
 90
        5
176
     1
 90
        0
176
     1
 90
        0
176
     1
290
     0
176
     1
 90
       13
176
     1
 40
0.0
176
     1
 90
        0
176
     1
290
     0
176
     1
290
     1
176
     1
290
     1
176
     1
290
     0
176
     1
290
     0
176
     1
290
     0
176
     1
290
     0
176
     1
290
     0
176
     1
290
     0
176
     1
 90
       50
176
     1
 40
0.0
176
     1
 40
1.0
176
     1
 90
        0
176
     1
 62
    18
420
        0
176
     1
 90
       50
176
     1
 90
        3
176
     1
 62
     5
420
      255
176
     1
290
     0
176
     1
 90
       50
176
     1
 90
       50
176
     1
 90
       50
176
     1
290
     0
176
     1
 90
       50
176
     1
 62
   256
176
     0
 40
1.0
176
     0
 90
        2
176
     1
  1
strokes_ogs.tif
176
     1
290
     0
176
     1
 40
1.0
176
     1
 40
1.0
176
     1
  0
VISUALSTYLE
  5
2E
102
{ACAD_REACTORS
330
2A
102
}
330
2A
100
AcDbVisualStyle
  2
GouraudWithEdges
 70
     3
177
     3
291
     1
 70
    58
 90
        2
176
     1
 90
        2
176
     1
 90
        1
176
     1
 90
        2
176
     1
 40
0.6
176
     1
 40
30.0
176
     1
 62
     7
420
 16777215
176
     1
 90
        1
176
     1
 90
        0
176
     1
 62
     7
176
     1
 62
   257
176
     1
 90
        1
176
     1
 90
        1
176
     1
 40
1.0
176
     1
 90
        0
176
     1
 62
   257
176
     1
 40
1.0
176
     1
 90
        1
176
     1
 90
        6
176
     1
 90
        2
176
     1
 62
     7
176
     1
 90
        5
176
     1
 90
        0
176
     1
 90
        0
176
     1
290
     0
176
     1
 90
       13
176
     1
 40
0.0
176
     1
 90
        0
176
     1
290
     0
176
     1
290
     1
176
     1
290
     1
176
     1
290
     0
176
     1
290
     0
176
     1
290
     0
176
     1
290
     0
176
     1
290
     0
176
     1
290
     0
176
     1
 90
       50
176
     1
 40
0.0
176
     1
 40
1.0
176
     1
 90
        0
176
     1
 62
    18
420
        0
176
     1
 90
       50
176
     1
 90
        3
176
     1
 62
     5
420
      255
176
     1
290
     0
176
     1
 90
       50
176
     1
 90
       50
176
     1
 90
       50
176
     1
290
     0
176
     1
 90
       50
176
     1
 62
   256
176
     0
 40
1.0
176
     0
 90
        2
176
     1
  1
strokes_ogs.tif
176
     1
290
     0
176
     1
 40
1.0
176
     1
 40
1.0
176
     1
  0
VISUALSTYLE
  5
31
102
{ACAD_REACTORS
330
2A
102
}
330
2A
100
AcDbVisualStyle
  2
Hidden
 70
     6
177
     3
291
     0
 70
    58
 90
        1
176
     1
 90
        2
176
     1
 90
        2
176
     1
 90
        0
176
     1
 40
0.6
176
     1
 40
30.0
176
     1
 62
     7
420
 16777215
176
     1
 90
        2
176
     1
 90
        2
176
     1
 62
     7
176
     1
 62
   257
176
     1
 90
        2
176
     1
 90
        1
176
     1
 40
40.0
176
     1
 90
        0
176
     1
 62
   257
176
     1
 40
1.0
176
     1
 90
        1
176
     1
 90
        6
176
     1
 90
        2
176
     1
 62
     7
176
     1
 90
        3
176
     1
 90
        0
176
     1
 90
        0
176
     1
290
     0
176
     1
 90
        1
176
     1
 40
0.0
176
     1
 90
        0
176
     1
290
     0
176
     1
290
     1
176
     1
290
     1
176
     1
290
     0
176
     1
290
     0
176
     1
290
     0
176
     1
290
     0
176
     1
290
     0
176
     1
290
     0
176
     1
 90
       50
176
     1
 40
0.0
176
     1
 40
1.0
176
     1
 90
        0
176
     1
 62
    18
420
        0
176
     1
 90
       50
176
     1
 90
        3
176
     1
 62
     5
420
      255
176
     1
290
     0
176
     1
 90
       50
176
     1
 90
       50
176
     1
 90
       50
176
     1
290
     0
176
     1
 90
       50
176
     1
 62
   256
176
     0
 40
1.0
176
     0
 90
        2
176
     1
  1
strokes_ogs.tif
176
     1
290
     0
176
     1
 40
1.0
176
     1
 40
1.0
176
     1
  0
VISUALSTYLE
  5
3B
102
{ACAD_REACTORS
330
2A
102
}
330
2A
100
AcDbVisualStyle
  2
JitterOff
 70
    20
177
     3
291
     1
 70
    58
 90
        2
176
     0
 90
        2
176
     0
 90
        0
176
     0
 90
        0
176
     0
 40
0.6
176
     0
 40
30.0
176
     0
 62
     7
420
 16777215
176
     0
 90
        1
176
     0
 90
        4
176
     0
 62
     7
176
     0
 62
   257
176
     0
 90
        1
176
     0
 90
        1
176
     0
 40
1.0
176
     0
 90
       10
176
     2
 62
     7
176
     0
 40
1.0
176
     0
 90
        1
176
     0
 90
        6
176
     0
 90
        2
176
     0
 62
     7
176
     0
 90
        5
176
     0
 90
        0
176
     0
 90
        0
176
     0
290
     0
176
     0
 90
        1
176
     0
 40
0.0
176
     0
 90
        0
176
     0
290
     0
176
     0
290
     1
176
     0
290
     1
176
     0
290
     0
176
     0
290
     0
176
     0
290
     0
176
     0
290
     0
176
     0
290
     0
176
     0
290
     0
176
     0
 90
       50
176
     0
 40
0.0
176
     0
 40
1.0
176
     0
 90
        0
176
     0
 62
    18
420
        0
176
     0
 90
       50
176
     0
 90
        3
176
     0
 62
     5
420
      255
176
     0
290
     0
176
     0
 90
       50
176
     0
 90
       50
176
     0
 90
       50
176
     0
290
     0
176
     0
 90
       50
176
     0
 62
   256
176
     0
 40
1.0
176
     0
 90
        2
176
     0
  1
strokes_ogs.tif
176
     0
290
     0
176
     0
 40
1.0
176
     0
 40
1.0
176
     0
  0
VISUALSTYLE
  5
38
102
{ACAD_REACTORS
330
2A
102
}
330
2A
100
AcDbVisualStyle
  2
Linepattern
 70
    14
177
     3
291
     1
 70
    58
 90
        2
176
     1
 90
        2
176
     1
 90
        0
176
     1
 90
        0
176
     1
 40
0.6
176
     1
 40
30.0
176
     1
 62
     7
420
 16777215
176
     1
 90
        1
176
     1
 90
        4
176
     1
 62
     7
176
     1
 62
   257
176
     1
 90
        7
176
     1
 90
        7
176
     1
 40
1.0
176
     1
 90
        8
176
     1
 62
     7
176
     1
 40
1.0
176
     1
 90
        1
176
     1
 90
        6
176
     1
 90
        2
176
     1
 62
     7
176
     1
 90
        5
176
     1
 90
        0
176
     1
 90
        0
176
     1
290
     0
176
     1
 90
        1
176
     1
 40
0.0
176
     1
 90
        0
176
     1
290
     0
176
     1
290
     1
176
     1
290
     1
176
     1
290
     0
176
     1
290
     0
176
     1
290
     0
176
     1
290
     0
176
     1
290
     0
176
     1
290
     0
176
     1
 90
       50
176
     1
 40
0.0
176
     1
 40
1.0
176
     1
 90
        0
176
     1
 62
    18
420
        0
176
     1
 90
       50
176
     1
 90
        3
176
     1
 62
     5
420
      255
176
     1
290
     0
176
     1
 90
       50
176
     1
 90
       50
176
     1
 90
       50
176
     1
290
     0
176
     1
 90
       50
176
     1
 62
   256
176
     0
 40
1.0
176
     0
 90
        2
176
     1
  1
strokes_ogs.tif
176
     1
290
     0
176
     1
 40
1.0
176
     1
 40
1.0
176
     1
  0
VISUALSTYLE
  5
3C
102
{ACAD_REACTORS
330
2A
102
}
330
2A
100
AcDbVisualStyle
  2
OverhangOff
 70
    21
177
     3
291
     1
 70
    58
 90
        2
176
     0
 90
        2
176
     0
 90
        0
176
     0
 90
        0
176
     0
 40
0.6
176
     0
 40
30.0
176
     0
 62
     7
420
 16777215
176
     0
 90
        1
176
     0
 90
        4
176
     0
 62
     7
176
     0
 62
   257
176
     0
 90
        1
176
     0
 90
        1
176
     0
 40
1.0
176
     0
 90
        9
176
     2
 62
     7
176
     0
 40
1.0
176
     0
 90
        1
176
     0
 90
        6
176
     0
 90
        2
176
     0
 62
     7
176
     0
 90
        5
176
     0
 90
        0
176
     0
 90
        0
176
     0
290
     0
176
     0
 90
        1
176
     0
 40
0.0
176
     0
 90
        0
176
     0
290
     0
176
     0
290
     1
176
     0
290
     1
176
     0
290
     0
176
     0
290
     0
176
     0
290
     0
176
     0
290
     0
176
     0
290
     0
176
     0
290
     0
176
     0
 90
       50
176
     0
 40
0.0
176
     0
 40
1.0
176
     0
 90
        0
176
     0
 62
    18
420
        0
176
     0
 90
       50
176
     0
 90
        3
176
     0
 62
     5
420
      255
176
     0
290
     0
176
     0
 90
       50
176
     0
 90
       50
176
     0
 90
       50
176
     0
290
     0
176
     0
 90
       50
176
     0
 62
   256
176
     0
 40
1.0
176
     0
 90
        2
176
     0
  1
strokes_ogs.tif
176
     0
290
     0
176
     0
 40
1.0
176
     0
 40
1.0
176
     0
  0
VISUALSTYLE
  5
33
102
{ACAD_REACTORS
330
2A
102
}
330
2A
100
AcDbVisualStyle
  2
Realistic
 70
     8
177
     3
291
     0
 70
    58
 90
        2
176
     1
 90
        3
176
     1
 90
        0
176
     1
 90
        2
176
     1
 40
0.6
176
     1
 40
30.0
176
     1
 62
     7
420
 16777215
176
     1
 90
        0
176
     1
 90
        0
176
     1
 62
     7
176
     1
 62
   257
176
     1
 90
        1
176
     1
 90
        1
176
     1
 40
1.0
176
     1
 90
        8
176
     1
 62
   257
176
     1
 40
1.0
176
     1
 90
        1
176
     1
 90
        6
176
     1
 90
        2
176
     1
 62
     7
176
     1
 90
        3
176
     1
 90
        0
176
     1
 90
        0
176
     1
290
     0
176
     1
 90
       13
176
     1
 40
0.0
176
     1
 90
        0
176
     1
290
     0
176
     1
290
     1
176
     1
290
     1
176
     1
290
     0
176
     1
290
     0
176
     1
290
     0
176
     1
290
     0
176
     1
290
     0
176
     1
290
     0
176
     1
 90
       50
176
     1
 40
0.0
176
     1
 40
1.0
176
     1
 90
        0
176
     1
 62
    18
420
        0
176
     1
 90
       50
176
     1
 90
        3
176
     1
 62
     5
420
      255
176
     1
290
     0
176
     1
 90
       50
176
     1
 90
       50
176
     1
 90
       50
176
     1
290
     0
176
     1
 90
       50
176
     1
 62
   256
176
     0
 40
1.0
176
     0
 90
        2
176
     1
  1
strokes_ogs.tif
176
     1
290
     0
176
     1
 40
1.0
176
     1
 40
1.0
176
     1
  0
VISUALSTYLE
  5
42
102
{ACAD_REACTORS
330
2A
102
}
330
2A
100
AcDbVisualStyle
  2
Shaded
 70
    27
177
     3
291
     0
 70
    58
 90
        2
176
     1
 90
        2
176
     1
 90
        1
176
     1
 90
        2
176
     1
 40
0.6
176
     1
 40
30.0
176
     1
 62
     7
420
 16777215
176
     1
 90
        0
176
     1
 90
        4
176
     1
 62
     7
176
     1
 62
   257
176
     1
 90
        1
176
     1
 90
        1
176
     1
 40
1.0
176
     1
 90
        8
176
     1
 62
   257
176
     1
 40
1.0
176
     1
 90
        1
176
     1
 90
        6
176
     1
 90
        2
176
     1
 62
     8
420
  7895160
176
     1
 90
        3
176
     1
 90
        0
176
     1
 90
        0
176
     1
290
     0
176
     1
 90
        5
176
     1
 40
0.0
176
     1
 90
        0
176
     1
290
     0
176
     1
290
     1
176
     1
290
     1
176
     1
290
     0
176
     1
290
     0
176
     1
290
     0
176
     1
290
     0
176
     1
290
     0
176
     1
290
     0
176
     1
 90
       50
176
     1
 40
0.0
176
     1
 40
1.0
176
     1
 90
        0
176
     1
 62
    18
420
        0
176
     1
 90
       50
176
     1
 90
        3
176
     1
 62
     5
420
      255
176
     1
290
     0
176
     1
 90
       50
176
     1
 90
       50
176
     1
 90
       50
176
     1
290
     0
176
     1
 90
       50
176
     1
 62
   256
176
     0
 40
1.0
176
     0
 90
        2
176
     1
  1
strokes_ogs.tif
176
     1
290
     0
176
     1
 40
1.0
176
     1
 40
1.0
176
     1
  0
VISUALSTYLE
  5
41
102
{ACAD_REACTORS
330
2A
102
}
330
2A
100
AcDbVisualStyle
  2
Shaded with edges
 70
    26
177
     3
291
     0
 70
    58
 90
        2
176
     1
 90
        2
176
     1
 90
        1
176
     1
 90
        2
176
     1
 40
0.6
176
     1
 40
30.0
176
     1
 62
     7
420
 16777215
176
     1
 90
        1
176
     1
 90
       10
176
     1
 62
     7
176
     1
 62
   257
176
     1
 90
        2
176
     1
 90
        1
176
     1
 40
1.0
176
     1
 90
        8
176
     1
 62
   257
176
     1
 40
1.0
176
     1
 90
        1
176
     1
 90
        6
176
     1
 90
        2
176
     1
 62
     7
176
     1
 90
        3
176
     1
 90
        0
176
     1
 90
        0
176
     1
290
     0
176
     1
 90
        5
176
     1
 40
0.0
176
     1
 90
        0
176
     1
290
     0
176
     1
290
     1
176
     1
290
     1
176
     1
290
     0
176
     1
290
     0
176
     1
290
     0
176
     1
290
     0
176
     1
290
     0
176
     1
290
     0
176
     1
 90
       50
176
     1
 40
0.0
176
     1
 40
1.0
176
     1
 90
        0
176
     1
 62
    18
420
        0
176
     1
 90
       50
176
     1
 90
        3
176
     1
 62
     5
420
      255
176
     1
290
     0
176
     1
 90
       50
176
     1
 90
       50
176
     1
 90
       50
176
     1
290
     0
176
     1
 90
       50
176
     1
 62
   256
176
     0
 40
1.0
176
     0
 90
        2
176
     1
  1
strokes_ogs.tif
176
     1
290
     0
176
     1
 40
1.0
176
     1
 40
1.0
176
     1
  0
VISUALSTYLE
  5
3E
102
{ACAD_REACTORS
330
2A
102
}
330
2A
100
AcDbVisualStyle
  2
Shades of Gray
 70
    23
177
     3
291
     0
 70
    58
 90
        2
176
     1
 90
        2
176
     1
 90
        3
176
     1
 90
        0
176
     1
 40
0.6
176
     1
 40
30.0
176
     1
 62
     7
420
 16777215
176
     1
 90
        2
176
     1
 90
        2
176
     1
 62
     7
176
     1
 62
     7
176
     1
 90
        1
176
     1
 90
        1
176
     1
 40
40.0
176
     1
 90
        8
176
     1
 62
     7
176
     1
 40
1.0
176
     1
 90
        1
176
     1
 90
        6
176
     1
 90
        2
176
     1
 62
     7
176
     1
 90
        3
176
     1
 90
        0
176
     1
 90
        0
176
     1
290
     0
176
     1
 90
        1
176
     1
 40
0.0
176
     1
 90
        0
176
     1
290
     0
176
     1
290
     1
176
     1
290
     1
176
     1
290
     0
176
     1
290
     0
176
     1
290
     0
176
     1
290
     0
176
     1
290
     0
176
     1
290
     0
176
     1
 90
       50
176
     1
 40
0.0
176
     1
 40
1.0
176
     1
 90
        0
176
     1
 62
    18
420
        0
176
     1
 90
       50
176
     1
 90
        3
176
     1
 62
     5
420
      255
176
     1
290
     0
176
     1
 90
       50
176
     1
 90
       50
176
     1
 90
       50
176
     1
290
     0
176
     1
 90
       50
176
     1
 62
   256
176
     0
 40
1.0
176
     0
 90
        2
176
     1
  1
strokes_ogs.tif
176
     1
290
     0
176
     1
 40
1.0
176
     1
 40
1.0
176
     1
  0
VISUALSTYLE
  5
3F
102
{ACAD_REACTORS
330
2A
102
}
330
2A
100
AcDbVisualStyle
  2
Sketchy
 70
    24
177
     3
291
     0
 70
    58
 90
        1
176
     1
 90
        2
176
     1
 90
        2
176
     1
 90
        0
176
     1
 40
0.6
176
     1
 40
30.0
176
     1
 62
     7
420
 16777215
176
     1
 90
        2
176
     1
 90
        2
176
     1
 62
     7
176
     1
 62
     7
176
     1
 90
        1
176
     1
 90
        1
176
     1
 40
40.0
176
     1
 90
       11
176
     1
 62
     7
176
     1
 40
1.0
176
     1
 90
        1
176
     1
 90
        6
176
     1
 90
        2
176
     1
 62
     7
176
     1
 90
        6
176
     1
 90
        0
176
     1
 90
        0
176
     1
290
     0
176
     1
 90
        1
176
     1
 40
0.0
176
     1
 90
        0
176
     1
290
     0
176
     1
290
     1
176
     1
290
     1
176
     1
290
     0
176
     1
290
     0
176
     1
290
     0
176
     1
290
     0
176
     1
290
     0
176
     1
290
     0
176
     1
 90
       50
176
     1
 40
0.0
176
     1
 40
1.0
176
     1
 90
        0
176
     1
 62
    18
420
        0
176
     1
 90
       50
176
     1
 90
        3
176
     1
 62
     5
420
      255
176
     1
290
     0
176
     1
 90
       50
176
     1
 90
       50
176
     1
 90
       50
176
     1
290
     0
176
     1
 90
       50
176
     1
 62
   256
176
     0
 40
1.0
176
     0
 90
        2
176
     1
  1
strokes_ogs.tif
176
     1
290
     0
176
     1
 40
1.0
176
     1
 40
1.0
176
     1
  0
VISUALSTYLE
  5
37
102
{ACAD_REACTORS
330
2A
102
}
330
2A
100
AcDbVisualStyle
  2
Thicken
 70
    13
177
     3
291
     1
 70
    58
 90
        2
176
     1
 90
        2
176
     1
 90
        0
176
     1
 90
        0
176
     1
 40
0.6
176
     1
 40
30.0
176
     1
 62
     7
420
 16777215
176
     1
 90
        1
176
     1
 90
        4
176
     1
 62
     7
176
     1
 62
   257
176
     1
 90
        1
176
     1
 90
        1
176
     1
 40
1.0
176
     1
 90
       12
176
     1
 62
     7
176
     1
 40
1.0
176
     1
 90
        1
176
     1
 90
        6
176
     1
 90
        2
176
     1
 62
     7
176
     1
 90
        5
176
     1
 90
        0
176
     1
 90
        0
176
     1
290
     0
176
     1
 90
        1
176
     1
 40
0.0
176
     1
 90
        0
176
     1
290
     0
176
     1
290
     1
176
     1
290
     1
176
     1
290
     0
176
     1
290
     0
176
     1
290
     0
176
     1
290
     0
176
     1
290
     0
176
     1
290
     0
176
     1
 90
       50
176
     1
 40
0.0
176
     1
 40
1.0
176
     1
 90
        0
176
     1
 62
    18
420
        0
176
     1
 90
       50
176
     1
 90
        3
176
     1
 62
     5
420
      255
176
     1
290
     0
176
     1
 90
       50
176
     1
 90
       50
176
     1
 90
       50
176
     1
290
     0
176
     1
 90
       50
176
     1
 62
   256
176
     0
 40
1.0
176
     0
 90
        2
176
     1
  1
strokes_ogs.tif
176
     1
290
     0
176
     1
 40
1.0
176
     1
 40
1.0
176
     1
  0
VISUALSTYLE
  5
30
102
{ACAD_REACTORS
330
2A
102
}
330
2A
100
AcDbVisualStyle
  2
Wireframe
 70
     5
177
     3
291
     0
 70
    58
 90
        0
176
     1
 90
        2
176
     1
 90
        0
176
     1
 90
        0
176
     1
 40
0.6
176
     1
 40
30.0
176
     1
 62
     7
420
 16777215
176
     1
 90
        1
176
     1
 90
        4
176
     1
 62
     7
176
     1
 62
   257
176
     1
 90
        1
176
     1
 90
        1
176
     1
 40
1.0
176
     1
 90
        0
176
     1
 62
   257
176
     1
 40
1.0
176
     1
 90
        1
176
     1
 90
        6
176
     1
 90
        2
176
     1
 62
     7
176
     1
 90
        3
176
     1
 90
        0
176
     1
 90
        0
176
     1
290
     0
176
     1
 90
        1
176
     1
 40
0.0
176
     1
 90
        0
176
     1
290
     0
176
     1
290
     1
176
     1
290
     1
176
     1
290
     0
176
     1
290
     0
176
     1
290
     0
176
     1
290
     0
176
     1
290
     0
176
     1
290
     0
176
     1
 90
       50
176
     1
 40
0.0
176
     1
 40
1.0
176
     1
 90
        0
176
     1
 62
    18
420
        0
176
     1
 90
       50
176
     1
 90
        3
176
     1
 62
     5
420
      255
176
     1
290
     0
176
     1
 90
       50
176
     1
 90
       50
176
     1
 90
       50
176
     1
290
     0
176
     1
 90
       50
176
     1
 62
   256
176
     0
 40
1.0
176
     0
 90
        2
176
     1
  1
strokes_ogs.tif
176
     1
290
     0
176
     1
 40
1.0
176
     1
 40
1.0
176
     1
  0
VISUALSTYLE
  5
40
102
{ACAD_REACTORS
330
2A
102
}
330
2A
100
AcDbVisualStyle
  2
X-Ray
 70
    25
177
     3
291
     0
 70
    58
 90
        2
176
     1
 90
        2
176
     1
 90
        1
176
     1
 90
        1
176
     1
 40
0.5
176
     1
 40
30.0
176
     1
 62
     7
420
 16777215
176
     1
 90
        1
176
     1
 90
        0
176
     1
 62
     7
176
     1
 62
   257
176
     1
 90
        1
176
     1
 90
        1
176
     1
 40
1.0
176
     1
 90
        8
176
     1
 62
     7
176
     1
 40
1.0
176
     1
 90
        1
176
     1
 90
        6
176
     1
 90
        2
176
     1
 62
     7
176
     1
 90
        3
176
     1
 90
        0
176
     1
 90
        0
176
     1
290
     0
176
     1
 90
       13
176
     1
 40
0.0
176
     1
 90
        0
176
     1
290
     0
176
     1
290
     1
176
     1
290
     1
176
     1
290
     0
176
     1
290
     0
176
     1
290
     0
176
     1
290
     0
176
     1
290
     0
176
     1
290
     0
176
     1
 90
       50
176
     1
 40
0.0
176
     1
 40
1.0
176
     1
 90
        0
176
     1
 62
    18
420
        0
176
     1
 90
       50
176
     1
 90
        3
176
     1
 62
     5
420
      255
176
     1
290
     0
176
     1
 90
       50
176
     1
 90
       50
176
     1
 90
       50
176
     1
290
     0
176
     1
 90
       50
176
     1
 62
   256
176
     0
 40
1.0
176
     0
 90
        2
176
     1
  1
strokes_ogs.tif
176
     1
290
     0
176
     1
 40
1.0
176
     1
 40
1.0
176
     1
  0
DICTIONARYVAR
  5
179
102
{ACAD_REACTORS
330
178
102
}
330
178
100
DictionaryVariables
280
     0
  1
1:1
  0
DICTIONARYVAR
  5
17E
102
{ACAD_REACTORS
330
178
102
}
330
178
100
DictionaryVariables
280
     0
  1
Standard
  0
DICTIONARYVAR
  5
17D
102
{ACAD_REACTORS
330
178
102
}
330
178
100
DictionaryVariables
280
     0
  1
Standard
  0
DICTIONARY
  5
17A
330
6A
100
AcDbDictionary
280
     1
281
     1
  3
ACAD_ROUNDTRIP_2008_TABLESTYLE_CELLSTYLEMAP
360
17B
  0
CELLSTYLEMAP
  5
17B
102
{ACAD_REACTORS
330
17A
102
}
330
17A
100
AcDbCellStyleMap
 90
        3
300
CELLSTYLE
  1
TABLEFORMAT_BEGIN
 90
        5
170
     1
 91
        0
 92
    32768
 62
   257
 93
        1
300
CONTENTFORMAT
  1
CONTENTFORMAT_BEGIN
 90
        0
 91
        0
 92
        4
 93
        0
300

 40
0.0
140
1.0
 94
        5
 62
     0
340
11
144
0.25
309
CONTENTFORMAT_END
171
     1
301
MARGIN
  1
CELLMARGIN_BEGIN
 40
0.06
 40
0.06
 40
0.06
 40
0.06
 40
0.06
 40
0.06
309
CELLMARGIN_END
 94
        6
 95
        1
302
GRIDFORMAT
  1
GRIDFORMAT_BEGIN
 90
        0
 91
        1
 62
     0
 92
       -2
340
14
 93
        0
 40
0.045
309
GRIDFORMAT_END
 95
        2
302
GRIDFORMAT
  1
GRIDFORMAT_BEGIN
 90
        0
 91
        1
 62
     0
 92
       -2
340
14
 93
        0
 40
0.045
309
GRIDFORMAT_END
 95
        4
302
GRIDFORMAT
  1
GRIDFORMAT_BEGIN
 90
        0
 91
        1
 62
     0
 92
       -2
340
14
 93
        0
 40
0.045
309
GRIDFORMAT_END
 95
        8
302
GRIDFORMAT
  1
GRIDFORMAT_BEGIN
 90
        0
 91
        1
 62
     0
 92
       -2
340
14
 93
        0
 40
0.045
309
GRIDFORMAT_END
 95
       16
302
GRIDFORMAT
  1
GRIDFORMAT_BEGIN
 90
        0
 91
        1
 62
     0
 92
       -2
340
14
 93
        0
 40
0.045
309
GRIDFORMAT_END
 95
       32
302
GRIDFORMAT
  1
GRIDFORMAT_BEGIN
 90
        0
 91
        1
 62
     0
 92
       -2
340
14
 93
        0
 40
0.045
309
GRIDFORMAT_END
309
TABLEFORMAT_END
  1
CELLSTYLE_BEGIN
 90
        1
 91
        1
300
_TITLE
309
CELLSTYLE_END
300
CELLSTYLE
  1
TABLEFORMAT_BEGIN
 90
        5
170
     1
 91
        0
 92
        0
 62
   257
 93
        1
300
CONTENTFORMAT
  1
CONTENTFORMAT_BEGIN
 90
        0
 91
        0
 92
        4
 93
        0
300

 40
0.0
140
1.0
 94
        5
 62
     0
340
11
144
0.18
309
CONTENTFORMAT_END
171
     1
301
MARGIN
  1
CELLMARGIN_BEGIN
 40
0.06
 40
0.06
 40
0.06
 40
0.06
 40
0.06
 40
0.06
309
CELLMARGIN_END
 94
        6
 95
        1
302
GRIDFORMAT
  1
GRIDFORMAT_BEGIN
 90
        0
 91
        1
 62
     0
 92
       -2
340
14
 93
        0
 40
0.045
309
GRIDFORMAT_END
 95
        2
302
GRIDFORMAT
  1
GRIDFORMAT_BEGIN
 90
        0
 91
        1
 62
     0
 92
       -2
340
14
 93
        0
 40
0.045
309
GRIDFORMAT_END
 95
        4
302
GRIDFORMAT
  1
GRIDFORMAT_BEGIN
 90
        0
 91
        1
 62
     0
 92
       -2
340
14
 93
        0
 40
0.045
309
GRIDFORMAT_END
 95
        8
302
GRIDFORMAT
  1
GRIDFORMAT_BEGIN
 90
        0
 91
        1
 62
     0
 92
       -2
340
14
 93
        0
 40
0.045
309
GRIDFORMAT_END
 95
       16
302
GRIDFORMAT
  1
GRIDFORMAT_BEGIN
 90
        0
 91
        1
 62
     0
 92
       -2
340
14
 93
        0
 40
0.045
309
GRIDFORMAT_END
 95
       32
302
GRIDFORMAT
  1
GRIDFORMAT_BEGIN
 90
        0
 91
        1
 62
     0
 92
       -2
340
14
 93
        0
 40
0.045
309
GRIDFORMAT_END
309
TABLEFORMAT_END
  1
CELLSTYLE_BEGIN
 90
        2
 91
        1
300
_HEADER
309
CELLSTYLE_END
300
CELLSTYLE
  1
TABLEFORMAT_BEGIN
 90
        5
170
     1
 91
        0
 92
        0
 62
   257
 93
        1
300
CONTENTFORMAT
  1
CONTENTFORMAT_BEGIN
 90
        0
 91
        0
 92
        4
 93
        0
300

 40
0.0
140
1.0
 94
        2
 62
     0
340
11
144
0.18
309
CONTENTFORMAT_END
171
     1
301
MARGIN
  1
CELLMARGIN_BEGIN
 40
0.06
 40
0.06
 40
0.06
 40
0.06
 40
0.06
 40
0.06
309
CELLMARGIN_END
 94
        6
 95
        1
302
GRIDFORMAT
  1
GRIDFORMAT_BEGIN
 90
        0
 91
        1
 62
     0
 92
       -2
340
14
 93
        0
 40
0.045
309
GRIDFORMAT_END
 95
        2
302
GRIDFORMAT
  1
GRIDFORMAT_BEGIN
 90
        0
 91
        1
 62
     0
 92
       -2
340
14
 93
        0
 40
0.045
309
GRIDFORMAT_END
 95
        4
302
GRIDFORMAT
  1
GRIDFORMAT_BEGIN
 90
        0
 91
        1
 62
     0
 92
       -2
340
14
 93
        0
 40
0.045
309
GRIDFORMAT_END
 95
        8
302
GRIDFORMAT
  1
GRIDFORMAT_BEGIN
 90
        0
 91
        1
 62
     0
 92
       -2
340
14
 93
        0
 40
0.045
309
GRIDFORMAT_END
 95
       16
302
GRIDFORMAT
  1
GRIDFORMAT_BEGIN
 90
        0
 91
        1
 62
     0
 92
       -2
340
14
 93
        0
 40
0.045
309
GRIDFORMAT_END
 95
       32
302
GRIDFORMAT
  1
GRIDFORMAT_BEGIN
 90
        0
 91
        1
 62
     0
 92
       -2
340
14
 93
        0
 40
0.045
309
GRIDFORMAT_END
309
TABLEFORMAT_END
  1
CELLSTYLE_BEGIN
 90
        3
 91
        2
300
_DATA
309
CELLSTYLE_END
  0
ENDSEC
  0
EOF