0
SECTION
  2
HEADER
  9
$ACADVER
  1
AC1027
  9
$ACADMAINTVER
 70
     8
  9
$DWGCODEPAGE
  3
ANSI_1252
  9
$REQUIREDVERSIONS
160
                 0
  9
$COMMENTS
  1
File was created by Cadenas
  9
$CUSTOMPROPERTYTAG
  1
NN
  9
$CUSTOMPROPERTY
  1
Set Screw Four-Bolt Flange Inch Bore - Polymer Housing, Corrosion Resistant Insert
  9
$CUSTOMPROPERTYTAG
  1
NT
  9
$CUSTOMPROPERTY
  1
SC 4 Bolt Flange Bearings -(Normal Duty) -Corrosion Resistant Insert -Polymer Housed -E-Z KLEEN
  9
$CUSTOMPROPERTYTAG
  1
NB
  9
$CUSTOMPROPERTY
  1
127522
  9
$CUSTOMPROPERTYTAG
  1
NBSYN
  9
$CUSTOMPROPERTY
  1
$PN.
  9
$CUSTOMPROPERTYTAG
  1
LINA
  9
$CUSTOMPROPERTY
  1
127522
  9
$CUSTOMPROPERTYTAG
  1
SERIES
  9
$CUSTOMPROPERTY
  1
209
  9
$CUSTOMPROPERTYTAG
  1
SS
  9
$CUSTOMPROPERTY
  1
1-11/16
  9
$CUSTOMPROPERTYTAG
  1
PN
  9
$CUSTOMPROPERTY
  1
127522
  9
$CUSTOMPROPERTYTAG
  1
DESCRIPTION
  9
$CUSTOMPROPERTY
  1
F4B-SCEZ-111-PCR
  9
$CUSTOMPROPERTYTAG
  1
WEIGHT
  9
$CUSTOMPROPERTY
  1
2.00
  9
$CUSTOMPROPERTYTAG
  1
A
  9
$CUSTOMPROPERTY
  1
1.94
  9
$CUSTOMPROPERTYTAG
  1
B
  9
$CUSTOMPROPERTY
  1
5.38
  9
$CUSTOMPROPERTYTAG
  1
C
  9
$CUSTOMPROPERTY
  1
2.10
  9
$CUSTOMPROPERTYTAG
  1
D
  9
$CUSTOMPROPERTY
  1
4.13
  9
$CUSTOMPROPERTYTAG
  1
F
  9
$CUSTOMPROPERTY
  1
9/16
  9
$CUSTOMPROPERTYTAG
  1
H
  9
$CUSTOMPROPERTY
  1
0.72
  9
$CUSTOMPROPERTYTAG
  1
J
  9
$CUSTOMPROPERTY
  1
0.62
  9
$CUSTOMPROPERTYTAG
  1
L
  9
$CUSTOMPROPERTY
  1
2.22
  9
$CUSTOMPROPERTYTAG
  1
COMPANY
  9
$CUSTOMPROPERTY
  1
baldor
  9
$INSBASE
 10
0.0
 20
0.0
 30
0.0
  9
$EXTMIN
 10
1.000000000000000E+20
 20
1.000000000000000E+20
 30
1.000000000000000E+20
  9
$EXTMAX
 10
-1.000000000000000E+20
 20
-1.000000000000000E+20
 30
-1.000000000000000E+20
  9
$LIMMIN
 10
0.0
 20
0.0
  9
$LIMMAX
 10
12.0
 20
9.0
  9
$ORTHOMODE
 70
     0
  9
$REGENMODE
 70
     1
  9
$FILLMODE
 70
     1
  9
$QTEXTMODE
 70
     0
  9
$MIRRTEXT
 70
     1
  9
$LTSCALE
 40
1.0
  9
$ATTMODE
 70
     1
  9
$TEXTSIZE
 40
0.2
  9
$TRACEWID
 40
0.05
  9
$TEXTSTYLE
  7
Standard
  9
$CLAYER
  8
0
  9
$CELTYPE
  6
ByLayer
  9
$CECOLOR
 62
   256
  9
$CELTSCALE
 40
1.0
  9
$DISPSILH
 70
     0
  9
$DIMSCALE
 40
1.0
  9
$DIMASZ
 40
0.18
  9
$DIMEXO
 40
0.0625
  9
$DIMDLI
 40
0.38
  9
$DIMRND
 40
0.0
  9
$DIMDLE
 40
0.0
  9
$DIMEXE
 40
0.18
  9
$DIMTP
 40
0.0
  9
$DIMTM
 40
0.0
  9
$DIMTXT
 40
0.18
  9
$DIMCEN
 40
0.09
  9
$DIMTSZ
 40
0.0
  9
$DIMTOL
 70
     0
  9
$DIMLIM
 70
     0
  9
$DIMTIH
 70
     1
  9
$DIMTOH
 70
     1
  9
$DIMSE1
 70
     0
  9
$DIMSE2
 70
     0
  9
$DIMTAD
 70
     0
  9
$DIMZIN
 70
     0
  9
$DIMBLK
  1

  9
$DIMASO
 70
     1
  9
$DIMSHO
 70
     1
  9
$DIMPOST
  1

  9
$DIMAPOST
  1

  9
$DIMALT
 70
     0
  9
$DIMALTD
 70
     2
  9
$DIMALTF
 40
25.4
  9
$DIMLFAC
 40
1.0
  9
$DIMTOFL
 70
     0
  9
$DIMTVP
 40
0.0
  9
$DIMTIX
 70
     0
  9
$DIMSOXD
 70
     0
  9
$DIMSAH
 70
     0
  9
$DIMBLK1
  1

  9
$DIMBLK2
  1

  9
$DIMSTYLE
  2
Standard
  9
$DIMCLRD
 70
     0
  9
$DIMCLRE
 70
     0
  9
$DIMCLRT
 70
     0
  9
$DIMTFAC
 40
1.0
  9
$DIMGAP
 40
0.09
  9
$DIMJUST
 70
     0
  9
$DIMSD1
 70
     0
  9
$DIMSD2
 70
     0
  9
$DIMTOLJ
 70
     1
  9
$DIMTZIN
 70
     0
  9
$DIMALTZ
 70
     0
  9
$DIMALTTZ
 70
     0
  9
$DIMUPT
 70
     0
  9
$DIMDEC
 70
     4
  9
$DIMTDEC
 70
     4
  9
$DIMALTU
 70
     2
  9
$DIMALTTD
 70
     2
  9
$DIMTXSTY
  7
Standard
  9
$DIMAUNIT
 70
     0
  9
$DIMADEC
 70
     0
  9
$DIMALTRND
 40
0.0
  9
$DIMAZIN
 70
     0
  9
$DIMDSEP
 70
    46
  9
$DIMATFIT
 70
     3
  9
$DIMFRAC
 70
     0
  9
$DIMLDRBLK
  1

  9
$DIMLUNIT
 70
     2
  9
$DIMLWD
 70
    -2
  9
$DIMLWE
 70
    -2
  9
$DIMTMOVE
 70
     0
  9
$DIMFXL
 40
1.0
  9
$DIMFXLON
 70
     0
  9
$DIMJOGANG
 40
0.7853981633974483
  9
$DIMTFILL
 70
     0
  9
$DIMTFILLCLR
 70
     0
  9
$DIMARCSYM
 70
     0
  9
$DIMLTYPE
  6

  9
$DIMLTEX1
  6

  9
$DIMLTEX2
  6

  9
$DIMTXTDIRECTION
 70
     0
  9
$LUNITS
 70
     2
  9
$LUPREC
 70
     4
  9
$SKETCHINC
 40
0.1
  9
$FILLETRAD
 40
0.5
  9
$AUNITS
 70
     0
  9
$AUPREC
 70
     0
  9
$MENU
  1
.
  9
$ELEVATION
 40
0.0
  9
$PELEVATION
 40
0.0
  9
$THICKNESS
 40
0.0
  9
$LIMCHECK
 70
     0
  9
$CHAMFERA
 40
0.0
  9
$CHAMFERB
 40
0.0
  9
$CHAMFERC
 40
0.0
  9
$CHAMFERD
 40
0.0
  9
$SKPOLY
 70
     0
  9
$TDCREATE
 40
2458168.997287673
  9
$TDUCREATE
 40
2458168.955621007
  9
$TDUPDATE
 40
2458168.997287847
  9
$TDUUPDATE
 40
2458168.955621181
  9
$TDINDWG
 40
0.0000000116
  9
$TDUSRTIMER
 40
0.0000000116
  9
$USRTIMER
 70
     1
  9
$ANGBASE
 50
0.0
  9
$ANGDIR
 70
     0
  9
$PDMODE
 70
     0
  9
$PDSIZE
 40
0.0
  9
$PLINEWID
 40
0.0
  9
$SPLFRAME
 70
     0
  9
$SPLINETYPE
 70
     6
  9
$SPLINESEGS
 70
     8
  9
$HANDSEED
  5
172
  9
$SURFTAB1
 70
     6
  9
$SURFTAB2
 70
     6
  9
$SURFTYPE
 70
     6
  9
$SURFU
 70
     6
  9
$SURFV
 70
     6
  9
$UCSBASE
  2

  9
$UCSNAME
  2

  9
$UCSORG
 10
0.0
 20
0.0
 30
0.0
  9
$UCSXDIR
 10
1.0
 20
0.0
 30
0.0
  9
$UCSYDIR
 10
0.0
 20
1.0
 30
0.0
  9
$UCSORTHOREF
  2

  9
$UCSORTHOVIEW
 70
     0
  9
$UCSORGTOP
 10
0.0
 20
0.0
 30
0.0
  9
$UCSORGBOTTOM
 10
0.0
 20
0.0
 30
0.0
  9
$UCSORGLEFT
 10
0.0
 20
0.0
 30
0.0
  9
$UCSORGRIGHT
 10
0.0
 20
0.0
 30
0.0
  9
$UCSORGFRONT
 10
0.0
 20
0.0
 30
0.0
  9
$UCSORGBACK
 10
0.0
 20
0.0
 30
0.0
  9
$PUCSBASE
  2

  9
$PUCSNAME
  2

  9
$PUCSORG
 10
0.0
 20
0.0
 30
0.0
  9
$PUCSXDIR
 10
1.0
 20
0.0
 30
0.0
  9
$PUCSYDIR
 10
0.0
 20
1.0
 30
0.0
  9
$PUCSORTHOREF
  2

  9
$PUCSORTHOVIEW
 70
     0
  9
$PUCSORGTOP
 10
0.0
 20
0.0
 30
0.0
  9
$PUCSORGBOTTOM
 10
0.0
 20
0.0
 30
0.0
  9
$PUCSORGLEFT
 10
0.0
 20
0.0
 30
0.0
  9
$PUCSORGRIGHT
 10
0.0
 20
0.0
 30
0.0
  9
$PUCSORGFRONT
 10
0.0
 20
0.0
 30
0.0
  9
$PUCSORGBACK
 10
0.0
 20
0.0
 30
0.0
  9
$USERI1
 70
     0
  9
$USERI2
 70
     0
  9
$USERI3
 70
     0
  9
$USERI4
 70
     0
  9
$USERI5
 70
     0
  9
$USERR1
 40
0.0
  9
$USERR2
 40
0.0
  9
$USERR3
 40
0.0
  9
$USERR4
 40
0.0
  9
$USERR5
 40
0.0
  9
$WORLDVIEW
 70
     1
  9
$SHADEDGE
 70
     3
  9
$SHADEDIF
 70
    70
  9
$TILEMODE
 70
     1
  9
$MAXACTVP
 70
    64
  9
$PINSBASE
 10
0.0
 20
0.0
 30
0.0
  9
$PLIMCHECK
 70
     0
  9
$PEXTMIN
 10
1.000000000000000E+20
 20
1.000000000000000E+20
 30
1.000000000000000E+20
  9
$PEXTMAX
 10
-1.000000000000000E+20
 20
-1.000000000000000E+20
 30
-1.000000000000000E+20
  9
$PLIMMIN
 10
0.0
 20
0.0
  9
$PLIMMAX
 10
12.0
 20
9.0
  9
$UNITMODE
 70
     0
  9
$VISRETAIN
 70
     1
  9
$PLINEGEN
 70
     0
  9
$PSLTSCALE
 70
     1
  9
$TREEDEPTH
 70
  3020
  9
$CMLSTYLE
  2
Standard
  9
$CMLJUST
 70
     0
  9
$CMLSCALE
 40
1.0
  9
$PROXYGRAPHICS
 70
     1
  9
$MEASUREMENT
 70
     0
  9
$CELWEIGHT
370
    -1
  9
$ENDCAPS
280
     0
  9
$JOINSTYLE
280
     0
  9
$LWDISPLAY
290
     0
  9
$INSUNITS
 70
     1
  9
$HYPERLINKBASE
  1

  9
$STYLESHEET
  1

  9
$XEDIT
290
     1
  9
$CEPSNTYPE
380
     0
  9
$PSTYLEMODE
290
     1
  9
$FINGERPRINTGUID
  2
{AD5FA7D2-B831-4B59-B587-C5B017433E3D}
  9
$VERSIONGUID
  2
{FAEB1C32-E019-11D5-929B-00C0DF256EC4}
  9
$EXTNAMES
290
     1
  9
$PSVPSCALE
 40
0.0
  9
$OLESTARTUP
290
     0
  9
$SORTENTS
280
   127
  9
$INDEXCTL
280
     0
  9
$HIDETEXT
280
     1
  9
$XCLIPFRAME
280
     2
  9
$HALOGAP
280
     0
  9
$OBSCOLOR
 70
   257
  9
$OBSLTYPE
280
     0
  9
$INTERSECTIONDISPLAY
280
     0
  9
$INTERSECTIONCOLOR
 70
   257
  9
$DIMASSOC
280
     2
  9
$PROJECTNAME
  1

  9
$CAMERADISPLAY
290
     0
  9
$LENSLENGTH
 40
50.0
  9
$CAMERAHEIGHT
 40
0.0
  9
$STEPSPERSEC
 40
2.0
  9
$STEPSIZE
 40
6.0
  9
$3DDWFPREC
 40
2.0
  9
$PSOLWIDTH
 40
0.25
  9
$PSOLHEIGHT
 40
4.0
  9
$LOFTANG1
 40
1.570796326794897
  9
$LOFTANG2
 40
1.570796326794897
  9
$LOFTMAG1
 40
0.0
  9
$LOFTMAG2
 40
0.0
  9
$LOFTPARAM
 70
     7
  9
$LOFTNORMALS
280
     1
  9
$LATITUDE
 40
37.795
  9
$LONGITUDE
 40
-122.394
  9
$NORTHDIRECTION
 40
0.0
  9
$TIMEZONE
 70
 -8000
  9
$LIGHTGLYPHDISPLAY
280
     1
  9
$TILEMODELIGHTSYNCH
280
     1
  9
$CMATERIAL
347
44
  9
$SOLIDHIST
280
     0
  9
$SHOWHIST
280
     1
  9
$DWFFRAME
280
     2
  9
$DGNFRAME
280
     2
  9
$REALWORLDSCALE
290
     1
  9
$INTERFERECOLOR
 62
   256
  9
$CSHADOW
280
     0
  9
$SHADOWPLANELOCATION
 40
0.0
  0
ENDSEC
  0
SECTION
  2
CLASSES
  0
CLASS
  1
ACDBDICTIONARYWDFLT
  2
AcDbDictionaryWithDefault
  3
ObjectDBX Classes
 90
        0
 91
        4
280
     0
281
     0
  0
CLASS
  1
VISUALSTYLE
  2
AcDbVisualStyle
  3
ObjectDBX Classes
 90
     4095
 91
        4
280
     0
281
     0
  0
CLASS
  1
MATERIAL
  2
AcDbMaterial
  3
ObjectDBX Classes
 90
     1153
 91
        4
280
     0
281
     0
  0
CLASS
  1
SCALE
  2
AcDbScale
  3
ObjectDBX Classes
 90
     1153
 91
        4
280
     0
281
     0
  0
CLASS
  1
TABLESTYLE
  2
AcDbTableStyle
  3
ObjectDBX Classes
 90
     4095
 91
        4
280
     0
281
     0
  0
CLASS
  1
MLEADERSTYLE
  2
AcDbMLeaderStyle
  3
ACDB_MLEADERSTYLE_CLASS
 90
     4095
 91
        4
280
     0
281
     0
  0
CLASS
  1
SUN
  2
AcDbSun
  3
SCENEOE
 90
     1153
 91
        4
280
     0
281
     0
  0
CLASS
  1
DICTIONARYVAR
  2
AcDbDictionaryVar
  3
ObjectDBX Classes
 90
        0
 91
        4
280
     0
281
     0
  0
CLASS
  1
CELLSTYLEMAP
  2
AcDbCellStyleMap
  3
ObjectDBX Classes
 90
     1152
 91
        4
280
     0
281
     0
  0
ENDSEC
  0
SECTION
  2
TABLES
  0
TABLE
  2
VPORT
  5
8
330
0
100
AcDbSymbolTable
 70
     1
  0
VPORT
  5
29
330
8
100
AcDbSymbolTableRecord
100
AcDbViewportTableRecord
  2
*Active
 70
     0
 10
0.0
 20
0.0
 11
1.0
 21
1.0
 12
0.0
 22
-1.061500000000001
 13
0.0
 23
0.0
 14
0.5
 24
0.5
 15
0.5
 25
0.5
 16
0.0
 26
0.0
 36
1.0
 17
0.0
 27
0.0
 37
0.0
 40
2.316420000000001
 41
2.369000440334653
 42
50.0
 43
0.0
 44
0.0
 50
0.0
 51
0.0
 71
     0
 72
   100
 73
     1
 74
     3
 75
     0
 76
     0
 77
     0
 78
     0
281
     0
 65
     1
110
0.0
120
0.0
130
0.0
111
1.0
121
0.0
131
0.0
112
0.0
122
1.0
132
0.0
 79
     0
146
0.0
348
2F
 60
     3
 61
     5
292
     1
282
     1
141
0.0
142
0.0
 63
   250
361
6D
  0
ENDTAB
  0
TABLE
  2
LTYPE
  5
5
330
0
100
AcDbSymbolTable
 70
     3
  0
LTYPE
  5
14
330
5
100
AcDbSymbolTableRecord
100
AcDbLinetypeTableRecord
  2
ByBlock
 70
     0
  3

 72
    65
 73
     0
 40
0.0
  0
LTYPE
  5
15
330
5
100
AcDbSymbolTableRecord
100
AcDbLinetypeTableRecord
  2
ByLayer
 70
     0
  3

 72
    65
 73
     0
 40
0.0
  0
LTYPE
  5
16
330
5
100
AcDbSymbolTableRecord
100
AcDbLinetypeTableRecord
  2
Continuous
 70
     0
  3
Solid line
 72
    65
 73
     0
 40
0.0
  0
LTYPE
  5
98
330
5
100
AcDbSymbolTableRecord
100
AcDbLinetypeTableRecord
  2
Dashed
 70
     0
  3

 72
    65
 73
     2
 40
2.0
 49
1.0
 74
     0
 49
-1.0
 74
     0
  0
LTYPE
  5
9F
330
5
100
AcDbSymbolTableRecord
100
AcDbLinetypeTableRecord
  2
Center
 70
     0
  3

 72
    65
 73
     4
 40
1.5
 49
0.45
 74
     0
 49
-0.5
 74
     0
 49
0.05
 74
     0
 49
-0.5
 74
     0
  0
ENDTAB
  0
TABLE
  2
LAYER
  5
2
330
0
100
AcDbSymbolTable
 70
     7
  0
LAYER
  5
10
330
2
100
AcDbSymbolTableRecord
100
AcDbLayerTableRecord
  2
0
 70
     0
 62
     7
  6
Continuous
370
    -3
390
F
347
46
348
0
  0
LAYER
  5
72
330
2
100
AcDbSymbolTableRecord
100
AcDbLayerTableRecord
  2
AM_6
 70
     0
 62
    -2
  6
Continuous
370
    35
390
F
347
46
348
0
  0
LAYER
  5
99
330
2
100
AcDbSymbolTableRecord
100
AcDbLayerTableRecord
  2
AM_9
 70
     0
 62
     6
  6
Dashed
370
    25
390
F
347
46
348
0
  0
LAYER
  5
A0
330
2
100
AcDbSymbolTableRecord
100
AcDbLayerTableRecord
  2
AM_7
 70
     0
 62
     7
  6
Center
370
    25
390
F
347
46
348
0
  0
LAYER
  5
A2
330
2
100
AcDbSymbolTableRecord
100
AcDbLayerTableRecord
  2
AM_4
 70
     0
 62
     7
  6
Continuous
370
    50
390
F
347
46
348
0
  0
LAYER
  5
10A
330
2
100
AcDbSymbolTableRecord
100
AcDbLayerTableRecord
  2
AM_5
 70
     0
 62
     3
  6
Continuous
370
    25
390
F
347
46
348
0
  0
LAYER
  5
164
330
2
100
AcDbSymbolTableRecord
100
AcDbLayerTableRecord
  2
ConnectionPoints
 70
     0
 62
     7
  6
Continuous
370
    50
390
F
347
46
348
0
  0
ENDTAB
  0
TABLE
  2
STYLE
  5
3
330
0
100
AcDbSymbolTable
 70
     1
  0
STYLE
  5
11
330
3
100
AcDbSymbolTableRecord
100
AcDbTextStyleTableRecord
  2
Standard
 70
     0
 40
0.0
 41
1.0
 50
0.0
 71
     0
 42
0.2
  3
txt
  4

  0
ENDTAB
  0
TABLE
  2
VIEW
  5
6
330
0
100
AcDbSymbolTable
 70
     0
  0
ENDTAB
  0
TABLE
  2
UCS
  5
7
330
0
100
AcDbSymbolTable
 70
     0
  0
ENDTAB
  0
TABLE
  2
APPID
  5
9
330
0
100
AcDbSymbolTable
 70
     1
  0
APPID
  5
12
330
9
100
AcDbSymbolTableRecord
100
AcDbRegAppTableRecord
  2
ACAD
 70
     0
  0
ENDTAB
  0
TABLE
  2
DIMSTYLE
  5
A
330
0
100
AcDbSymbolTable
 70
     1
100
AcDbDimStyleTable
  0
DIMSTYLE
105
27
330
A
100
AcDbSymbolTableRecord
100
AcDbDimStyleTableRecord
  2
Standard
 70
     0
178
     0
340
11
  0
ENDTAB
  0
TABLE
  2
BLOCK_RECORD
  5
1
330
0
100
AcDbSymbolTable
 70
     5
  0
BLOCK_RECORD
  5
1F
330
1
100
AcDbSymbolTableRecord
100
AcDbBlockTableRecord
  2
*Model_Space
340
22
 70
     0
280
     1
281
     0
  0
BLOCK_RECORD
  5
1B
330
1
100
AcDbSymbolTableRecord
100
AcDbBlockTableRecord
  2
*Paper_Space
340
1E
 70
     0
280
     1
281
     0
  0
BLOCK_RECORD
  5
23
330
1
100
AcDbSymbolTableRecord
100
AcDbBlockTableRecord
  2
*Paper_Space0
340
26
 70
     0
280
     1
281
     0
  0
BLOCK_RECORD
  5
6E
330
1
100
AcDbSymbolTableRecord
100
AcDbBlockTableRecord
  2
1_127522_4
340
0
102
{BLKREFS
331
6F
102
}
 70
     0
280
     1
281
     0
  0
BLOCK_RECORD
  5
86
330
1
100
AcDbSymbolTableRecord
100
AcDbBlockTableRecord
  2
2_405020c_Inch_0_in_127522_4
340
0
102
{BLKREFS
331
87
102
}
 70
     0
280
     1
281
     0
  0
BLOCK_RECORD
  5
AE
330
1
100
AcDbSymbolTableRecord
100
AcDbBlockTableRecord
  2
3_125004_0_in_127522_4
340
0
102
{BLKREFS
331
AF
102
}
 70
     0
280
     1
281
     0
  0
BLOCK_RECORD
  5
10D
330
1
100
AcDbSymbolTableRecord
100
AcDbBlockTableRecord
  2
4_127522H_0_in_127522_4
340
0
102
{BLKREFS
331
10E
102
}
 70
     0
280
     1
281
     0
  0
ENDTAB
  0
ENDSEC
  0
SECTION
  2
BLOCKS
  0
BLOCK
  5
20
330
1F
100
AcDbEntity
  8
0
100
AcDbBlockBegin
  2
*Model_Space
 70
     0
 10
0.0
 20
0.0
 30
0.0
  3
*Model_Space
  1

  0
ENDBLK
  5
21
330
1F
100
AcDbEntity
  8
0
100
AcDbBlockEnd
  0
BLOCK
  5
1C
330
1B
100
AcDbEntity
 67
     1
  8
0
100
AcDbBlockBegin
  2
*Paper_Space
 70
     0
 10
0.0
 20
0.0
 30
0.0
  3
*Paper_Space
  1

  0
ENDBLK
  5
1D
330
1B
100
AcDbEntity
 67
     1
  8
0
100
AcDbBlockEnd
  0
BLOCK
  5
24
330
23
100
AcDbEntity
  8
0
100
AcDbBlockBegin
  2
*Paper_Space0
 70
     0
 10
0.0
 20
0.0
 30
0.0
  3
*Paper_Space0
  1

  0
ENDBLK
  5
25
330
23
100
AcDbEntity
  8
0
100
AcDbBlockEnd
  0
BLOCK
  5
70
330
6E
100
AcDbEntity
  8
0
100
AcDbBlockBegin
  2
1_127522_4
 70
     2
 10
0.0
 20
0.0
 30
0.0
  3
1_127522_4
  1

  0
ATTDEF
  5
73
330
6E
100
AcDbEntity
  8
AM_6
100
AcDbText
 10
7.69
 20
0.074
 30
0.0
 40
0.5
  1
Set Screw Four-Bolt Flange Inch Bore - Polymer Housing, Corrosion Resistant Insert
100
AcDbAttributeDefinition
  3

  2
NN
 70
     8
280
     0
  0
ATTDEF
  5
74
330
6E
100
AcDbEntity
  8
AM_6
100
AcDbText
 10
7.69
 20
-0.426
 30
0.0
 40
0.5
  1
SC 4 Bolt Flange Bearings -(Normal Duty) -Corrosion Resistant Insert -Polymer Housed -E-Z KLEEN
100
AcDbAttributeDefinition
  3

  2
NT
 70
     8
280
     0
  0
ATTDEF
  5
75
330
6E
100
AcDbEntity
  8
AM_6
100
AcDbText
 10
7.69
 20
-0.9259999999999999
 30
0.0
 40
0.5
  1
127522
100
AcDbAttributeDefinition
  3

  2
NB
 70
     8
280
     0
  0
ATTDEF
  5
76
330
6E
100
AcDbEntity
  8
AM_6
100
AcDbText
 10
7.69
 20
-1.426
 30
0.0
 40
0.5
  1
$PN.
100
AcDbAttributeDefinition
  3

  2
NBSYN
 70
     8
280
     0
  0
ATTDEF
  5
77
330
6E
100
AcDbEntity
  8
AM_6
100
AcDbText
 10
7.69
 20
-1.926
 30
0.0
 40
0.5
  1
127522
100
AcDbAttributeDefinition
  3

  2
LINA
 70
     8
280
     0
  0
ATTDEF
  5
78
330
6E
100
AcDbEntity
  8
AM_6
100
AcDbText
 10
7.69
 20
-2.426
 30
0.0
 40
0.5
  1
209
100
AcDbAttributeDefinition
  3

  2
SERIES
 70
     8
280
     0
  0
ATTDEF
  5
79
330
6E
100
AcDbEntity
  8
AM_6
100
AcDbText
 10
7.69
 20
-2.926
 30
0.0
 40
0.5
  1
1-11/16
100
AcDbAttributeDefinition
  3

  2
SS
 70
     8
280
     0
  0
ATTDEF
  5
7A
330
6E
100
AcDbEntity
  8
AM_6
100
AcDbText
 10
7.69
 20
-3.426
 30
0.0
 40
0.5
  1
127522
100
AcDbAttributeDefinition
  3

  2
PN
 70
     8
280
     0
  0
ATTDEF
  5
7B
330
6E
100
AcDbEntity
  8
AM_6
100
AcDbText
 10
7.69
 20
-3.926
 30
0.0
 40
0.5
  1
F4B-SCEZ-111-PCR
100
AcDbAttributeDefinition
  3

  2
DESCRIPTION
 70
     8
280
     0
  0
ATTDEF
  5
7C
330
6E
100
AcDbEntity
  8
AM_6
100
AcDbText
 10
7.69
 20
-4.426
 30
0.0
 40
0.5
  1
2.00
100
AcDbAttributeDefinition
  3

  2
WEIGHT
 70
     8
280
     0
  0
ATTDEF
  5
7D
330
6E
100
AcDbEntity
  8
AM_6
100
AcDbText
 10
7.69
 20
-4.926
 30
0.0
 40
0.5
  1
1.94
100
AcDbAttributeDefinition
  3

  2
A
 70
     8
280
     0
  0
ATTDEF
  5
7E
330
6E
100
AcDbEntity
  8
AM_6
100
AcDbText
 10
7.69
 20
-5.426
 30
0.0
 40
0.5
  1
5.38
100
AcDbAttributeDefinition
  3

  2
B
 70
     8
280
     0
  0
ATTDEF
  5
7F
330
6E
100
AcDbEntity
  8
AM_6
100
AcDbText
 10
7.69
 20
-5.926
 30
0.0
 40
0.5
  1
2.10
100
AcDbAttributeDefinition
  3

  2
C
 70
     8
280
     0
  0
ATTDEF
  5
80
330
6E
100
AcDbEntity
  8
AM_6
100
AcDbText
 10
7.69
 20
-6.426
 30
0.0
 40
0.5
  1
4.13
100
AcDbAttributeDefinition
  3

  2
D
 70
     8
280
     0
  0
ATTDEF
  5
81
330
6E
100
AcDbEntity
  8
AM_6
100
AcDbText
 10
7.69
 20
-6.926
 30
0.0
 40
0.5
  1
9/16
100
AcDbAttributeDefinition
  3

  2
F
 70
     8
280
     0
  0
ATTDEF
  5
82
330
6E
100
AcDbEntity
  8
AM_6
100
AcDbText
 10
7.69
 20
-7.426
 30
0.0
 40
0.5
  1
0.72
100
AcDbAttributeDefinition
  3

  2
H
 70
     8
280
     0
  0
ATTDEF
  5
83
330
6E
100
AcDbEntity
  8
AM_6
100
AcDbText
 10
7.69
 20
-7.926
 30
0.0
 40
0.5
  1
0.62
100
AcDbAttributeDefinition
  3

  2
J
 70
     8
280
     0
  0
ATTDEF
  5
84
330
6E
100
AcDbEntity
  8
AM_6
100
AcDbText
 10
7.69
 20
-8.426
 30
0.0
 40
0.5
  1
2.22
100
AcDbAttributeDefinition
  3

  2
L
 70
     8
280
     0
  0
ATTDEF
  5
85
330
6E
100
AcDbEntity
  8
AM_6
100
AcDbText
 10
7.69
 20
-8.926
 30
0.0
 40
0.5
  1
baldor
100
AcDbAttributeDefinition
  3

  2
COMPANY
 70
     8
280
     0
  0
INSERT
  5
87
330
6E
100
AcDbEntity
  8
0
100
AcDbBlockReference
  2
2_405020c_Inch_0_in_127522_4
 10
0.0
 20
0.0
 30
0.0
  0
INSERT
  5
AF
330
6E
100
AcDbEntity
  8
0
100
AcDbBlockReference
  2
3_125004_0_in_127522_4
 10
0.0
 20
0.0
 30
0.0
  0
INSERT
  5
10E
330
6E
100
AcDbEntity
  8
0
100
AcDbBlockReference
  2
4_127522H_0_in_127522_4
 10
0.0
 20
0.0
 30
0.0
  0
ENDBLK
  5
71
330
6E
100
AcDbEntity
  8
0
100
AcDbBlockEnd
  0
BLOCK
  5
88
330
86
100
AcDbEntity
  8
0
100
AcDbBlockBegin
  2
2_405020c_Inch_0_in_127522_4
 70
     2
 10
0.0
 20
0.0
 30
0.0
  3
2_405020c_Inch_0_in_127522_4
  1

  0
ATTDEF
  5
8A
330
86
100
AcDbEntity
  8
AM_6
100
AcDbText
 10
5.1476825
 20
-0.9375913692769581
 30
0.0
 40
0.5
  1
405020C -Inch
100
AcDbAttributeDefinition
  3

  2
NN
 70
     8
280
     0
  0
ATTDEF
  5
8B
330
86
100
AcDbEntity
  8
AM_6
100
AcDbText
 10
5.1476825
 20
-1.437591369276958
 30
0.0
 40
0.5
  1
Grease fitting
100
AcDbAttributeDefinition
  3

  2
NT
 70
     8
280
     0
  0
ATTDEF
  5
8C
330
86
100
AcDbEntity
  8
AM_6
100
AcDbText
 10
5.1476825
 20
-1.937591369276958
 30
0.0
 40
0.5
  1
405020c-Inch
100
AcDbAttributeDefinition
  3

  2
NB
 70
     8
280
     0
  0
ATTDEF
  5
8D
330
86
100
AcDbEntity
  8
AM_6
100
AcDbText
 10
5.1476825
 20
-2.437591369276958
 30
0.0
 40
0.5
  1
$MN.-Inch
100
AcDbAttributeDefinition
  3

  2
NBSYN
 70
     8
280
     0
  0
ATTDEF
  5
8E
330
86
100
AcDbEntity
  8
AM_6
100
AcDbText
 10
5.1476825
 20
-2.937591369276958
 30
0.0
 40
0.5
  1
405020c
100
AcDbAttributeDefinition
  3

  2
LINA
 70
     8
280
     0
  0
ATTDEF
  5
8F
330
86
100
AcDbEntity
  8
AM_6
100
AcDbText
 10
5.1476825
 20
-3.437591369276958
 30
0.0
 40
0.5
  1
405020c
100
AcDbAttributeDefinition
  3

  2
MN
 70
     8
280
     0
  0
ATTDEF
  5
90
330
86
100
AcDbEntity
  8
AM_6
100
AcDbText
 10
5.1476825
 20
-3.937591369276958
 30
0.0
 40
0.5
  1
0.230
100
AcDbAttributeDefinition
  3

  2
NDR
 70
     8
280
     0
  0
ATTDEF
  5
91
330
86
100
AcDbEntity
  8
AM_6
100
AcDbText
 10
5.1476825
 20
-4.437591369276959
 30
0.0
 40
0.5
  1
0.210
100
AcDbAttributeDefinition
  3

  2
KDR
 70
     8
280
     0
  0
ATTDEF
  5
92
330
86
100
AcDbEntity
  8
AM_6
100
AcDbText
 10
5.1476825
 20
-4.937591369276959
 30
0.0
 40
0.5
  1
0.157
100
AcDbAttributeDefinition
  3

  2
BZE
 70
     8
280
     0
  0
ATTDEF
  5
93
330
86
100
AcDbEntity
  8
AM_6
100
AcDbText
 10
5.1476825
 20
-5.437591369276959
 30
0.0
 40
0.5
  1
9/32
100
AcDbAttributeDefinition
  3

  2
WAF
 70
     8
280
     0
  0
ATTDEF
  5
94
330
86
100
AcDbEntity
  8
AM_6
100
AcDbText
 10
5.1476825
 20
-5.937591369276959
 30
0.0
 40
0.5
  1
0.2813
100
AcDbAttributeDefinition
  3

  2
WAF1
 70
     8
280
     0
  0
ATTDEF
  5
95
330
86
100
AcDbEntity
  8
AM_6
100
AcDbText
 10
5.1476825
 20
-6.437591369276959
 30
0.0
 40
0.5
  1
0.545
100
AcDbAttributeDefinition
  3

  2
BL
 70
     8
280
     0
  0
ATTDEF
  5
96
330
86
100
AcDbEntity
  8
AM_6
100
AcDbText
 10
5.1476825
 20
-6.937591369276959
 30
0.0
 40
0.5
  1
0.200
100
AcDbAttributeDefinition
  3

  2
TL
 70
     8
280
     0
  0
ATTDEF
  5
97
330
86
100
AcDbEntity
  8
AM_6
100
AcDbText
 10
5.1476825
 20
-7.437591369276959
 30
0.0
 40
0.5
  1
baldor
100
AcDbAttributeDefinition
  3

  2
COMPANY
 70
     8
280
     0
  0
CIRCLE
  5
9A
330
86
100
AcDbEntity
  8
AM_9
100
AcDbCircle
 10
0.0
 20
-1.1
 30
0.0
 40
0.1000886227036577
  0
CIRCLE
  5
9B
330
86
100
AcDbEntity
  8
AM_9
100
AcDbCircle
 10
0.0
 20
-1.1
 30
0.0
 40
0.1104162595939891
  0
CIRCLE
  5
9C
330
86
100
AcDbEntity
  8
AM_9
100
AcDbCircle
 10
0.0
 20
-1.1
 30
0.0
 40
0.1163438171532771
  0
CIRCLE
  5
9D
330
86
100
AcDbEntity
  8
AM_9
100
AcDbCircle
 10
0.0
 20
-1.1
 30
0.0
 40
0.1093294505797714
  0
CIRCLE
  5
9E
330
86
100
AcDbEntity
  8
AM_9
100
AcDbCircle
 10
0.0
 20
-1.1
 30
0.0
 40
0.0946847896390988
  0
LINE
  5
A1
330
86
100
AcDbEntity
  8
AM_7
100
AcDbLine
 10
-0.1476825000000011
 20
-1.1
 30
0.0
 11
0.1476825
 21
-1.1
 31
0.0
  0
LINE
  5
A3
330
86
100
AcDbEntity
  8
AM_4
100
AcDbLine
 10
0.14065
 20
-1.181204315361521
 30
0.0
 11
0.14065
 21
-1.018795684638479
 31
0.0
  0
LINE
  5
A4
330
86
100
AcDbEntity
  8
AM_4
100
AcDbLine
 10
0.14065
 20
-1.018795684638479
 30
0.0
 11
0.0
 21
-0.9375913692769581
 31
0.0
  0
LINE
  5
A5
330
86
100
AcDbEntity
  8
AM_4
100
AcDbLine
 10
-0.14065
 20
-1.018795684638479
 30
0.0
 11
-0.14065
 21
-1.181204315361521
 31
0.0
  0
LINE
  5
A6
330
86
100
AcDbEntity
  8
AM_4
100
AcDbLine
 10
-0.14065
 20
-1.181204315361521
 30
0.0
 11
0.0
 21
-1.262408630723042
 31
0.0
  0
LINE
  5
A7
330
86
100
AcDbEntity
  8
AM_4
100
AcDbLine
 10
0.0
 20
-1.262408630723042
 30
0.0
 11
0.14065
 21
-1.181204315361521
 31
0.0
  0
LINE
  5
A8
330
86
100
AcDbEntity
  8
AM_4
100
AcDbLine
 10
0.0
 20
-0.9375913692769581
 30
0.0
 11
-0.14065
 21
-1.018795684638479
 31
0.0
  0
CIRCLE
  5
A9
330
86
100
AcDbEntity
  8
AM_4
100
AcDbCircle
 10
0.0
 20
-1.1
 30
0.0
 40
0.135926521995058
  0
CIRCLE
  5
AA
330
86
100
AcDbEntity
  8
AM_4
100
AcDbCircle
 10
0.0
 20
-1.1
 30
0.0
 40
0.13195176466768
  0
CIRCLE
  5
AB
330
86
100
AcDbEntity
  8
AM_4
100
AcDbCircle
 10
0.0
 20
-1.1
 30
0.0
 40
0.1038190510530391
  0
CIRCLE
  5
AC
330
86
100
AcDbEntity
  8
AM_4
100
AcDbCircle
 10
0.0
 20
-1.1
 30
0.0
 40
0.080806429716728
  0
CIRCLE
  5
AD
330
86
100
AcDbEntity
  8
AM_4
100
AcDbCircle
 10
0.0
 20
-1.099999999999999
 30
0.0
 40
0.1406500000000011
  0
ENDBLK
  5
89
330
86
100
AcDbEntity
  8
0
100
AcDbBlockEnd
  0
BLOCK
  5
B0
330
AE
100
AcDbEntity
  8
0
100
AcDbBlockBegin
  2
3_125004_0_in_127522_4
 70
     2
 10
0.0
 20
0.0
 30
0.0
  3
3_125004_0_in_127522_4
  1

  0
ATTDEF
  5
B2
330
AE
100
AcDbEntity
  8
AM_6
100
AcDbText
 10
6.672772310767183
 20
-0.1600000000000002
 30
0.0
 40
0.5
  1
Set Screw Insert Inch Bore - Corrosion Resistant
100
AcDbAttributeDefinition
  3

  2
NN
 70
     8
280
     0
  0
ATTDEF
  5
B3
330
AE
100
AcDbEntity
  8
AM_6
100
AcDbText
 10
6.672772310767183
 20
-0.6600000000000001
 30
0.0
 40
0.5
  1
SC Normal Duty Bearing Inserts
100
AcDbAttributeDefinition
  3

  2
NT
 70
     8
280
     0
  0
ATTDEF
  5
B4
330
AE
100
AcDbEntity
  8
AM_6
100
AcDbText
 10
6.672772310767183
 20
-1.16
 30
0.0
 40
0.5
  1
125004
100
AcDbAttributeDefinition
  3

  2
NB
 70
     8
280
     0
  0
ATTDEF
  5
B5
330
AE
100
AcDbEntity
  8
AM_6
100
AcDbText
 10
6.672772310767183
 20
-1.66
 30
0.0
 40
0.5
  1
$PN.
100
AcDbAttributeDefinition
  3

  2
NBSYN
 70
     8
280
     0
  0
ATTDEF
  5
B6
330
AE
100
AcDbEntity
  8
AM_6
100
AcDbText
 10
6.672772310767183
 20
-2.16
 30
0.0
 40
0.5
  1
125004
100
AcDbAttributeDefinition
  3

  2
LINA
 70
     8
280
     0
  0
ATTDEF
  5
B7
330
AE
100
AcDbEntity
  8
AM_6
100
AcDbText
 10
6.672772310767183
 20
-2.66
 30
0.0
 40
0.5
  1
209
100
AcDbAttributeDefinition
  3

  2
SERIES
 70
     8
280
     0
  0
ATTDEF
  5
B8
330
AE
100
AcDbEntity
  8
AM_6
100
AcDbText
 10
6.672772310767183
 20
-3.16
 30
0.0
 40
0.5
  1
1-11/16
100
AcDbAttributeDefinition
  3

  2
SS
 70
     8
280
     0
  0
ATTDEF
  5
B9
330
AE
100
AcDbEntity
  8
AM_6
100
AcDbText
 10
6.672772310767183
 20
-3.66
 30
0.0
 40
0.5
  1
125004
100
AcDbAttributeDefinition
  3

  2
PN
 70
     8
280
     0
  0
ATTDEF
  5
BA
330
AE
100
AcDbEntity
  8
AM_6
100
AcDbText
 10
6.672772310767183
 20
-4.16
 30
0.0
 40
0.5
  1
INS-SC-111-CR
100
AcDbAttributeDefinition
  3

  2
DESCRIPTION
 70
     8
280
     0
  0
ATTDEF
  5
BB
330
AE
100
AcDbEntity
  8
AM_6
100
AcDbText
 10
6.672772310767183
 20
-4.66
 30
0.0
 40
0.5
  1
1.94
100
AcDbAttributeDefinition
  3

  2
A
 70
     8
280
     0
  0
ATTDEF
  5
BC
330
AE
100
AcDbEntity
  8
AM_6
100
AcDbText
 10
6.672772310767183
 20
-5.16
 30
0.0
 40
0.5
  1
0.87
100
AcDbAttributeDefinition
  3

  2
C
 70
     8
280
     0
  0
ATTDEF
  5
BD
330
AE
100
AcDbEntity
  8
AM_6
100
AcDbText
 10
6.672772310767183
 20
-5.66
 30
0.0
 40
0.5
  1
3.3465
100
AcDbAttributeDefinition
  3

  2
D
 70
     8
280
     0
  0
ATTDEF
  5
BE
330
AE
100
AcDbEntity
  8
AM_6
100
AcDbText
 10
6.672772310767183
 20
-6.16
 30
0.0
 40
0.5
  1
0.25
100
AcDbAttributeDefinition
  3

  2
J
 70
     8
280
     0
  0
ATTDEF
  5
BF
330
AE
100
AcDbEntity
  8
AM_6
100
AcDbText
 10
6.672772310767183
 20
-6.66
 30
0.0
 40
0.5
  1
2.22
100
AcDbAttributeDefinition
  3

  2
L
 70
     8
280
     0
  0
ATTDEF
  5
C0
330
AE
100
AcDbEntity
  8
AM_6
100
AcDbText
 10
6.672772310767183
 20
-7.16
 30
0.0
 40
0.5
  1
5/16 - 24
100
AcDbAttributeDefinition
  3

  2
N
 70
     8
280
     0
  0
ATTDEF
  5
C1
330
AE
100
AcDbEntity
  8
AM_6
100
AcDbText
 10
6.672772310767183
 20
-7.66
 30
0.0
 40
0.5
  1
0.75
100
AcDbAttributeDefinition
  3

  2
W
 70
     8
280
     0
  0
ATTDEF
  5
C2
330
AE
100
AcDbEntity
  8
AM_6
100
AcDbText
 10
6.672772310767183
 20
-8.16
 30
0.0
 40
0.5
  1
1.19
100
AcDbAttributeDefinition
  3

  2
Y
 70
     8
280
     0
  0
ATTDEF
  5
C3
330
AE
100
AcDbEntity
  8
AM_6
100
AcDbText
 10
6.672772310767183
 20
-8.66
 30
0.0
 40
0.5
  1
baldor
100
AcDbAttributeDefinition
  3

  2
COMPANY
 70
     8
280
     0
  0
LINE
  5
C4
330
AE
100
AcDbEntity
  8
AM_9
100
AcDbLine
 10
-1.757625
 20
-0.6349242424242455
 30
0.0
 11
-1.757625
 21
-0.6850757575757547
 31
0.0
  0
ARC
  5
C5
330
AE
100
AcDbEntity
  8
AM_9
100
AcDbCircle
 10
-1.678534090909091
 20
-0.6850757575757528
 30
0.0
 40
0.0790909090909093
100
AcDbArc
 50
180.0
 51
270.0
  0
ARC
  5
C6
330
AE
100
AcDbEntity
  8
AM_9
100
AcDbCircle
 10
-1.678534090909091
 20
-0.6349242424242472
 30
0.0
 40
0.079090909090909
100
AcDbArc
 50
90.0
 51
180.0
  0
LINE
  5
C7
330
AE
100
AcDbEntity
  8
AM_9
100
AcDbLine
 10
-1.678534090909091
 20
-0.7641666666666621
 30
0.0
 11
-1.666830682930674
 21
-0.7641666666666621
 31
0.0
  0
LINE
  5
C8
330
AE
100
AcDbEntity
  8
AM_9
100
AcDbLine
 10
-1.635374320959394
 20
-0.5558333333333382
 30
0.0
 11
-1.678534090909091
 21
-0.5558333333333382
 31
0.0
  0
LINE
  5
C9
330
AE
100
AcDbEntity
  8
AM_9
100
AcDbLine
 10
-1.678534090909091
 20
-0.5558333333333382
 30
0.0
 11
-1.678534090909091
 21
-0.7641666666666621
 31
0.0
  0
ELLIPSE
  5
CA
330
AE
100
AcDbEntity
  8
AM_9
100
AcDbEllipse
 10
0.7582680269472483
 20
-1.7225
 30
0.0
 11
-2.318256390785941E-17
 21
-0.1262000000000001
 31
0.0
210
0.0
220
0.0
230
1.0
 40
0.4226182617407017
 41
1.045433159789005
 42
2.096159493800787
  0
ELLIPSE
  5
CB
330
AE
100
AcDbEntity
  8
AM_9
100
AcDbEllipse
 10
0.7582680269472489
 20
-1.7225
 30
0.0
 11
-2.318256390785949E-17
 21
-0.1262000000000005
 31
0.0
210
0.0
220
0.0
230
1.0
 40
0.4226182617407011
 41
4.187025813378801
 42
5.23775214739058
  0
LINE
  5
CC
330
AE
100
AcDbEntity
  8
AM_9
100
AcDbLine
 10
0.7646616056683929
 20
-1.8487
 30
0.0
 11
0.9891875043623771
 21
-1.8487
 31
0.0
  0
LINE
  5
CD
330
AE
100
AcDbEntity
  8
AM_9
100
AcDbLine
 10
0.9891875043623771
 20
-1.5963
 30
0.0
 11
0.7646616056683929
 21
-1.5963
 31
0.0
  0
LWPOLYLINE
  5
CE
330
AE
100
AcDbEntity
  8
AM_9
100
AcDbPolyline
 90
        8
 70
     0
 43
0.0
 10
0.7646914829672222
 20
-1.848699999276185
 10
0.7716500679498737
 20
-1.847575287250037
 10
0.7798617124985869
 20
-1.842940994328133
 10
0.7870036854239836
 20
-1.835144259870474
 10
0.7933802433359289
 20
-1.823966381605933
 10
0.79861442455652
 20
-1.810195823217368
 10
0.8029162803486856
 20
-1.79352514352431
 10
0.8044098703037637
 20
-1.785792736264391
  0
LWPOLYLINE
  5
CF
330
AE
100
AcDbEntity
  8
AM_9
100
AcDbPolyline
 90
        8
 70
     0
 43
0.0
 10
0.7647029074608882
 20
-1.596300000723816
 10
0.7574407264057303
 20
-1.597424712749963
 10
0.7480061968475095
 20
-1.602059005671866
 10
0.738908979170518
 20
-1.609855740129526
 10
0.7299536281360269
 20
-1.621033618394067
 10
0.7219077194207051
 20
-1.634804176782632
 10
0.7147444205287903
 20
-1.65147485647569
 10
0.7121261835907303
 20
-1.659207263735609
  0
ELLIPSE
  5
D0
330
AE
100
AcDbEntity
  8
AM_9
100
AcDbEllipse
 10
0.9891875043623776
 20
-1.7225
 30
0.0
 11
-2.318256390785941E-17
 21
-0.1262000000000001
 31
0.0
210
0.0
220
0.0
230
1.0
 40
0.4226182617407035
 41
3.497313971647579
 42
5.909341943554423
  0
LINE
  5
D1
330
AE
100
AcDbEntity
  8
AM_9
100
AcDbLine
 10
0.9643172537133358
 20
-1.834139373797338
 30
0.0
 11
0.9759019060170162
 21
-1.848588755215687
 31
0.0
  0
LINE
  5
D2
330
AE
100
AcDbEntity
  8
AM_9
100
AcDbLine
 10
0.9760524777065215
 20
-1.596223438735808
 30
0.0
 11
0.9643172537133358
 21
-1.610860626202662
 31
0.0
  0
LWPOLYLINE
  5
D3
330
AE
100
AcDbEntity
  8
AM_9
100
AcDbPolyline
 90
        8
 70
     0
 43
0.0
 10
-0.1091809027997462
 20
-1.65920726373562
 10
-0.1189864269822619
 20
-1.676619635185745
 10
-0.1256395375639489
 20
-1.695476541443238
 10
-0.128723589015509
 20
-1.714540709587429
 10
-0.1284382013417466
 20
-1.733854528280784
 10
-0.1250311807616599
 20
-1.751770038148944
 10
-0.1187704598683399
 20
-1.768886537243431
 10
-0.1091809027997462
 20
-1.78579273626438
  0
LINE
  5
D4
330
AE
100
AcDbEntity
  8
AM_9
100
AcDbLine
 10
0.1104569099040939
 20
-1.661115822358094
 30
0.0
 11
0.1091809027997462
 21
-1.65920726373562
 31
0.0
  0
LWPOLYLINE
  5
D5
330
AE
100
AcDbEntity
  8
AM_9
100
AcDbPolyline
 90
        8
 70
     0
 43
0.0
 10
0.1091809027997462
 20
-1.78579273626438
 10
0.1189864269822619
 20
-1.768380364814255
 10
0.1256395375639489
 20
-1.749523458556762
 10
0.128723589015509
 20
-1.730459290412572
 10
0.1284382013417466
 20
-1.711145471719216
 10
0.1250311807616599
 20
-1.693229961851056
 10
0.1187704598683399
 20
-1.676113462756569
 10
0.1104569099040939
 20
-1.661115822358094
  0
LWPOLYLINE
  5
D6
330
AE
100
AcDbEntity
  8
AM_9
100
AcDbPolyline
 90
        9
 70
     0
 43
0.0
 10
0.8044098703037575
 20
-1.78579273626438
 10
0.8064951635396277
 20
-1.774263366190624
 10
0.808791808338167
 20
-1.755342340903477
 10
0.810020280372561
 20
-1.735301252563426
 10
0.8101844556104895
 20
-1.716530700220322
 10
0.809439703633409
 20
-1.697937493428555
 10
0.8078469113617238
 20
-1.680604486327773
 10
0.805419032047874
 20
-1.664377925814205
 10
0.8044098703037575
 20
-1.65920726373562
  0
LWPOLYLINE
  5
D7
330
AE
100
AcDbEntity
  8
AM_9
100
AcDbPolyline
 90
        8
 70
     0
 43
0.0
 10
0.8044098703037575
 20
-1.65920726373562
 10
0.8006756393194508
 20
-1.641976260943356
 10
0.7957363946500319
 20
-1.626581747679317
 10
0.7898843283911663
 20
-1.614308830736101
 10
0.7828286221038148
 20
-1.60480318266534
 10
0.7750911733130772
 20
-1.598885670893537
 10
0.7663589146930948
 20
-1.596361888377936
 10
0.7647029074608882
 20
-1.596300000723816
  0
LWPOLYLINE
  5
D8
330
AE
100
AcDbEntity
  8
AM_9
100
AcDbPolyline
 90
        9
 70
     0
 43
0.0
 10
0.7121261835907395
 20
-1.65920726373562
 10
0.7082427308239453
 20
-1.671104838434567
 10
0.7051192531758905
 20
-1.683775624459861
 10
0.7021785054523927
 20
-1.702910471142575
 10
0.7011720718701989
 20
-1.722687091056076
 10
0.7020711003572814
 20
-1.741037210531319
 10
0.7046439277071262
 20
-1.758862579717499
 10
0.7079282075241548
 20
-1.772778207241312
 10
0.7121261835907395
 20
-1.78579273626438
  0
LWPOLYLINE
  5
D9
330
AE
100
AcDbEntity
  8
AM_9
100
AcDbPolyline
 90
        8
 70
     0
 43
0.0
 10
0.7121261835907395
 20
-1.78579273626438
 10
0.7185424469251622
 20
-1.803023739056645
 10
0.7264160286407171
 20
-1.818418252320683
 10
0.7349692464559173
 20
-1.830691169263899
 10
0.7443364803947341
 20
-1.840196817334661
 10
0.7536092307463389
 20
-1.846114329106463
 10
0.7630187011735344
 20
-1.848638111622064
 10
0.7646914829672222
 20
-1.848699999276185
  0
LINE
  5
DA
330
AE
100
AcDbEntity
  8
AM_9
100
AcDbLine
 10
0.84375
 20
-2.0556
 30
0.0
 11
0.84375
 21
-0.2044000000000001
 31
0.0
  0
LINE
  5
DB
330
AE
100
AcDbEntity
  8
AM_9
100
AcDbLine
 10
-0.84375
 20
-0.2044000000000001
 30
0.0
 11
-0.84375
 21
-2.0556
 31
0.0
  0
LINE
  5
DC
330
AE
100
AcDbEntity
  8
AM_9
100
AcDbLine
 10
0.84375
 20
-0.2044000000000001
 30
0.0
 11
0.8881499999999999
 21
-0.1600000000000002
 31
0.0
  0
LINE
  5
DD
330
AE
100
AcDbEntity
  8
AM_9
100
AcDbLine
 10
-0.8881499999999999
 20
-0.1600000000000002
 30
0.0
 11
-0.84375
 21
-0.2044000000000001
 31
0.0
  0
LINE
  5
DE
330
AE
100
AcDbEntity
  8
AM_9
100
AcDbLine
 10
-0.8437499999999999
 20
-2.0556
 30
0.0
 11
-0.8881499999999999
 21
-2.1
 31
0.0
  0
LINE
  5
DF
330
AE
100
AcDbEntity
  8
AM_9
100
AcDbLine
 10
0.8881499999999999
 20
-2.1
 30
0.0
 11
0.8437499999999999
 21
-2.0556
 31
0.0
  0
LINE
  5
E0
330
AE
100
AcDbEntity
  8
AM_9
100
AcDbLine
 10
-1.0656
 20
-0.1600000000000002
 30
0.0
 11
1.0656
 21
-0.1600000000000002
 31
0.0
  0
LINE
  5
E1
330
AE
100
AcDbEntity
  8
AM_9
100
AcDbLine
 10
-1.0656
 20
-0.1600000000000002
 30
0.0
 11
-1.11
 21
-0.2044000000000001
 31
0.0
  0
LINE
  5
E2
330
AE
100
AcDbEntity
  8
AM_9
100
AcDbLine
 10
1.11
 20
-0.2044000000000001
 30
0.0
 11
1.0656
 21
-0.1600000000000002
 31
0.0
  0
LINE
  5
E3
330
AE
100
AcDbEntity
  8
AM_9
100
AcDbLine
 10
-1.11
 20
-0.2044000000000001
 30
0.0
 11
1.110000000000001
 21
-0.2044000000000001
 31
0.0
  0
LINE
  5
E4
330
AE
100
AcDbEntity
  8
AM_9
100
AcDbLine
 10
1.110000000000001
 20
-0.4750000000000001
 30
0.0
 11
1.110000000000001
 21
-0.2044000000000001
 31
0.0
  0
LINE
  5
E5
330
AE
100
AcDbEntity
  8
AM_9
100
AcDbLine
 10
-1.110000000000001
 20
-0.2044000000000001
 30
0.0
 11
-1.110000000000001
 21
-0.4750000000000001
 31
0.0
  0
LINE
  5
E6
330
AE
100
AcDbEntity
  8
AM_9
100
AcDbLine
 10
1.110000000000001
 20
-1.48
 30
0.0
 11
1.110000000000001
 21
-1.345
 31
0.0
  0
LINE
  5
E7
330
AE
100
AcDbEntity
  8
AM_9
100
AcDbLine
 10
-1.110000000000001
 20
-1.345
 30
0.0
 11
-1.110000000000001
 21
-1.48
 31
0.0
  0
LINE
  5
E8
330
AE
100
AcDbEntity
  8
AM_9
100
AcDbLine
 10
1.589916666666666
 20
-1.21
 30
0.0
 11
1.589916666666666
 21
-1.11
 31
0.0
  0
LINE
  5
E9
330
AE
100
AcDbEntity
  8
AM_9
100
AcDbLine
 10
-1.589916666666666
 20
-1.11
 30
0.0
 11
-1.589916666666666
 21
-1.21
 31
0.0
  0
LINE
  5
EA
330
AE
100
AcDbEntity
  8
AM_9
100
AcDbLine
 10
-1.576932326544176
 20
-1.345000000000001
 30
0.0
 11
1.576932326541372
 21
-1.345000000000001
 31
0.0
  0
ARC
  5
EB
330
AE
100
AcDbEntity
  8
AM_9
100
AcDbCircle
 10
1.576932326544175
 20
-1.295
 30
0.0
 40
0.0500000000000009
100
AcDbArc
 50
270.0
 51
346.2798930886395
  0
ARC
  5
EC
330
AE
100
AcDbEntity
  8
AM_9
100
AcDbCircle
 10
-1.576932326544176
 20
-1.295000000000001
 30
0.0
 40
0.0500000000000001
100
AcDbArc
 50
193.7201069113597
 51
270.0
  0
LINE
  5
ED
330
AE
100
AcDbEntity
  8
AM_9
100
AcDbLine
 10
-1.576932326544167
 20
-0.4750000000000001
 30
0.0
 11
1.576932326541364
 21
-0.4750000000000001
 31
0.0
  0
ARC
  5
EE
330
AE
100
AcDbEntity
  8
AM_9
100
AcDbCircle
 10
1.576932326544167
 20
-0.525
 30
0.0
 40
0.05
100
AcDbArc
 50
13.72007682425382
 51
90.0
  0
ARC
  5
EF
330
AE
100
AcDbEntity
  8
AM_9
100
AcDbCircle
 10
-1.576932326544167
 20
-0.5250000000000001
 30
0.0
 40
0.05
100
AcDbArc
 50
90.0
 51
166.279923175746
  0
LINE
  5
F0
330
AE
100
AcDbEntity
  8
AM_9
100
AcDbLine
 10
-1.646136556455752
 20
-1.21
 30
0.0
 11
1.646136556455996
 21
-1.21
 31
0.0
  0
LINE
  5
F1
330
AE
100
AcDbEntity
  8
AM_9
100
AcDbLine
 10
-1.625505623850998
 20
-1.306858953948095
 30
0.0
 11
1.625505623851243
 21
-1.306858953948095
 31
0.0
  0
ARC
  5
F2
330
AE
100
AcDbEntity
  8
AM_9
100
AcDbCircle
 10
0.0000000005339582
 20
-0.9100000001136841
 30
0.0
 40
1.673249999454552
100
AcDbArc
 50
346.2799262185371
 51
349.6714882668625
  0
ARC
  5
F3
330
AE
100
AcDbEntity
  8
AM_9
100
AcDbCircle
 10
-0.0000000005340608
 20
-0.9100000001137061
 30
0.0
 40
1.673249999454447
100
AcDbArc
 50
190.3285117331373
 51
193.7200737814629
  0
LINE
  5
F4
330
AE
100
AcDbEntity
  8
AM_9
100
AcDbLine
 10
0.1406599853983839
 20
-1.11
 30
0.0
 11
1.661254213689161
 21
-1.11
 31
0.0
  0
LINE
  5
F5
330
AE
100
AcDbEntity
  8
AM_9
100
AcDbLine
 10
-0.1355581771110581
 20
-1.11
 30
0.0
 11
0.1355581771110581
 21
-1.11
 31
0.0
  0
LINE
  5
F6
330
AE
100
AcDbEntity
  8
AM_9
100
AcDbLine
 10
-1.661254213689163
 20
-1.11
 30
0.0
 11
-0.1407113275023277
 21
-1.11
 31
0.0
  0
LINE
  5
F7
330
AE
100
AcDbEntity
  8
AM_9
100
AcDbLine
 10
-1.625505630078346
 20
-0.5131410715586717
 30
0.0
 11
1.625505630078343
 21
-0.5131410715586716
 31
0.0
  0
ARC
  5
F8
330
AE
100
AcDbEntity
  8
AM_9
100
AcDbCircle
 10
-0.0000000000001619
 20
-0.9100000000000104
 30
0.0
 40
1.673250000000157
100
AcDbArc
 50
353.1351448840009
 51
13.7200728818472
  0
ARC
  5
F9
330
AE
100
AcDbEntity
  8
AM_9
100
AcDbCircle
 10
0.0000000000082496
 20
-0.9100000000018222
 30
0.0
 40
1.673250000008444
100
AcDbArc
 50
166.2799271181582
 51
167.788268615092
  0
ARC
  5
FA
330
AE
100
AcDbEntity
  8
AM_9
100
AcDbCircle
 10
0.0000000000002189
 20
-0.910000000000007
 30
0.0
 40
1.673250000000214
100
AcDbArc
 50
174.9879992231872
 51
186.864855115999
  0
LINE
  5
FB
330
AE
100
AcDbEntity
  8
AM_9
100
AcDbLine
 10
-1.635338354812916
 20
-0.5558333333333442
 30
0.0
 11
-1.666882779738547
 21
-0.7641666666667246
 31
0.0
  0
LINE
  5
FC
330
AE
100
AcDbEntity
  8
AM_7
100
AcDbLine
 10
-0.13251
 20
-1.7225
 30
0.0
 11
0.13251
 21
-1.7225
 31
0.0
  0
LINE
  5
FD
330
AE
100
AcDbEntity
  8
AM_7
100
AcDbLine
 10
-1.79000625
 20
-0.66
 30
0.0
 11
-1.07761875
 21
-0.66
 31
0.0
  0
ELLIPSE
  5
FE
330
AE
100
AcDbEntity
  8
AM_4
100
AcDbEllipse
 10
0.9891875043623771
 20
-1.7225
 30
0.0
 11
-2.318256390785941E-17
 21
-0.1262000000000001
 31
0.0
210
0.0
220
0.0
230
1.0
 40
0.4226182617406982
 41
5.909341943554425
 42
9.780499278827161
  0
LWPOLYLINE
  5
FF
330
AE
100
AcDbEntity
  8
AM_4
100
AcDbPolyline
 90
       15
 70
     0
 43
0.0
 10
0.9760476264547017
 20
-1.848770507671704
 10
0.9726723214064199
 20
-1.844284107851854
 10
0.9642051672477137
 20
-1.830302674650707
 10
0.9567262055550225
 20
-1.813770968454941
 10
0.9501668026266096
 20
-1.793972939607006
 10
0.9452117215957299
 20
-1.772392138929783
 10
0.9419441890502899
 20
-1.748368387632667
 10
0.9407631532819213
 20
-1.723654349128514
 10
0.9418037311322138
 20
-1.698228507733332
 10
0.9450525531018446
 20
-1.673486246796331
 10
0.9504232242364535
 20
-1.650123417381894
 10
0.9576618776294186
 20
-1.628878682770371
 10
0.9662509676011336
 20
-1.610933447128743
 10
0.9759868119286279
 20
-1.596305463001708
 10
0.9760577425748047
 20
-1.596216871944296
  0
LWPOLYLINE
  5
100
330
AE
100
AcDbEntity
  8
AM_4
100
AcDbPolyline
 90
        5
 70
     0
 43
0.0
 10
0.9760577425748047
 20
-1.596216871944296
 10
0.985898480532971
 20
-1.586108345538011
 10
0.996102041102364
 20
-1.579812893104792
 10
1.002394741042016
 20
-1.578030720894176
 10
1.008563927654076
 20
-1.577892956629591
  0
LINE
  5
101
330
AE
100
AcDbEntity
  8
AM_4
100
AcDbLine
 10
-1.0656
 20
-2.1
 30
0.0
 11
1.0656
 21
-2.1
 31
0.0
  0
LINE
  5
102
330
AE
100
AcDbEntity
  8
AM_4
100
AcDbLine
 10
1.0656
 20
-2.1
 30
0.0
 11
1.11
 21
-2.0556
 31
0.0
  0
LINE
  5
103
330
AE
100
AcDbEntity
  8
AM_4
100
AcDbLine
 10
-1.11
 20
-2.0556
 30
0.0
 11
-1.0656
 21
-2.1
 31
0.0
  0
CIRCLE
  5
104
330
AE
100
AcDbEntity
  8
AM_4
100
AcDbCircle
 10
0.0
 20
-1.7225
 30
0.0
 40
0.1262
  0
LINE
  5
105
330
AE
100
AcDbEntity
  8
AM_4
100
AcDbLine
 10
-1.11
 20
-2.0556
 30
0.0
 11
1.110000000000001
 21
-2.0556
 31
0.0
  0
LWPOLYLINE
  5
106
330
AE
100
AcDbEntity
  8
AM_4
100
AcDbPolyline
 90
       39
 70
     0
 43
0.0
 10
-0.0982585557077616
 20
-1.622220591558775
 10
-0.0833646637367941
 20
-1.608019290564748
 10
-0.0661140285329157
 20
-1.595947498964889
 10
-0.0454015624107577
 20
-1.586030655380972
 10
-0.0225284482343929
 20
-1.579742963589745
 10
-0.0008778434851885
 20
-1.57775065899848
 10
0.0214591090386299
 20
-1.579556881639643
 10
0.0419648576579501
 20
-1.584793474842378
 10
0.0618673402972332
 20
-1.593546053230575
 10
0.0799921383207697
 20
-1.605336440443111
 10
0.0964252163679354
 20
-1.620234532126682
 10
0.1106766712985751
 20
-1.638042197684237
 10
0.1222182843786586
 20
-1.658409393779197
 10
0.1306135548007458
 20
-1.681023331705499
 10
0.1353830172595077
 20
-1.705347200722636
 10
0.1361461123247462
 20
-1.73033315282236
 10
0.1326784540715911
 20
-1.755803218930045
 10
0.1251559657522663
 20
-1.779859321922661
 10
0.1133049427586943
 20
-1.802938130941755
 10
0.0983747935997143
 20
-1.822650892781119
 10
0.0796216580111123
 20
-1.839947909803408
 10
0.0597245398476369
 20
-1.852589600336849
 10
0.0371530792826173
 20
-1.861759540825939
 10
0.0154899480329224
 20
-1.866312463672688
 10
-0.0073402049622564
 20
-1.867041822840708
 10
-0.0283703843777516
 20
-1.864075125704662
 10
-0.0491896003623785
 20
-1.857478234655243
 10
-0.0682297367187905
 20
-1.847778454769547
 10
-0.0859218744067615
 20
-1.83482799047523
 10
-0.1016410149435055
 20
-1.818905556197116
 10
-0.1149780218734291
 20
-1.800219497600454
 10
-0.1255147967617003
 20
-1.778970495555412
 10
-0.132703290228519
 20
-1.755691794177458
 10
-0.1361024144034946
 20
-1.731144519378904
 10
-0.1354196865023906
 20
-1.705675660474862
 10
-0.1305875614073718
 20
-1.680931410624245
 10
-0.1213964026320267
 20
-1.656675377892427
 10
-0.1111811859320744
 20
-1.638791679187654
 10
-0.0982585557455188
 20
-1.622220591534266
  0
LWPOLYLINE
  5
107
330
AE
100
AcDbEntity
  8
AM_4
100
AcDbPolyline
 90
       23
 70
     0
 43
0.0
 10
1.008563927654076
 20
-1.577892956629591
 10
1.017305175613567
 20
-1.580741364686464
 10
1.025383149155777
 20
-1.587077396956402
 10
1.032643923495482
 20
-1.596754436181806
 10
1.038969762706963
 20
-1.609382516514562
 10
1.04451631400719
 20
-1.625367180273844
 10
1.048962713175657
 20
-1.643680323099221
 10
1.052471194026624
 20
-1.665099029549616
 10
1.05477480470768
 20
-1.687981851385485
 10
1.055908605870942
 20
-1.712823161514032
 10
1.055763797069537
 20
-1.737927824104306
 10
1.054289180084715
 20
-1.763068690243024
 10
1.051467169388528
 20
-1.787050856096468
 10
1.047291042851122
 20
-1.808985426559653
 10
1.041738133987394
 20
-1.828366235399335
 10
1.035064077522568
 20
-1.843949486353952
 10
1.0271671840546
 20
-1.855940404131829
 10
1.018719720431344
 20
-1.863424386420814
 10
1.009484035271725
 20
-1.86698267779364
 10
1.00023848012139
 20
-1.866528488940747
 10
0.9907860420221161
 20
-1.86243604829782
 10
0.9815376448463453
 20
-1.854925257776445
 10
0.9760476264547017
 20
-1.848770507671704
  0
LINE
  5
108
330
AE
100
AcDbEntity
  8
AM_4
100
AcDbLine
 10
1.110000000000001
 20
-2.0556
 30
0.0
 11
1.110000000000001
 21
-1.48
 31
0.0
  0
LINE
  5
109
330
AE
100
AcDbEntity
  8
AM_4
100
AcDbLine
 10
-1.110000000000001
 20
-1.48
 30
0.0
 11
-1.110000000000001
 21
-2.0556
 31
0.0
  0
ARC
  5
10B
330
AE
100
AcDbEntity
  8
AM_5
100
AcDbCircle
 10
-0.0000000000000001
 20
-1.7875
 30
0.0
 40
0.1562500000000001
100
AcDbArc
 50
75.00000000000004
 51
14.99999999999997
  0
ARC
  5
10C
330
AE
100
AcDbEntity
  8
AM_5
100
AcDbCircle
 10
0.0
 20
-1.7225
 30
0.0
 40
0.1562500000000001
100
AcDbArc
 50
75.0
 51
15.00000000000004
  0
ENDBLK
  5
B1
330
AE
100
AcDbEntity
  8
0
100
AcDbBlockEnd
  0
BLOCK
  5
10F
330
10D
100
AcDbEntity
  8
0
100
AcDbBlockBegin
  2
4_127522H_0_in_127522_4
 70
     2
 10
0.0
 20
0.0
 30
0.0
  3
4_127522H_0_in_127522_4
  1

  0
ATTDEF
  5
111
330
10D
100
AcDbEntity
  8
AM_6
100
AcDbText
 10
7.69
 20
0.074
 30
0.0
 40
0.5
  1
F4B-SCEZ-PCR -I-Housing
100
AcDbAttributeDefinition
  3

  2
NN
 70
     8
280
     0
  0
ATTDEF
  5
112
330
10D
100
AcDbEntity
  8
AM_6
100
AcDbText
 10
7.69
 20
-0.426
 30
0.0
 40
0.5
  1
SC 4 Bolt Flange Bearings -(Normal Duty) -Corrosion Resistant Insert -Polymer Housed -E-Z KLEEN
100
AcDbAttributeDefinition
  3

  2
NT
 70
     8
280
     0
  0
ATTDEF
  5
113
330
10D
100
AcDbEntity
  8
AM_6
100
AcDbText
 10
7.69
 20
-0.9259999999999999
 30
0.0
 40
0.5
  1
127522H
100
AcDbAttributeDefinition
  3

  2
NB
 70
     8
280
     0
  0
ATTDEF
  5
114
330
10D
100
AcDbEntity
  8
AM_6
100
AcDbText
 10
7.69
 20
-1.426
 30
0.0
 40
0.5
  1
$PN.H
100
AcDbAttributeDefinition
  3

  2
NBSYN
 70
     8
280
     0
  0
ATTDEF
  5
115
330
10D
100
AcDbEntity
  8
AM_6
100
AcDbText
 10
7.69
 20
-1.926
 30
0.0
 40
0.5
  1
127522
100
AcDbAttributeDefinition
  3

  2
LINA
 70
     8
280
     0
  0
ATTDEF
  5
116
330
10D
100
AcDbEntity
  8
AM_6
100
AcDbText
 10
7.69
 20
-2.426
 30
0.0
 40
0.5
  1
1-11/16
100
AcDbAttributeDefinition
  3

  2
SS
 70
     8
280
     0
  0
ATTDEF
  5
117
330
10D
100
AcDbEntity
  8
AM_6
100
AcDbText
 10
7.69
 20
-2.926
 30
0.0
 40
0.5
  1
127522
100
AcDbAttributeDefinition
  3

  2
PN
 70
     8
280
     0
  0
ATTDEF
  5
118
330
10D
100
AcDbEntity
  8
AM_6
100
AcDbText
 10
7.69
 20
-3.426
 30
0.0
 40
0.5
  1
F4B-SCEZ-111-PCR
100
AcDbAttributeDefinition
  3

  2
DESCRIPTION
 70
     8
280
     0
  0
ATTDEF
  5
119
330
10D
100
AcDbEntity
  8
AM_6
100
AcDbText
 10
7.69
 20
-3.926
 30
0.0
 40
0.5
  1
209
100
AcDbAttributeDefinition
  3

  2
SERIES
 70
     8
280
     0
  0
ATTDEF
  5
11A
330
10D
100
AcDbEntity
  8
AM_6
100
AcDbText
 10
7.69
 20
-4.426
 30
0.0
 40
0.5
  1
1
100
AcDbAttributeDefinition
  3

  2
INSERTHELP
 70
     8
280
     0
  0
ATTDEF
  5
11B
330
10D
100
AcDbEntity
  8
AM_6
100
AcDbText
 10
7.69
 20
-4.926
 30
0.0
 40
0.5
  1
1.94
100
AcDbAttributeDefinition
  3

  2
A
 70
     8
280
     0
  0
ATTDEF
  5
11C
330
10D
100
AcDbEntity
  8
AM_6
100
AcDbText
 10
7.69
 20
-5.426
 30
0.0
 40
0.5
  1
5.38
100
AcDbAttributeDefinition
  3

  2
B
 70
     8
280
     0
  0
ATTDEF
  5
11D
330
10D
100
AcDbEntity
  8
AM_6
100
AcDbText
 10
7.69
 20
-5.926
 30
0.0
 40
0.5
  1
2.10
100
AcDbAttributeDefinition
  3

  2
C
 70
     8
280
     0
  0
ATTDEF
  5
11E
330
10D
100
AcDbEntity
  8
AM_6
100
AcDbText
 10
7.69
 20
-6.426
 30
0.0
 40
0.5
  1
4.13
100
AcDbAttributeDefinition
  3

  2
D
 70
     8
280
     0
  0
ATTDEF
  5
11F
330
10D
100
AcDbEntity
  8
AM_6
100
AcDbText
 10
7.69
 20
-6.926
 30
0.0
 40
0.5
  1
9/16
100
AcDbAttributeDefinition
  3

  2
F
 70
     8
280
     0
  0
ATTDEF
  5
120
330
10D
100
AcDbEntity
  8
AM_6
100
AcDbText
 10
7.69
 20
-7.426
 30
0.0
 40
0.5
  1
0.72
100
AcDbAttributeDefinition
  3

  2
H
 70
     8
280
     0
  0
ATTDEF
  5
121
330
10D
100
AcDbEntity
  8
AM_6
100
AcDbText
 10
7.69
 20
-7.926
 30
0.0
 40
0.5
  1
0.62
100
AcDbAttributeDefinition
  3

  2
J
 70
     8
280
     0
  0
ATTDEF
  5
122
330
10D
100
AcDbEntity
  8
AM_6
100
AcDbText
 10
7.69
 20
-8.426
 30
0.0
 40
0.5
  1
2.22
100
AcDbAttributeDefinition
  3

  2
L
 70
     8
280
     0
  0
ATTDEF
  5
123
330
10D
100
AcDbEntity
  8
AM_6
100
AcDbText
 10
7.69
 20
-8.926
 30
0.0
 40
0.5
  1
baldor
100
AcDbAttributeDefinition
  3

  2
COMPANY
 70
     8
280
     0
  0
LINE
  5
124
330
10D
100
AcDbEntity
  8
AM_9
100
AcDbLine
 10
1.642747893203641
 20
-0.962
 30
0.0
 11
1.64274789320364
 21
-0.0910144118671828
 31
0.0
  0
LINE
  5
125
330
10D
100
AcDbEntity
  8
AM_9
100
AcDbLine
 10
1.757625
 20
-0.962
 30
0.0
 11
1.757625
 21
-0.0910144118671828
 31
0.0
  0
LINE
  5
126
330
10D
100
AcDbEntity
  8
AM_9
100
AcDbLine
 10
1.757625
 20
-0.962
 30
0.0
 11
1.552140638763124
 21
-0.962
 31
0.0
  0
LINE
  5
127
330
10D
100
AcDbEntity
  8
AM_9
100
AcDbLine
 10
-1.552140638763124
 20
-0.962
 30
0.0
 11
-1.757625
 21
-0.962
 31
0.0
  0
LINE
  5
128
330
10D
100
AcDbEntity
  8
AM_9
100
AcDbLine
 10
-1.642747893203641
 20
-0.962
 30
0.0
 11
-1.642747893203641
 21
-0.0910144118671806
 31
0.0
  0
LINE
  5
129
330
10D
100
AcDbEntity
  8
AM_9
100
AcDbLine
 10
-1.757625
 20
-0.6850757575757547
 30
0.0
 11
-1.757625
 21
-0.962
 31
0.0
  0
LINE
  5
12A
330
10D
100
AcDbEntity
  8
AM_9
100
AcDbLine
 10
-1.757625
 20
-0.0910144118671806
 30
0.0
 11
-1.757625
 21
-0.6349242424242455
 31
0.0
  0
LINE
  5
12B
330
10D
100
AcDbEntity
  8
AM_9
100
AcDbLine
 10
-2.065
 20
-0.72
 30
0.0
 11
-2.065
 21
-0.648
 31
0.0
  0
LINE
  5
12C
330
10D
100
AcDbEntity
  8
AM_9
100
AcDbLine
 10
2.065
 20
-0.72
 30
0.0
 11
2.065
 21
-0.648
 31
0.0
  0
LINE
  5
12D
330
10D
100
AcDbEntity
  8
AM_9
100
AcDbLine
 10
-1.552140638763124
 20
-0.1125000000000001
 30
0.0
 11
-1.552140638763124
 21
-0.962
 31
0.0
  0
LINE
  5
12E
330
10D
100
AcDbEntity
  8
AM_9
100
AcDbLine
 10
1.552140638763124
 20
-0.962
 30
0.0
 11
1.552140638763124
 21
-0.1125000000000001
 31
0.0
  0
LINE
  5
12F
330
10D
100
AcDbEntity
  8
AM_9
100
AcDbLine
 10
1.67325
 20
-1.336
 30
0.0
 11
1.67325
 21
-0.962
 31
0.0
  0
LINE
  5
130
330
10D
100
AcDbEntity
  8
AM_9
100
AcDbLine
 10
-1.67325
 20
-0.962
 30
0.0
 11
-1.67325
 21
-1.336
 31
0.0
  0
LINE
  5
131
330
10D
100
AcDbEntity
  8
AM_9
100
AcDbLine
 10
-2.69
 20
-0.6479999999999999
 30
0.0
 11
-1.944035100630045
 21
-0.648
 31
0.0
  0
LINE
  5
132
330
10D
100
AcDbEntity
  8
AM_9
100
AcDbLine
 10
1.944035100630044
 20
-0.648
 30
0.0
 11
2.69
 21
-0.6479999999999999
 31
0.0
  0
LINE
  5
133
330
10D
100
AcDbEntity
  8
AM_9
100
AcDbLine
 10
-1.78575
 20
-1.336
 30
0.0
 11
1.78575
 21
-1.336
 31
0.0
  0
LINE
  5
134
330
10D
100
AcDbEntity
  8
AM_9
100
AcDbLine
 10
1.78575
 20
-1.48
 30
0.0
 11
1.78575
 21
-1.336
 31
0.0
  0
LINE
  5
135
330
10D
100
AcDbEntity
  8
AM_9
100
AcDbLine
 10
-1.78575
 20
-1.336
 30
0.0
 11
-1.78575
 21
-1.48
 31
0.0
  0
LWPOLYLINE
  5
136
330
10D
100
AcDbEntity
  8
AM_9
100
AcDbPolyline
 90
        6
 70
     0
 43
0.0
 10
1.64274789320364
 20
-0.0910144118671828
 10
1.632082054550546
 20
-0.0986714631017199
 10
1.620160447602748
 20
-0.1048263417822655
 10
1.605885300933848
 20
-0.1096226548440201
 10
1.590640923849302
 20
-0.1121525616350035
 10
1.582419631648003
 20
-0.1125
  0
LINE
  5
137
330
10D
100
AcDbEntity
  8
AM_9
100
AcDbLine
 10
-1.582419631648003
 20
-0.1125
 30
0.0
 11
1.582419631648003
 21
-0.1125
 31
0.0
  0
LWPOLYLINE
  5
138
330
10D
100
AcDbEntity
  8
AM_9
100
AcDbPolyline
 90
        6
 70
     0
 43
0.0
 10
-1.582419631648003
 20
-0.1125
 10
-1.583305579364354
 20
-0.1124959759924529
 10
-1.599373831440295
 20
-0.1110112408903873
 10
-1.615416442921105
 20
-0.1067040921223741
 10
-1.635787869362981
 20
-0.0962749354254384
 10
-1.642747893203641
 20
-0.0910144118671806
  0
LINE
  5
139
330
10D
100
AcDbEntity
  8
AM_9
100
AcDbLine
 10
-1.642747893203641
 20
-0.0910144118671806
 30
0.0
 11
-1.757625000000001
 21
-0.0910144118671806
 31
0.0
  0
ARC
  5
13A
330
10D
100
AcDbEntity
  8
AM_9
100
AcDbCircle
 10
1.701374999999999
 20
-0.0281249999999994
 30
0.0
 40
0.0843750000000012
100
AcDbArc
 50
311.8103148957776
 51
0.0
  0
ARC
  5
13B
330
10D
100
AcDbEntity
  8
AM_9
100
AcDbCircle
 10
-1.701375000000001
 20
-0.0281250000000005
 30
0.0
 40
0.0843749999999988
100
AcDbArc
 50
180.0
 51
228.189685104221
  0
LINE
  5
13C
330
10D
100
AcDbEntity
  8
AM_9
100
AcDbLine
 10
1.757624999999998
 20
-0.0910144118671829
 30
0.0
 11
1.64274789320364
 21
-0.0910144118671828
 31
0.0
  0
LINE
  5
13D
330
10D
100
AcDbEntity
  8
AM_9
100
AcDbLine
 10
-1.78575
 20
-0.028125
 30
0.0
 11
1.78575
 21
-0.028125
 31
0.0
  0
LINE
  5
13E
330
10D
100
AcDbEntity
  8
AM_9
100
AcDbLine
 10
1.78575
 20
-0.028125
 30
0.0
 11
1.78575
 21
0.0
 31
0.0
  0
LINE
  5
13F
330
10D
100
AcDbEntity
  8
AM_9
100
AcDbLine
 10
-1.78575
 20
0.0
 30
0.0
 11
-1.78575
 21
-0.028125
 31
0.0
  0
LINE
  5
140
330
10D
100
AcDbEntity
  8
AM_9
100
AcDbLine
 10
-1.982623782208717
 20
-0.7199999999999998
 30
0.0
 11
-1.982623782208717
 21
-0.648
 31
0.0
  0
LINE
  5
141
330
10D
100
AcDbEntity
  8
AM_9
100
AcDbLine
 10
-1.944035100630045
 20
-0.648
 30
0.0
 11
-1.944035100630044
 21
-0.72
 31
0.0
  0
LINE
  5
142
330
10D
100
AcDbEntity
  8
AM_9
100
AcDbLine
 10
1.944035100630044
 20
-0.72
 30
0.0
 11
1.944035100630044
 21
-0.648
 31
0.0
  0
LINE
  5
143
330
10D
100
AcDbEntity
  8
AM_9
100
AcDbLine
 10
1.982623782208716
 20
-0.7199999999999998
 30
0.0
 11
1.982623782208716
 21
-0.648
 31
0.0
  0
LINE
  5
144
330
10D
100
AcDbEntity
  8
AM_9
100
AcDbLine
 10
2.34625
 20
-0.7199999999999999
 30
0.0
 11
2.34625
 21
0.0000000000000001
 31
0.0
  0
LINE
  5
145
330
10D
100
AcDbEntity
  8
AM_9
100
AcDbLine
 10
1.78375
 20
0.0000000000000001
 30
0.0
 11
1.78375
 21
-0.7199999999999999
 31
0.0
  0
LINE
  5
146
330
10D
100
AcDbEntity
  8
AM_9
100
AcDbLine
 10
-1.78375
 20
-0.7199999999999999
 30
0.0
 11
-1.78375
 21
0.0000000000000001
 31
0.0
  0
LINE
  5
147
330
10D
100
AcDbEntity
  8
AM_9
100
AcDbLine
 10
-2.34625
 20
0.0000000000000001
 30
0.0
 11
-2.34625
 21
-0.7199999999999999
 31
0.0
  0
LINE
  5
148
330
10D
100
AcDbEntity
  8
AM_7
100
AcDbLine
 10
2.065
 20
0.0359999999999999
 30
0.0
 11
2.065
 21
-0.7560000000000001
 31
0.0
  0
LINE
  5
149
330
10D
100
AcDbEntity
  8
AM_7
100
AcDbLine
 10
-2.065
 20
0.0359999999999999
 30
0.0
 11
-2.065
 21
-0.7560000000000001
 31
0.0
  0
LINE
  5
14A
330
10D
100
AcDbEntity
  8
AM_7
100
AcDbLine
 10
0.0
 20
-2.197
 30
0.0
 11
0.0
 21
0.074
 31
0.0
  0
LINE
  5
14B
330
10D
100
AcDbEntity
  8
AM_4
100
AcDbLine
 10
-2.065
 20
-1.48
 30
0.0
 11
-2.065
 21
-0.72
 31
0.0
  0
LINE
  5
14C
330
10D
100
AcDbEntity
  8
AM_4
100
AcDbLine
 10
2.065
 20
-1.48
 30
0.0
 11
2.065
 21
-0.72
 31
0.0
  0
LINE
  5
14D
330
10D
100
AcDbEntity
  8
AM_4
100
AcDbLine
 10
-1.982623782208717
 20
-1.48
 30
0.0
 11
-1.982623782208717
 21
-0.7199999999999998
 31
0.0
  0
LINE
  5
14E
330
10D
100
AcDbEntity
  8
AM_4
100
AcDbLine
 10
1.982623782208716
 20
-1.48
 30
0.0
 11
1.982623782208716
 21
-0.7199999999999998
 31
0.0
  0
LINE
  5
14F
330
10D
100
AcDbEntity
  8
AM_4
100
AcDbLine
 10
0.9377272240917247
 20
-1.48
 30
0.0
 11
0.9377272240917247
 21
-0.6479999999999999
 31
0.0
  0
LINE
  5
150
330
10D
100
AcDbEntity
  8
AM_4
100
AcDbLine
 10
0.7388534418830058
 20
-1.48
 30
0.0
 11
0.7388534418830058
 21
-0.6479999999999999
 31
0.0
  0
LINE
  5
151
330
10D
100
AcDbEntity
  8
AM_4
100
AcDbLine
 10
2.065
 20
-1.48
 30
0.0
 11
-2.065
 21
-1.48
 31
0.0
  0
LINE
  5
152
330
10D
100
AcDbEntity
  8
AM_4
100
AcDbLine
 10
-0.9377272240917247
 20
-1.48
 30
0.0
 11
-0.9377272240917247
 21
-0.6479999999999999
 31
0.0
  0
LINE
  5
153
330
10D
100
AcDbEntity
  8
AM_4
100
AcDbLine
 10
-0.7388534418830079
 20
-1.48
 30
0.0
 11
-0.7388534418830079
 21
-0.6479999999999999
 31
0.0
  0
LINE
  5
154
330
10D
100
AcDbEntity
  8
AM_4
100
AcDbLine
 10
2.69
 20
-0.7199999999999999
 30
0.0
 11
2.69
 21
0.0000000000000001
 31
0.0
  0
LINE
  5
155
330
10D
100
AcDbEntity
  8
AM_4
100
AcDbLine
 10
-2.69
 20
-0.7199999999999999
 30
0.0
 11
-2.69
 21
0.0000000000000001
 31
0.0
  0
LINE
  5
156
330
10D
100
AcDbEntity
  8
AM_4
100
AcDbLine
 10
-2.607623782208716
 20
-0.7199999999999999
 30
0.0
 11
-2.607623782208716
 21
0.0000000000000001
 31
0.0
  0
LINE
  5
157
330
10D
100
AcDbEntity
  8
AM_4
100
AcDbLine
 10
2.607623782208716
 20
-0.7199999999999999
 30
0.0
 11
2.607623782208716
 21
0.0000000000000001
 31
0.0
  0
LINE
  5
158
330
10D
100
AcDbEntity
  8
AM_4
100
AcDbLine
 10
1.722280805040353
 20
-0.6479999999999999
 30
0.0
 11
-1.722280805040353
 21
-0.6479999999999999
 31
0.0
  0
LINE
  5
159
330
10D
100
AcDbEntity
  8
AM_4
100
AcDbLine
 10
2.156835768915901
 20
-0.7199999999999999
 30
0.0
 11
2.156835768915901
 21
0.0000000000000002
 31
0.0
  0
LINE
  5
15A
330
10D
100
AcDbEntity
  8
AM_4
100
AcDbLine
 10
2.355709551124617
 20
-0.7199999999999999
 30
0.0
 11
2.355709551124617
 21
0.0000000000000002
 31
0.0
  0
LINE
  5
15B
330
10D
100
AcDbEntity
  8
AM_4
100
AcDbLine
 10
2.69
 20
0.0000000000000001
 30
0.0
 11
-2.69
 21
0.0000000000000001
 31
0.0
  0
LINE
  5
15C
330
10D
100
AcDbEntity
  8
AM_4
100
AcDbLine
 10
-2.355709551124617
 20
-0.7199999999999999
 30
0.0
 11
-2.355709551124617
 21
0.0000000000000002
 31
0.0
  0
LINE
  5
15D
330
10D
100
AcDbEntity
  8
AM_4
100
AcDbLine
 10
-0.9763159056703969
 20
-0.7199999999999999
 30
0.0
 11
-2.69
 21
-0.7199999999999999
 31
0.0
  0
LINE
  5
15E
330
10D
100
AcDbEntity
  8
AM_4
100
AcDbLine
 10
-2.156835768915901
 20
-0.7199999999999999
 30
0.0
 11
-2.156835768915901
 21
0.0000000000000002
 31
0.0
  0
LINE
  5
15F
330
10D
100
AcDbEntity
  8
AM_4
100
AcDbLine
 10
2.69
 20
-0.7199999999999999
 30
0.0
 11
0.9763159056703986
 21
-0.7199999999999999
 31
0.0
  0
LINE
  5
160
330
10D
100
AcDbEntity
  8
AM_4
100
AcDbLine
 10
0.9763159056703967
 20
-0.6479999999999999
 30
0.0
 11
0.9763159056703986
 21
-0.7199999999999999
 31
0.0
  0
LINE
  5
161
330
10D
100
AcDbEntity
  8
AM_4
100
AcDbLine
 10
1.722280805040353
 20
-0.7199999999999999
 30
0.0
 11
1.722280805040353
 21
-0.6479999999999999
 31
0.0
  0
LINE
  5
162
330
10D
100
AcDbEntity
  8
AM_4
100
AcDbLine
 10
-0.9763159056703969
 20
-0.7199999999999999
 30
0.0
 11
-0.9763159056703969
 21
-0.6479999999999999
 31
0.0
  0
LINE
  5
163
330
10D
100
AcDbEntity
  8
AM_4
100
AcDbLine
 10
-1.722280805040353
 20
-0.6479999999999999
 30
0.0
 11
-1.722280805040354
 21
-0.7199999999999999
 31
0.0
  0
ENDBLK
  5
110
330
10D
100
AcDbEntity
  8
0
100
AcDbBlockEnd
  0
ENDSEC
  0
SECTION
  2
ENTITIES
  0
INSERT
  5
6F
330
1F
100
AcDbEntity
  8
0
100
AcDbBlockReference
  2
1_127522_4
 10
0.0
 20
0.0
 30
0.0
  0
POINT
  5
165
330
1F
100
AcDbEntity
  8
ConnectionPoints
100
AcDbPoint
 10
0.0
 20
-0.1600000000000001
 30
0.0
  0
POINT
  5
166
330
1F
100
AcDbEntity
  8
ConnectionPoints
100
AcDbPoint
 10
0.0
 20
-2.1
 30
0.0000000000000001
  0
POINT
  5
167
330
1F
100
AcDbEntity
  8
ConnectionPoints
100
AcDbPoint
 10
0.0
 20
-1.1
 30
2.065
  0
POINT
  5
168
330
1F
100
AcDbEntity
  8
ConnectionPoints
100
AcDbPoint
 10
0.0
 20
-2.1
 30
0.0000000000000001
  0
ENDSEC
  0
SECTION
  2
OBJECTS
  0
DICTIONARY
  5
C
330
0
100
AcDbDictionary
281
     1
  3
ACAD_DETAILVIEWSTYLE
350
170
  3
ACAD_GROUP
350
D
  3
ACAD_LAYOUT
350
1A
  3
ACAD_MATERIAL
350
43
  3
ACAD_MLEADERSTYLE
350
6B
  3
ACAD_MLINESTYLE
350
17
  3
ACAD_PLOTSETTINGS
350
19
  3
ACAD_PLOTSTYLENAME
350
E
  3
ACAD_SCALELIST
350
47
  3
ACAD_SECTIONVIEWSTYLE
350
171
  3
ACAD_TABLESTYLE
350
69
  3
ACAD_VISUALSTYLE
350
2A
  3
ACDB_RECOMPOSE_DATA
350
16D
  3
AcDbVariableDictionary
350
169
  0
SUN
  5
6D
330
29
100
AcDbSun
 90
        1
290
     0
 63
     7
421
 16777215
 40
1.0
291
     1
 91
  2455826
 92
 54000000
292
     0
 70
     2
 71
   256
280
     1
  0
DICTIONARY
  5
170
102
{ACAD_REACTORS
330
C
102
}
330
C
100
AcDbDictionary
281
     1
  0
DICTIONARY
  5
D
102
{ACAD_REACTORS
330
C
102
}
330
C
100
AcDbDictionary
281
     1
  0
DICTIONARY
  5
1A
102
{ACAD_REACTORS
330
C
102
}
330
C
100
AcDbDictionary
281
     1
  3
Layout1
350
1E
  3
Layout2
350
26
  3
Model
350
22
  0
DICTIONARY
  5
43
102
{ACAD_REACTORS
330
C
102
}
330
C
100
AcDbDictionary
281
     1
  3
ByBlock
350
45
  3
ByLayer
350
44
  3
Global
350
46
  0
DICTIONARY
  5
6B
102
{ACAD_REACTORS
330
C
102
}
330
C
100
AcDbDictionary
281
     1
  3
Standard
350
6C
  0
DICTIONARY
  5
17
102
{ACAD_REACTORS
330
C
102
}
330
C
100
AcDbDictionary
281
     1
  3
Standard
350
18
  0
DICTIONARY
  5
19
102
{ACAD_REACTORS
330
C
102
}
330
C
100
AcDbDictionary
281
     1
  0
ACDBDICTIONARYWDFLT
  5
E
102
{ACAD_REACTORS
330
C
102
}
330
C
100
AcDbDictionary
281
     1
  3
Normal
350
F
100
AcDbDictionaryWithDefault
340
F
  0
DICTIONARY
  5
47
102
{ACAD_REACTORS
330
C
102
}
330
C
100
AcDbDictionary
281
     1
  3
A0
350
48
  3
A1
350
49
  3
A2
350
4A
  3
A3
350
4B
  3
A4
350
4C
  3
A5
350
4D
  3
A6
350
4E
  3
A7
350
4F
  3
A8
350
50
  3
A9
350
51
  3
B0
350
52
  3
B1
350
53
  3
B2
350
54
  3
B3
350
55
  3
B4
350
56
  3
B5
350
57
  3
B6
350
58
  3
B7
350
59
  3
B8
350
5A
  3
B9
350
5B
  3
C0
350
5C
  3
C1
350
5D
  3
C2
350
5E
  3
C3
350
5F
  3
C4
350
60
  3
C5
350
61
  3
C6
350
62
  3
C7
350
63
  3
C8
350
64
  3
C9
350
65
  3
D0
350
66
  3
D1
350
67
  3
D2
350
68
  0
DICTIONARY
  5
171
102
{ACAD_REACTORS
330
C
102
}
330
C
100
AcDbDictionary
281
     1
  0
DICTIONARY
  5
69
102
{ACAD_REACTORS
330
C
102
}
330
C
100
AcDbDictionary
281
     1
  3
Standard
350
6A
  0
DICTIONARY
  5
2A
102
{ACAD_REACTORS
330
C
102
}
330
C
100
AcDbDictionary
281
     1
  3
2dWireframe
350
2F
  3
Basic
350
32
  3
Brighten
350
36
  3
ColorChange
350
3A
  3
Conceptual
350
34
  3
Dim
350
35
  3
EdgeColorOff
350
3D
  3
Facepattern
350
39
  3
Flat
350
2B
  3
FlatWithEdges
350
2C
  3
Gouraud
350
2D
  3
GouraudWithEdges
350
2E
  3
Hidden
350
31
  3
JitterOff
350
3B
  3
Linepattern
350
38
  3
OverhangOff
350
3C
  3
Realistic
350
33
  3
Shaded
350
42
  3
Shaded with edges
350
41
  3
Shades of Gray
350
3E
  3
Sketchy
350
3F
  3
Thicken
350
37
  3
Wireframe
350
30
  3
X-Ray
350
40
  0
XRECORD
  5
16D
102
{ACAD_REACTORS
330
C
102
}
330
C
100
AcDbXrecord
280
     1
 90
        1
330
6A
  0
DICTIONARY
  5
169
102
{ACAD_REACTORS
330
C
102
}
330
C
100
AcDbDictionary
281
     1
  3
CANNOSCALE
350
16A
  3
CMLEADERSTYLE
350
16F
  3
CTABLESTYLE
350
16E
  0
LAYOUT
  5
1E
102
{ACAD_REACTORS
330
1A
102
}
330
1A
100
AcDbPlotSettings
  1

  2
none_device
  4

  6

 40
0.0
 41
0.0
 42
0.0
 43
0.0
 44
0.0
 45
0.0
 46
0.0
 47
0.0
 48
0.0
 49
0.0
140
0.0
141
0.0
142
1.0
143
1.0
 70
   688
 72
     0
 73
     0
 74
     5
  7

 75
    16
 76
     0
 77
     2
 78
   300
147
1.0
148
0.0
149
0.0
100
AcDbLayout
  1
Layout1
 70
     1
 71
     1
 10
0.0
 20
0.0
 11
12.0
 21
9.0
 12
0.0
 22
0.0
 32
0.0
 14
1.000000000000000E+20
 24
1.000000000000000E+20
 34
1.000000000000000E+20
 15
-1.000000000000000E+20
 25
-1.000000000000000E+20
 35
-1.000000000000000E+20
146
0.0
 13
0.0
 23
0.0
 33
0.0
 16
1.0
 26
0.0
 36
0.0
 17
0.0
 27
1.0
 37
0.0
 76
     0
330
1B
  0
LAYOUT
  5
26
102
{ACAD_REACTORS
330
1A
102
}
330
1A
100
AcDbPlotSettings
  1

  2
none_device
  4

  6

 40
0.0
 41
0.0
 42
0.0
 43
0.0
 44
0.0
 45
0.0
 46
0.0
 47
0.0
 48
0.0
 49
0.0
140
0.0
141
0.0
142
1.0
143
1.0
 70
   688
 72
     0
 73
     0
 74
     5
  7

 75
    16
 76
     0
 77
     2
 78
   300
147
1.0
148
0.0
149
0.0
100
AcDbLayout
  1
Layout2
 70
     1
 71
     2
 10
0.0
 20
0.0
 11
0.0
 21
0.0
 12
0.0
 22
0.0
 32
0.0
 14
0.0
 24
0.0
 34
0.0
 15
0.0
 25
0.0
 35
0.0
146
0.0
 13
0.0
 23
0.0
 33
0.0
 16
1.0
 26
0.0
 36
0.0
 17
0.0
 27
1.0
 37
0.0
 76
     0
330
23
  0
LAYOUT
  5
22
102
{ACAD_REACTORS
330
1A
102
}
330
1A
100
AcDbPlotSettings
  1

  2
none_device
  4
Letter_(8.50_x_11.00_Inches)
  6

 40
6.35
 41
6.35
 42
6.35000508
 43
6.35000508
 44
215.9
 45
279.4
 46
0.0
 47
0.0
 48
0.0
 49
0.0
140
0.0
141
0.0
142
1.0
143
1.0
 70
  1712
 72
     0
 73
     0
 74
     0
  7

 75
     0
 76
     0
 77
     2
 78
   300
147
1.0
148
0.0
149
0.0
100
AcDbLayout
  1
Model
 70
     1
 71
     0
 10
0.0
 20
0.0
 11
12.0
 21
9.0
 12
0.0
 22
0.0
 32
0.0
 14
1.000000000000000E+20
 24
1.000000000000000E+20
 34
1.000000000000000E+20
 15
-1.000000000000000E+20
 25
-1.000000000000000E+20
 35
-1.000000000000000E+20
146
0.0
 13
0.0
 23
0.0
 33
0.0
 16
1.0
 26
0.0
 36
0.0
 17
0.0
 27
1.0
 37
0.0
 76
     0
330
1F
331
29
  0
MATERIAL
  5
45
102
{ACAD_REACTORS
330
43
102
}
330
43
100
AcDbMaterial
  1
ByBlock
 72
     1
 94
      127
  0
MATERIAL
  5
44
102
{ACAD_REACTORS
330
43
102
}
330
43
100
AcDbMaterial
  1
ByLayer
 72
     1
 94
      127
  0
MATERIAL
  5
46
102
{ACAD_REACTORS
330
43
102
}
330
43
100
AcDbMaterial
  1
Global
 72
     1
 94
      127
  0
MLEADERSTYLE
  5
6C
102
{ACAD_REACTORS
330
6B
102
}
330
6B
100
AcDbMLeaderStyle
179
     2
170
     2
171
     1
172
     0
 90
        2
 40
0.0
 41
0.0
173
     1
 91
-1056964608
340
14
 92
       -2
290
     1
 42
0.09
291
     1
 43
0.36
  3
Standard
341
0
 44
0.18
300

342
11
174
     1
178
     6
175
     1
176
     0
 93
-1056964608
 45
0.18
292
     0
297
     0
 46
0.18
343
0
 94
-1056964608
 47
1.0
 49
1.0
140
1.0
293
     1
141
0.0
294
     1
177
     0
142
1.0
295
     0
296
     0
143
0.125
271
     0
272
     9
273
     9
298
     0
  0
MLINESTYLE
  5
18
102
{ACAD_REACTORS
330
17
102
}
330
17
100
AcDbMlineStyle
  2
Standard
 70
     0
  3

 62
   256
 51
90.0
 52
90.0
 71
     2
 49
0.5
 62
   256
  6
BYLAYER
 49
-0.5
 62
   256
  6
BYLAYER
  0
ACDBPLACEHOLDER
  5
F
102
{ACAD_REACTORS
330
E
102
}
330
E
  0
SCALE
  5
48
102
{ACAD_REACTORS
330
47
102
}
330
47
100
AcDbScale
 70
     0
300
1:1
140
1.0
141
1.0
290
     1
  0
SCALE
  5
49
102
{ACAD_REACTORS
330
47
102
}
330
47
100
AcDbScale
 70
     0
300
1:2
140
1.0
141
2.0
290
     0
  0
SCALE
  5
4A
102
{ACAD_REACTORS
330
47
102
}
330
47
100
AcDbScale
 70
     0
300
1:4
140
1.0
141
4.0
290
     0
  0
SCALE
  5
4B
102
{ACAD_REACTORS
330
47
102
}
330
47
100
AcDbScale
 70
     0
300
1:5
140
1.0
141
5.0
290
     0
  0
SCALE
  5
4C
102
{ACAD_REACTORS
330
47
102
}
330
47
100
AcDbScale
 70
     0
300
1:8
140
1.0
141
8.0
290
     0
  0
SCALE
  5
4D
102
{ACAD_REACTORS
330
47
102
}
330
47
100
AcDbScale
 70
     0
300
1:10
140
1.0
141
10.0
290
     0
  0
SCALE
  5
4E
102
{ACAD_REACTORS
330
47
102
}
330
47
100
AcDbScale
 70
     0
300
1:16
140
1.0
141
16.0
290
     0
  0
SCALE
  5
4F
102
{ACAD_REACTORS
330
47
102
}
330
47
100
AcDbScale
 70
     0
300
1:20
140
1.0
141
20.0
290
     0
  0
SCALE
  5
50
102
{ACAD_REACTORS
330
47
102
}
330
47
100
AcDbScale
 70
     0
300
1:30
140
1.0
141
30.0
290
     0
  0
SCALE
  5
51
102
{ACAD_REACTORS
330
47
102
}
330
47
100
AcDbScale
 70
     0
300
1:40
140
1.0
141
40.0
290
     0
  0
SCALE
  5
52
102
{ACAD_REACTORS
330
47
102
}
330
47
100
AcDbScale
 70
     0
300
1:50
140
1.0
141
50.0
290
     0
  0
SCALE
  5
53
102
{ACAD_REACTORS
330
47
102
}
330
47
100
AcDbScale
 70
     0
300
1:100
140
1.0
141
100.0
290
     0
  0
SCALE
  5
54
102
{ACAD_REACTORS
330
47
102
}
330
47
100
AcDbScale
 70
     0
300
2:1
140
2.0
141
1.0
290
     0
  0
SCALE
  5
55
102
{ACAD_REACTORS
330
47
102
}
330
47
100
AcDbScale
 70
     0
300
4:1
140
4.0
141
1.0
290
     0
  0
SCALE
  5
56
102
{ACAD_REACTORS
330
47
102
}
330
47
100
AcDbScale
 70
     0
300
8:1
140
8.0
141
1.0
290
     0
  0
SCALE
  5
57
102
{ACAD_REACTORS
330
47
102
}
330
47
100
AcDbScale
 70
     0
300
10:1
140
10.0
141
1.0
290
     0
  0
SCALE
  5
58
102
{ACAD_REACTORS
330
47
102
}
330
47
100
AcDbScale
 70
     0
300
100:1
140
100.0
141
1.0
290
     0
  0
SCALE
  5
59
102
{ACAD_REACTORS
330
47
102
}
330
47
100
AcDbScale
 70
     0
300
1/128" = 1'-0"
140
0.0078125
141
12.0
290
     0
  0
SCALE
  5
5A
102
{ACAD_REACTORS
330
47
102
}
330
47
100
AcDbScale
 70
     0
300
1/64" = 1'-0"
140
0.015625
141
12.0
290
     0
  0
SCALE
  5
5B
102
{ACAD_REACTORS
330
47
102
}
330
47
100
AcDbScale
 70
     0
300
1/32" = 1'-0"
140
0.03125
141
12.0
290
     0
  0
SCALE
  5
5C
102
{ACAD_REACTORS
330
47
102
}
330
47
100
AcDbScale
 70
     0
300
1/16" = 1'-0"
140
0.0625
141
12.0
290
     0
  0
SCALE
  5
5D
102
{ACAD_REACTORS
330
47
102
}
330
47
100
AcDbScale
 70
     0
300
3/32" = 1'-0"
140
0.09375
141
12.0
290
     0
  0
SCALE
  5
5E
102
{ACAD_REACTORS
330
47
102
}
330
47
100
AcDbScale
 70
     0
300
1/8" = 1'-0"
140
0.125
141
12.0
290
     0
  0
SCALE
  5
5F
102
{ACAD_REACTORS
330
47
102
}
330
47
100
AcDbScale
 70
     0
300
3/16" = 1'-0"
140
0.1875
141
12.0
290
     0
  0
SCALE
  5
60
102
{ACAD_REACTORS
330
47
102
}
330
47
100
AcDbScale
 70
     0
300
1/4" = 1'-0"
140
0.25
141
12.0
290
     0
  0
SCALE
  5
61
102
{ACAD_REACTORS
330
47
102
}
330
47
100
AcDbScale
 70
     0
300
3/8" = 1'-0"
140
0.375
141
12.0
290
     0
  0
SCALE
  5
62
102
{ACAD_REACTORS
330
47
102
}
330
47
100
AcDbScale
 70
     0
300
1/2" = 1'-0"
140
0.5
141
12.0
290
     0
  0
SCALE
  5
63
102
{ACAD_REACTORS
330
47
102
}
330
47
100
AcDbScale
 70
     0
300
3/4" = 1'-0"
140
0.75
141
12.0
290
     0
  0
SCALE
  5
64
102
{ACAD_REACTORS
330
47
102
}
330
47
100
AcDbScale
 70
     0
300
1" = 1'-0"
140
1.0
141
12.0
290
     0
  0
SCALE
  5
65
102
{ACAD_REACTORS
330
47
102
}
330
47
100
AcDbScale
 70
     0
300
1-1/2" = 1'-0"
140
1.5
141
12.0
290
     0
  0
SCALE
  5
66
102
{ACAD_REACTORS
330
47
102
}
330
47
100
AcDbScale
 70
     0
300
3" = 1'-0"
140
3.0
141
12.0
290
     0
  0
SCALE
  5
67
102
{ACAD_REACTORS
330
47
102
}
330
47
100
AcDbScale
 70
     0
300
6" = 1'-0"
140
6.0
141
12.0
290
     0
  0
SCALE
  5
68
102
{ACAD_REACTORS
330
47
102
}
330
47
100
AcDbScale
 70
     0
300
1'-0" = 1'-0"
140
12.0
141
12.0
290
     0
  0
TABLESTYLE
  5
6A
102
{ACAD_REACTORS
330
69
102
}
102
{ACAD_XDICTIONARY
360
16B
102
}
330
69
100
AcDbTableStyle
  3
Standard
 70
     0
 71
     0
 40
0.06
 41
0.06
280
     0
281
     0
  7
Standard
140
0.18
170
     2
 62
     0
 63
   257
283
     0
 90
        4
 91
        0
  1

274
    -2
284
     1
 64
     0
275
    -2
285
     1
 65
     0
276
    -2
286
     1
 66
     0
277
    -2
287
     1
 67
     0
278
    -2
288
     1
 68
     0
279
    -2
289
     1
 69
     0
  7
Standard
140
0.25
170
     5
 62
     0
 63
   257
283
     0
 90
        4
 91
        0
  1

274
    -2
284
     1
 64
     0
275
    -2
285
     1
 65
     0
276
    -2
286
     1
 66
     0
277
    -2
287
     1
 67
     0
278
    -2
288
     1
 68
     0
279
    -2
289
     1
 69
     0
  7
Standard
140
0.18
170
     5
 62
     0
 63
   257
283
     0
 90
        4
 91
        0
  1

274
    -2
284
     1
 64
     0
275
    -2
285
     1
 65
     0
276
    -2
286
     1
 66
     0
277
    -2
287
     1
 67
     0
278
    -2
288
     1
 68
     0
279
    -2
289
     1
 69
     0
  0
VISUALSTYLE
  5
2F
102
{ACAD_REACTORS
330
2A
102
}
330
2A
100
AcDbVisualStyle
  2
2dWireframe
 70
     4
177
     3
291
     0
 70
    58
 90
        0
176
     1
 90
        2
176
     1
 90
        0
176
     1
 90
        0
176
     1
 40
0.6
176
     1
 40
30.0
176
     1
 62
     7
420
 16777215
176
     1
 90
        1
176
     1
 90
        4
176
     1
 62
     7
176
     1
 62
   257
176
     1
 90
        1
176
     1
 90
        1
176
     1
 40
1.0
176
     1
 90
        0
176
     1
 62
   257
176
     1
 40
1.0
176
     1
 90
        1
176
     1
 90
        6
176
     1
 90
        2
176
     1
 62
     7
176
     1
 90
        5
176
     1
 90
        0
176
     1
 90
        0
176
     1
290
     0
176
     1
 90
        1
176
     1
 40
0.0
176
     1
 90
        0
176
     1
290
     1
176
     1
290
     1
176
     1
290
     0
176
     1
290
     0
176
     1
290
     0
176
     1
290
     0
176
     1
290
     0
176
     1
290
     0
176
     1
290
     0
176
     1
 90
       50
176
     1
 40
0.0
176
     1
 40
1.0
176
     1
 90
        0
176
     1
 62
    18
420
        0
176
     1
 90
       50
176
     1
 90
        3
176
     1
 62
     5
420
      255
176
     1
290
     0
176
     1
 90
       50
176
     1
 90
       50
176
     1
 90
       50
176
     1
290
     0
176
     1
 90
       50
176
     1
 62
   256
176
     0
 40
1.0
176
     0
 90
        2
176
     1
  1
strokes_ogs.tif
176
     1
290
     0
176
     1
 40
1.0
176
     1
 40
1.0
176
     1
  0
VISUALSTYLE
  5
32
102
{ACAD_REACTORS
330
2A
102
}
330
2A
100
AcDbVisualStyle
  2
Basic
 70
     7
177
     3
291
     1
 70
    58
 90
        1
176
     1
 90
        0
176
     1
 90
        1
176
     1
 90
        0
176
     1
 40
0.6
176
     1
 40
30.0
176
     1
 62
     7
420
 16777215
176
     1
 90
        0
176
     1
 90
        4
176
     1
 62
     7
176
     1
 62
   257
176
     1
 90
        1
176
     1
 90
        1
176
     1
 40
1.0
176
     1
 90
        8
176
     1
 62
     7
176
     1
 40
1.0
176
     1
 90
        1
176
     1
 90
        6
176
     1
 90
        2
176
     1
 62
     7
176
     1
 90
        5
176
     1
 90
        0
176
     1
 90
        0
176
     1
290
     0
176
     1
 90
        1
176
     1
 40
0.0
176
     1
 90
        0
176
     1
290
     0
176
     1
290
     1
176
     1
290
     1
176
     1
290
     0
176
     1
290
     0
176
     1
290
     0
176
     1
290
     0
176
     1
290
     0
176
     1
290
     0
176
     1
 90
       50
176
     1
 40
0.0
176
     1
 40
1.0
176
     1
 90
        0
176
     1
 62
    18
420
        0
176
     1
 90
       50
176
     1
 90
        3
176
     1
 62
     5
420
      255
176
     1
290
     0
176
     1
 90
       50
176
     1
 90
       50
176
     1
 90
       50
176
     1
290
     0
176
     1
 90
       50
176
     1
 62
   256
176
     0
 40
1.0
176
     0
 90
        2
176
     1
  1
strokes_ogs.tif
176
     1
290
     0
176
     1
 40
1.0
176
     1
 40
1.0
176
     1
  0
VISUALSTYLE
  5
36
102
{ACAD_REACTORS
330
2A
102
}
330
2A
100
AcDbVisualStyle
  2
Brighten
 70
    12
177
     3
291
     1
 70
    58
 90
        2
176
     1
 90
        2
176
     1
 90
        0
176
     1
 90
        0
176
     1
 40
0.6
176
     1
 40
30.0
176
     1
 62
     7
420
 16777215
176
     1
 90
        1
176
     1
 90
        4
176
     1
 62
     7
176
     1
 62
   257
176
     1
 90
        1
176
     1
 90
        1
176
     1
 40
1.0
176
     1
 90
        8
176
     1
 62
     7
176
     1
 40
1.0
176
     1
 90
        1
176
     1
 90
        6
176
     1
 90
        2
176
     1
 62
     7
176
     1
 90
        5
176
     1
 90
        0
176
     1
 90
        0
176
     1
290
     0
176
     1
 90
        1
176
     1
 40
50.0
176
     1
 90
        0
176
     1
290
     0
176
     1
290
     1
176
     1
290
     1
176
     1
290
     0
176
     1
290
     0
176
     1
290
     0
176
     1
290
     0
176
     1
290
     0
176
     1
290
     0
176
     1
 90
       50
176
     1
 40
0.0
176
     1
 40
1.0
176
     1
 90
        0
176
     1
 62
    18
420
        0
176
     1
 90
       50
176
     1
 90
        3
176
     1
 62
     5
420
      255
176
     1
290
     0
176
     1
 90
       50
176
     1
 90
       50
176
     1
 90
       50
176
     1
290
     0
176
     1
 90
       50
176
     1
 62
   256
176
     0
 40
1.0
176
     0
 90
        2
176
     1
  1
strokes_ogs.tif
176
     1
290
     0
176
     1
 40
1.0
176
     1
 40
1.0
176
     1
  0
VISUALSTYLE
  5
3A
102
{ACAD_REACTORS
330
2A
102
}
330
2A
100
AcDbVisualStyle
  2
ColorChange
 70
    16
177
     3
291
     1
 70
    58
 90
        2
176
     1
 90
        2
176
     1
 90
        3
176
     1
 90
        0
176
     1
 40
0.6
176
     1
 40
30.0
176
     1
 62
     8
420
  8421504
176
     1
 90
        1
176
     1
 90
        4
176
     1
 62
     7
176
     1
 62
   257
176
     1
 90
        1
176
     1
 90
        1
176
     1
 40
1.0
176
     1
 90
        8
176
     1
 62
     8
420
  8421504
176
     1
 40
1.0
176
     1
 90
        1
176
     1
 90
        6
176
     1
 90
        2
176
     1
 62
     7
176
     1
 90
        5
176
     1
 90
        0
176
     1
 90
        0
176
     1
290
     0
176
     1
 90
        1
176
     1
 40
0.0
176
     1
 90
        0
176
     1
290
     0
176
     1
290
     1
176
     1
290
     1
176
     1
290
     0
176
     1
290
     0
176
     1
290
     0
176
     1
290
     0
176
     1
290
     0
176
     1
290
     0
176
     1
 90
       50
176
     1
 40
0.0
176
     1
 40
1.0
176
     1
 90
        0
176
     1
 62
    18
420
        0
176
     1
 90
       50
176
     1
 90
        3
176
     1
 62
     5
420
      255
176
     1
290
     0
176
     1
 90
       50
176
     1
 90
       50
176
     1
 90
       50
176
     1
290
     0
176
     1
 90
       50
176
     1
 62
   256
176
     0
 40
1.0
176
     0
 90
        2
176
     1
  1
strokes_ogs.tif
176
     1
290
     0
176
     1
 40
1.0
176
     1
 40
1.0
176
     1
  0
VISUALSTYLE
  5
34
102
{ACAD_REACTORS
330
2A
102
}
330
2A
100
AcDbVisualStyle
  2
Conceptual
 70
     9
177
     3
291
     0
 70
    58
 90
        3
176
     1
 90
        2
176
     1
 90
        0
176
     1
 90
        0
176
     1
 40
0.6
176
     1
 40
30.0
176
     1
 62
     7
420
 16777215
176
     1
 90
        2
176
     1
 90
        2
176
     1
 62
     7
176
     1
 62
   257
176
     1
 90
        1
176
     1
 90
        1
176
     1
 40
179.0
176
     1
 90
        8
176
     1
 62
     7
176
     1
 40
1.0
176
     1
 90
        1
176
     1
 90
        6
176
     1
 90
        2
176
     1
 62
     7
176
     1
 90
        3
176
     1
 90
        0
176
     1
 90
        0
176
     1
290
     0
176
     1
 90
        1
176
     1
 40
0.0
176
     1
 90
        0
176
     1
290
     0
176
     1
290
     1
176
     1
290
     1
176
     1
290
     0
176
     1
290
     0
176
     1
290
     0
176
     1
290
     0
176
     1
290
     0
176
     1
290
     0
176
     1
 90
       50
176
     1
 40
0.0
176
     1
 40
1.0
176
     1
 90
        0
176
     1
 62
    18
420
        0
176
     1
 90
       50
176
     1
 90
        3
176
     1
 62
     5
420
      255
176
     1
290
     0
176
     1
 90
       50
176
     1
 90
       50
176
     1
 90
       50
176
     1
290
     0
176
     1
 90
       50
176
     1
 62
   256
176
     0
 40
1.0
176
     0
 90
        2
176
     1
  1
strokes_ogs.tif
176
     1
290
     0
176
     1
 40
1.0
176
     1
 40
1.0
176
     1
  0
VISUALSTYLE
  5
35
102
{ACAD_REACTORS
330
2A
102
}
330
2A
100
AcDbVisualStyle
  2
Dim
 70
    11
177
     3
291
     1
 70
    58
 90
        2
176
     1
 90
        2
176
     1
 90
        0
176
     1
 90
        0
176
     1
 40
0.6
176
     1
 40
30.0
176
     1
 62
     7
420
 16777215
176
     1
 90
        1
176
     1
 90
        4
176
     1
 62
     7
176
     1
 62
   257
176
     1
 90
        1
176
     1
 90
        1
176
     1
 40
1.0
176
     1
 90
        8
176
     1
 62
     7
176
     1
 40
1.0
176
     1
 90
        1
176
     1
 90
        6
176
     1
 90
        2
176
     1
 62
     7
176
     1
 90
        5
176
     1
 90
        0
176
     1
 90
        0
176
     1
290
     0
176
     1
 90
        1
176
     1
 40
-50.0
176
     1
 90
        0
176
     1
290
     0
176
     1
290
     1
176
     1
290
     1
176
     1
290
     0
176
     1
290
     0
176
     1
290
     0
176
     1
290
     0
176
     1
290
     0
176
     1
290
     0
176
     1
 90
       50
176
     1
 40
0.0
176
     1
 40
1.0
176
     1
 90
        0
176
     1
 62
    18
420
        0
176
     1
 90
       50
176
     1
 90
        3
176
     1
 62
     5
420
      255
176
     1
290
     0
176
     1
 90
       50
176
     1
 90
       50
176
     1
 90
       50
176
     1
290
     0
176
     1
 90
       50
176
     1
 62
   256
176
     0
 40
1.0
176
     0
 90
        2
176
     1
  1
strokes_ogs.tif
176
     1
290
     0
176
     1
 40
1.0
176
     1
 40
1.0
176
     1
  0
VISUALSTYLE
  5
3D
102
{ACAD_REACTORS
330
2A
102
}
330
2A
100
AcDbVisualStyle
  2
EdgeColorOff
 70
    22
177
     3
291
     1
 70
    58
 90
        2
176
     0
 90
        2
176
     0
 90
        0
176
     0
 90
        0
176
     0
 40
0.6
176
     0
 40
30.0
176
     0
 62
     7
420
 16777215
176
     0
 90
        1
176
     0
 90
        4
176
     0
 62
     7
176
     0
 62
   257
176
     0
 90
        1
176
     0
 90
        1
176
     0
 40
1.0
176
     0
 90
        8
176
     2
 62
     7
176
     0
 40
1.0
176
     0
 90
        1
176
     0
 90
        6
176
     0
 90
        2
176
     0
 62
     7
176
     0
 90
        5
176
     0
 90
        0
176
     0
 90
        0
176
     0
290
     0
176
     0
 90
        1
176
     0
 40
0.0
176
     0
 90
        0
176
     0
290
     0
176
     0
290
     1
176
     0
290
     1
176
     0
290
     0
176
     0
290
     0
176
     0
290
     0
176
     0
290
     0
176
     0
290
     0
176
     0
290
     0
176
     0
 90
       50
176
     0
 40
0.0
176
     0
 40
1.0
176
     0
 90
        0
176
     0
 62
    18
420
        0
176
     0
 90
       50
176
     0
 90
        3
176
     0
 62
     5
420
      255
176
     0
290
     0
176
     0
 90
       50
176
     0
 90
       50
176
     0
 90
       50
176
     0
290
     0
176
     0
 90
       50
176
     0
 62
   256
176
     0
 40
1.0
176
     0
 90
        2
176
     0
  1
strokes_ogs.tif
176
     0
290
     0
176
     0
 40
1.0
176
     0
 40
1.0
176
     0
  0
VISUALSTYLE
  5
39
102
{ACAD_REACTORS
330
2A
102
}
330
2A
100
AcDbVisualStyle
  2
Facepattern
 70
    15
177
     3
291
     1
 70
    58
 90
        2
176
     1
 90
        2
176
     1
 90
        0
176
     1
 90
        0
176
     1
 40
0.6
176
     1
 40
30.0
176
     1
 62
     7
420
 16777215
176
     1
 90
        1
176
     1
 90
        4
176
     1
 62
     7
176
     1
 62
   257
176
     1
 90
        1
176
     1
 90
        1
176
     1
 40
1.0
176
     1
 90
        8
176
     1
 62
     7
176
     1
 40
1.0
176
     1
 90
        1
176
     1
 90
        6
176
     1
 90
        2
176
     1
 62
     7
176
     1
 90
        5
176
     1
 90
        0
176
     1
 90
        0
176
     1
290
     0
176
     1
 90
        1
176
     1
 40
0.0
176
     1
 90
        0
176
     1
290
     0
176
     1
290
     1
176
     1
290
     1
176
     1
290
     0
176
     1
290
     0
176
     1
290
     0
176
     1
290
     0
176
     1
290
     0
176
     1
290
     0
176
     1
 90
       50
176
     1
 40
0.0
176
     1
 40
1.0
176
     1
 90
        0
176
     1
 62
    18
420
        0
176
     1
 90
       50
176
     1
 90
        3
176
     1
 62
     5
420
      255
176
     1
290
     0
176
     1
 90
       50
176
     1
 90
       50
176
     1
 90
       50
176
     1
290
     0
176
     1
 90
       50
176
     1
 62
   256
176
     0
 40
1.0
176
     0
 90
        2
176
     1
  1
strokes_ogs.tif
176
     1
290
     0
176
     1
 40
1.0
176
     1
 40
1.0
176
     1
  0
VISUALSTYLE
  5
2B
102
{ACAD_REACTORS
330
2A
102
}
330
2A
100
AcDbVisualStyle
  2
Flat
 70
     0
177
     3
291
     1
 70
    58
 90
        2
176
     1
 90
        1
176
     1
 90
        1
176
     1
 90
        2
176
     1
 40
0.6
176
     1
 40
30.0
176
     1
 62
     7
420
 16777215
176
     1
 90
        0
176
     1
 90
        0
176
     1
 62
     7
176
     1
 62
   257
176
     1
 90
        1
176
     1
 90
        1
176
     1
 40
1.0
176
     1
 90
        8
176
     1
 62
     7
176
     1
 40
1.0
176
     1
 90
        1
176
     1
 90
        6
176
     1
 90
        2
176
     1
 62
     7
176
     1
 90
        5
176
     1
 90
        0
176
     1
 90
        0
176
     1
290
     0
176
     1
 90
       13
176
     1
 40
0.0
176
     1
 90
        0
176
     1
290
     0
176
     1
290
     1
176
     1
290
     1
176
     1
290
     0
176
     1
290
     0
176
     1
290
     0
176
     1
290
     0
176
     1
290
     0
176
     1
290
     0
176
     1
 90
       50
176
     1
 40
0.0
176
     1
 40
1.0
176
     1
 90
        0
176
     1
 62
    18
420
        0
176
     1
 90
       50
176
     1
 90
        3
176
     1
 62
     5
420
      255
176
     1
290
     0
176
     1
 90
       50
176
     1
 90
       50
176
     1
 90
       50
176
     1
290
     0
176
     1
 90
       50
176
     1
 62
   256
176
     0
 40
1.0
176
     0
 90
        2
176
     1
  1
strokes_ogs.tif
176
     1
290
     0
176
     1
 40
1.0
176
     1
 40
1.0
176
     1
  0
VISUALSTYLE
  5
2C
102
{ACAD_REACTORS
330
2A
102
}
330
2A
100
AcDbVisualStyle
  2
FlatWithEdges
 70
     1
177
     3
291
     1
 70
    58
 90
        2
176
     1
 90
        1
176
     1
 90
        1
176
     1
 90
        2
176
     1
 40
0.6
176
     1
 40
30.0
176
     1
 62
     7
420
 16777215
176
     1
 90
        1
176
     1
 90
        0
176
     1
 62
     7
176
     1
 62
   257
176
     1
 90
        1
176
     1
 90
        1
176
     1
 40
1.0
176
     1
 90
        0
176
     1
 62
   257
176
     1
 40
1.0
176
     1
 90
        1
176
     1
 90
        6
176
     1
 90
        2
176
     1
 62
     7
176
     1
 90
        5
176
     1
 90
        0
176
     1
 90
        0
176
     1
290
     0
176
     1
 90
       13
176
     1
 40
0.0
176
     1
 90
        0
176
     1
290
     0
176
     1
290
     1
176
     1
290
     1
176
     1
290
     0
176
     1
290
     0
176
     1
290
     0
176
     1
290
     0
176
     1
290
     0
176
     1
290
     0
176
     1
 90
       50
176
     1
 40
0.0
176
     1
 40
1.0
176
     1
 90
        0
176
     1
 62
    18
420
        0
176
     1
 90
       50
176
     1
 90
        3
176
     1
 62
     5
420
      255
176
     1
290
     0
176
     1
 90
       50
176
     1
 90
       50
176
     1
 90
       50
176
     1
290
     0
176
     1
 90
       50
176
     1
 62
   256
176
     0
 40
1.0
176
     0
 90
        2
176
     1
  1
strokes_ogs.tif
176
     1
290
     0
176
     1
 40
1.0
176
     1
 40
1.0
176
     1
  0
VISUALSTYLE
  5
2D
102
{ACAD_REACTORS
330
2A
102
}
330
2A
100
AcDbVisualStyle
  2
Gouraud
 70
     2
177
     3
291
     1
 70
    58
 90
        2
176
     1
 90
        2
176
     1
 90
        1
176
     1
 90
        2
176
     1
 40
0.6
176
     1
 40
30.0
176
     1
 62
     7
420
 16777215
176
     1
 90
        0
176
     1
 90
        0
176
     1
 62
     7
176
     1
 62
   257
176
     1
 90
        1
176
     1
 90
        1
176
     1
 40
1.0
176
     1
 90
        0
176
     1
 62
     7
176
     1
 40
1.0
176
     1
 90
        1
176
     1
 90
        6
176
     1
 90
        2
176
     1
 62
     7
176
     1
 90
        5
176
     1
 90
        0
176
     1
 90
        0
176
     1
290
     0
176
     1
 90
       13
176
     1
 40
0.0
176
     1
 90
        0
176
     1
290
     0
176
     1
290
     1
176
     1
290
     1
176
     1
290
     0
176
     1
290
     0
176
     1
290
     0
176
     1
290
     0
176
     1
290
     0
176
     1
290
     0
176
     1
 90
       50
176
     1
 40
0.0
176
     1
 40
1.0
176
     1
 90
        0
176
     1
 62
    18
420
        0
176
     1
 90
       50
176
     1
 90
        3
176
     1
 62
     5
420
      255
176
     1
290
     0
176
     1
 90
       50
176
     1
 90
       50
176
     1
 90
       50
176
     1
290
     0
176
     1
 90
       50
176
     1
 62
   256
176
     0
 40
1.0
176
     0
 90
        2
176
     1
  1
strokes_ogs.tif
176
     1
290
     0
176
     1
 40
1.0
176
     1
 40
1.0
176
     1
  0
VISUALSTYLE
  5
2E
102
{ACAD_REACTORS
330
2A
102
}
330
2A
100
AcDbVisualStyle
  2
GouraudWithEdges
 70
     3
177
     3
291
     1
 70
    58
 90
        2
176
     1
 90
        2
176
     1
 90
        1
176
     1
 90
        2
176
     1
 40
0.6
176
     1
 40
30.0
176
     1
 62
     7
420
 16777215
176
     1
 90
        1
176
     1
 90
        0
176
     1
 62
     7
176
     1
 62
   257
176
     1
 90
        1
176
     1
 90
        1
176
     1
 40
1.0
176
     1
 90
        0
176
     1
 62
   257
176
     1
 40
1.0
176
     1
 90
        1
176
     1
 90
        6
176
     1
 90
        2
176
     1
 62
     7
176
     1
 90
        5
176
     1
 90
        0
176
     1
 90
        0
176
     1
290
     0
176
     1
 90
       13
176
     1
 40
0.0
176
     1
 90
        0
176
     1
290
     0
176
     1
290
     1
176
     1
290
     1
176
     1
290
     0
176
     1
290
     0
176
     1
290
     0
176
     1
290
     0
176
     1
290
     0
176
     1
290
     0
176
     1
 90
       50
176
     1
 40
0.0
176
     1
 40
1.0
176
     1
 90
        0
176
     1
 62
    18
420
        0
176
     1
 90
       50
176
     1
 90
        3
176
     1
 62
     5
420
      255
176
     1
290
     0
176
     1
 90
       50
176
     1
 90
       50
176
     1
 90
       50
176
     1
290
     0
176
     1
 90
       50
176
     1
 62
   256
176
     0
 40
1.0
176
     0
 90
        2
176
     1
  1
strokes_ogs.tif
176
     1
290
     0
176
     1
 40
1.0
176
     1
 40
1.0
176
     1
  0
VISUALSTYLE
  5
31
102
{ACAD_REACTORS
330
2A
102
}
330
2A
100
AcDbVisualStyle
  2
Hidden
 70
     6
177
     3
291
     0
 70
    58
 90
        1
176
     1
 90
        2
176
     1
 90
        2
176
     1
 90
        0
176
     1
 40
0.6
176
     1
 40
30.0
176
     1
 62
     7
420
 16777215
176
     1
 90
        2
176
     1
 90
        2
176
     1
 62
     7
176
     1
 62
   257
176
     1
 90
        2
176
     1
 90
        1
176
     1
 40
40.0
176
     1
 90
        0
176
     1
 62
   257
176
     1
 40
1.0
176
     1
 90
        1
176
     1
 90
        6
176
     1
 90
        2
176
     1
 62
     7
176
     1
 90
        3
176
     1
 90
        0
176
     1
 90
        0
176
     1
290
     0
176
     1
 90
        1
176
     1
 40
0.0
176
     1
 90
        0
176
     1
290
     0
176
     1
290
     1
176
     1
290
     1
176
     1
290
     0
176
     1
290
     0
176
     1
290
     0
176
     1
290
     0
176
     1
290
     0
176
     1
290
     0
176
     1
 90
       50
176
     1
 40
0.0
176
     1
 40
1.0
176
     1
 90
        0
176
     1
 62
    18
420
        0
176
     1
 90
       50
176
     1
 90
        3
176
     1
 62
     5
420
      255
176
     1
290
     0
176
     1
 90
       50
176
     1
 90
       50
176
     1
 90
       50
176
     1
290
     0
176
     1
 90
       50
176
     1
 62
   256
176
     0
 40
1.0
176
     0
 90
        2
176
     1
  1
strokes_ogs.tif
176
     1
290
     0
176
     1
 40
1.0
176
     1
 40
1.0
176
     1
  0
VISUALSTYLE
  5
3B
102
{ACAD_REACTORS
330
2A
102
}
330
2A
100
AcDbVisualStyle
  2
JitterOff
 70
    20
177
     3
291
     1
 70
    58
 90
        2
176
     0
 90
        2
176
     0
 90
        0
176
     0
 90
        0
176
     0
 40
0.6
176
     0
 40
30.0
176
     0
 62
     7
420
 16777215
176
     0
 90
        1
176
     0
 90
        4
176
     0
 62
     7
176
     0
 62
   257
176
     0
 90
        1
176
     0
 90
        1
176
     0
 40
1.0
176
     0
 90
       10
176
     2
 62
     7
176
     0
 40
1.0
176
     0
 90
        1
176
     0
 90
        6
176
     0
 90
        2
176
     0
 62
     7
176
     0
 90
        5
176
     0
 90
        0
176
     0
 90
        0
176
     0
290
     0
176
     0
 90
        1
176
     0
 40
0.0
176
     0
 90
        0
176
     0
290
     0
176
     0
290
     1
176
     0
290
     1
176
     0
290
     0
176
     0
290
     0
176
     0
290
     0
176
     0
290
     0
176
     0
290
     0
176
     0
290
     0
176
     0
 90
       50
176
     0
 40
0.0
176
     0
 40
1.0
176
     0
 90
        0
176
     0
 62
    18
420
        0
176
     0
 90
       50
176
     0
 90
        3
176
     0
 62
     5
420
      255
176
     0
290
     0
176
     0
 90
       50
176
     0
 90
       50
176
     0
 90
       50
176
     0
290
     0
176
     0
 90
       50
176
     0
 62
   256
176
     0
 40
1.0
176
     0
 90
        2
176
     0
  1
strokes_ogs.tif
176
     0
290
     0
176
     0
 40
1.0
176
     0
 40
1.0
176
     0
  0
VISUALSTYLE
  5
38
102
{ACAD_REACTORS
330
2A
102
}
330
2A
100
AcDbVisualStyle
  2
Linepattern
 70
    14
177
     3
291
     1
 70
    58
 90
        2
176
     1
 90
        2
176
     1
 90
        0
176
     1
 90
        0
176
     1
 40
0.6
176
     1
 40
30.0
176
     1
 62
     7
420
 16777215
176
     1
 90
        1
176
     1
 90
        4
176
     1
 62
     7
176
     1
 62
   257
176
     1
 90
        7
176
     1
 90
        7
176
     1
 40
1.0
176
     1
 90
        8
176
     1
 62
     7
176
     1
 40
1.0
176
     1
 90
        1
176
     1
 90
        6
176
     1
 90
        2
176
     1
 62
     7
176
     1
 90
        5
176
     1
 90
        0
176
     1
 90
        0
176
     1
290
     0
176
     1
 90
        1
176
     1
 40
0.0
176
     1
 90
        0
176
     1
290
     0
176
     1
290
     1
176
     1
290
     1
176
     1
290
     0
176
     1
290
     0
176
     1
290
     0
176
     1
290
     0
176
     1
290
     0
176
     1
290
     0
176
     1
 90
       50
176
     1
 40
0.0
176
     1
 40
1.0
176
     1
 90
        0
176
     1
 62
    18
420
        0
176
     1
 90
       50
176
     1
 90
        3
176
     1
 62
     5
420
      255
176
     1
290
     0
176
     1
 90
       50
176
     1
 90
       50
176
     1
 90
       50
176
     1
290
     0
176
     1
 90
       50
176
     1
 62
   256
176
     0
 40
1.0
176
     0
 90
        2
176
     1
  1
strokes_ogs.tif
176
     1
290
     0
176
     1
 40
1.0
176
     1
 40
1.0
176
     1
  0
VISUALSTYLE
  5
3C
102
{ACAD_REACTORS
330
2A
102
}
330
2A
100
AcDbVisualStyle
  2
OverhangOff
 70
    21
177
     3
291
     1
 70
    58
 90
        2
176
     0
 90
        2
176
     0
 90
        0
176
     0
 90
        0
176
     0
 40
0.6
176
     0
 40
30.0
176
     0
 62
     7
420
 16777215
176
     0
 90
        1
176
     0
 90
        4
176
     0
 62
     7
176
     0
 62
   257
176
     0
 90
        1
176
     0
 90
        1
176
     0
 40
1.0
176
     0
 90
        9
176
     2
 62
     7
176
     0
 40
1.0
176
     0
 90
        1
176
     0
 90
        6
176
     0
 90
        2
176
     0
 62
     7
176
     0
 90
        5
176
     0
 90
        0
176
     0
 90
        0
176
     0
290
     0
176
     0
 90
        1
176
     0
 40
0.0
176
     0
 90
        0
176
     0
290
     0
176
     0
290
     1
176
     0
290
     1
176
     0
290
     0
176
     0
290
     0
176
     0
290
     0
176
     0
290
     0
176
     0
290
     0
176
     0
290
     0
176
     0
 90
       50
176
     0
 40
0.0
176
     0
 40
1.0
176
     0
 90
        0
176
     0
 62
    18
420
        0
176
     0
 90
       50
176
     0
 90
        3
176
     0
 62
     5
420
      255
176
     0
290
     0
176
     0
 90
       50
176
     0
 90
       50
176
     0
 90
       50
176
     0
290
     0
176
     0
 90
       50
176
     0
 62
   256
176
     0
 40
1.0
176
     0
 90
        2
176
     0
  1
strokes_ogs.tif
176
     0
290
     0
176
     0
 40
1.0
176
     0
 40
1.0
176
     0
  0
VISUALSTYLE
  5
33
102
{ACAD_REACTORS
330
2A
102
}
330
2A
100
AcDbVisualStyle
  2
Realistic
 70
     8
177
     3
291
     0
 70
    58
 90
        2
176
     1
 90
        3
176
     1
 90
        0
176
     1
 90
        2
176
     1
 40
0.6
176
     1
 40
30.0
176
     1
 62
     7
420
 16777215
176
     1
 90
        0
176
     1
 90
        0
176
     1
 62
     7
176
     1
 62
   257
176
     1
 90
        1
176
     1
 90
        1
176
     1
 40
1.0
176
     1
 90
        8
176
     1
 62
   257
176
     1
 40
1.0
176
     1
 90
        1
176
     1
 90
        6
176
     1
 90
        2
176
     1
 62
     7
176
     1
 90
        3
176
     1
 90
        0
176
     1
 90
        0
176
     1
290
     0
176
     1
 90
       13
176
     1
 40
0.0
176
     1
 90
        0
176
     1
290
     0
176
     1
290
     1
176
     1
290
     1
176
     1
290
     0
176
     1
290
     0
176
     1
290
     0
176
     1
290
     0
176
     1
290
     0
176
     1
290
     0
176
     1
 90
       50
176
     1
 40
0.0
176
     1
 40
1.0
176
     1
 90
        0
176
     1
 62
    18
420
        0
176
     1
 90
       50
176
     1
 90
        3
176
     1
 62
     5
420
      255
176
     1
290
     0
176
     1
 90
       50
176
     1
 90
       50
176
     1
 90
       50
176
     1
290
     0
176
     1
 90
       50
176
     1
 62
   256
176
     0
 40
1.0
176
     0
 90
        2
176
     1
  1
strokes_ogs.tif
176
     1
290
     0
176
     1
 40
1.0
176
     1
 40
1.0
176
     1
  0
VISUALSTYLE
  5
42
102
{ACAD_REACTORS
330
2A
102
}
330
2A
100
AcDbVisualStyle
  2
Shaded
 70
    27
177
     3
291
     0
 70
    58
 90
        2
176
     1
 90
        2
176
     1
 90
        1
176
     1
 90
        2
176
     1
 40
0.6
176
     1
 40
30.0
176
     1
 62
     7
420
 16777215
176
     1
 90
        0
176
     1
 90
        4
176
     1
 62
     7
176
     1
 62
   257
176
     1
 90
        1
176
     1
 90
        1
176
     1
 40
1.0
176
     1
 90
        8
176
     1
 62
   257
176
     1
 40
1.0
176
     1
 90
        1
176
     1
 90
        6
176
     1
 90
        2
176
     1
 62
     8
420
  7895160
176
     1
 90
        3
176
     1
 90
        0
176
     1
 90
        0
176
     1
290
     0
176
     1
 90
        5
176
     1
 40
0.0
176
     1
 90
        0
176
     1
290
     0
176
     1
290
     1
176
     1
290
     1
176
     1
290
     0
176
     1
290
     0
176
     1
290
     0
176
     1
290
     0
176
     1
290
     0
176
     1
290
     0
176
     1
 90
       50
176
     1
 40
0.0
176
     1
 40
1.0
176
     1
 90
        0
176
     1
 62
    18
420
        0
176
     1
 90
       50
176
     1
 90
        3
176
     1
 62
     5
420
      255
176
     1
290
     0
176
     1
 90
       50
176
     1
 90
       50
176
     1
 90
       50
176
     1
290
     0
176
     1
 90
       50
176
     1
 62
   256
176
     0
 40
1.0
176
     0
 90
        2
176
     1
  1
strokes_ogs.tif
176
     1
290
     0
176
     1
 40
1.0
176
     1
 40
1.0
176
     1
  0
VISUALSTYLE
  5
41
102
{ACAD_REACTORS
330
2A
102
}
330
2A
100
AcDbVisualStyle
  2
Shaded with edges
 70
    26
177
     3
291
     0
 70
    58
 90
        2
176
     1
 90
        2
176
     1
 90
        1
176
     1
 90
        2
176
     1
 40
0.6
176
     1
 40
30.0
176
     1
 62
     7
420
 16777215
176
     1
 90
        1
176
     1
 90
       10
176
     1
 62
     7
176
     1
 62
   257
176
     1
 90
        2
176
     1
 90
        1
176
     1
 40
1.0
176
     1
 90
        8
176
     1
 62
   257
176
     1
 40
1.0
176
     1
 90
        1
176
     1
 90
        6
176
     1
 90
        2
176
     1
 62
     7
176
     1
 90
        3
176
     1
 90
        0
176
     1
 90
        0
176
     1
290
     0
176
     1
 90
        5
176
     1
 40
0.0
176
     1
 90
        0
176
     1
290
     0
176
     1
290
     1
176
     1
290
     1
176
     1
290
     0
176
     1
290
     0
176
     1
290
     0
176
     1
290
     0
176
     1
290
     0
176
     1
290
     0
176
     1
 90
       50
176
     1
 40
0.0
176
     1
 40
1.0
176
     1
 90
        0
176
     1
 62
    18
420
        0
176
     1
 90
       50
176
     1
 90
        3
176
     1
 62
     5
420
      255
176
     1
290
     0
176
     1
 90
       50
176
     1
 90
       50
176
     1
 90
       50
176
     1
290
     0
176
     1
 90
       50
176
     1
 62
   256
176
     0
 40
1.0
176
     0
 90
        2
176
     1
  1
strokes_ogs.tif
176
     1
290
     0
176
     1
 40
1.0
176
     1
 40
1.0
176
     1
  0
VISUALSTYLE
  5
3E
102
{ACAD_REACTORS
330
2A
102
}
330
2A
100
AcDbVisualStyle
  2
Shades of Gray
 70
    23
177
     3
291
     0
 70
    58
 90
        2
176
     1
 90
        2
176
     1
 90
        3
176
     1
 90
        0
176
     1
 40
0.6
176
     1
 40
30.0
176
     1
 62
     7
420
 16777215
176
     1
 90
        2
176
     1
 90
        2
176
     1
 62
     7
176
     1
 62
     7
176
     1
 90
        1
176
     1
 90
        1
176
     1
 40
40.0
176
     1
 90
        8
176
     1
 62
     7
176
     1
 40
1.0
176
     1
 90
        1
176
     1
 90
        6
176
     1
 90
        2
176
     1
 62
     7
176
     1
 90
        3
176
     1
 90
        0
176
     1
 90
        0
176
     1
290
     0
176
     1
 90
        1
176
     1
 40
0.0
176
     1
 90
        0
176
     1
290
     0
176
     1
290
     1
176
     1
290
     1
176
     1
290
     0
176
     1
290
     0
176
     1
290
     0
176
     1
290
     0
176
     1
290
     0
176
     1
290
     0
176
     1
 90
       50
176
     1
 40
0.0
176
     1
 40
1.0
176
     1
 90
        0
176
     1
 62
    18
420
        0
176
     1
 90
       50
176
     1
 90
        3
176
     1
 62
     5
420
      255
176
     1
290
     0
176
     1
 90
       50
176
     1
 90
       50
176
     1
 90
       50
176
     1
290
     0
176
     1
 90
       50
176
     1
 62
   256
176
     0
 40
1.0
176
     0
 90
        2
176
     1
  1
strokes_ogs.tif
176
     1
290
     0
176
     1
 40
1.0
176
     1
 40
1.0
176
     1
  0
VISUALSTYLE
  5
3F
102
{ACAD_REACTORS
330
2A
102
}
330
2A
100
AcDbVisualStyle
  2
Sketchy
 70
    24
177
     3
291
     0
 70
    58
 90
        1
176
     1
 90
        2
176
     1
 90
        2
176
     1
 90
        0
176
     1
 40
0.6
176
     1
 40
30.0
176
     1
 62
     7
420
 16777215
176
     1
 90
        2
176
     1
 90
        2
176
     1
 62
     7
176
     1
 62
     7
176
     1
 90
        1
176
     1
 90
        1
176
     1
 40
40.0
176
     1
 90
       11
176
     1
 62
     7
176
     1
 40
1.0
176
     1
 90
        1
176
     1
 90
        6
176
     1
 90
        2
176
     1
 62
     7
176
     1
 90
        6
176
     1
 90
        0
176
     1
 90
        0
176
     1
290
     0
176
     1
 90
        1
176
     1
 40
0.0
176
     1
 90
        0
176
     1
290
     0
176
     1
290
     1
176
     1
290
     1
176
     1
290
     0
176
     1
290
     0
176
     1
290
     0
176
     1
290
     0
176
     1
290
     0
176
     1
290
     0
176
     1
 90
       50
176
     1
 40
0.0
176
     1
 40
1.0
176
     1
 90
        0
176
     1
 62
    18
420
        0
176
     1
 90
       50
176
     1
 90
        3
176
     1
 62
     5
420
      255
176
     1
290
     0
176
     1
 90
       50
176
     1
 90
       50
176
     1
 90
       50
176
     1
290
     0
176
     1
 90
       50
176
     1
 62
   256
176
     0
 40
1.0
176
     0
 90
        2
176
     1
  1
strokes_ogs.tif
176
     1
290
     0
176
     1
 40
1.0
176
     1
 40
1.0
176
     1
  0
VISUALSTYLE
  5
37
102
{ACAD_REACTORS
330
2A
102
}
330
2A
100
AcDbVisualStyle
  2
Thicken
 70
    13
177
     3
291
     1
 70
    58
 90
        2
176
     1
 90
        2
176
     1
 90
        0
176
     1
 90
        0
176
     1
 40
0.6
176
     1
 40
30.0
176
     1
 62
     7
420
 16777215
176
     1
 90
        1
176
     1
 90
        4
176
     1
 62
     7
176
     1
 62
   257
176
     1
 90
        1
176
     1
 90
        1
176
     1
 40
1.0
176
     1
 90
       12
176
     1
 62
     7
176
     1
 40
1.0
176
     1
 90
        1
176
     1
 90
        6
176
     1
 90
        2
176
     1
 62
     7
176
     1
 90
        5
176
     1
 90
        0
176
     1
 90
        0
176
     1
290
     0
176
     1
 90
        1
176
     1
 40
0.0
176
     1
 90
        0
176
     1
290
     0
176
     1
290
     1
176
     1
290
     1
176
     1
290
     0
176
     1
290
     0
176
     1
290
     0
176
     1
290
     0
176
     1
290
     0
176
     1
290
     0
176
     1
 90
       50
176
     1
 40
0.0
176
     1
 40
1.0
176
     1
 90
        0
176
     1
 62
    18
420
        0
176
     1
 90
       50
176
     1
 90
        3
176
     1
 62
     5
420
      255
176
     1
290
     0
176
     1
 90
       50
176
     1
 90
       50
176
     1
 90
       50
176
     1
290
     0
176
     1
 90
       50
176
     1
 62
   256
176
     0
 40
1.0
176
     0
 90
        2
176
     1
  1
strokes_ogs.tif
176
     1
290
     0
176
     1
 40
1.0
176
     1
 40
1.0
176
     1
  0
VISUALSTYLE
  5
30
102
{ACAD_REACTORS
330
2A
102
}
330
2A
100
AcDbVisualStyle
  2
Wireframe
 70
     5
177
     3
291
     0
 70
    58
 90
        0
176
     1
 90
        2
176
     1
 90
        0
176
     1
 90
        0
176
     1
 40
0.6
176
     1
 40
30.0
176
     1
 62
     7
420
 16777215
176
     1
 90
        1
176
     1
 90
        4
176
     1
 62
     7
176
     1
 62
   257
176
     1
 90
        1
176
     1
 90
        1
176
     1
 40
1.0
176
     1
 90
        0
176
     1
 62
   257
176
     1
 40
1.0
176
     1
 90
        1
176
     1
 90
        6
176
     1
 90
        2
176
     1
 62
     7
176
     1
 90
        3
176
     1
 90
        0
176
     1
 90
        0
176
     1
290
     0
176
     1
 90
        1
176
     1
 40
0.0
176
     1
 90
        0
176
     1
290
     0
176
     1
290
     1
176
     1
290
     1
176
     1
290
     0
176
     1
290
     0
176
     1
290
     0
176
     1
290
     0
176
     1
290
     0
176
     1
290
     0
176
     1
 90
       50
176
     1
 40
0.0
176
     1
 40
1.0
176
     1
 90
        0
176
     1
 62
    18
420
        0
176
     1
 90
       50
176
     1
 90
        3
176
     1
 62
     5
420
      255
176
     1
290
     0
176
     1
 90
       50
176
     1
 90
       50
176
     1
 90
       50
176
     1
290
     0
176
     1
 90
       50
176
     1
 62
   256
176
     0
 40
1.0
176
     0
 90
        2
176
     1
  1
strokes_ogs.tif
176
     1
290
     0
176
     1
 40
1.0
176
     1
 40
1.0
176
     1
  0
VISUALSTYLE
  5
40
102
{ACAD_REACTORS
330
2A
102
}
330
2A
100
AcDbVisualStyle
  2
X-Ray
 70
    25
177
     3
291
     0
 70
    58
 90
        2
176
     1
 90
        2
176
     1
 90
        1
176
     1
 90
        1
176
     1
 40
0.5
176
     1
 40
30.0
176
     1
 62
     7
420
 16777215
176
     1
 90
        1
176
     1
 90
        0
176
     1
 62
     7
176
     1
 62
   257
176
     1
 90
        1
176
     1
 90
        1
176
     1
 40
1.0
176
     1
 90
        8
176
     1
 62
     7
176
     1
 40
1.0
176
     1
 90
        1
176
     1
 90
        6
176
     1
 90
        2
176
     1
 62
     7
176
     1
 90
        3
176
     1
 90
        0
176
     1
 90
        0
176
     1
290
     0
176
     1
 90
       13
176
     1
 40
0.0
176
     1
 90
        0
176
     1
290
     0
176
     1
290
     1
176
     1
290
     1
176
     1
290
     0
176
     1
290
     0
176
     1
290
     0
176
     1
290
     0
176
     1
290
     0
176
     1
290
     0
176
     1
 90
       50
176
     1
 40
0.0
176
     1
 40
1.0
176
     1
 90
        0
176
     1
 62
    18
420
        0
176
     1
 90
       50
176
     1
 90
        3
176
     1
 62
     5
420
      255
176
     1
290
     0
176
     1
 90
       50
176
     1
 90
       50
176
     1
 90
       50
176
     1
290
     0
176
     1
 90
       50
176
     1
 62
   256
176
     0
 40
1.0
176
     0
 90
        2
176
     1
  1
strokes_ogs.tif
176
     1
290
     0
176
     1
 40
1.0
176
     1
 40
1.0
176
     1
  0
DICTIONARYVAR
  5
16A
102
{ACAD_REACTORS
330
169
102
}
330
169
100
DictionaryVariables
280
     0
  1
1:1
  0
DICTIONARYVAR
  5
16F
102
{ACAD_REACTORS
330
169
102
}
330
169
100
DictionaryVariables
280
     0
  1
Standard
  0
DICTIONARYVAR
  5
16E
102
{ACAD_REACTORS
330
169
102
}
330
169
100
DictionaryVariables
280
     0
  1
Standard
  0
DICTIONARY
  5
16B
330
6A
100
AcDbDictionary
280
     1
281
     1
  3
ACAD_ROUNDTRIP_2008_TABLESTYLE_CELLSTYLEMAP
360
16C
  0
CELLSTYLEMAP
  5
16C
102
{ACAD_REACTORS
330
16B
102
}
330
16B
100
AcDbCellStyleMap
 90
        3
300
CELLSTYLE
  1
TABLEFORMAT_BEGIN
 90
        5
170
     1
 91
        0
 92
    32768
 62
   257
 93
        1
300
CONTENTFORMAT
  1
CONTENTFORMAT_BEGIN
 90
        0
 91
        0
 92
        4
 93
        0
300

 40
0.0
140
1.0
 94
        5
 62
     0
340
11
144
0.25
309
CONTENTFORMAT_END
171
     1
301
MARGIN
  1
CELLMARGIN_BEGIN
 40
0.06
 40
0.06
 40
0.06
 40
0.06
 40
0.06
 40
0.06
309
CELLMARGIN_END
 94
        6
 95
        1
302
GRIDFORMAT
  1
GRIDFORMAT_BEGIN
 90
        0
 91
        1
 62
     0
 92
       -2
340
14
 93
        0
 40
0.045
309
GRIDFORMAT_END
 95
        2
302
GRIDFORMAT
  1
GRIDFORMAT_BEGIN
 90
        0
 91
        1
 62
     0
 92
       -2
340
14
 93
        0
 40
0.045
309
GRIDFORMAT_END
 95
        4
302
GRIDFORMAT
  1
GRIDFORMAT_BEGIN
 90
        0
 91
        1
 62
     0
 92
       -2
340
14
 93
        0
 40
0.045
309
GRIDFORMAT_END
 95
        8
302
GRIDFORMAT
  1
GRIDFORMAT_BEGIN
 90
        0
 91
        1
 62
     0
 92
       -2
340
14
 93
        0
 40
0.045
309
GRIDFORMAT_END
 95
       16
302
GRIDFORMAT
  1
GRIDFORMAT_BEGIN
 90
        0
 91
        1
 62
     0
 92
       -2
340
14
 93
        0
 40
0.045
309
GRIDFORMAT_END
 95
       32
302
GRIDFORMAT
  1
GRIDFORMAT_BEGIN
 90
        0
 91
        1
 62
     0
 92
       -2
340
14
 93
        0
 40
0.045
309
GRIDFORMAT_END
309
TABLEFORMAT_END
  1
CELLSTYLE_BEGIN
 90
        1
 91
        1
300
_TITLE
309
CELLSTYLE_END
300
CELLSTYLE
  1
TABLEFORMAT_BEGIN
 90
        5
170
     1
 91
        0
 92
        0
 62
   257
 93
        1
300
CONTENTFORMAT
  1
CONTENTFORMAT_BEGIN
 90
        0
 91
        0
 92
        4
 93
        0
300

 40
0.0
140
1.0
 94
        5
 62
     0
340
11
144
0.18
309
CONTENTFORMAT_END
171
     1
301
MARGIN
  1
CELLMARGIN_BEGIN
 40
0.06
 40
0.06
 40
0.06
 40
0.06
 40
0.06
 40
0.06
309
CELLMARGIN_END
 94
        6
 95
        1
302
GRIDFORMAT
  1
GRIDFORMAT_BEGIN
 90
        0
 91
        1
 62
     0
 92
       -2
340
14
 93
        0
 40
0.045
309
GRIDFORMAT_END
 95
        2
302
GRIDFORMAT
  1
GRIDFORMAT_BEGIN
 90
        0
 91
        1
 62
     0
 92
       -2
340
14
 93
        0
 40
0.045
309
GRIDFORMAT_END
 95
        4
302
GRIDFORMAT
  1
GRIDFORMAT_BEGIN
 90
        0
 91
        1
 62
     0
 92
       -2
340
14
 93
        0
 40
0.045
309
GRIDFORMAT_END
 95
        8
302
GRIDFORMAT
  1
GRIDFORMAT_BEGIN
 90
        0
 91
        1
 62
     0
 92
       -2
340
14
 93
        0
 40
0.045
309
GRIDFORMAT_END
 95
       16
302
GRIDFORMAT
  1
GRIDFORMAT_BEGIN
 90
        0
 91
        1
 62
     0
 92
       -2
340
14
 93
        0
 40
0.045
309
GRIDFORMAT_END
 95
       32
302
GRIDFORMAT
  1
GRIDFORMAT_BEGIN
 90
        0
 91
        1
 62
     0
 92
       -2
340
14
 93
        0
 40
0.045
309
GRIDFORMAT_END
309
TABLEFORMAT_END
  1
CELLSTYLE_BEGIN
 90
        2
 91
        1
300
_HEADER
309
CELLSTYLE_END
300
CELLSTYLE
  1
TABLEFORMAT_BEGIN
 90
        5
170
     1
 91
        0
 92
        0
 62
   257
 93
        1
300
CONTENTFORMAT
  1
CONTENTFORMAT_BEGIN
 90
        0
 91
        0
 92
        4
 93
        0
300

 40
0.0
140
1.0
 94
        2
 62
     0
340
11
144
0.18
309
CONTENTFORMAT_END
171
     1
301
MARGIN
  1
CELLMARGIN_BEGIN
 40
0.06
 40
0.06
 40
0.06
 40
0.06
 40
0.06
 40
0.06
309
CELLMARGIN_END
 94
        6
 95
        1
302
GRIDFORMAT
  1
GRIDFORMAT_BEGIN
 90
        0
 91
        1
 62
     0
 92
       -2
340
14
 93
        0
 40
0.045
309
GRIDFORMAT_END
 95
        2
302
GRIDFORMAT
  1
GRIDFORMAT_BEGIN
 90
        0
 91
        1
 62
     0
 92
       -2
340
14
 93
        0
 40
0.045
309
GRIDFORMAT_END
 95
        4
302
GRIDFORMAT
  1
GRIDFORMAT_BEGIN
 90
        0
 91
        1
 62
     0
 92
       -2
340
14
 93
        0
 40
0.045
309
GRIDFORMAT_END
 95
        8
302
GRIDFORMAT
  1
GRIDFORMAT_BEGIN
 90
        0
 91
        1
 62
     0
 92
       -2
340
14
 93
        0
 40
0.045
309
GRIDFORMAT_END
 95
       16
302
GRIDFORMAT
  1
GRIDFORMAT_BEGIN
 90
        0
 91
        1
 62
     0
 92
       -2
340
14
 93
        0
 40
0.045
309
GRIDFORMAT_END
 95
       32
302
GRIDFORMAT
  1
GRIDFORMAT_BEGIN
 90
        0
 91
        1
 62
     0
 92
       -2
340
14
 93
        0
 40
0.045
309
GRIDFORMAT_END
309
TABLEFORMAT_END
  1
CELLSTYLE_BEGIN
 90
        3
 91
        2
300
_DATA
309
CELLSTYLE_END
  0
ENDSEC
  0
EOF