0
SECTION
  2
HEADER
  9
$ACADVER
  1
AC1027
  9
$ACADMAINTVER
 70
     8
  9
$DWGCODEPAGE
  3
ANSI_1252
  9
$REQUIREDVERSIONS
160
                 0
  9
$COMMENTS
  1
File was created by Cadenas
  9
$CUSTOMPROPERTYTAG
  1
NN
  9
$CUSTOMPROPERTY
  1
Set Screw Four-Bolt Flange Inch Bore - Polymer Housing, Corrosion Resistant Insert
  9
$CUSTOMPROPERTYTAG
  1
NT
  9
$CUSTOMPROPERTY
  1
SC 4 Bolt Flange Bearings -(Normal Duty) -Corrosion Resistant Insert -Polymer Housed -E-Z KLEEN
  9
$CUSTOMPROPERTYTAG
  1
NB
  9
$CUSTOMPROPERTY
  1
127521
  9
$CUSTOMPROPERTYTAG
  1
NBSYN
  9
$CUSTOMPROPERTY
  1
$PN.
  9
$CUSTOMPROPERTYTAG
  1
LINA
  9
$CUSTOMPROPERTY
  1
127521
  9
$CUSTOMPROPERTYTAG
  1
SERIES
  9
$CUSTOMPROPERTY
  1
208
  9
$CUSTOMPROPERTYTAG
  1
SS
  9
$CUSTOMPROPERTY
  1
1-1/2
  9
$CUSTOMPROPERTYTAG
  1
PN
  9
$CUSTOMPROPERTY
  1
127521
  9
$CUSTOMPROPERTYTAG
  1
DESCRIPTION
  9
$CUSTOMPROPERTY
  1
F4B-SCEZ-108-PCR
  9
$CUSTOMPROPERTYTAG
  1
WEIGHT
  9
$CUSTOMPROPERTY
  1
1.82
  9
$CUSTOMPROPERTYTAG
  1
A
  9
$CUSTOMPROPERTY
  1
1.94
  9
$CUSTOMPROPERTYTAG
  1
B
  9
$CUSTOMPROPERTY
  1
5.12
  9
$CUSTOMPROPERTYTAG
  1
C
  9
$CUSTOMPROPERTY
  1
2.10
  9
$CUSTOMPROPERTYTAG
  1
D
  9
$CUSTOMPROPERTY
  1
4.00
  9
$CUSTOMPROPERTYTAG
  1
F
  9
$CUSTOMPROPERTY
  1
1/2
  9
$CUSTOMPROPERTYTAG
  1
H
  9
$CUSTOMPROPERTY
  1
0.67
  9
$CUSTOMPROPERTYTAG
  1
J
  9
$CUSTOMPROPERTY
  1
0.62
  9
$CUSTOMPROPERTYTAG
  1
L
  9
$CUSTOMPROPERTY
  1
2.05
  9
$CUSTOMPROPERTYTAG
  1
COMPANY
  9
$CUSTOMPROPERTY
  1
baldor
  9
$INSBASE
 10
0.0
 20
0.0
 30
0.0
  9
$EXTMIN
 10
1.000000000000000E+20
 20
1.000000000000000E+20
 30
1.000000000000000E+20
  9
$EXTMAX
 10
-1.000000000000000E+20
 20
-1.000000000000000E+20
 30
-1.000000000000000E+20
  9
$LIMMIN
 10
0.0
 20
0.0
  9
$LIMMAX
 10
12.0
 20
9.0
  9
$ORTHOMODE
 70
     0
  9
$REGENMODE
 70
     1
  9
$FILLMODE
 70
     1
  9
$QTEXTMODE
 70
     0
  9
$MIRRTEXT
 70
     1
  9
$LTSCALE
 40
1.0
  9
$ATTMODE
 70
     1
  9
$TEXTSIZE
 40
0.2
  9
$TRACEWID
 40
0.05
  9
$TEXTSTYLE
  7
Standard
  9
$CLAYER
  8
0
  9
$CELTYPE
  6
ByLayer
  9
$CECOLOR
 62
   256
  9
$CELTSCALE
 40
1.0
  9
$DISPSILH
 70
     0
  9
$DIMSCALE
 40
1.0
  9
$DIMASZ
 40
0.18
  9
$DIMEXO
 40
0.0625
  9
$DIMDLI
 40
0.38
  9
$DIMRND
 40
0.0
  9
$DIMDLE
 40
0.0
  9
$DIMEXE
 40
0.18
  9
$DIMTP
 40
0.0
  9
$DIMTM
 40
0.0
  9
$DIMTXT
 40
0.18
  9
$DIMCEN
 40
0.09
  9
$DIMTSZ
 40
0.0
  9
$DIMTOL
 70
     0
  9
$DIMLIM
 70
     0
  9
$DIMTIH
 70
     1
  9
$DIMTOH
 70
     1
  9
$DIMSE1
 70
     0
  9
$DIMSE2
 70
     0
  9
$DIMTAD
 70
     0
  9
$DIMZIN
 70
     0
  9
$DIMBLK
  1

  9
$DIMASO
 70
     1
  9
$DIMSHO
 70
     1
  9
$DIMPOST
  1

  9
$DIMAPOST
  1

  9
$DIMALT
 70
     0
  9
$DIMALTD
 70
     2
  9
$DIMALTF
 40
25.4
  9
$DIMLFAC
 40
1.0
  9
$DIMTOFL
 70
     0
  9
$DIMTVP
 40
0.0
  9
$DIMTIX
 70
     0
  9
$DIMSOXD
 70
     0
  9
$DIMSAH
 70
     0
  9
$DIMBLK1
  1

  9
$DIMBLK2
  1

  9
$DIMSTYLE
  2
Standard
  9
$DIMCLRD
 70
     0
  9
$DIMCLRE
 70
     0
  9
$DIMCLRT
 70
     0
  9
$DIMTFAC
 40
1.0
  9
$DIMGAP
 40
0.09
  9
$DIMJUST
 70
     0
  9
$DIMSD1
 70
     0
  9
$DIMSD2
 70
     0
  9
$DIMTOLJ
 70
     1
  9
$DIMTZIN
 70
     0
  9
$DIMALTZ
 70
     0
  9
$DIMALTTZ
 70
     0
  9
$DIMUPT
 70
     0
  9
$DIMDEC
 70
     4
  9
$DIMTDEC
 70
     4
  9
$DIMALTU
 70
     2
  9
$DIMALTTD
 70
     2
  9
$DIMTXSTY
  7
Standard
  9
$DIMAUNIT
 70
     0
  9
$DIMADEC
 70
     0
  9
$DIMALTRND
 40
0.0
  9
$DIMAZIN
 70
     0
  9
$DIMDSEP
 70
    46
  9
$DIMATFIT
 70
     3
  9
$DIMFRAC
 70
     0
  9
$DIMLDRBLK
  1

  9
$DIMLUNIT
 70
     2
  9
$DIMLWD
 70
    -2
  9
$DIMLWE
 70
    -2
  9
$DIMTMOVE
 70
     0
  9
$DIMFXL
 40
1.0
  9
$DIMFXLON
 70
     0
  9
$DIMJOGANG
 40
0.7853981633974483
  9
$DIMTFILL
 70
     0
  9
$DIMTFILLCLR
 70
     0
  9
$DIMARCSYM
 70
     0
  9
$DIMLTYPE
  6

  9
$DIMLTEX1
  6

  9
$DIMLTEX2
  6

  9
$DIMTXTDIRECTION
 70
     0
  9
$LUNITS
 70
     2
  9
$LUPREC
 70
     4
  9
$SKETCHINC
 40
0.1
  9
$FILLETRAD
 40
0.5
  9
$AUNITS
 70
     0
  9
$AUPREC
 70
     0
  9
$MENU
  1
.
  9
$ELEVATION
 40
0.0
  9
$PELEVATION
 40
0.0
  9
$THICKNESS
 40
0.0
  9
$LIMCHECK
 70
     0
  9
$CHAMFERA
 40
0.0
  9
$CHAMFERB
 40
0.0
  9
$CHAMFERC
 40
0.0
  9
$CHAMFERD
 40
0.0
  9
$SKPOLY
 70
     0
  9
$TDCREATE
 40
2458168.997295278
  9
$TDUCREATE
 40
2458168.955628611
  9
$TDUPDATE
 40
2458168.997295451
  9
$TDUUPDATE
 40
2458168.955628785
  9
$TDINDWG
 40
0.0000000116
  9
$TDUSRTIMER
 40
0.0000000116
  9
$USRTIMER
 70
     1
  9
$ANGBASE
 50
0.0
  9
$ANGDIR
 70
     0
  9
$PDMODE
 70
     0
  9
$PDSIZE
 40
0.0
  9
$PLINEWID
 40
0.0
  9
$SPLFRAME
 70
     0
  9
$SPLINETYPE
 70
     6
  9
$SPLINESEGS
 70
     8
  9
$HANDSEED
  5
171
  9
$SURFTAB1
 70
     6
  9
$SURFTAB2
 70
     6
  9
$SURFTYPE
 70
     6
  9
$SURFU
 70
     6
  9
$SURFV
 70
     6
  9
$UCSBASE
  2

  9
$UCSNAME
  2

  9
$UCSORG
 10
0.0
 20
0.0
 30
0.0
  9
$UCSXDIR
 10
1.0
 20
0.0
 30
0.0
  9
$UCSYDIR
 10
0.0
 20
1.0
 30
0.0
  9
$UCSORTHOREF
  2

  9
$UCSORTHOVIEW
 70
     0
  9
$UCSORGTOP
 10
0.0
 20
0.0
 30
0.0
  9
$UCSORGBOTTOM
 10
0.0
 20
0.0
 30
0.0
  9
$UCSORGLEFT
 10
0.0
 20
0.0
 30
0.0
  9
$UCSORGRIGHT
 10
0.0
 20
0.0
 30
0.0
  9
$UCSORGFRONT
 10
0.0
 20
0.0
 30
0.0
  9
$UCSORGBACK
 10
0.0
 20
0.0
 30
0.0
  9
$PUCSBASE
  2

  9
$PUCSNAME
  2

  9
$PUCSORG
 10
0.0
 20
0.0
 30
0.0
  9
$PUCSXDIR
 10
1.0
 20
0.0
 30
0.0
  9
$PUCSYDIR
 10
0.0
 20
1.0
 30
0.0
  9
$PUCSORTHOREF
  2

  9
$PUCSORTHOVIEW
 70
     0
  9
$PUCSORGTOP
 10
0.0
 20
0.0
 30
0.0
  9
$PUCSORGBOTTOM
 10
0.0
 20
0.0
 30
0.0
  9
$PUCSORGLEFT
 10
0.0
 20
0.0
 30
0.0
  9
$PUCSORGRIGHT
 10
0.0
 20
0.0
 30
0.0
  9
$PUCSORGFRONT
 10
0.0
 20
0.0
 30
0.0
  9
$PUCSORGBACK
 10
0.0
 20
0.0
 30
0.0
  9
$USERI1
 70
     0
  9
$USERI2
 70
     0
  9
$USERI3
 70
     0
  9
$USERI4
 70
     0
  9
$USERI5
 70
     0
  9
$USERR1
 40
0.0
  9
$USERR2
 40
0.0
  9
$USERR3
 40
0.0
  9
$USERR4
 40
0.0
  9
$USERR5
 40
0.0
  9
$WORLDVIEW
 70
     1
  9
$SHADEDGE
 70
     3
  9
$SHADEDIF
 70
    70
  9
$TILEMODE
 70
     1
  9
$MAXACTVP
 70
    64
  9
$PINSBASE
 10
0.0
 20
0.0
 30
0.0
  9
$PLIMCHECK
 70
     0
  9
$PEXTMIN
 10
1.000000000000000E+20
 20
1.000000000000000E+20
 30
1.000000000000000E+20
  9
$PEXTMAX
 10
-1.000000000000000E+20
 20
-1.000000000000000E+20
 30
-1.000000000000000E+20
  9
$PLIMMIN
 10
0.0
 20
0.0
  9
$PLIMMAX
 10
12.0
 20
9.0
  9
$UNITMODE
 70
     0
  9
$VISRETAIN
 70
     1
  9
$PLINEGEN
 70
     0
  9
$PSLTSCALE
 70
     1
  9
$TREEDEPTH
 70
  3020
  9
$CMLSTYLE
  2
Standard
  9
$CMLJUST
 70
     0
  9
$CMLSCALE
 40
1.0
  9
$PROXYGRAPHICS
 70
     1
  9
$MEASUREMENT
 70
     0
  9
$CELWEIGHT
370
    -1
  9
$ENDCAPS
280
     0
  9
$JOINSTYLE
280
     0
  9
$LWDISPLAY
290
     0
  9
$INSUNITS
 70
     1
  9
$HYPERLINKBASE
  1

  9
$STYLESHEET
  1

  9
$XEDIT
290
     1
  9
$CEPSNTYPE
380
     0
  9
$PSTYLEMODE
290
     1
  9
$FINGERPRINTGUID
  2
{FC5FC460-C576-4847-B853-DCBE67193C81}
  9
$VERSIONGUID
  2
{FAEB1C32-E019-11D5-929B-00C0DF256EC4}
  9
$EXTNAMES
290
     1
  9
$PSVPSCALE
 40
0.0
  9
$OLESTARTUP
290
     0
  9
$SORTENTS
280
   127
  9
$INDEXCTL
280
     0
  9
$HIDETEXT
280
     1
  9
$XCLIPFRAME
280
     2
  9
$HALOGAP
280
     0
  9
$OBSCOLOR
 70
   257
  9
$OBSLTYPE
280
     0
  9
$INTERSECTIONDISPLAY
280
     0
  9
$INTERSECTIONCOLOR
 70
   257
  9
$DIMASSOC
280
     2
  9
$PROJECTNAME
  1

  9
$CAMERADISPLAY
290
     0
  9
$LENSLENGTH
 40
50.0
  9
$CAMERAHEIGHT
 40
0.0
  9
$STEPSPERSEC
 40
2.0
  9
$STEPSIZE
 40
6.0
  9
$3DDWFPREC
 40
2.0
  9
$PSOLWIDTH
 40
0.25
  9
$PSOLHEIGHT
 40
4.0
  9
$LOFTANG1
 40
1.570796326794897
  9
$LOFTANG2
 40
1.570796326794897
  9
$LOFTMAG1
 40
0.0
  9
$LOFTMAG2
 40
0.0
  9
$LOFTPARAM
 70
     7
  9
$LOFTNORMALS
280
     1
  9
$LATITUDE
 40
37.795
  9
$LONGITUDE
 40
-122.394
  9
$NORTHDIRECTION
 40
0.0
  9
$TIMEZONE
 70
 -8000
  9
$LIGHTGLYPHDISPLAY
280
     1
  9
$TILEMODELIGHTSYNCH
280
     1
  9
$CMATERIAL
347
44
  9
$SOLIDHIST
280
     0
  9
$SHOWHIST
280
     1
  9
$DWFFRAME
280
     2
  9
$DGNFRAME
280
     2
  9
$REALWORLDSCALE
290
     1
  9
$INTERFERECOLOR
 62
   256
  9
$CSHADOW
280
     0
  9
$SHADOWPLANELOCATION
 40
0.0
  0
ENDSEC
  0
SECTION
  2
CLASSES
  0
CLASS
  1
ACDBDICTIONARYWDFLT
  2
AcDbDictionaryWithDefault
  3
ObjectDBX Classes
 90
        0
 91
        4
280
     0
281
     0
  0
CLASS
  1
VISUALSTYLE
  2
AcDbVisualStyle
  3
ObjectDBX Classes
 90
     4095
 91
        4
280
     0
281
     0
  0
CLASS
  1
MATERIAL
  2
AcDbMaterial
  3
ObjectDBX Classes
 90
     1153
 91
        4
280
     0
281
     0
  0
CLASS
  1
SCALE
  2
AcDbScale
  3
ObjectDBX Classes
 90
     1153
 91
        4
280
     0
281
     0
  0
CLASS
  1
TABLESTYLE
  2
AcDbTableStyle
  3
ObjectDBX Classes
 90
     4095
 91
        4
280
     0
281
     0
  0
CLASS
  1
MLEADERSTYLE
  2
AcDbMLeaderStyle
  3
ACDB_MLEADERSTYLE_CLASS
 90
     4095
 91
        4
280
     0
281
     0
  0
CLASS
  1
SUN
  2
AcDbSun
  3
SCENEOE
 90
     1153
 91
        4
280
     0
281
     0
  0
CLASS
  1
DICTIONARYVAR
  2
AcDbDictionaryVar
  3
ObjectDBX Classes
 90
        0
 91
        4
280
     0
281
     0
  0
CLASS
  1
CELLSTYLEMAP
  2
AcDbCellStyleMap
  3
ObjectDBX Classes
 90
     1152
 91
        4
280
     0
281
     0
  0
ENDSEC
  0
SECTION
  2
TABLES
  0
TABLE
  2
VPORT
  5
8
330
0
100
AcDbSymbolTable
 70
     1
  0
VPORT
  5
29
330
8
100
AcDbSymbolTableRecord
100
AcDbViewportTableRecord
  2
*Active
 70
     0
 10
0.0
 20
0.0
 11
1.0
 21
1.0
 12
0.0
 22
-1.061500000000001
 13
0.0
 23
0.0
 14
0.5
 24
0.5
 15
0.5
 25
0.5
 16
0.0
 26
0.0
 36
1.0
 17
0.0
 27
0.0
 37
0.0
 40
2.316420000000001
 41
2.254513430206957
 42
50.0
 43
0.0
 44
0.0
 50
0.0
 51
0.0
 71
     0
 72
   100
 73
     1
 74
     3
 75
     0
 76
     0
 77
     0
 78
     0
281
     0
 65
     1
110
0.0
120
0.0
130
0.0
111
1.0
121
0.0
131
0.0
112
0.0
122
1.0
132
0.0
 79
     0
146
0.0
348
2F
 60
     3
 61
     5
292
     1
282
     1
141
0.0
142
0.0
 63
   250
361
6D
  0
ENDTAB
  0
TABLE
  2
LTYPE
  5
5
330
0
100
AcDbSymbolTable
 70
     3
  0
LTYPE
  5
14
330
5
100
AcDbSymbolTableRecord
100
AcDbLinetypeTableRecord
  2
ByBlock
 70
     0
  3

 72
    65
 73
     0
 40
0.0
  0
LTYPE
  5
15
330
5
100
AcDbSymbolTableRecord
100
AcDbLinetypeTableRecord
  2
ByLayer
 70
     0
  3

 72
    65
 73
     0
 40
0.0
  0
LTYPE
  5
16
330
5
100
AcDbSymbolTableRecord
100
AcDbLinetypeTableRecord
  2
Continuous
 70
     0
  3
Solid line
 72
    65
 73
     0
 40
0.0
  0
LTYPE
  5
98
330
5
100
AcDbSymbolTableRecord
100
AcDbLinetypeTableRecord
  2
Dashed
 70
     0
  3

 72
    65
 73
     2
 40
2.0
 49
1.0
 74
     0
 49
-1.0
 74
     0
  0
LTYPE
  5
9F
330
5
100
AcDbSymbolTableRecord
100
AcDbLinetypeTableRecord
  2
Center
 70
     0
  3

 72
    65
 73
     4
 40
1.5
 49
0.45
 74
     0
 49
-0.5
 74
     0
 49
0.05
 74
     0
 49
-0.5
 74
     0
  0
ENDTAB
  0
TABLE
  2
LAYER
  5
2
330
0
100
AcDbSymbolTable
 70
     7
  0
LAYER
  5
10
330
2
100
AcDbSymbolTableRecord
100
AcDbLayerTableRecord
  2
0
 70
     0
 62
     7
  6
Continuous
370
    -3
390
F
347
46
348
0
  0
LAYER
  5
72
330
2
100
AcDbSymbolTableRecord
100
AcDbLayerTableRecord
  2
AM_6
 70
     0
 62
    -2
  6
Continuous
370
    35
390
F
347
46
348
0
  0
LAYER
  5
99
330
2
100
AcDbSymbolTableRecord
100
AcDbLayerTableRecord
  2
AM_9
 70
     0
 62
     6
  6
Dashed
370
    25
390
F
347
46
348
0
  0
LAYER
  5
A0
330
2
100
AcDbSymbolTableRecord
100
AcDbLayerTableRecord
  2
AM_7
 70
     0
 62
     7
  6
Center
370
    25
390
F
347
46
348
0
  0
LAYER
  5
A2
330
2
100
AcDbSymbolTableRecord
100
AcDbLayerTableRecord
  2
AM_4
 70
     0
 62
     7
  6
Continuous
370
    50
390
F
347
46
348
0
  0
LAYER
  5
109
330
2
100
AcDbSymbolTableRecord
100
AcDbLayerTableRecord
  2
AM_5
 70
     0
 62
     3
  6
Continuous
370
    25
390
F
347
46
348
0
  0
LAYER
  5
163
330
2
100
AcDbSymbolTableRecord
100
AcDbLayerTableRecord
  2
ConnectionPoints
 70
     0
 62
     7
  6
Continuous
370
    50
390
F
347
46
348
0
  0
ENDTAB
  0
TABLE
  2
STYLE
  5
3
330
0
100
AcDbSymbolTable
 70
     1
  0
STYLE
  5
11
330
3
100
AcDbSymbolTableRecord
100
AcDbTextStyleTableRecord
  2
Standard
 70
     0
 40
0.0
 41
1.0
 50
0.0
 71
     0
 42
0.2
  3
txt
  4

  0
ENDTAB
  0
TABLE
  2
VIEW
  5
6
330
0
100
AcDbSymbolTable
 70
     0
  0
ENDTAB
  0
TABLE
  2
UCS
  5
7
330
0
100
AcDbSymbolTable
 70
     0
  0
ENDTAB
  0
TABLE
  2
APPID
  5
9
330
0
100
AcDbSymbolTable
 70
     1
  0
APPID
  5
12
330
9
100
AcDbSymbolTableRecord
100
AcDbRegAppTableRecord
  2
ACAD
 70
     0
  0
ENDTAB
  0
TABLE
  2
DIMSTYLE
  5
A
330
0
100
AcDbSymbolTable
 70
     1
100
AcDbDimStyleTable
  0
DIMSTYLE
105
27
330
A
100
AcDbSymbolTableRecord
100
AcDbDimStyleTableRecord
  2
Standard
 70
     0
178
     0
340
11
  0
ENDTAB
  0
TABLE
  2
BLOCK_RECORD
  5
1
330
0
100
AcDbSymbolTable
 70
     5
  0
BLOCK_RECORD
  5
1F
330
1
100
AcDbSymbolTableRecord
100
AcDbBlockTableRecord
  2
*Model_Space
340
22
 70
     0
280
     1
281
     0
  0
BLOCK_RECORD
  5
1B
330
1
100
AcDbSymbolTableRecord
100
AcDbBlockTableRecord
  2
*Paper_Space
340
1E
 70
     0
280
     1
281
     0
  0
BLOCK_RECORD
  5
23
330
1
100
AcDbSymbolTableRecord
100
AcDbBlockTableRecord
  2
*Paper_Space0
340
26
 70
     0
280
     1
281
     0
  0
BLOCK_RECORD
  5
6E
330
1
100
AcDbSymbolTableRecord
100
AcDbBlockTableRecord
  2
1_127521_4
340
0
102
{BLKREFS
331
6F
102
}
 70
     0
280
     1
281
     0
  0
BLOCK_RECORD
  5
86
330
1
100
AcDbSymbolTableRecord
100
AcDbBlockTableRecord
  2
2_405020c_Inch_0_in_127521_4
340
0
102
{BLKREFS
331
87
102
}
 70
     0
280
     1
281
     0
  0
BLOCK_RECORD
  5
AE
330
1
100
AcDbSymbolTableRecord
100
AcDbBlockTableRecord
  2
3_045605_0_in_127521_4
340
0
102
{BLKREFS
331
AF
102
}
 70
     0
280
     1
281
     0
  0
BLOCK_RECORD
  5
10C
330
1
100
AcDbSymbolTableRecord
100
AcDbBlockTableRecord
  2
4_127521H_0_in_127521_4
340
0
102
{BLKREFS
331
10D
102
}
 70
     0
280
     1
281
     0
  0
ENDTAB
  0
ENDSEC
  0
SECTION
  2
BLOCKS
  0
BLOCK
  5
20
330
1F
100
AcDbEntity
  8
0
100
AcDbBlockBegin
  2
*Model_Space
 70
     0
 10
0.0
 20
0.0
 30
0.0
  3
*Model_Space
  1

  0
ENDBLK
  5
21
330
1F
100
AcDbEntity
  8
0
100
AcDbBlockEnd
  0
BLOCK
  5
1C
330
1B
100
AcDbEntity
 67
     1
  8
0
100
AcDbBlockBegin
  2
*Paper_Space
 70
     0
 10
0.0
 20
0.0
 30
0.0
  3
*Paper_Space
  1

  0
ENDBLK
  5
1D
330
1B
100
AcDbEntity
 67
     1
  8
0
100
AcDbBlockEnd
  0
BLOCK
  5
24
330
23
100
AcDbEntity
  8
0
100
AcDbBlockBegin
  2
*Paper_Space0
 70
     0
 10
0.0
 20
0.0
 30
0.0
  3
*Paper_Space0
  1

  0
ENDBLK
  5
25
330
23
100
AcDbEntity
  8
0
100
AcDbBlockEnd
  0
BLOCK
  5
70
330
6E
100
AcDbEntity
  8
0
100
AcDbBlockBegin
  2
1_127521_4
 70
     2
 10
0.0
 20
0.0
 30
0.0
  3
1_127521_4
  1

  0
ATTDEF
  5
73
330
6E
100
AcDbEntity
  8
AM_6
100
AcDbText
 10
7.56
 20
0.074
 30
0.0
 40
0.5
  1
Set Screw Four-Bolt Flange Inch Bore - Polymer Housing, Corrosion Resistant Insert
100
AcDbAttributeDefinition
  3

  2
NN
 70
     8
280
     0
  0
ATTDEF
  5
74
330
6E
100
AcDbEntity
  8
AM_6
100
AcDbText
 10
7.56
 20
-0.426
 30
0.0
 40
0.5
  1
SC 4 Bolt Flange Bearings -(Normal Duty) -Corrosion Resistant Insert -Polymer Housed -E-Z KLEEN
100
AcDbAttributeDefinition
  3

  2
NT
 70
     8
280
     0
  0
ATTDEF
  5
75
330
6E
100
AcDbEntity
  8
AM_6
100
AcDbText
 10
7.56
 20
-0.9259999999999999
 30
0.0
 40
0.5
  1
127521
100
AcDbAttributeDefinition
  3

  2
NB
 70
     8
280
     0
  0
ATTDEF
  5
76
330
6E
100
AcDbEntity
  8
AM_6
100
AcDbText
 10
7.56
 20
-1.426
 30
0.0
 40
0.5
  1
$PN.
100
AcDbAttributeDefinition
  3

  2
NBSYN
 70
     8
280
     0
  0
ATTDEF
  5
77
330
6E
100
AcDbEntity
  8
AM_6
100
AcDbText
 10
7.56
 20
-1.926
 30
0.0
 40
0.5
  1
127521
100
AcDbAttributeDefinition
  3

  2
LINA
 70
     8
280
     0
  0
ATTDEF
  5
78
330
6E
100
AcDbEntity
  8
AM_6
100
AcDbText
 10
7.56
 20
-2.426
 30
0.0
 40
0.5
  1
208
100
AcDbAttributeDefinition
  3

  2
SERIES
 70
     8
280
     0
  0
ATTDEF
  5
79
330
6E
100
AcDbEntity
  8
AM_6
100
AcDbText
 10
7.56
 20
-2.926
 30
0.0
 40
0.5
  1
1-1/2
100
AcDbAttributeDefinition
  3

  2
SS
 70
     8
280
     0
  0
ATTDEF
  5
7A
330
6E
100
AcDbEntity
  8
AM_6
100
AcDbText
 10
7.56
 20
-3.426
 30
0.0
 40
0.5
  1
127521
100
AcDbAttributeDefinition
  3

  2
PN
 70
     8
280
     0
  0
ATTDEF
  5
7B
330
6E
100
AcDbEntity
  8
AM_6
100
AcDbText
 10
7.56
 20
-3.926
 30
0.0
 40
0.5
  1
F4B-SCEZ-108-PCR
100
AcDbAttributeDefinition
  3

  2
DESCRIPTION
 70
     8
280
     0
  0
ATTDEF
  5
7C
330
6E
100
AcDbEntity
  8
AM_6
100
AcDbText
 10
7.56
 20
-4.426
 30
0.0
 40
0.5
  1
1.82
100
AcDbAttributeDefinition
  3

  2
WEIGHT
 70
     8
280
     0
  0
ATTDEF
  5
7D
330
6E
100
AcDbEntity
  8
AM_6
100
AcDbText
 10
7.56
 20
-4.926
 30
0.0
 40
0.5
  1
1.94
100
AcDbAttributeDefinition
  3

  2
A
 70
     8
280
     0
  0
ATTDEF
  5
7E
330
6E
100
AcDbEntity
  8
AM_6
100
AcDbText
 10
7.56
 20
-5.426
 30
0.0
 40
0.5
  1
5.12
100
AcDbAttributeDefinition
  3

  2
B
 70
     8
280
     0
  0
ATTDEF
  5
7F
330
6E
100
AcDbEntity
  8
AM_6
100
AcDbText
 10
7.56
 20
-5.926
 30
0.0
 40
0.5
  1
2.10
100
AcDbAttributeDefinition
  3

  2
C
 70
     8
280
     0
  0
ATTDEF
  5
80
330
6E
100
AcDbEntity
  8
AM_6
100
AcDbText
 10
7.56
 20
-6.426
 30
0.0
 40
0.5
  1
4.00
100
AcDbAttributeDefinition
  3

  2
D
 70
     8
280
     0
  0
ATTDEF
  5
81
330
6E
100
AcDbEntity
  8
AM_6
100
AcDbText
 10
7.56
 20
-6.926
 30
0.0
 40
0.5
  1
1/2
100
AcDbAttributeDefinition
  3

  2
F
 70
     8
280
     0
  0
ATTDEF
  5
82
330
6E
100
AcDbEntity
  8
AM_6
100
AcDbText
 10
7.56
 20
-7.426
 30
0.0
 40
0.5
  1
0.67
100
AcDbAttributeDefinition
  3

  2
H
 70
     8
280
     0
  0
ATTDEF
  5
83
330
6E
100
AcDbEntity
  8
AM_6
100
AcDbText
 10
7.56
 20
-7.926
 30
0.0
 40
0.5
  1
0.62
100
AcDbAttributeDefinition
  3

  2
J
 70
     8
280
     0
  0
ATTDEF
  5
84
330
6E
100
AcDbEntity
  8
AM_6
100
AcDbText
 10
7.56
 20
-8.426
 30
0.0
 40
0.5
  1
2.05
100
AcDbAttributeDefinition
  3

  2
L
 70
     8
280
     0
  0
ATTDEF
  5
85
330
6E
100
AcDbEntity
  8
AM_6
100
AcDbText
 10
7.56
 20
-8.926
 30
0.0
 40
0.5
  1
baldor
100
AcDbAttributeDefinition
  3

  2
COMPANY
 70
     8
280
     0
  0
INSERT
  5
87
330
6E
100
AcDbEntity
  8
0
100
AcDbBlockReference
  2
2_405020c_Inch_0_in_127521_4
 10
0.0
 20
0.0
 30
0.0
  0
INSERT
  5
AF
330
6E
100
AcDbEntity
  8
0
100
AcDbBlockReference
  2
3_045605_0_in_127521_4
 10
0.0
 20
0.0
 30
0.0
  0
INSERT
  5
10D
330
6E
100
AcDbEntity
  8
0
100
AcDbBlockReference
  2
4_127521H_0_in_127521_4
 10
0.0
 20
0.0
 30
0.0
  0
ENDBLK
  5
71
330
6E
100
AcDbEntity
  8
0
100
AcDbBlockEnd
  0
BLOCK
  5
88
330
86
100
AcDbEntity
  8
0
100
AcDbBlockBegin
  2
2_405020c_Inch_0_in_127521_4
 70
     2
 10
0.0
 20
0.0
 30
0.0
  3
2_405020c_Inch_0_in_127521_4
  1

  0
ATTDEF
  5
8A
330
86
100
AcDbEntity
  8
AM_6
100
AcDbText
 10
5.1476825
 20
-0.9125913692769582
 30
0.0
 40
0.5
  1
405020C -Inch
100
AcDbAttributeDefinition
  3

  2
NN
 70
     8
280
     0
  0
ATTDEF
  5
8B
330
86
100
AcDbEntity
  8
AM_6
100
AcDbText
 10
5.1476825
 20
-1.412591369276958
 30
0.0
 40
0.5
  1
Grease fitting
100
AcDbAttributeDefinition
  3

  2
NT
 70
     8
280
     0
  0
ATTDEF
  5
8C
330
86
100
AcDbEntity
  8
AM_6
100
AcDbText
 10
5.1476825
 20
-1.912591369276958
 30
0.0
 40
0.5
  1
405020c-Inch
100
AcDbAttributeDefinition
  3

  2
NB
 70
     8
280
     0
  0
ATTDEF
  5
8D
330
86
100
AcDbEntity
  8
AM_6
100
AcDbText
 10
5.1476825
 20
-2.412591369276958
 30
0.0
 40
0.5
  1
$MN.-Inch
100
AcDbAttributeDefinition
  3

  2
NBSYN
 70
     8
280
     0
  0
ATTDEF
  5
8E
330
86
100
AcDbEntity
  8
AM_6
100
AcDbText
 10
5.1476825
 20
-2.912591369276958
 30
0.0
 40
0.5
  1
405020c
100
AcDbAttributeDefinition
  3

  2
LINA
 70
     8
280
     0
  0
ATTDEF
  5
8F
330
86
100
AcDbEntity
  8
AM_6
100
AcDbText
 10
5.1476825
 20
-3.412591369276958
 30
0.0
 40
0.5
  1
405020c
100
AcDbAttributeDefinition
  3

  2
MN
 70
     8
280
     0
  0
ATTDEF
  5
90
330
86
100
AcDbEntity
  8
AM_6
100
AcDbText
 10
5.1476825
 20
-3.912591369276958
 30
0.0
 40
0.5
  1
0.230
100
AcDbAttributeDefinition
  3

  2
NDR
 70
     8
280
     0
  0
ATTDEF
  5
91
330
86
100
AcDbEntity
  8
AM_6
100
AcDbText
 10
5.1476825
 20
-4.412591369276958
 30
0.0
 40
0.5
  1
0.210
100
AcDbAttributeDefinition
  3

  2
KDR
 70
     8
280
     0
  0
ATTDEF
  5
92
330
86
100
AcDbEntity
  8
AM_6
100
AcDbText
 10
5.1476825
 20
-4.912591369276958
 30
0.0
 40
0.5
  1
0.157
100
AcDbAttributeDefinition
  3

  2
BZE
 70
     8
280
     0
  0
ATTDEF
  5
93
330
86
100
AcDbEntity
  8
AM_6
100
AcDbText
 10
5.1476825
 20
-5.412591369276958
 30
0.0
 40
0.5
  1
9/32
100
AcDbAttributeDefinition
  3

  2
WAF
 70
     8
280
     0
  0
ATTDEF
  5
94
330
86
100
AcDbEntity
  8
AM_6
100
AcDbText
 10
5.1476825
 20
-5.912591369276958
 30
0.0
 40
0.5
  1
0.2813
100
AcDbAttributeDefinition
  3

  2
WAF1
 70
     8
280
     0
  0
ATTDEF
  5
95
330
86
100
AcDbEntity
  8
AM_6
100
AcDbText
 10
5.1476825
 20
-6.412591369276958
 30
0.0
 40
0.5
  1
0.545
100
AcDbAttributeDefinition
  3

  2
BL
 70
     8
280
     0
  0
ATTDEF
  5
96
330
86
100
AcDbEntity
  8
AM_6
100
AcDbText
 10
5.1476825
 20
-6.912591369276958
 30
0.0
 40
0.5
  1
0.200
100
AcDbAttributeDefinition
  3

  2
TL
 70
     8
280
     0
  0
ATTDEF
  5
97
330
86
100
AcDbEntity
  8
AM_6
100
AcDbText
 10
5.1476825
 20
-7.412591369276958
 30
0.0
 40
0.5
  1
baldor
100
AcDbAttributeDefinition
  3

  2
COMPANY
 70
     8
280
     0
  0
CIRCLE
  5
9A
330
86
100
AcDbEntity
  8
AM_9
100
AcDbCircle
 10
0.0
 20
-1.075
 30
0.0
 40
0.1000886227036577
  0
CIRCLE
  5
9B
330
86
100
AcDbEntity
  8
AM_9
100
AcDbCircle
 10
0.0
 20
-1.075
 30
0.0
 40
0.1104162595939891
  0
CIRCLE
  5
9C
330
86
100
AcDbEntity
  8
AM_9
100
AcDbCircle
 10
0.0
 20
-1.075
 30
0.0
 40
0.1163438171532771
  0
CIRCLE
  5
9D
330
86
100
AcDbEntity
  8
AM_9
100
AcDbCircle
 10
0.0
 20
-1.075
 30
0.0
 40
0.1093294505797714
  0
CIRCLE
  5
9E
330
86
100
AcDbEntity
  8
AM_9
100
AcDbCircle
 10
0.0
 20
-1.075
 30
0.0
 40
0.0946847896390988
  0
LINE
  5
A1
330
86
100
AcDbEntity
  8
AM_7
100
AcDbLine
 10
-0.1476824999999999
 20
-1.075
 30
0.0
 11
0.1476825
 21
-1.075
 31
0.0
  0
LINE
  5
A3
330
86
100
AcDbEntity
  8
AM_4
100
AcDbLine
 10
0.14065
 20
-1.156204315361521
 30
0.0
 11
0.14065
 21
-0.993795684638479
 31
0.0
  0
LINE
  5
A4
330
86
100
AcDbEntity
  8
AM_4
100
AcDbLine
 10
0.14065
 20
-0.993795684638479
 30
0.0
 11
0.0
 21
-0.9125913692769582
 31
0.0
  0
LINE
  5
A5
330
86
100
AcDbEntity
  8
AM_4
100
AcDbLine
 10
-0.14065
 20
-0.993795684638479
 30
0.0
 11
-0.14065
 21
-1.156204315361521
 31
0.0
  0
LINE
  5
A6
330
86
100
AcDbEntity
  8
AM_4
100
AcDbLine
 10
-0.14065
 20
-1.156204315361521
 30
0.0
 11
0.0
 21
-1.237408630723042
 31
0.0
  0
LINE
  5
A7
330
86
100
AcDbEntity
  8
AM_4
100
AcDbLine
 10
0.0
 20
-1.237408630723042
 30
0.0
 11
0.14065
 21
-1.156204315361521
 31
0.0
  0
LINE
  5
A8
330
86
100
AcDbEntity
  8
AM_4
100
AcDbLine
 10
0.0
 20
-0.9125913692769582
 30
0.0
 11
-0.14065
 21
-0.993795684638479
 31
0.0
  0
CIRCLE
  5
A9
330
86
100
AcDbEntity
  8
AM_4
100
AcDbCircle
 10
0.0
 20
-1.075
 30
0.0
 40
0.135926521995058
  0
CIRCLE
  5
AA
330
86
100
AcDbEntity
  8
AM_4
100
AcDbCircle
 10
0.0
 20
-1.075
 30
0.0
 40
0.13195176466768
  0
CIRCLE
  5
AB
330
86
100
AcDbEntity
  8
AM_4
100
AcDbCircle
 10
0.0
 20
-1.075
 30
0.0
 40
0.1038190510530391
  0
CIRCLE
  5
AC
330
86
100
AcDbEntity
  8
AM_4
100
AcDbCircle
 10
0.0
 20
-1.075
 30
0.0
 40
0.080806429716728
  0
CIRCLE
  5
AD
330
86
100
AcDbEntity
  8
AM_4
100
AcDbCircle
 10
0.0
 20
-1.075
 30
0.0
 40
0.1406499999999997
  0
ENDBLK
  5
89
330
86
100
AcDbEntity
  8
0
100
AcDbBlockEnd
  0
BLOCK
  5
B0
330
AE
100
AcDbEntity
  8
0
100
AcDbBlockBegin
  2
3_045605_0_in_127521_4
 70
     2
 10
0.0
 20
0.0
 30
0.0
  3
3_045605_0_in_127521_4
  1

  0
ATTDEF
  5
B2
330
AE
100
AcDbEntity
  8
AM_6
100
AcDbText
 10
6.57377298912248
 20
-0.1600000000000002
 30
0.0
 40
0.5
  1
Set Screw Insert Inch Bore - Corrosion Resistant
100
AcDbAttributeDefinition
  3

  2
NN
 70
     8
280
     0
  0
ATTDEF
  5
B3
330
AE
100
AcDbEntity
  8
AM_6
100
AcDbText
 10
6.57377298912248
 20
-0.6600000000000001
 30
0.0
 40
0.5
  1
SC Normal Duty Bearing Inserts
100
AcDbAttributeDefinition
  3

  2
NT
 70
     8
280
     0
  0
ATTDEF
  5
B4
330
AE
100
AcDbEntity
  8
AM_6
100
AcDbText
 10
6.57377298912248
 20
-1.16
 30
0.0
 40
0.5
  1
045605
100
AcDbAttributeDefinition
  3

  2
NB
 70
     8
280
     0
  0
ATTDEF
  5
B5
330
AE
100
AcDbEntity
  8
AM_6
100
AcDbText
 10
6.57377298912248
 20
-1.66
 30
0.0
 40
0.5
  1
$PN.
100
AcDbAttributeDefinition
  3

  2
NBSYN
 70
     8
280
     0
  0
ATTDEF
  5
B6
330
AE
100
AcDbEntity
  8
AM_6
100
AcDbText
 10
6.57377298912248
 20
-2.16
 30
0.0
 40
0.5
  1
045605
100
AcDbAttributeDefinition
  3

  2
LINA
 70
     8
280
     0
  0
ATTDEF
  5
B7
330
AE
100
AcDbEntity
  8
AM_6
100
AcDbText
 10
6.57377298912248
 20
-2.66
 30
0.0
 40
0.5
  1
208
100
AcDbAttributeDefinition
  3

  2
SERIES
 70
     8
280
     0
  0
ATTDEF
  5
B8
330
AE
100
AcDbEntity
  8
AM_6
100
AcDbText
 10
6.57377298912248
 20
-3.16
 30
0.0
 40
0.5
  1
1-1/2
100
AcDbAttributeDefinition
  3

  2
SS
 70
     8
280
     0
  0
ATTDEF
  5
B9
330
AE
100
AcDbEntity
  8
AM_6
100
AcDbText
 10
6.57377298912248
 20
-3.66
 30
0.0
 40
0.5
  1
045605
100
AcDbAttributeDefinition
  3

  2
PN
 70
     8
280
     0
  0
ATTDEF
  5
BA
330
AE
100
AcDbEntity
  8
AM_6
100
AcDbText
 10
6.57377298912248
 20
-4.16
 30
0.0
 40
0.5
  1
INS-SC-108-CR
100
AcDbAttributeDefinition
  3

  2
DESCRIPTION
 70
     8
280
     0
  0
ATTDEF
  5
BB
330
AE
100
AcDbEntity
  8
AM_6
100
AcDbText
 10
6.57377298912248
 20
-4.66
 30
0.0
 40
0.5
  1
1.94
100
AcDbAttributeDefinition
  3

  2
A
 70
     8
280
     0
  0
ATTDEF
  5
BC
330
AE
100
AcDbEntity
  8
AM_6
100
AcDbText
 10
6.57377298912248
 20
-5.16
 30
0.0
 40
0.5
  1
0.87
100
AcDbAttributeDefinition
  3

  2
C
 70
     8
280
     0
  0
ATTDEF
  5
BD
330
AE
100
AcDbEntity
  8
AM_6
100
AcDbText
 10
6.57377298912248
 20
-5.66
 30
0.0
 40
0.5
  1
3.1496
100
AcDbAttributeDefinition
  3

  2
D
 70
     8
280
     0
  0
ATTDEF
  5
BE
330
AE
100
AcDbEntity
  8
AM_6
100
AcDbText
 10
6.57377298912248
 20
-6.16
 30
0.0
 40
0.5
  1
0.22
100
AcDbAttributeDefinition
  3

  2
J
 70
     8
280
     0
  0
ATTDEF
  5
BF
330
AE
100
AcDbEntity
  8
AM_6
100
AcDbText
 10
6.57377298912248
 20
-6.66
 30
0.0
 40
0.5
  1
2.05
100
AcDbAttributeDefinition
  3

  2
L
 70
     8
280
     0
  0
ATTDEF
  5
C0
330
AE
100
AcDbEntity
  8
AM_6
100
AcDbText
 10
6.57377298912248
 20
-7.16
 30
0.0
 40
0.5
  1
5/16 - 24
100
AcDbAttributeDefinition
  3

  2
N
 70
     8
280
     0
  0
ATTDEF
  5
C1
330
AE
100
AcDbEntity
  8
AM_6
100
AcDbText
 10
6.57377298912248
 20
-7.66
 30
0.0
 40
0.5
  1
0.75
100
AcDbAttributeDefinition
  3

  2
W
 70
     8
280
     0
  0
ATTDEF
  5
C2
330
AE
100
AcDbEntity
  8
AM_6
100
AcDbText
 10
6.57377298912248
 20
-8.16
 30
0.0
 40
0.5
  1
1.19
100
AcDbAttributeDefinition
  3

  2
Y
 70
     8
280
     0
  0
ATTDEF
  5
C3
330
AE
100
AcDbEntity
  8
AM_6
100
AcDbText
 10
6.57377298912248
 20
-8.66
 30
0.0
 40
0.5
  1
baldor
100
AcDbAttributeDefinition
  3

  2
COMPANY
 70
     8
280
     0
  0
LINE
  5
C4
330
AE
100
AcDbEntity
  8
AM_9
100
AcDbLine
 10
-1.6498
 20
-0.6649242424242455
 30
0.0
 11
-1.6498
 21
-0.7150757575757547
 31
0.0
  0
ARC
  5
C5
330
AE
100
AcDbEntity
  8
AM_9
100
AcDbCircle
 10
-1.570709090909091
 20
-0.7150757575757528
 30
0.0
 40
0.0790909090909091
100
AcDbArc
 50
180.0
 51
270.0
  0
ARC
  5
C6
330
AE
100
AcDbEntity
  8
AM_9
100
AcDbCircle
 10
-1.570709090909091
 20
-0.6649242424242471
 30
0.0
 40
0.0790909090909088
100
AcDbArc
 50
90.0
 51
180.0
  0
LINE
  5
C7
330
AE
100
AcDbEntity
  8
AM_9
100
AcDbLine
 10
-1.541121443879546
 20
-0.5858333333333383
 30
0.0
 11
-1.570709090909091
 21
-0.5858333333333383
 31
0.0
  0
LINE
  5
C8
330
AE
100
AcDbEntity
  8
AM_9
100
AcDbLine
 10
-1.570709090909091
 20
-0.5858333333333383
 30
0.0
 11
-1.570709090909091
 21
-0.794166666666662
 31
0.0
  0
ELLIPSE
  5
C9
330
AE
100
AcDbEntity
  8
AM_9
100
AcDbEllipse
 10
0.6716134149584019
 20
-1.7225
 30
0.0
 11
-2.318256390785937E-17
 21
-0.1261999999999999
 31
0.0
210
0.0
220
0.0
230
1.0
 40
0.4226182617407007
 41
4.298859327436034
 42
5.125918633333345
  0
ELLIPSE
  5
CA
330
AE
100
AcDbEntity
  8
AM_9
100
AcDbEllipse
 10
0.6716134149584014
 20
-1.7225
 30
0.0
 11
-2.318256390785949E-17
 21
-0.1262000000000005
 31
0.0
210
0.0
220
0.0
230
1.0
 40
0.4226182617406984
 41
1.157266673846247
 42
1.98432597974355
  0
LINE
  5
CB
330
AE
100
AcDbEntity
  8
AM_9
100
AcDbLine
 10
0.6796999415117316
 20
-1.8487
 30
0.0
 11
0.9113112399317368
 21
-1.8487
 31
0.0
  0
LINE
  5
CC
330
AE
100
AcDbEntity
  8
AM_9
100
AcDbLine
 10
0.9113112399317368
 20
-1.5963
 30
0.0
 11
0.6796999415117317
 21
-1.5963
 31
0.0
  0
LWPOLYLINE
  5
CD
330
AE
100
AcDbEntity
  8
AM_9
100
AcDbPolyline
 90
        9
 70
     0
 43
0.0
 10
0.6797256740608533
 20
-1.596300000592031
 10
0.6785158094223296
 20
-1.596332486002235
 10
0.6691619274354846
 20
-1.598636663384805
 10
0.6599352830047543
 20
-1.604241968023717
 10
0.6505725239190547
 20
-1.613301569920874
 10
0.6418700256079081
 20
-1.625170729489979
 10
0.6337811883682329
 20
-1.640122039392004
 10
0.6277518863021505
 20
-1.655027747048185
 10
0.6227746471034902
 20
-1.671787292695408
  0
LWPOLYLINE
  5
CE
330
AE
100
AcDbEntity
  8
AM_9
100
AcDbPolyline
 90
        9
 70
     0
 43
0.0
 10
0.6797360063135505
 20
-1.84869999940797
 10
0.6809359640508186
 20
-1.848667513997765
 10
0.689593478741777
 20
-1.846363336615195
 10
0.697178267627082
 20
-1.840758031976283
 10
0.7040442925515775
 20
-1.831698430079127
 10
0.709770738539904
 20
-1.819829270510021
 10
0.7145900066619463
 20
-1.804877960607996
 10
0.717895222581331
 20
-1.789972252951815
 10
0.7204521828133137
 20
-1.773212707304592
  0
ELLIPSE
  5
CF
330
AE
100
AcDbEntity
  8
AM_9
100
AcDbEllipse
 10
0.9113112399317373
 20
-1.7225
 30
0.0
 11
-2.318256390785941E-17
 21
-0.1262000000000001
 31
0.0
210
0.0
220
0.0
230
1.0
 40
0.4226182617407017
 41
3.494844259380102
 42
5.913365096076207
  0
LINE
  5
D0
330
AE
100
AcDbEntity
  8
AM_9
100
AcDbLine
 10
0.8864409892826957
 20
-1.834139373797339
 30
0.0
 11
0.8985522673875815
 21
-1.849245608513212
 31
0.0
  0
LINE
  5
D1
330
AE
100
AcDbEntity
  8
AM_9
100
AcDbLine
 10
0.8986905609262692
 20
-1.595581899811094
 30
0.0
 11
0.8864409892826957
 21
-1.610860626202661
 31
0.0
  0
LWPOLYLINE
  5
D2
330
AE
100
AcDbEntity
  8
AM_9
100
AcDbPolyline
 90
        8
 70
     0
 43
0.0
 10
-0.1155623698175091
 20
-1.671787292695408
 10
-0.1158798400336828
 20
-1.672391931338684
 10
-0.123489979026842
 20
-1.690917599817701
 10
-0.1276213440954709
 20
-1.710531688976184
 10
-0.128095915616325
 20
-1.728811796620746
 10
-0.1254600698044256
 20
-1.746903128959483
 10
-0.1213473165445873
 20
-1.760378479075244
 10
-0.1155623698175091
 20
-1.773212707304593
  0
LWPOLYLINE
  5
D3
330
AE
100
AcDbEntity
  8
AM_9
100
AcDbPolyline
 90
        8
 70
     0
 43
0.0
 10
0.1155623698175091
 20
-1.773212707304593
 10
0.1158798400336828
 20
-1.772608068661316
 10
0.123489979026842
 20
-1.7540824001823
 10
0.1276213440954709
 20
-1.734468311023816
 10
0.128095915616325
 20
-1.716188203379254
 10
0.1254600698044256
 20
-1.698096871040518
 10
0.1213473165445873
 20
-1.684621520924755
 10
0.1155623698175091
 20
-1.671787292695408
  0
LWPOLYLINE
  5
D4
330
AE
100
AcDbEntity
  8
AM_9
100
AcDbPolyline
 90
        7
 70
     0
 43
0.0
 10
0.6227746471034902
 20
-1.671787292695408
 10
0.6198134029432352
 20
-1.683144434979349
 10
0.6166604067995044
 20
-1.70197979683812
 10
0.6154928261141204
 20
-1.721509552820846
 10
0.6162820849795924
 20
-1.739390188805336
 10
0.6187553679442626
 20
-1.756789537954506
 10
0.6227746471034902
 20
-1.773212707304593
  0
LWPOLYLINE
  5
D5
330
AE
100
AcDbEntity
  8
AM_9
100
AcDbPolyline
 90
        8
 70
     0
 43
0.0
 10
0.6227746471034902
 20
-1.773212707304593
 10
0.6283594648372639
 20
-1.791681005275122
 10
0.6356078397802679
 20
-1.808668337366208
 10
0.6437787334116745
 20
-1.822756858819033
 10
0.6529748614258069
 20
-1.83436247703575
 10
0.6623120792146134
 20
-1.842510879958839
 10
0.6719623988266296
 20
-1.847420884634054
 10
0.6797360063135505
 20
-1.84869999940797
  0
LWPOLYLINE
  5
D6
330
AE
100
AcDbEntity
  8
AM_9
100
AcDbPolyline
 90
        7
 70
     0
 43
0.0
 10
0.7204521828133132
 20
-1.773212707304592
 10
0.7225097779249687
 20
-1.755683254331999
 10
0.7236864229855163
 20
-1.73649365735655
 10
0.7239119603651234
 20
-1.718421198709736
 10
0.7232849028655095
 20
-1.69991107920557
 10
0.7221616385109617
 20
-1.68562501759601
 10
0.7204521828133132
 20
-1.671787292695408
  0
LWPOLYLINE
  5
D7
330
AE
100
AcDbEntity
  8
AM_9
100
AcDbPolyline
 90
        8
 70
     0
 43
0.0
 10
0.7204521828133132
 20
-1.671787292695408
 10
0.717572682432643
 20
-1.653318994724878
 10
0.7135414782573857
 20
-1.636331662633792
 10
0.7085648986060876
 20
-1.622243141180968
 10
0.7023559651155465
 20
-1.61063752296425
 10
0.6953069421275221
 20
-1.602489120041162
 10
0.6871110696793893
 20
-1.597579115365946
 10
0.6797256740608533
 20
-1.596300000592031
  0
LINE
  5
D8
330
AE
100
AcDbEntity
  8
AM_9
100
AcDbLine
 10
0.7499999999999999
 20
-2.059
 30
0.0
 11
0.7499999999999999
 21
-0.2010000000000004
 31
0.0
  0
LINE
  5
D9
330
AE
100
AcDbEntity
  8
AM_9
100
AcDbLine
 10
-0.7499999999999999
 20
-0.2010000000000004
 30
0.0
 11
-0.7499999999999999
 21
-2.059
 31
0.0
  0
LINE
  5
DA
330
AE
100
AcDbEntity
  8
AM_9
100
AcDbLine
 10
0.7499999999999999
 20
-0.2010000000000004
 30
0.0
 11
0.7909999999999999
 21
-0.1600000000000002
 31
0.0
  0
LINE
  5
DB
330
AE
100
AcDbEntity
  8
AM_9
100
AcDbLine
 10
-0.7909999999999999
 20
-0.1600000000000002
 30
0.0
 11
-0.7499999999999999
 21
-0.2010000000000004
 31
0.0
  0
LINE
  5
DC
330
AE
100
AcDbEntity
  8
AM_9
100
AcDbLine
 10
-0.7499999999999999
 20
-2.059
 30
0.0
 11
-0.7909999999999999
 21
-2.1
 31
0.0
  0
LINE
  5
DD
330
AE
100
AcDbEntity
  8
AM_9
100
AcDbLine
 10
0.7909999999999999
 20
-2.1
 30
0.0
 11
0.7499999999999999
 21
-2.059
 31
0.0
  0
LINE
  5
DE
330
AE
100
AcDbEntity
  8
AM_9
100
AcDbLine
 10
-0.9839999999999998
 20
-0.1600000000000002
 30
0.0
 11
0.9839999999999998
 21
-0.1600000000000002
 31
0.0
  0
LINE
  5
DF
330
AE
100
AcDbEntity
  8
AM_9
100
AcDbLine
 10
-0.9839999999999998
 20
-0.1600000000000002
 30
0.0
 11
-1.025
 21
-0.2010000000000001
 31
0.0
  0
LINE
  5
E0
330
AE
100
AcDbEntity
  8
AM_9
100
AcDbLine
 10
1.025
 20
-0.2010000000000001
 30
0.0
 11
0.9839999999999998
 21
-0.1600000000000002
 31
0.0
  0
LINE
  5
E1
330
AE
100
AcDbEntity
  8
AM_9
100
AcDbLine
 10
-1.025
 20
-0.2010000000000001
 30
0.0
 11
1.024999999999999
 21
-0.2010000000000001
 31
0.0
  0
LINE
  5
E2
330
AE
100
AcDbEntity
  8
AM_9
100
AcDbLine
 10
1.024999999999999
 20
-0.4750000000000001
 30
0.0
 11
1.024999999999999
 21
-0.2010000000000001
 31
0.0
  0
LINE
  5
E3
330
AE
100
AcDbEntity
  8
AM_9
100
AcDbLine
 10
-1.024999999999999
 20
-0.2010000000000001
 30
0.0
 11
-1.024999999999999
 21
-0.4750000000000001
 31
0.0
  0
LINE
  5
E4
330
AE
100
AcDbEntity
  8
AM_9
100
AcDbLine
 10
1.025
 20
-1.48
 30
0.0
 11
1.025
 21
-1.345
 31
0.0
  0
LINE
  5
E5
330
AE
100
AcDbEntity
  8
AM_9
100
AcDbLine
 10
-1.025
 20
-1.345
 30
0.0
 11
-1.025
 21
-1.48
 31
0.0
  0
LINE
  5
E6
330
AE
100
AcDbEntity
  8
AM_9
100
AcDbLine
 10
1.501466666666667
 20
-1.174
 30
0.0
 11
1.501466666666667
 21
-1.086
 31
0.0
  0
LINE
  5
E7
330
AE
100
AcDbEntity
  8
AM_9
100
AcDbLine
 10
-1.501466666666667
 20
-1.086
 30
0.0
 11
-1.501466666666667
 21
-1.174
 31
0.0
  0
LINE
  5
E8
330
AE
100
AcDbEntity
  8
AM_9
100
AcDbLine
 10
-1.480022851174941
 20
-1.345
 30
0.0
 11
1.480022851173386
 21
-1.345
 31
0.0
  0
ARC
  5
E9
330
AE
100
AcDbEntity
  8
AM_9
100
AcDbCircle
 10
1.48002285117494
 20
-1.300999999999999
 30
0.0
 40
0.0440000000000005
100
AcDbArc
 50
270.0
 51
345.201407842652
  0
ARC
  5
EA
330
AE
100
AcDbEntity
  8
AM_9
100
AcDbCircle
 10
-1.48002285117494
 20
-1.300999999999999
 30
0.0
 40
0.0440000000000004
100
AcDbArc
 50
194.798592157348
 51
270.0
  0
LINE
  5
EB
330
AE
100
AcDbEntity
  8
AM_9
100
AcDbLine
 10
-1.48002285117494
 20
-0.4750000000000001
 30
0.0
 11
1.480022851173386
 21
-0.4750000000000001
 31
0.0
  0
ARC
  5
EC
330
AE
100
AcDbEntity
  8
AM_9
100
AcDbCircle
 10
1.48002285117494
 20
-0.5189999999999999
 30
0.0
 40
0.0439999999999998
100
AcDbArc
 50
14.79859014623456
 51
90.0
  0
ARC
  5
ED
330
AE
100
AcDbEntity
  8
AM_9
100
AcDbCircle
 10
-1.48002285117494
 20
-0.5189999999999999
 30
0.0
 40
0.0439999999999998
100
AcDbArc
 50
90.0
 51
165.2014098537655
  0
LINE
  5
EE
330
AE
100
AcDbEntity
  8
AM_9
100
AcDbLine
 10
-1.552513780937226
 20
-1.174
 30
0.0
 11
1.55251378093715
 21
-1.174
 31
0.0
  0
LINE
  5
EF
330
AE
100
AcDbEntity
  8
AM_9
100
AcDbLine
 10
-1.522563356434738
 20
-1.312238568068983
 30
0.0
 11
1.522563356434663
 21
-1.312238568068983
 31
0.0
  0
ARC
  5
F0
330
AE
100
AcDbEntity
  8
AM_9
100
AcDbCircle
 10
-0.0000000000706859
 20
-0.9099999999847077
 30
0.0
 40
1.574800000072175
100
AcDbArc
 50
345.2014078427707
 51
350.3493485929826
  0
ARC
  5
F1
330
AE
100
AcDbEntity
  8
AM_9
100
AcDbCircle
 10
0.000000000070896
 20
-0.9099999999846622
 30
0.0
 40
1.57480000007239
100
AcDbArc
 50
189.6506514070177
 51
194.798592157229
  0
LINE
  5
F2
330
AE
100
AcDbEntity
  8
AM_9
100
AcDbLine
 10
0.1407233140304297
 20
-1.086
 30
0.0
 11
1.564934196699661
 21
-1.086
 31
0.0
  0
LINE
  5
F3
330
AE
100
AcDbEntity
  8
AM_9
100
AcDbLine
 10
-0.1354806974504965
 20
-1.086
 30
0.0
 11
0.1354806974504965
 21
-1.086
 31
0.0
  0
LINE
  5
F4
330
AE
100
AcDbEntity
  8
AM_9
100
AcDbLine
 10
-1.564934196699657
 20
-1.086
 30
0.0
 11
-0.1407261385683057
 21
-1.086
 31
0.0
  0
LINE
  5
F5
330
AE
100
AcDbEntity
  8
AM_9
100
AcDbLine
 10
-1.522563356829217
 20
-0.5077614334242113
 30
0.0
 11
1.522563356829221
 21
-0.5077614334242113
 31
0.0
  0
ARC
  5
F6
330
AE
100
AcDbEntity
  8
AM_9
100
AcDbCircle
 10
0.0000000000002889
 20
-0.9099999999999794
 30
0.0
 40
1.574799999999719
100
AcDbArc
 50
353.5832052965255
 51
14.79859210115892
  0
ARC
  5
F7
330
AE
100
AcDbEntity
  8
AM_9
100
AcDbCircle
 10
-0.0000000000067819
 20
-0.9099999999984776
 30
0.0
 40
1.574799999993058
100
AcDbArc
 50
165.2014078988336
 51
168.1330086923315
  0
ARC
  5
F8
330
AE
100
AcDbEntity
  8
AM_9
100
AcDbCircle
 10
-0.0000000000005216
 20
-0.9099999999999872
 30
0.0
 40
1.574799999999487
100
AcDbArc
 50
175.7711508679803
 51
186.4167947034751
  0
LINE
  5
F9
330
AE
100
AcDbEntity
  8
AM_9
100
AcDbLine
 10
-1.541074629024284
 20
-0.5858333333335284
 30
0.0
 11
-1.570534201757133
 21
-0.794166666666662
 31
0.0
  0
LINE
  5
FA
330
AE
100
AcDbEntity
  8
AM_9
100
AcDbLine
 10
-1.545697766502665
 20
-0.6182664541266918
 30
0.0
 11
-1.545335327358044
 21
-0.615720291875479
 31
0.0
  0
LINE
  5
FB
330
AE
100
AcDbEntity
  8
AM_7
100
AcDbLine
 10
-0.13251
 20
-1.7225
 30
0.0
 11
0.13251
 21
-1.7225
 31
0.0
  0
LINE
  5
FC
330
AE
100
AcDbEntity
  8
AM_7
100
AcDbLine
 10
-1.68104
 20
-0.6900000000000002
 30
0.0
 11
-0.9937599999999999
 21
-0.6900000000000002
 31
0.0
  0
ELLIPSE
  5
FD
330
AE
100
AcDbEntity
  8
AM_4
100
AcDbEllipse
 10
0.9113112399317367
 20
-1.7225
 30
0.0
 11
-2.318256390785941E-17
 21
-0.1262000000000001
 31
0.0
210
0.0
220
0.0
230
1.0
 40
0.4226182617406999
 41
5.913365096076216
 42
9.778029566559677
  0
LWPOLYLINE
  5
FE
330
AE
100
AcDbEntity
  8
AM_4
100
AcDbPolyline
 90
       14
 70
     0
 43
0.0
 10
0.8986943179422048
 20
-1.849422783222155
 10
0.8954229407393162
 20
-1.845088270177698
 10
0.8868802475045792
 20
-1.831094147713977
 10
0.8793182556935484
 20
-1.814568207726003
 10
0.8726370937221458
 20
-1.794691462682139
 10
0.8675766156996045
 20
-1.773029617607816
 10
0.8642140684545668
 20
-1.748825343587778
 10
0.862983573207712
 20
-1.723920702969191
 10
0.8640281185981249
 20
-1.698254038307867
 10
0.8673375847209436
 20
-1.673270068718217
 10
0.872822532487512
 20
-1.64966707959229
 10
0.8802176675533812
 20
-1.62819944572992
 10
0.8889761301877023
 20
-1.6100878219951
 10
0.898705498072191
 20
-1.595563268911661
  0
LWPOLYLINE
  5
FF
330
AE
100
AcDbEntity
  8
AM_4
100
AcDbPolyline
 90
        5
 70
     0
 43
0.0
 10
0.898705498072191
 20
-1.595563268911661
 10
0.8988902056150175
 20
-1.595333667234371
 10
0.908916661754164
 20
-1.585111824110064
 10
0.9192086981228549
 20
-1.578828445017632
 10
0.9315490450250918
 20
-1.57696917506174
  0
CIRCLE
  5
100
330
AE
100
AcDbEntity
  8
AM_4
100
AcDbCircle
 10
0.0
 20
-1.7225
 30
0.0
 40
0.1262
  0
LWPOLYLINE
  5
101
330
AE
100
AcDbEntity
  8
AM_4
100
AcDbPolyline
 90
       39
 70
     0
 43
0.0
 10
-0.0985878400520824
 20
-1.621798129526928
 10
-0.0837073066444058
 20
-1.607479411605931
 10
-0.0664513238877928
 20
-1.595287298560127
 10
-0.0457059627911561
 20
-1.585250559862791
 10
-0.0227612723454014
 20
-1.578865721994033
 10
-0.0011530094088728
 20
-1.576825910905283
 10
0.021153169736941
 20
-1.578585276570638
 10
0.0415698670103436
 20
-1.583757745389698
 10
0.0613929875078922
 20
-1.592420880404088
 10
0.0794930202236864
 20
-1.604121880036727
 10
0.0959219071601763
 20
-1.618908978551596
 10
0.1102692273208963
 20
-1.636678334988918
 10
0.1219267530023303
 20
-1.657010341523033
 10
0.1305019249736894
 20
-1.679711167561026
 10
0.1354525440786979
 20
-1.704149346100073
 10
0.1363924299310805
 20
-1.729347084914073
 10
0.1330779363770997
 20
-1.755061844088005
 10
0.1256640342219116
 20
-1.779402744680864
 10
0.1138761382402297
 20
-1.802788014232586
 10
0.098955781392147
 20
-1.822790295850119
 10
0.0801470180156619
 20
-1.840374548999551
 10
0.0602027657475369
 20
-1.853212101946349
 10
0.0375260193021527
 20
-1.8625518447592
 10
0.0158729642271095
 20
-1.867188326251218
 10
-0.0069704789495307
 20
-1.867988714169983
 10
-0.0279186232145883
 20
-1.86509156004937
 10
-0.0486663040898939
 20
-1.858583000204461
 10
-0.0676564477943381
 20
-1.848986294323919
 10
-0.0853186330570383
 20
-1.836163843129555
 10
-0.1011039217011265
 20
-1.820321653916198
 10
-0.1145319243978064
 20
-1.801720545703804
 10
-0.1252453595394581
 20
-1.780441516500824
 10
-0.1326217563848965
 20
-1.757109575487129
 10
-0.136227646876279
 20
-1.732391669819047
 10
-0.1357372541583947
 20
-1.706715523547703
 10
-0.1310619855470908
 20
-1.681700393719964
 10
-0.1219894161573683
 20
-1.657143039481923
 10
-0.1116957207167985
 20
-1.638802141726206
 10
-0.0985878400985018
 20
-1.621798129496657
  0
LWPOLYLINE
  5
102
330
AE
100
AcDbEntity
  8
AM_4
100
AcDbPolyline
 90
       23
 70
     0
 43
0.0
 10
0.9315490450250918
 20
-1.57696917506174
 10
0.9403204350503885
 20
-1.579869529786388
 10
0.9483872031743297
 20
-1.58631210391323
 10
0.9555263521128851
 20
-1.596019026759298
 10
0.9617211846966268
 20
-1.608645010942042
 10
0.9671567560208257
 20
-1.624670816651587
 10
0.9714989317697535
 20
-1.643012029408881
 10
0.9749322131737883
 20
-1.664554915199175
 10
0.9771823282578017
 20
-1.687566345533344
 10
0.9782949996444893
 20
-1.712620005062046
 10
0.9781594193390375
 20
-1.737942102625426
 10
0.9767242857098186
 20
-1.763326335373057
 10
0.9739640724817077
 20
-1.787544008287236
 10
0.9698613687403163
 20
-1.809691930300162
 10
0.9643767452371129
 20
-1.829257845704104
 10
0.9577624272924747
 20
-1.844945089601883
 10
0.9498939140359076
 20
-1.856994059403087
 10
0.9414820435194767
 20
-1.864441817296262
 10
0.9322500151830851
 20
-1.867938398147037
 10
0.9230281448595998
 20
-1.867411022878217
 10
0.9135771788645494
 20
-1.863262093573019
 10
0.9043171648975884
 20
-1.855724458091266
 10
0.8986943179422048
 20
-1.849422783222155
  0
LINE
  5
103
330
AE
100
AcDbEntity
  8
AM_4
100
AcDbLine
 10
1.025
 20
-2.059
 30
0.0
 11
1.025
 21
-1.48
 31
0.0
  0
LINE
  5
104
330
AE
100
AcDbEntity
  8
AM_4
100
AcDbLine
 10
-1.025
 20
-1.48
 30
0.0
 11
-1.025
 21
-2.059
 31
0.0
  0
LINE
  5
105
330
AE
100
AcDbEntity
  8
AM_4
100
AcDbLine
 10
-0.9839999999999998
 20
-2.1
 30
0.0
 11
0.9839999999999998
 21
-2.1
 31
0.0
  0
LINE
  5
106
330
AE
100
AcDbEntity
  8
AM_4
100
AcDbLine
 10
-1.025
 20
-2.059
 30
0.0
 11
1.025
 21
-2.059
 31
0.0
  0
LINE
  5
107
330
AE
100
AcDbEntity
  8
AM_4
100
AcDbLine
 10
0.9839999999999998
 20
-2.1
 30
0.0
 11
1.025
 21
-2.059
 31
0.0
  0
LINE
  5
108
330
AE
100
AcDbEntity
  8
AM_4
100
AcDbLine
 10
-1.025
 20
-2.059
 30
0.0
 11
-0.9839999999999998
 21
-2.1
 31
0.0
  0
ARC
  5
10A
330
AE
100
AcDbEntity
  8
AM_5
100
AcDbCircle
 10
-0.0000000000000001
 20
-1.7875
 30
0.0
 40
0.1562500000000001
100
AcDbArc
 50
75.00000000000004
 51
14.99999999999997
  0
ARC
  5
10B
330
AE
100
AcDbEntity
  8
AM_5
100
AcDbCircle
 10
0.0
 20
-1.7225
 30
0.0
 40
0.1562500000000001
100
AcDbArc
 50
75.0
 51
15.00000000000004
  0
ENDBLK
  5
B1
330
AE
100
AcDbEntity
  8
0
100
AcDbBlockEnd
  0
BLOCK
  5
10E
330
10C
100
AcDbEntity
  8
0
100
AcDbBlockBegin
  2
4_127521H_0_in_127521_4
 70
     2
 10
0.0
 20
0.0
 30
0.0
  3
4_127521H_0_in_127521_4
  1

  0
ATTDEF
  5
110
330
10C
100
AcDbEntity
  8
AM_6
100
AcDbText
 10
7.56
 20
0.074
 30
0.0
 40
0.5
  1
F4B-SCEZ-PCR -I-Housing
100
AcDbAttributeDefinition
  3

  2
NN
 70
     8
280
     0
  0
ATTDEF
  5
111
330
10C
100
AcDbEntity
  8
AM_6
100
AcDbText
 10
7.56
 20
-0.426
 30
0.0
 40
0.5
  1
SC 4 Bolt Flange Bearings -(Normal Duty) -Corrosion Resistant Insert -Polymer Housed -E-Z KLEEN
100
AcDbAttributeDefinition
  3

  2
NT
 70
     8
280
     0
  0
ATTDEF
  5
112
330
10C
100
AcDbEntity
  8
AM_6
100
AcDbText
 10
7.56
 20
-0.9259999999999999
 30
0.0
 40
0.5
  1
127521H
100
AcDbAttributeDefinition
  3

  2
NB
 70
     8
280
     0
  0
ATTDEF
  5
113
330
10C
100
AcDbEntity
  8
AM_6
100
AcDbText
 10
7.56
 20
-1.426
 30
0.0
 40
0.5
  1
$PN.H
100
AcDbAttributeDefinition
  3

  2
NBSYN
 70
     8
280
     0
  0
ATTDEF
  5
114
330
10C
100
AcDbEntity
  8
AM_6
100
AcDbText
 10
7.56
 20
-1.926
 30
0.0
 40
0.5
  1
127521
100
AcDbAttributeDefinition
  3

  2
LINA
 70
     8
280
     0
  0
ATTDEF
  5
115
330
10C
100
AcDbEntity
  8
AM_6
100
AcDbText
 10
7.56
 20
-2.426
 30
0.0
 40
0.5
  1
1-1/2
100
AcDbAttributeDefinition
  3

  2
SS
 70
     8
280
     0
  0
ATTDEF
  5
116
330
10C
100
AcDbEntity
  8
AM_6
100
AcDbText
 10
7.56
 20
-2.926
 30
0.0
 40
0.5
  1
127521
100
AcDbAttributeDefinition
  3

  2
PN
 70
     8
280
     0
  0
ATTDEF
  5
117
330
10C
100
AcDbEntity
  8
AM_6
100
AcDbText
 10
7.56
 20
-3.426
 30
0.0
 40
0.5
  1
F4B-SCEZ-108-PCR
100
AcDbAttributeDefinition
  3

  2
DESCRIPTION
 70
     8
280
     0
  0
ATTDEF
  5
118
330
10C
100
AcDbEntity
  8
AM_6
100
AcDbText
 10
7.56
 20
-3.926
 30
0.0
 40
0.5
  1
208
100
AcDbAttributeDefinition
  3

  2
SERIES
 70
     8
280
     0
  0
ATTDEF
  5
119
330
10C
100
AcDbEntity
  8
AM_6
100
AcDbText
 10
7.56
 20
-4.426
 30
0.0
 40
0.5
  1
1
100
AcDbAttributeDefinition
  3

  2
INSERTHELP
 70
     8
280
     0
  0
ATTDEF
  5
11A
330
10C
100
AcDbEntity
  8
AM_6
100
AcDbText
 10
7.56
 20
-4.926
 30
0.0
 40
0.5
  1
1.94
100
AcDbAttributeDefinition
  3

  2
A
 70
     8
280
     0
  0
ATTDEF
  5
11B
330
10C
100
AcDbEntity
  8
AM_6
100
AcDbText
 10
7.56
 20
-5.426
 30
0.0
 40
0.5
  1
5.12
100
AcDbAttributeDefinition
  3

  2
B
 70
     8
280
     0
  0
ATTDEF
  5
11C
330
10C
100
AcDbEntity
  8
AM_6
100
AcDbText
 10
7.56
 20
-5.926
 30
0.0
 40
0.5
  1
2.10
100
AcDbAttributeDefinition
  3

  2
C
 70
     8
280
     0
  0
ATTDEF
  5
11D
330
10C
100
AcDbEntity
  8
AM_6
100
AcDbText
 10
7.56
 20
-6.426
 30
0.0
 40
0.5
  1
4.00
100
AcDbAttributeDefinition
  3

  2
D
 70
     8
280
     0
  0
ATTDEF
  5
11E
330
10C
100
AcDbEntity
  8
AM_6
100
AcDbText
 10
7.56
 20
-6.926
 30
0.0
 40
0.5
  1
1/2
100
AcDbAttributeDefinition
  3

  2
F
 70
     8
280
     0
  0
ATTDEF
  5
11F
330
10C
100
AcDbEntity
  8
AM_6
100
AcDbText
 10
7.56
 20
-7.426
 30
0.0
 40
0.5
  1
0.67
100
AcDbAttributeDefinition
  3

  2
H
 70
     8
280
     0
  0
ATTDEF
  5
120
330
10C
100
AcDbEntity
  8
AM_6
100
AcDbText
 10
7.56
 20
-7.926
 30
0.0
 40
0.5
  1
0.62
100
AcDbAttributeDefinition
  3

  2
J
 70
     8
280
     0
  0
ATTDEF
  5
121
330
10C
100
AcDbEntity
  8
AM_6
100
AcDbText
 10
7.56
 20
-8.426
 30
0.0
 40
0.5
  1
2.05
100
AcDbAttributeDefinition
  3

  2
L
 70
     8
280
     0
  0
ATTDEF
  5
122
330
10C
100
AcDbEntity
  8
AM_6
100
AcDbText
 10
7.56
 20
-8.926
 30
0.0
 40
0.5
  1
baldor
100
AcDbAttributeDefinition
  3

  2
COMPANY
 70
     8
280
     0
  0
LINE
  5
123
330
10C
100
AcDbEntity
  8
AM_9
100
AcDbLine
 10
-1.551850521152086
 20
-0.962
 30
0.0
 11
-1.55185052115208
 21
-0.0809016994374999
 31
0.0
  0
LINE
  5
124
330
10C
100
AcDbEntity
  8
AM_9
100
AcDbLine
 10
-1.471867874505045
 20
-0.962
 30
0.0
 11
-1.6498
 21
-0.962
 31
0.0
  0
LINE
  5
125
330
10C
100
AcDbEntity
  8
AM_9
100
AcDbLine
 10
-1.6498
 20
-0.7150757575757547
 30
0.0
 11
-1.6498
 21
-0.962
 31
0.0
  0
LINE
  5
126
330
10C
100
AcDbEntity
  8
AM_9
100
AcDbLine
 10
-1.6498
 20
-0.0809016994374999
 30
0.0
 11
-1.6498
 21
-0.6649242424242455
 31
0.0
  0
LINE
  5
127
330
10C
100
AcDbEntity
  8
AM_9
100
AcDbLine
 10
1.6498
 20
-0.962
 30
0.0
 11
1.471867874505045
 21
-0.962
 31
0.0
  0
LINE
  5
128
330
10C
100
AcDbEntity
  8
AM_9
100
AcDbLine
 10
1.551850521152085
 20
-0.962
 30
0.0
 11
1.551850521152078
 21
-0.0809016994375016
 31
0.0
  0
LINE
  5
129
330
10C
100
AcDbEntity
  8
AM_9
100
AcDbLine
 10
1.6498
 20
-0.962
 30
0.0
 11
1.6498
 21
-0.0809016994375017
 31
0.0
  0
LINE
  5
12A
330
10C
100
AcDbEntity
  8
AM_9
100
AcDbLine
 10
2.0
 20
-0.6699999999999999
 30
0.0
 11
2.0
 21
-0.603
 31
0.0
  0
LINE
  5
12B
330
10C
100
AcDbEntity
  8
AM_9
100
AcDbLine
 10
-2.0
 20
-0.6699999999999999
 30
0.0
 11
-2.0
 21
-0.603
 31
0.0
  0
LINE
  5
12C
330
10C
100
AcDbEntity
  8
AM_9
100
AcDbLine
 10
-1.471867874505045
 20
-0.1
 30
0.0
 11
-1.471867874505045
 21
-0.962
 31
0.0
  0
LINE
  5
12D
330
10C
100
AcDbEntity
  8
AM_9
100
AcDbLine
 10
1.471867874505045
 20
-0.962
 30
0.0
 11
1.471867874505045
 21
-0.1
 31
0.0
  0
LINE
  5
12E
330
10C
100
AcDbEntity
  8
AM_9
100
AcDbLine
 10
1.5748
 20
-1.346
 30
0.0
 11
1.5748
 21
-0.962
 31
0.0
  0
LINE
  5
12F
330
10C
100
AcDbEntity
  8
AM_9
100
AcDbLine
 10
-1.5748
 20
-0.962
 30
0.0
 11
-1.5748
 21
-1.346
 31
0.0
  0
LINE
  5
130
330
10C
100
AcDbEntity
  8
AM_9
100
AcDbLine
 10
-2.56
 20
-0.603
 30
0.0
 11
-1.882842712474619
 21
-0.603
 31
0.0
  0
LINE
  5
131
330
10C
100
AcDbEntity
  8
AM_9
100
AcDbLine
 10
1.882842712474619
 20
-0.603
 30
0.0
 11
2.56
 21
-0.603
 31
0.0
  0
LWPOLYLINE
  5
132
330
10C
100
AcDbEntity
  8
AM_9
100
AcDbPolyline
 90
        7
 70
     0
 43
0.0
 10
1.551850521152078
 20
-0.0809016994375016
 10
1.550765611695686
 20
-0.0817979254702768
 10
1.540335256602078
 20
-0.0889567908790217
 10
1.528606401061936
 20
-0.0945147117970348
 10
1.515747970806873
 20
-0.0982543332375569
 10
1.502103679465398
 20
-0.0999275590190939
 10
1.498586013547438
 20
-0.1
  0
LINE
  5
133
330
10C
100
AcDbEntity
  8
AM_9
100
AcDbLine
 10
-1.498586013547438
 20
-0.1
 30
0.0
 11
1.498586013547438
 21
-0.1
 31
0.0
  0
LWPOLYLINE
  5
134
330
10C
100
AcDbEntity
  8
AM_9
100
AcDbPolyline
 90
        5
 70
     0
 43
0.0
 10
-1.498586013547438
 20
-0.1
 10
-1.512432417025009
 20
-0.0988686676167961
 10
-1.526278820502581
 20
-0.0953603293923385
 10
-1.544176700862065
 20
-0.0865998597468973
 10
-1.55185052115208
 20
-0.0809016994374999
  0
LINE
  5
135
330
10C
100
AcDbEntity
  8
AM_9
100
AcDbLine
 10
-1.55185052115208
 20
-0.0809016994374999
 30
0.0
 11
-1.649799999999994
 21
-0.0809016994374999
 31
0.0
  0
ARC
  5
136
330
10C
100
AcDbEntity
  8
AM_9
100
AcDbCircle
 10
1.599799999999998
 20
-0.0249999999999993
 30
0.0
 40
0.0750000000000017
100
AcDbArc
 50
311.8103148957713
 51
0.0
  0
ARC
  5
137
330
10C
100
AcDbEntity
  8
AM_9
100
AcDbCircle
 10
-1.599800000000001
 20
-0.0250000000000002
 30
0.0
 40
0.0749999999999991
100
AcDbArc
 50
180.0
 51
228.1896851042278
  0
LINE
  5
138
330
10C
100
AcDbEntity
  8
AM_9
100
AcDbLine
 10
1.649799999999992
 20
-0.0809016994375017
 30
0.0
 11
1.551850521152078
 21
-0.0809016994375016
 31
0.0
  0
LINE
  5
139
330
10C
100
AcDbEntity
  8
AM_9
100
AcDbLine
 10
-1.6748
 20
-1.346
 30
0.0
 11
1.6748
 21
-1.346
 31
0.0
  0
LINE
  5
13A
330
10C
100
AcDbEntity
  8
AM_9
100
AcDbLine
 10
1.6748
 20
-1.48
 30
0.0
 11
1.6748
 21
-1.346
 31
0.0
  0
LINE
  5
13B
330
10C
100
AcDbEntity
  8
AM_9
100
AcDbLine
 10
-1.6748
 20
-1.346
 30
0.0
 11
-1.6748
 21
-1.48
 31
0.0
  0
LINE
  5
13C
330
10C
100
AcDbEntity
  8
AM_9
100
AcDbLine
 10
-1.6748
 20
-0.0249999999999998
 30
0.0
 11
1.6748
 21
-0.0249999999999998
 31
0.0
  0
LINE
  5
13D
330
10C
100
AcDbEntity
  8
AM_9
100
AcDbLine
 10
1.6748
 20
-0.0249999999999998
 30
0.0
 11
1.6748
 21
0.0
 31
0.0
  0
LINE
  5
13E
330
10C
100
AcDbEntity
  8
AM_9
100
AcDbLine
 10
-1.6748
 20
0.0
 30
0.0
 11
-1.6748
 21
-0.0249999999999998
 31
0.0
  0
LINE
  5
13F
330
10C
100
AcDbEntity
  8
AM_9
100
AcDbLine
 10
-1.926776695296637
 20
-0.6699999999999999
 30
0.0
 11
-1.926776695296637
 21
-0.603
 31
0.0
  0
LINE
  5
140
330
10C
100
AcDbEntity
  8
AM_9
100
AcDbLine
 10
-1.882842712474619
 20
-0.603
 30
0.0
 11
-1.882842712474619
 21
-0.67
 31
0.0
  0
LINE
  5
141
330
10C
100
AcDbEntity
  8
AM_9
100
AcDbLine
 10
1.882842712474619
 20
-0.67
 30
0.0
 11
1.882842712474619
 21
-0.603
 31
0.0
  0
LINE
  5
142
330
10C
100
AcDbEntity
  8
AM_9
100
AcDbLine
 10
1.926776695296637
 20
-0.6699999999999999
 30
0.0
 11
1.926776695296637
 21
-0.603
 31
0.0
  0
LINE
  5
143
330
10C
100
AcDbEntity
  8
AM_9
100
AcDbLine
 10
-1.75
 20
-0.6699999999999999
 30
0.0
 11
-1.75
 21
0.0000000000000001
 31
0.0
  0
LINE
  5
144
330
10C
100
AcDbEntity
  8
AM_9
100
AcDbLine
 10
-2.25
 20
0.0000000000000001
 30
0.0
 11
-2.25
 21
-0.6699999999999999
 31
0.0
  0
LINE
  5
145
330
10C
100
AcDbEntity
  8
AM_9
100
AcDbLine
 10
2.25
 20
-0.6699999999999999
 30
0.0
 11
2.25
 21
0.0000000000000001
 31
0.0
  0
LINE
  5
146
330
10C
100
AcDbEntity
  8
AM_9
100
AcDbLine
 10
1.75
 20
0.0000000000000001
 30
0.0
 11
1.75
 21
-0.6699999999999999
 31
0.0
  0
LINE
  5
147
330
10C
100
AcDbEntity
  8
AM_7
100
AcDbLine
 10
1.999999999999999
 20
0.0334999999999999
 30
0.0
 11
1.999999999999999
 21
-0.7035000000000002
 31
0.0
  0
LINE
  5
148
330
10C
100
AcDbEntity
  8
AM_7
100
AcDbLine
 10
-2.0
 20
0.0334999999999999
 30
0.0
 11
-2.0
 21
-0.7035000000000002
 31
0.0
  0
LINE
  5
149
330
10C
100
AcDbEntity
  8
AM_7
100
AcDbLine
 10
0.0
 20
-2.197
 30
0.0
 11
0.0
 21
0.074
 31
0.0
  0
LINE
  5
14A
330
10C
100
AcDbEntity
  8
AM_4
100
AcDbLine
 10
2.0
 20
-1.48
 30
0.0
 11
2.0
 21
-0.6699999999999999
 31
0.0
  0
LINE
  5
14B
330
10C
100
AcDbEntity
  8
AM_4
100
AcDbLine
 10
-2.0
 20
-1.48
 30
0.0
 11
-2.0
 21
-0.6699999999999999
 31
0.0
  0
LINE
  5
14C
330
10C
100
AcDbEntity
  8
AM_4
100
AcDbLine
 10
-1.926776695296637
 20
-1.48
 30
0.0
 11
-1.926776695296637
 21
-0.6699999999999999
 31
0.0
  0
LINE
  5
14D
330
10C
100
AcDbEntity
  8
AM_4
100
AcDbLine
 10
1.926776695296637
 20
-1.48
 30
0.0
 11
1.926776695296637
 21
-0.6699999999999999
 31
0.0
  0
LINE
  5
14E
330
10C
100
AcDbEntity
  8
AM_4
100
AcDbLine
 10
0.9016504294495533
 20
-1.48
 30
0.0
 11
0.9016504294495533
 21
-0.603
 31
0.0
  0
LINE
  5
14F
330
10C
100
AcDbEntity
  8
AM_4
100
AcDbLine
 10
0.7248737341529168
 20
-1.48
 30
0.0
 11
0.7248737341529168
 21
-0.603
 31
0.0
  0
LINE
  5
150
330
10C
100
AcDbEntity
  8
AM_4
100
AcDbLine
 10
2.0
 20
-1.48
 30
0.0
 11
-2.0
 21
-1.48
 31
0.0
  0
LINE
  5
151
330
10C
100
AcDbEntity
  8
AM_4
100
AcDbLine
 10
-0.9016504294495533
 20
-1.48
 30
0.0
 11
-0.9016504294495533
 21
-0.603
 31
0.0
  0
LINE
  5
152
330
10C
100
AcDbEntity
  8
AM_4
100
AcDbLine
 10
-0.7248737341529163
 20
-1.48
 30
0.0
 11
-0.7248737341529163
 21
-0.603
 31
0.0
  0
LINE
  5
153
330
10C
100
AcDbEntity
  8
AM_4
100
AcDbLine
 10
2.56
 20
-0.6699999999999999
 30
0.0
 11
2.56
 21
0.0000000000000001
 31
0.0
  0
LINE
  5
154
330
10C
100
AcDbEntity
  8
AM_4
100
AcDbLine
 10
-2.56
 20
-0.6699999999999999
 30
0.0
 11
-2.56
 21
0.0000000000000001
 31
0.0
  0
LINE
  5
155
330
10C
100
AcDbEntity
  8
AM_4
100
AcDbLine
 10
-2.486776695296637
 20
-0.6699999999999999
 30
0.0
 11
-2.486776695296637
 21
0.0000000000000001
 31
0.0
  0
LINE
  5
156
330
10C
100
AcDbEntity
  8
AM_4
100
AcDbLine
 10
2.486776695296637
 20
-0.6699999999999999
 30
0.0
 11
2.486776695296637
 21
0.0000000000000001
 31
0.0
  0
LINE
  5
157
330
10C
100
AcDbEntity
  8
AM_4
100
AcDbLine
 10
1.622741699796952
 20
-0.603
 30
0.0
 11
-1.622741699796952
 21
-0.603
 31
0.0
  0
LINE
  5
158
330
10C
100
AcDbEntity
  8
AM_4
100
AcDbLine
 10
2.083113276073394
 20
-0.6699999999999999
 30
0.0
 11
2.083113276073394
 21
0.0000000000000002
 31
0.0
  0
LINE
  5
159
330
10C
100
AcDbEntity
  8
AM_4
100
AcDbLine
 10
2.25988997137003
 20
-0.6699999999999999
 30
0.0
 11
2.25988997137003
 21
0.0000000000000002
 31
0.0
  0
LINE
  5
15A
330
10C
100
AcDbEntity
  8
AM_4
100
AcDbLine
 10
-0.9455844122715711
 20
-0.6699999999999999
 30
0.0
 11
-0.9455844122715711
 21
-0.603
 31
0.0
  0
LINE
  5
15B
330
10C
100
AcDbEntity
  8
AM_4
100
AcDbLine
 10
-1.622741699796952
 20
-0.603
 30
0.0
 11
-1.622741699796952
 21
-0.6699999999999999
 31
0.0
  0
LINE
  5
15C
330
10C
100
AcDbEntity
  8
AM_4
100
AcDbLine
 10
2.56
 20
0.0000000000000001
 30
0.0
 11
-2.56
 21
0.0000000000000001
 31
0.0
  0
LINE
  5
15D
330
10C
100
AcDbEntity
  8
AM_4
100
AcDbLine
 10
-0.9455844122715711
 20
-0.6699999999999999
 30
0.0
 11
-2.56
 21
-0.6699999999999999
 31
0.0
  0
LINE
  5
15E
330
10C
100
AcDbEntity
  8
AM_4
100
AcDbLine
 10
-2.25988997137003
 20
-0.6699999999999999
 30
0.0
 11
-2.25988997137003
 21
0.0000000000000002
 31
0.0
  0
LINE
  5
15F
330
10C
100
AcDbEntity
  8
AM_4
100
AcDbLine
 10
-2.083113276073393
 20
-0.6699999999999999
 30
0.0
 11
-2.083113276073393
 21
0.0000000000000002
 31
0.0
  0
LINE
  5
160
330
10C
100
AcDbEntity
  8
AM_4
100
AcDbLine
 10
0.9455844122715715
 20
-0.603
 30
0.0
 11
0.9455844122715723
 21
-0.6699999999999999
 31
0.0
  0
LINE
  5
161
330
10C
100
AcDbEntity
  8
AM_4
100
AcDbLine
 10
2.56
 20
-0.6699999999999999
 30
0.0
 11
0.9455844122715723
 21
-0.6699999999999999
 31
0.0
  0
LINE
  5
162
330
10C
100
AcDbEntity
  8
AM_4
100
AcDbLine
 10
1.622741699796951
 20
-0.6699999999999999
 30
0.0
 11
1.622741699796952
 21
-0.603
 31
0.0
  0
ENDBLK
  5
10F
330
10C
100
AcDbEntity
  8
0
100
AcDbBlockEnd
  0
ENDSEC
  0
SECTION
  2
ENTITIES
  0
INSERT
  5
6F
330
1F
100
AcDbEntity
  8
0
100
AcDbBlockReference
  2
1_127521_4
 10
0.0
 20
0.0
 30
0.0
  0
POINT
  5
164
330
1F
100
AcDbEntity
  8
ConnectionPoints
100
AcDbPoint
 10
0.0
 20
-0.1600000000000001
 30
0.0
  0
POINT
  5
165
330
1F
100
AcDbEntity
  8
ConnectionPoints
100
AcDbPoint
 10
0.0
 20
-2.1
 30
0.0000000000000001
  0
POINT
  5
166
330
1F
100
AcDbEntity
  8
ConnectionPoints
100
AcDbPoint
 10
0.0
 20
-1.075
 30
2.0
  0
POINT
  5
167
330
1F
100
AcDbEntity
  8
ConnectionPoints
100
AcDbPoint
 10
0.0
 20
-2.1
 30
0.0000000000000001
  0
ENDSEC
  0
SECTION
  2
OBJECTS
  0
DICTIONARY
  5
C
330
0
100
AcDbDictionary
281
     1
  3
ACAD_DETAILVIEWSTYLE
350
16F
  3
ACAD_GROUP
350
D
  3
ACAD_LAYOUT
350
1A
  3
ACAD_MATERIAL
350
43
  3
ACAD_MLEADERSTYLE
350
6B
  3
ACAD_MLINESTYLE
350
17
  3
ACAD_PLOTSETTINGS
350
19
  3
ACAD_PLOTSTYLENAME
350
E
  3
ACAD_SCALELIST
350
47
  3
ACAD_SECTIONVIEWSTYLE
350
170
  3
ACAD_TABLESTYLE
350
69
  3
ACAD_VISUALSTYLE
350
2A
  3
ACDB_RECOMPOSE_DATA
350
16C
  3
AcDbVariableDictionary
350
168
  0
SUN
  5
6D
330
29
100
AcDbSun
 90
        1
290
     0
 63
     7
421
 16777215
 40
1.0
291
     1
 91
  2455826
 92
 54000000
292
     0
 70
     2
 71
   256
280
     1
  0
DICTIONARY
  5
16F
102
{ACAD_REACTORS
330
C
102
}
330
C
100
AcDbDictionary
281
     1
  0
DICTIONARY
  5
D
102
{ACAD_REACTORS
330
C
102
}
330
C
100
AcDbDictionary
281
     1
  0
DICTIONARY
  5
1A
102
{ACAD_REACTORS
330
C
102
}
330
C
100
AcDbDictionary
281
     1
  3
Layout1
350
1E
  3
Layout2
350
26
  3
Model
350
22
  0
DICTIONARY
  5
43
102
{ACAD_REACTORS
330
C
102
}
330
C
100
AcDbDictionary
281
     1
  3
ByBlock
350
45
  3
ByLayer
350
44
  3
Global
350
46
  0
DICTIONARY
  5
6B
102
{ACAD_REACTORS
330
C
102
}
330
C
100
AcDbDictionary
281
     1
  3
Standard
350
6C
  0
DICTIONARY
  5
17
102
{ACAD_REACTORS
330
C
102
}
330
C
100
AcDbDictionary
281
     1
  3
Standard
350
18
  0
DICTIONARY
  5
19
102
{ACAD_REACTORS
330
C
102
}
330
C
100
AcDbDictionary
281
     1
  0
ACDBDICTIONARYWDFLT
  5
E
102
{ACAD_REACTORS
330
C
102
}
330
C
100
AcDbDictionary
281
     1
  3
Normal
350
F
100
AcDbDictionaryWithDefault
340
F
  0
DICTIONARY
  5
47
102
{ACAD_REACTORS
330
C
102
}
330
C
100
AcDbDictionary
281
     1
  3
A0
350
48
  3
A1
350
49
  3
A2
350
4A
  3
A3
350
4B
  3
A4
350
4C
  3
A5
350
4D
  3
A6
350
4E
  3
A7
350
4F
  3
A8
350
50
  3
A9
350
51
  3
B0
350
52
  3
B1
350
53
  3
B2
350
54
  3
B3
350
55
  3
B4
350
56
  3
B5
350
57
  3
B6
350
58
  3
B7
350
59
  3
B8
350
5A
  3
B9
350
5B
  3
C0
350
5C
  3
C1
350
5D
  3
C2
350
5E
  3
C3
350
5F
  3
C4
350
60
  3
C5
350
61
  3
C6
350
62
  3
C7
350
63
  3
C8
350
64
  3
C9
350
65
  3
D0
350
66
  3
D1
350
67
  3
D2
350
68
  0
DICTIONARY
  5
170
102
{ACAD_REACTORS
330
C
102
}
330
C
100
AcDbDictionary
281
     1
  0
DICTIONARY
  5
69
102
{ACAD_REACTORS
330
C
102
}
330
C
100
AcDbDictionary
281
     1
  3
Standard
350
6A
  0
DICTIONARY
  5
2A
102
{ACAD_REACTORS
330
C
102
}
330
C
100
AcDbDictionary
281
     1
  3
2dWireframe
350
2F
  3
Basic
350
32
  3
Brighten
350
36
  3
ColorChange
350
3A
  3
Conceptual
350
34
  3
Dim
350
35
  3
EdgeColorOff
350
3D
  3
Facepattern
350
39
  3
Flat
350
2B
  3
FlatWithEdges
350
2C
  3
Gouraud
350
2D
  3
GouraudWithEdges
350
2E
  3
Hidden
350
31
  3
JitterOff
350
3B
  3
Linepattern
350
38
  3
OverhangOff
350
3C
  3
Realistic
350
33
  3
Shaded
350
42
  3
Shaded with edges
350
41
  3
Shades of Gray
350
3E
  3
Sketchy
350
3F
  3
Thicken
350
37
  3
Wireframe
350
30
  3
X-Ray
350
40
  0
XRECORD
  5
16C
102
{ACAD_REACTORS
330
C
102
}
330
C
100
AcDbXrecord
280
     1
 90
        1
330
6A
  0
DICTIONARY
  5
168
102
{ACAD_REACTORS
330
C
102
}
330
C
100
AcDbDictionary
281
     1
  3
CANNOSCALE
350
169
  3
CMLEADERSTYLE
350
16E
  3
CTABLESTYLE
350
16D
  0
LAYOUT
  5
1E
102
{ACAD_REACTORS
330
1A
102
}
330
1A
100
AcDbPlotSettings
  1

  2
none_device
  4

  6

 40
0.0
 41
0.0
 42
0.0
 43
0.0
 44
0.0
 45
0.0
 46
0.0
 47
0.0
 48
0.0
 49
0.0
140
0.0
141
0.0
142
1.0
143
1.0
 70
   688
 72
     0
 73
     0
 74
     5
  7

 75
    16
 76
     0
 77
     2
 78
   300
147
1.0
148
0.0
149
0.0
100
AcDbLayout
  1
Layout1
 70
     1
 71
     1
 10
0.0
 20
0.0
 11
12.0
 21
9.0
 12
0.0
 22
0.0
 32
0.0
 14
1.000000000000000E+20
 24
1.000000000000000E+20
 34
1.000000000000000E+20
 15
-1.000000000000000E+20
 25
-1.000000000000000E+20
 35
-1.000000000000000E+20
146
0.0
 13
0.0
 23
0.0
 33
0.0
 16
1.0
 26
0.0
 36
0.0
 17
0.0
 27
1.0
 37
0.0
 76
     0
330
1B
  0
LAYOUT
  5
26
102
{ACAD_REACTORS
330
1A
102
}
330
1A
100
AcDbPlotSettings
  1

  2
none_device
  4

  6

 40
0.0
 41
0.0
 42
0.0
 43
0.0
 44
0.0
 45
0.0
 46
0.0
 47
0.0
 48
0.0
 49
0.0
140
0.0
141
0.0
142
1.0
143
1.0
 70
   688
 72
     0
 73
     0
 74
     5
  7

 75
    16
 76
     0
 77
     2
 78
   300
147
1.0
148
0.0
149
0.0
100
AcDbLayout
  1
Layout2
 70
     1
 71
     2
 10
0.0
 20
0.0
 11
0.0
 21
0.0
 12
0.0
 22
0.0
 32
0.0
 14
0.0
 24
0.0
 34
0.0
 15
0.0
 25
0.0
 35
0.0
146
0.0
 13
0.0
 23
0.0
 33
0.0
 16
1.0
 26
0.0
 36
0.0
 17
0.0
 27
1.0
 37
0.0
 76
     0
330
23
  0
LAYOUT
  5
22
102
{ACAD_REACTORS
330
1A
102
}
330
1A
100
AcDbPlotSettings
  1

  2
none_device
  4
Letter_(8.50_x_11.00_Inches)
  6

 40
6.35
 41
6.35
 42
6.35000508
 43
6.35000508
 44
215.9
 45
279.4
 46
0.0
 47
0.0
 48
0.0
 49
0.0
140
0.0
141
0.0
142
1.0
143
1.0
 70
  1712
 72
     0
 73
     0
 74
     0
  7

 75
     0
 76
     0
 77
     2
 78
   300
147
1.0
148
0.0
149
0.0
100
AcDbLayout
  1
Model
 70
     1
 71
     0
 10
0.0
 20
0.0
 11
12.0
 21
9.0
 12
0.0
 22
0.0
 32
0.0
 14
1.000000000000000E+20
 24
1.000000000000000E+20
 34
1.000000000000000E+20
 15
-1.000000000000000E+20
 25
-1.000000000000000E+20
 35
-1.000000000000000E+20
146
0.0
 13
0.0
 23
0.0
 33
0.0
 16
1.0
 26
0.0
 36
0.0
 17
0.0
 27
1.0
 37
0.0
 76
     0
330
1F
331
29
  0
MATERIAL
  5
45
102
{ACAD_REACTORS
330
43
102
}
330
43
100
AcDbMaterial
  1
ByBlock
 72
     1
 94
      127
  0
MATERIAL
  5
44
102
{ACAD_REACTORS
330
43
102
}
330
43
100
AcDbMaterial
  1
ByLayer
 72
     1
 94
      127
  0
MATERIAL
  5
46
102
{ACAD_REACTORS
330
43
102
}
330
43
100
AcDbMaterial
  1
Global
 72
     1
 94
      127
  0
MLEADERSTYLE
  5
6C
102
{ACAD_REACTORS
330
6B
102
}
330
6B
100
AcDbMLeaderStyle
179
     2
170
     2
171
     1
172
     0
 90
        2
 40
0.0
 41
0.0
173
     1
 91
-1056964608
340
14
 92
       -2
290
     1
 42
0.09
291
     1
 43
0.36
  3
Standard
341
0
 44
0.18
300

342
11
174
     1
178
     6
175
     1
176
     0
 93
-1056964608
 45
0.18
292
     0
297
     0
 46
0.18
343
0
 94
-1056964608
 47
1.0
 49
1.0
140
1.0
293
     1
141
0.0
294
     1
177
     0
142
1.0
295
     0
296
     0
143
0.125
271
     0
272
     9
273
     9
298
     0
  0
MLINESTYLE
  5
18
102
{ACAD_REACTORS
330
17
102
}
330
17
100
AcDbMlineStyle
  2
Standard
 70
     0
  3

 62
   256
 51
90.0
 52
90.0
 71
     2
 49
0.5
 62
   256
  6
BYLAYER
 49
-0.5
 62
   256
  6
BYLAYER
  0
ACDBPLACEHOLDER
  5
F
102
{ACAD_REACTORS
330
E
102
}
330
E
  0
SCALE
  5
48
102
{ACAD_REACTORS
330
47
102
}
330
47
100
AcDbScale
 70
     0
300
1:1
140
1.0
141
1.0
290
     1
  0
SCALE
  5
49
102
{ACAD_REACTORS
330
47
102
}
330
47
100
AcDbScale
 70
     0
300
1:2
140
1.0
141
2.0
290
     0
  0
SCALE
  5
4A
102
{ACAD_REACTORS
330
47
102
}
330
47
100
AcDbScale
 70
     0
300
1:4
140
1.0
141
4.0
290
     0
  0
SCALE
  5
4B
102
{ACAD_REACTORS
330
47
102
}
330
47
100
AcDbScale
 70
     0
300
1:5
140
1.0
141
5.0
290
     0
  0
SCALE
  5
4C
102
{ACAD_REACTORS
330
47
102
}
330
47
100
AcDbScale
 70
     0
300
1:8
140
1.0
141
8.0
290
     0
  0
SCALE
  5
4D
102
{ACAD_REACTORS
330
47
102
}
330
47
100
AcDbScale
 70
     0
300
1:10
140
1.0
141
10.0
290
     0
  0
SCALE
  5
4E
102
{ACAD_REACTORS
330
47
102
}
330
47
100
AcDbScale
 70
     0
300
1:16
140
1.0
141
16.0
290
     0
  0
SCALE
  5
4F
102
{ACAD_REACTORS
330
47
102
}
330
47
100
AcDbScale
 70
     0
300
1:20
140
1.0
141
20.0
290
     0
  0
SCALE
  5
50
102
{ACAD_REACTORS
330
47
102
}
330
47
100
AcDbScale
 70
     0
300
1:30
140
1.0
141
30.0
290
     0
  0
SCALE
  5
51
102
{ACAD_REACTORS
330
47
102
}
330
47
100
AcDbScale
 70
     0
300
1:40
140
1.0
141
40.0
290
     0
  0
SCALE
  5
52
102
{ACAD_REACTORS
330
47
102
}
330
47
100
AcDbScale
 70
     0
300
1:50
140
1.0
141
50.0
290
     0
  0
SCALE
  5
53
102
{ACAD_REACTORS
330
47
102
}
330
47
100
AcDbScale
 70
     0
300
1:100
140
1.0
141
100.0
290
     0
  0
SCALE
  5
54
102
{ACAD_REACTORS
330
47
102
}
330
47
100
AcDbScale
 70
     0
300
2:1
140
2.0
141
1.0
290
     0
  0
SCALE
  5
55
102
{ACAD_REACTORS
330
47
102
}
330
47
100
AcDbScale
 70
     0
300
4:1
140
4.0
141
1.0
290
     0
  0
SCALE
  5
56
102
{ACAD_REACTORS
330
47
102
}
330
47
100
AcDbScale
 70
     0
300
8:1
140
8.0
141
1.0
290
     0
  0
SCALE
  5
57
102
{ACAD_REACTORS
330
47
102
}
330
47
100
AcDbScale
 70
     0
300
10:1
140
10.0
141
1.0
290
     0
  0
SCALE
  5
58
102
{ACAD_REACTORS
330
47
102
}
330
47
100
AcDbScale
 70
     0
300
100:1
140
100.0
141
1.0
290
     0
  0
SCALE
  5
59
102
{ACAD_REACTORS
330
47
102
}
330
47
100
AcDbScale
 70
     0
300
1/128" = 1'-0"
140
0.0078125
141
12.0
290
     0
  0
SCALE
  5
5A
102
{ACAD_REACTORS
330
47
102
}
330
47
100
AcDbScale
 70
     0
300
1/64" = 1'-0"
140
0.015625
141
12.0
290
     0
  0
SCALE
  5
5B
102
{ACAD_REACTORS
330
47
102
}
330
47
100
AcDbScale
 70
     0
300
1/32" = 1'-0"
140
0.03125
141
12.0
290
     0
  0
SCALE
  5
5C
102
{ACAD_REACTORS
330
47
102
}
330
47
100
AcDbScale
 70
     0
300
1/16" = 1'-0"
140
0.0625
141
12.0
290
     0
  0
SCALE
  5
5D
102
{ACAD_REACTORS
330
47
102
}
330
47
100
AcDbScale
 70
     0
300
3/32" = 1'-0"
140
0.09375
141
12.0
290
     0
  0
SCALE
  5
5E
102
{ACAD_REACTORS
330
47
102
}
330
47
100
AcDbScale
 70
     0
300
1/8" = 1'-0"
140
0.125
141
12.0
290
     0
  0
SCALE
  5
5F
102
{ACAD_REACTORS
330
47
102
}
330
47
100
AcDbScale
 70
     0
300
3/16" = 1'-0"
140
0.1875
141
12.0
290
     0
  0
SCALE
  5
60
102
{ACAD_REACTORS
330
47
102
}
330
47
100
AcDbScale
 70
     0
300
1/4" = 1'-0"
140
0.25
141
12.0
290
     0
  0
SCALE
  5
61
102
{ACAD_REACTORS
330
47
102
}
330
47
100
AcDbScale
 70
     0
300
3/8" = 1'-0"
140
0.375
141
12.0
290
     0
  0
SCALE
  5
62
102
{ACAD_REACTORS
330
47
102
}
330
47
100
AcDbScale
 70
     0
300
1/2" = 1'-0"
140
0.5
141
12.0
290
     0
  0
SCALE
  5
63
102
{ACAD_REACTORS
330
47
102
}
330
47
100
AcDbScale
 70
     0
300
3/4" = 1'-0"
140
0.75
141
12.0
290
     0
  0
SCALE
  5
64
102
{ACAD_REACTORS
330
47
102
}
330
47
100
AcDbScale
 70
     0
300
1" = 1'-0"
140
1.0
141
12.0
290
     0
  0
SCALE
  5
65
102
{ACAD_REACTORS
330
47
102
}
330
47
100
AcDbScale
 70
     0
300
1-1/2" = 1'-0"
140
1.5
141
12.0
290
     0
  0
SCALE
  5
66
102
{ACAD_REACTORS
330
47
102
}
330
47
100
AcDbScale
 70
     0
300
3" = 1'-0"
140
3.0
141
12.0
290
     0
  0
SCALE
  5
67
102
{ACAD_REACTORS
330
47
102
}
330
47
100
AcDbScale
 70
     0
300
6" = 1'-0"
140
6.0
141
12.0
290
     0
  0
SCALE
  5
68
102
{ACAD_REACTORS
330
47
102
}
330
47
100
AcDbScale
 70
     0
300
1'-0" = 1'-0"
140
12.0
141
12.0
290
     0
  0
TABLESTYLE
  5
6A
102
{ACAD_REACTORS
330
69
102
}
102
{ACAD_XDICTIONARY
360
16A
102
}
330
69
100
AcDbTableStyle
  3
Standard
 70
     0
 71
     0
 40
0.06
 41
0.06
280
     0
281
     0
  7
Standard
140
0.18
170
     2
 62
     0
 63
   257
283
     0
 90
        4
 91
        0
  1

274
    -2
284
     1
 64
     0
275
    -2
285
     1
 65
     0
276
    -2
286
     1
 66
     0
277
    -2
287
     1
 67
     0
278
    -2
288
     1
 68
     0
279
    -2
289
     1
 69
     0
  7
Standard
140
0.25
170
     5
 62
     0
 63
   257
283
     0
 90
        4
 91
        0
  1

274
    -2
284
     1
 64
     0
275
    -2
285
     1
 65
     0
276
    -2
286
     1
 66
     0
277
    -2
287
     1
 67
     0
278
    -2
288
     1
 68
     0
279
    -2
289
     1
 69
     0
  7
Standard
140
0.18
170
     5
 62
     0
 63
   257
283
     0
 90
        4
 91
        0
  1

274
    -2
284
     1
 64
     0
275
    -2
285
     1
 65
     0
276
    -2
286
     1
 66
     0
277
    -2
287
     1
 67
     0
278
    -2
288
     1
 68
     0
279
    -2
289
     1
 69
     0
  0
VISUALSTYLE
  5
2F
102
{ACAD_REACTORS
330
2A
102
}
330
2A
100
AcDbVisualStyle
  2
2dWireframe
 70
     4
177
     3
291
     0
 70
    58
 90
        0
176
     1
 90
        2
176
     1
 90
        0
176
     1
 90
        0
176
     1
 40
0.6
176
     1
 40
30.0
176
     1
 62
     7
420
 16777215
176
     1
 90
        1
176
     1
 90
        4
176
     1
 62
     7
176
     1
 62
   257
176
     1
 90
        1
176
     1
 90
        1
176
     1
 40
1.0
176
     1
 90
        0
176
     1
 62
   257
176
     1
 40
1.0
176
     1
 90
        1
176
     1
 90
        6
176
     1
 90
        2
176
     1
 62
     7
176
     1
 90
        5
176
     1
 90
        0
176
     1
 90
        0
176
     1
290
     0
176
     1
 90
        1
176
     1
 40
0.0
176
     1
 90
        0
176
     1
290
     1
176
     1
290
     1
176
     1
290
     0
176
     1
290
     0
176
     1
290
     0
176
     1
290
     0
176
     1
290
     0
176
     1
290
     0
176
     1
290
     0
176
     1
 90
       50
176
     1
 40
0.0
176
     1
 40
1.0
176
     1
 90
        0
176
     1
 62
    18
420
        0
176
     1
 90
       50
176
     1
 90
        3
176
     1
 62
     5
420
      255
176
     1
290
     0
176
     1
 90
       50
176
     1
 90
       50
176
     1
 90
       50
176
     1
290
     0
176
     1
 90
       50
176
     1
 62
   256
176
     0
 40
1.0
176
     0
 90
        2
176
     1
  1
strokes_ogs.tif
176
     1
290
     0
176
     1
 40
1.0
176
     1
 40
1.0
176
     1
  0
VISUALSTYLE
  5
32
102
{ACAD_REACTORS
330
2A
102
}
330
2A
100
AcDbVisualStyle
  2
Basic
 70
     7
177
     3
291
     1
 70
    58
 90
        1
176
     1
 90
        0
176
     1
 90
        1
176
     1
 90
        0
176
     1
 40
0.6
176
     1
 40
30.0
176
     1
 62
     7
420
 16777215
176
     1
 90
        0
176
     1
 90
        4
176
     1
 62
     7
176
     1
 62
   257
176
     1
 90
        1
176
     1
 90
        1
176
     1
 40
1.0
176
     1
 90
        8
176
     1
 62
     7
176
     1
 40
1.0
176
     1
 90
        1
176
     1
 90
        6
176
     1
 90
        2
176
     1
 62
     7
176
     1
 90
        5
176
     1
 90
        0
176
     1
 90
        0
176
     1
290
     0
176
     1
 90
        1
176
     1
 40
0.0
176
     1
 90
        0
176
     1
290
     0
176
     1
290
     1
176
     1
290
     1
176
     1
290
     0
176
     1
290
     0
176
     1
290
     0
176
     1
290
     0
176
     1
290
     0
176
     1
290
     0
176
     1
 90
       50
176
     1
 40
0.0
176
     1
 40
1.0
176
     1
 90
        0
176
     1
 62
    18
420
        0
176
     1
 90
       50
176
     1
 90
        3
176
     1
 62
     5
420
      255
176
     1
290
     0
176
     1
 90
       50
176
     1
 90
       50
176
     1
 90
       50
176
     1
290
     0
176
     1
 90
       50
176
     1
 62
   256
176
     0
 40
1.0
176
     0
 90
        2
176
     1
  1
strokes_ogs.tif
176
     1
290
     0
176
     1
 40
1.0
176
     1
 40
1.0
176
     1
  0
VISUALSTYLE
  5
36
102
{ACAD_REACTORS
330
2A
102
}
330
2A
100
AcDbVisualStyle
  2
Brighten
 70
    12
177
     3
291
     1
 70
    58
 90
        2
176
     1
 90
        2
176
     1
 90
        0
176
     1
 90
        0
176
     1
 40
0.6
176
     1
 40
30.0
176
     1
 62
     7
420
 16777215
176
     1
 90
        1
176
     1
 90
        4
176
     1
 62
     7
176
     1
 62
   257
176
     1
 90
        1
176
     1
 90
        1
176
     1
 40
1.0
176
     1
 90
        8
176
     1
 62
     7
176
     1
 40
1.0
176
     1
 90
        1
176
     1
 90
        6
176
     1
 90
        2
176
     1
 62
     7
176
     1
 90
        5
176
     1
 90
        0
176
     1
 90
        0
176
     1
290
     0
176
     1
 90
        1
176
     1
 40
50.0
176
     1
 90
        0
176
     1
290
     0
176
     1
290
     1
176
     1
290
     1
176
     1
290
     0
176
     1
290
     0
176
     1
290
     0
176
     1
290
     0
176
     1
290
     0
176
     1
290
     0
176
     1
 90
       50
176
     1
 40
0.0
176
     1
 40
1.0
176
     1
 90
        0
176
     1
 62
    18
420
        0
176
     1
 90
       50
176
     1
 90
        3
176
     1
 62
     5
420
      255
176
     1
290
     0
176
     1
 90
       50
176
     1
 90
       50
176
     1
 90
       50
176
     1
290
     0
176
     1
 90
       50
176
     1
 62
   256
176
     0
 40
1.0
176
     0
 90
        2
176
     1
  1
strokes_ogs.tif
176
     1
290
     0
176
     1
 40
1.0
176
     1
 40
1.0
176
     1
  0
VISUALSTYLE
  5
3A
102
{ACAD_REACTORS
330
2A
102
}
330
2A
100
AcDbVisualStyle
  2
ColorChange
 70
    16
177
     3
291
     1
 70
    58
 90
        2
176
     1
 90
        2
176
     1
 90
        3
176
     1
 90
        0
176
     1
 40
0.6
176
     1
 40
30.0
176
     1
 62
     8
420
  8421504
176
     1
 90
        1
176
     1
 90
        4
176
     1
 62
     7
176
     1
 62
   257
176
     1
 90
        1
176
     1
 90
        1
176
     1
 40
1.0
176
     1
 90
        8
176
     1
 62
     8
420
  8421504
176
     1
 40
1.0
176
     1
 90
        1
176
     1
 90
        6
176
     1
 90
        2
176
     1
 62
     7
176
     1
 90
        5
176
     1
 90
        0
176
     1
 90
        0
176
     1
290
     0
176
     1
 90
        1
176
     1
 40
0.0
176
     1
 90
        0
176
     1
290
     0
176
     1
290
     1
176
     1
290
     1
176
     1
290
     0
176
     1
290
     0
176
     1
290
     0
176
     1
290
     0
176
     1
290
     0
176
     1
290
     0
176
     1
 90
       50
176
     1
 40
0.0
176
     1
 40
1.0
176
     1
 90
        0
176
     1
 62
    18
420
        0
176
     1
 90
       50
176
     1
 90
        3
176
     1
 62
     5
420
      255
176
     1
290
     0
176
     1
 90
       50
176
     1
 90
       50
176
     1
 90
       50
176
     1
290
     0
176
     1
 90
       50
176
     1
 62
   256
176
     0
 40
1.0
176
     0
 90
        2
176
     1
  1
strokes_ogs.tif
176
     1
290
     0
176
     1
 40
1.0
176
     1
 40
1.0
176
     1
  0
VISUALSTYLE
  5
34
102
{ACAD_REACTORS
330
2A
102
}
330
2A
100
AcDbVisualStyle
  2
Conceptual
 70
     9
177
     3
291
     0
 70
    58
 90
        3
176
     1
 90
        2
176
     1
 90
        0
176
     1
 90
        0
176
     1
 40
0.6
176
     1
 40
30.0
176
     1
 62
     7
420
 16777215
176
     1
 90
        2
176
     1
 90
        2
176
     1
 62
     7
176
     1
 62
   257
176
     1
 90
        1
176
     1
 90
        1
176
     1
 40
179.0
176
     1
 90
        8
176
     1
 62
     7
176
     1
 40
1.0
176
     1
 90
        1
176
     1
 90
        6
176
     1
 90
        2
176
     1
 62
     7
176
     1
 90
        3
176
     1
 90
        0
176
     1
 90
        0
176
     1
290
     0
176
     1
 90
        1
176
     1
 40
0.0
176
     1
 90
        0
176
     1
290
     0
176
     1
290
     1
176
     1
290
     1
176
     1
290
     0
176
     1
290
     0
176
     1
290
     0
176
     1
290
     0
176
     1
290
     0
176
     1
290
     0
176
     1
 90
       50
176
     1
 40
0.0
176
     1
 40
1.0
176
     1
 90
        0
176
     1
 62
    18
420
        0
176
     1
 90
       50
176
     1
 90
        3
176
     1
 62
     5
420
      255
176
     1
290
     0
176
     1
 90
       50
176
     1
 90
       50
176
     1
 90
       50
176
     1
290
     0
176
     1
 90
       50
176
     1
 62
   256
176
     0
 40
1.0
176
     0
 90
        2
176
     1
  1
strokes_ogs.tif
176
     1
290
     0
176
     1
 40
1.0
176
     1
 40
1.0
176
     1
  0
VISUALSTYLE
  5
35
102
{ACAD_REACTORS
330
2A
102
}
330
2A
100
AcDbVisualStyle
  2
Dim
 70
    11
177
     3
291
     1
 70
    58
 90
        2
176
     1
 90
        2
176
     1
 90
        0
176
     1
 90
        0
176
     1
 40
0.6
176
     1
 40
30.0
176
     1
 62
     7
420
 16777215
176
     1
 90
        1
176
     1
 90
        4
176
     1
 62
     7
176
     1
 62
   257
176
     1
 90
        1
176
     1
 90
        1
176
     1
 40
1.0
176
     1
 90
        8
176
     1
 62
     7
176
     1
 40
1.0
176
     1
 90
        1
176
     1
 90
        6
176
     1
 90
        2
176
     1
 62
     7
176
     1
 90
        5
176
     1
 90
        0
176
     1
 90
        0
176
     1
290
     0
176
     1
 90
        1
176
     1
 40
-50.0
176
     1
 90
        0
176
     1
290
     0
176
     1
290
     1
176
     1
290
     1
176
     1
290
     0
176
     1
290
     0
176
     1
290
     0
176
     1
290
     0
176
     1
290
     0
176
     1
290
     0
176
     1
 90
       50
176
     1
 40
0.0
176
     1
 40
1.0
176
     1
 90
        0
176
     1
 62
    18
420
        0
176
     1
 90
       50
176
     1
 90
        3
176
     1
 62
     5
420
      255
176
     1
290
     0
176
     1
 90
       50
176
     1
 90
       50
176
     1
 90
       50
176
     1
290
     0
176
     1
 90
       50
176
     1
 62
   256
176
     0
 40
1.0
176
     0
 90
        2
176
     1
  1
strokes_ogs.tif
176
     1
290
     0
176
     1
 40
1.0
176
     1
 40
1.0
176
     1
  0
VISUALSTYLE
  5
3D
102
{ACAD_REACTORS
330
2A
102
}
330
2A
100
AcDbVisualStyle
  2
EdgeColorOff
 70
    22
177
     3
291
     1
 70
    58
 90
        2
176
     0
 90
        2
176
     0
 90
        0
176
     0
 90
        0
176
     0
 40
0.6
176
     0
 40
30.0
176
     0
 62
     7
420
 16777215
176
     0
 90
        1
176
     0
 90
        4
176
     0
 62
     7
176
     0
 62
   257
176
     0
 90
        1
176
     0
 90
        1
176
     0
 40
1.0
176
     0
 90
        8
176
     2
 62
     7
176
     0
 40
1.0
176
     0
 90
        1
176
     0
 90
        6
176
     0
 90
        2
176
     0
 62
     7
176
     0
 90
        5
176
     0
 90
        0
176
     0
 90
        0
176
     0
290
     0
176
     0
 90
        1
176
     0
 40
0.0
176
     0
 90
        0
176
     0
290
     0
176
     0
290
     1
176
     0
290
     1
176
     0
290
     0
176
     0
290
     0
176
     0
290
     0
176
     0
290
     0
176
     0
290
     0
176
     0
290
     0
176
     0
 90
       50
176
     0
 40
0.0
176
     0
 40
1.0
176
     0
 90
        0
176
     0
 62
    18
420
        0
176
     0
 90
       50
176
     0
 90
        3
176
     0
 62
     5
420
      255
176
     0
290
     0
176
     0
 90
       50
176
     0
 90
       50
176
     0
 90
       50
176
     0
290
     0
176
     0
 90
       50
176
     0
 62
   256
176
     0
 40
1.0
176
     0
 90
        2
176
     0
  1
strokes_ogs.tif
176
     0
290
     0
176
     0
 40
1.0
176
     0
 40
1.0
176
     0
  0
VISUALSTYLE
  5
39
102
{ACAD_REACTORS
330
2A
102
}
330
2A
100
AcDbVisualStyle
  2
Facepattern
 70
    15
177
     3
291
     1
 70
    58
 90
        2
176
     1
 90
        2
176
     1
 90
        0
176
     1
 90
        0
176
     1
 40
0.6
176
     1
 40
30.0
176
     1
 62
     7
420
 16777215
176
     1
 90
        1
176
     1
 90
        4
176
     1
 62
     7
176
     1
 62
   257
176
     1
 90
        1
176
     1
 90
        1
176
     1
 40
1.0
176
     1
 90
        8
176
     1
 62
     7
176
     1
 40
1.0
176
     1
 90
        1
176
     1
 90
        6
176
     1
 90
        2
176
     1
 62
     7
176
     1
 90
        5
176
     1
 90
        0
176
     1
 90
        0
176
     1
290
     0
176
     1
 90
        1
176
     1
 40
0.0
176
     1
 90
        0
176
     1
290
     0
176
     1
290
     1
176
     1
290
     1
176
     1
290
     0
176
     1
290
     0
176
     1
290
     0
176
     1
290
     0
176
     1
290
     0
176
     1
290
     0
176
     1
 90
       50
176
     1
 40
0.0
176
     1
 40
1.0
176
     1
 90
        0
176
     1
 62
    18
420
        0
176
     1
 90
       50
176
     1
 90
        3
176
     1
 62
     5
420
      255
176
     1
290
     0
176
     1
 90
       50
176
     1
 90
       50
176
     1
 90
       50
176
     1
290
     0
176
     1
 90
       50
176
     1
 62
   256
176
     0
 40
1.0
176
     0
 90
        2
176
     1
  1
strokes_ogs.tif
176
     1
290
     0
176
     1
 40
1.0
176
     1
 40
1.0
176
     1
  0
VISUALSTYLE
  5
2B
102
{ACAD_REACTORS
330
2A
102
}
330
2A
100
AcDbVisualStyle
  2
Flat
 70
     0
177
     3
291
     1
 70
    58
 90
        2
176
     1
 90
        1
176
     1
 90
        1
176
     1
 90
        2
176
     1
 40
0.6
176
     1
 40
30.0
176
     1
 62
     7
420
 16777215
176
     1
 90
        0
176
     1
 90
        0
176
     1
 62
     7
176
     1
 62
   257
176
     1
 90
        1
176
     1
 90
        1
176
     1
 40
1.0
176
     1
 90
        8
176
     1
 62
     7
176
     1
 40
1.0
176
     1
 90
        1
176
     1
 90
        6
176
     1
 90
        2
176
     1
 62
     7
176
     1
 90
        5
176
     1
 90
        0
176
     1
 90
        0
176
     1
290
     0
176
     1
 90
       13
176
     1
 40
0.0
176
     1
 90
        0
176
     1
290
     0
176
     1
290
     1
176
     1
290
     1
176
     1
290
     0
176
     1
290
     0
176
     1
290
     0
176
     1
290
     0
176
     1
290
     0
176
     1
290
     0
176
     1
 90
       50
176
     1
 40
0.0
176
     1
 40
1.0
176
     1
 90
        0
176
     1
 62
    18
420
        0
176
     1
 90
       50
176
     1
 90
        3
176
     1
 62
     5
420
      255
176
     1
290
     0
176
     1
 90
       50
176
     1
 90
       50
176
     1
 90
       50
176
     1
290
     0
176
     1
 90
       50
176
     1
 62
   256
176
     0
 40
1.0
176
     0
 90
        2
176
     1
  1
strokes_ogs.tif
176
     1
290
     0
176
     1
 40
1.0
176
     1
 40
1.0
176
     1
  0
VISUALSTYLE
  5
2C
102
{ACAD_REACTORS
330
2A
102
}
330
2A
100
AcDbVisualStyle
  2
FlatWithEdges
 70
     1
177
     3
291
     1
 70
    58
 90
        2
176
     1
 90
        1
176
     1
 90
        1
176
     1
 90
        2
176
     1
 40
0.6
176
     1
 40
30.0
176
     1
 62
     7
420
 16777215
176
     1
 90
        1
176
     1
 90
        0
176
     1
 62
     7
176
     1
 62
   257
176
     1
 90
        1
176
     1
 90
        1
176
     1
 40
1.0
176
     1
 90
        0
176
     1
 62
   257
176
     1
 40
1.0
176
     1
 90
        1
176
     1
 90
        6
176
     1
 90
        2
176
     1
 62
     7
176
     1
 90
        5
176
     1
 90
        0
176
     1
 90
        0
176
     1
290
     0
176
     1
 90
       13
176
     1
 40
0.0
176
     1
 90
        0
176
     1
290
     0
176
     1
290
     1
176
     1
290
     1
176
     1
290
     0
176
     1
290
     0
176
     1
290
     0
176
     1
290
     0
176
     1
290
     0
176
     1
290
     0
176
     1
 90
       50
176
     1
 40
0.0
176
     1
 40
1.0
176
     1
 90
        0
176
     1
 62
    18
420
        0
176
     1
 90
       50
176
     1
 90
        3
176
     1
 62
     5
420
      255
176
     1
290
     0
176
     1
 90
       50
176
     1
 90
       50
176
     1
 90
       50
176
     1
290
     0
176
     1
 90
       50
176
     1
 62
   256
176
     0
 40
1.0
176
     0
 90
        2
176
     1
  1
strokes_ogs.tif
176
     1
290
     0
176
     1
 40
1.0
176
     1
 40
1.0
176
     1
  0
VISUALSTYLE
  5
2D
102
{ACAD_REACTORS
330
2A
102
}
330
2A
100
AcDbVisualStyle
  2
Gouraud
 70
     2
177
     3
291
     1
 70
    58
 90
        2
176
     1
 90
        2
176
     1
 90
        1
176
     1
 90
        2
176
     1
 40
0.6
176
     1
 40
30.0
176
     1
 62
     7
420
 16777215
176
     1
 90
        0
176
     1
 90
        0
176
     1
 62
     7
176
     1
 62
   257
176
     1
 90
        1
176
     1
 90
        1
176
     1
 40
1.0
176
     1
 90
        0
176
     1
 62
     7
176
     1
 40
1.0
176
     1
 90
        1
176
     1
 90
        6
176
     1
 90
        2
176
     1
 62
     7
176
     1
 90
        5
176
     1
 90
        0
176
     1
 90
        0
176
     1
290
     0
176
     1
 90
       13
176
     1
 40
0.0
176
     1
 90
        0
176
     1
290
     0
176
     1
290
     1
176
     1
290
     1
176
     1
290
     0
176
     1
290
     0
176
     1
290
     0
176
     1
290
     0
176
     1
290
     0
176
     1
290
     0
176
     1
 90
       50
176
     1
 40
0.0
176
     1
 40
1.0
176
     1
 90
        0
176
     1
 62
    18
420
        0
176
     1
 90
       50
176
     1
 90
        3
176
     1
 62
     5
420
      255
176
     1
290
     0
176
     1
 90
       50
176
     1
 90
       50
176
     1
 90
       50
176
     1
290
     0
176
     1
 90
       50
176
     1
 62
   256
176
     0
 40
1.0
176
     0
 90
        2
176
     1
  1
strokes_ogs.tif
176
     1
290
     0
176
     1
 40
1.0
176
     1
 40
1.0
176
     1
  0
VISUALSTYLE
  5
2E
102
{ACAD_REACTORS
330
2A
102
}
330
2A
100
AcDbVisualStyle
  2
GouraudWithEdges
 70
     3
177
     3
291
     1
 70
    58
 90
        2
176
     1
 90
        2
176
     1
 90
        1
176
     1
 90
        2
176
     1
 40
0.6
176
     1
 40
30.0
176
     1
 62
     7
420
 16777215
176
     1
 90
        1
176
     1
 90
        0
176
     1
 62
     7
176
     1
 62
   257
176
     1
 90
        1
176
     1
 90
        1
176
     1
 40
1.0
176
     1
 90
        0
176
     1
 62
   257
176
     1
 40
1.0
176
     1
 90
        1
176
     1
 90
        6
176
     1
 90
        2
176
     1
 62
     7
176
     1
 90
        5
176
     1
 90
        0
176
     1
 90
        0
176
     1
290
     0
176
     1
 90
       13
176
     1
 40
0.0
176
     1
 90
        0
176
     1
290
     0
176
     1
290
     1
176
     1
290
     1
176
     1
290
     0
176
     1
290
     0
176
     1
290
     0
176
     1
290
     0
176
     1
290
     0
176
     1
290
     0
176
     1
 90
       50
176
     1
 40
0.0
176
     1
 40
1.0
176
     1
 90
        0
176
     1
 62
    18
420
        0
176
     1
 90
       50
176
     1
 90
        3
176
     1
 62
     5
420
      255
176
     1
290
     0
176
     1
 90
       50
176
     1
 90
       50
176
     1
 90
       50
176
     1
290
     0
176
     1
 90
       50
176
     1
 62
   256
176
     0
 40
1.0
176
     0
 90
        2
176
     1
  1
strokes_ogs.tif
176
     1
290
     0
176
     1
 40
1.0
176
     1
 40
1.0
176
     1
  0
VISUALSTYLE
  5
31
102
{ACAD_REACTORS
330
2A
102
}
330
2A
100
AcDbVisualStyle
  2
Hidden
 70
     6
177
     3
291
     0
 70
    58
 90
        1
176
     1
 90
        2
176
     1
 90
        2
176
     1
 90
        0
176
     1
 40
0.6
176
     1
 40
30.0
176
     1
 62
     7
420
 16777215
176
     1
 90
        2
176
     1
 90
        2
176
     1
 62
     7
176
     1
 62
   257
176
     1
 90
        2
176
     1
 90
        1
176
     1
 40
40.0
176
     1
 90
        0
176
     1
 62
   257
176
     1
 40
1.0
176
     1
 90
        1
176
     1
 90
        6
176
     1
 90
        2
176
     1
 62
     7
176
     1
 90
        3
176
     1
 90
        0
176
     1
 90
        0
176
     1
290
     0
176
     1
 90
        1
176
     1
 40
0.0
176
     1
 90
        0
176
     1
290
     0
176
     1
290
     1
176
     1
290
     1
176
     1
290
     0
176
     1
290
     0
176
     1
290
     0
176
     1
290
     0
176
     1
290
     0
176
     1
290
     0
176
     1
 90
       50
176
     1
 40
0.0
176
     1
 40
1.0
176
     1
 90
        0
176
     1
 62
    18
420
        0
176
     1
 90
       50
176
     1
 90
        3
176
     1
 62
     5
420
      255
176
     1
290
     0
176
     1
 90
       50
176
     1
 90
       50
176
     1
 90
       50
176
     1
290
     0
176
     1
 90
       50
176
     1
 62
   256
176
     0
 40
1.0
176
     0
 90
        2
176
     1
  1
strokes_ogs.tif
176
     1
290
     0
176
     1
 40
1.0
176
     1
 40
1.0
176
     1
  0
VISUALSTYLE
  5
3B
102
{ACAD_REACTORS
330
2A
102
}
330
2A
100
AcDbVisualStyle
  2
JitterOff
 70
    20
177
     3
291
     1
 70
    58
 90
        2
176
     0
 90
        2
176
     0
 90
        0
176
     0
 90
        0
176
     0
 40
0.6
176
     0
 40
30.0
176
     0
 62
     7
420
 16777215
176
     0
 90
        1
176
     0
 90
        4
176
     0
 62
     7
176
     0
 62
   257
176
     0
 90
        1
176
     0
 90
        1
176
     0
 40
1.0
176
     0
 90
       10
176
     2
 62
     7
176
     0
 40
1.0
176
     0
 90
        1
176
     0
 90
        6
176
     0
 90
        2
176
     0
 62
     7
176
     0
 90
        5
176
     0
 90
        0
176
     0
 90
        0
176
     0
290
     0
176
     0
 90
        1
176
     0
 40
0.0
176
     0
 90
        0
176
     0
290
     0
176
     0
290
     1
176
     0
290
     1
176
     0
290
     0
176
     0
290
     0
176
     0
290
     0
176
     0
290
     0
176
     0
290
     0
176
     0
290
     0
176
     0
 90
       50
176
     0
 40
0.0
176
     0
 40
1.0
176
     0
 90
        0
176
     0
 62
    18
420
        0
176
     0
 90
       50
176
     0
 90
        3
176
     0
 62
     5
420
      255
176
     0
290
     0
176
     0
 90
       50
176
     0
 90
       50
176
     0
 90
       50
176
     0
290
     0
176
     0
 90
       50
176
     0
 62
   256
176
     0
 40
1.0
176
     0
 90
        2
176
     0
  1
strokes_ogs.tif
176
     0
290
     0
176
     0
 40
1.0
176
     0
 40
1.0
176
     0
  0
VISUALSTYLE
  5
38
102
{ACAD_REACTORS
330
2A
102
}
330
2A
100
AcDbVisualStyle
  2
Linepattern
 70
    14
177
     3
291
     1
 70
    58
 90
        2
176
     1
 90
        2
176
     1
 90
        0
176
     1
 90
        0
176
     1
 40
0.6
176
     1
 40
30.0
176
     1
 62
     7
420
 16777215
176
     1
 90
        1
176
     1
 90
        4
176
     1
 62
     7
176
     1
 62
   257
176
     1
 90
        7
176
     1
 90
        7
176
     1
 40
1.0
176
     1
 90
        8
176
     1
 62
     7
176
     1
 40
1.0
176
     1
 90
        1
176
     1
 90
        6
176
     1
 90
        2
176
     1
 62
     7
176
     1
 90
        5
176
     1
 90
        0
176
     1
 90
        0
176
     1
290
     0
176
     1
 90
        1
176
     1
 40
0.0
176
     1
 90
        0
176
     1
290
     0
176
     1
290
     1
176
     1
290
     1
176
     1
290
     0
176
     1
290
     0
176
     1
290
     0
176
     1
290
     0
176
     1
290
     0
176
     1
290
     0
176
     1
 90
       50
176
     1
 40
0.0
176
     1
 40
1.0
176
     1
 90
        0
176
     1
 62
    18
420
        0
176
     1
 90
       50
176
     1
 90
        3
176
     1
 62
     5
420
      255
176
     1
290
     0
176
     1
 90
       50
176
     1
 90
       50
176
     1
 90
       50
176
     1
290
     0
176
     1
 90
       50
176
     1
 62
   256
176
     0
 40
1.0
176
     0
 90
        2
176
     1
  1
strokes_ogs.tif
176
     1
290
     0
176
     1
 40
1.0
176
     1
 40
1.0
176
     1
  0
VISUALSTYLE
  5
3C
102
{ACAD_REACTORS
330
2A
102
}
330
2A
100
AcDbVisualStyle
  2
OverhangOff
 70
    21
177
     3
291
     1
 70
    58
 90
        2
176
     0
 90
        2
176
     0
 90
        0
176
     0
 90
        0
176
     0
 40
0.6
176
     0
 40
30.0
176
     0
 62
     7
420
 16777215
176
     0
 90
        1
176
     0
 90
        4
176
     0
 62
     7
176
     0
 62
   257
176
     0
 90
        1
176
     0
 90
        1
176
     0
 40
1.0
176
     0
 90
        9
176
     2
 62
     7
176
     0
 40
1.0
176
     0
 90
        1
176
     0
 90
        6
176
     0
 90
        2
176
     0
 62
     7
176
     0
 90
        5
176
     0
 90
        0
176
     0
 90
        0
176
     0
290
     0
176
     0
 90
        1
176
     0
 40
0.0
176
     0
 90
        0
176
     0
290
     0
176
     0
290
     1
176
     0
290
     1
176
     0
290
     0
176
     0
290
     0
176
     0
290
     0
176
     0
290
     0
176
     0
290
     0
176
     0
290
     0
176
     0
 90
       50
176
     0
 40
0.0
176
     0
 40
1.0
176
     0
 90
        0
176
     0
 62
    18
420
        0
176
     0
 90
       50
176
     0
 90
        3
176
     0
 62
     5
420
      255
176
     0
290
     0
176
     0
 90
       50
176
     0
 90
       50
176
     0
 90
       50
176
     0
290
     0
176
     0
 90
       50
176
     0
 62
   256
176
     0
 40
1.0
176
     0
 90
        2
176
     0
  1
strokes_ogs.tif
176
     0
290
     0
176
     0
 40
1.0
176
     0
 40
1.0
176
     0
  0
VISUALSTYLE
  5
33
102
{ACAD_REACTORS
330
2A
102
}
330
2A
100
AcDbVisualStyle
  2
Realistic
 70
     8
177
     3
291
     0
 70
    58
 90
        2
176
     1
 90
        3
176
     1
 90
        0
176
     1
 90
        2
176
     1
 40
0.6
176
     1
 40
30.0
176
     1
 62
     7
420
 16777215
176
     1
 90
        0
176
     1
 90
        0
176
     1
 62
     7
176
     1
 62
   257
176
     1
 90
        1
176
     1
 90
        1
176
     1
 40
1.0
176
     1
 90
        8
176
     1
 62
   257
176
     1
 40
1.0
176
     1
 90
        1
176
     1
 90
        6
176
     1
 90
        2
176
     1
 62
     7
176
     1
 90
        3
176
     1
 90
        0
176
     1
 90
        0
176
     1
290
     0
176
     1
 90
       13
176
     1
 40
0.0
176
     1
 90
        0
176
     1
290
     0
176
     1
290
     1
176
     1
290
     1
176
     1
290
     0
176
     1
290
     0
176
     1
290
     0
176
     1
290
     0
176
     1
290
     0
176
     1
290
     0
176
     1
 90
       50
176
     1
 40
0.0
176
     1
 40
1.0
176
     1
 90
        0
176
     1
 62
    18
420
        0
176
     1
 90
       50
176
     1
 90
        3
176
     1
 62
     5
420
      255
176
     1
290
     0
176
     1
 90
       50
176
     1
 90
       50
176
     1
 90
       50
176
     1
290
     0
176
     1
 90
       50
176
     1
 62
   256
176
     0
 40
1.0
176
     0
 90
        2
176
     1
  1
strokes_ogs.tif
176
     1
290
     0
176
     1
 40
1.0
176
     1
 40
1.0
176
     1
  0
VISUALSTYLE
  5
42
102
{ACAD_REACTORS
330
2A
102
}
330
2A
100
AcDbVisualStyle
  2
Shaded
 70
    27
177
     3
291
     0
 70
    58
 90
        2
176
     1
 90
        2
176
     1
 90
        1
176
     1
 90
        2
176
     1
 40
0.6
176
     1
 40
30.0
176
     1
 62
     7
420
 16777215
176
     1
 90
        0
176
     1
 90
        4
176
     1
 62
     7
176
     1
 62
   257
176
     1
 90
        1
176
     1
 90
        1
176
     1
 40
1.0
176
     1
 90
        8
176
     1
 62
   257
176
     1
 40
1.0
176
     1
 90
        1
176
     1
 90
        6
176
     1
 90
        2
176
     1
 62
     8
420
  7895160
176
     1
 90
        3
176
     1
 90
        0
176
     1
 90
        0
176
     1
290
     0
176
     1
 90
        5
176
     1
 40
0.0
176
     1
 90
        0
176
     1
290
     0
176
     1
290
     1
176
     1
290
     1
176
     1
290
     0
176
     1
290
     0
176
     1
290
     0
176
     1
290
     0
176
     1
290
     0
176
     1
290
     0
176
     1
 90
       50
176
     1
 40
0.0
176
     1
 40
1.0
176
     1
 90
        0
176
     1
 62
    18
420
        0
176
     1
 90
       50
176
     1
 90
        3
176
     1
 62
     5
420
      255
176
     1
290
     0
176
     1
 90
       50
176
     1
 90
       50
176
     1
 90
       50
176
     1
290
     0
176
     1
 90
       50
176
     1
 62
   256
176
     0
 40
1.0
176
     0
 90
        2
176
     1
  1
strokes_ogs.tif
176
     1
290
     0
176
     1
 40
1.0
176
     1
 40
1.0
176
     1
  0
VISUALSTYLE
  5
41
102
{ACAD_REACTORS
330
2A
102
}
330
2A
100
AcDbVisualStyle
  2
Shaded with edges
 70
    26
177
     3
291
     0
 70
    58
 90
        2
176
     1
 90
        2
176
     1
 90
        1
176
     1
 90
        2
176
     1
 40
0.6
176
     1
 40
30.0
176
     1
 62
     7
420
 16777215
176
     1
 90
        1
176
     1
 90
       10
176
     1
 62
     7
176
     1
 62
   257
176
     1
 90
        2
176
     1
 90
        1
176
     1
 40
1.0
176
     1
 90
        8
176
     1
 62
   257
176
     1
 40
1.0
176
     1
 90
        1
176
     1
 90
        6
176
     1
 90
        2
176
     1
 62
     7
176
     1
 90
        3
176
     1
 90
        0
176
     1
 90
        0
176
     1
290
     0
176
     1
 90
        5
176
     1
 40
0.0
176
     1
 90
        0
176
     1
290
     0
176
     1
290
     1
176
     1
290
     1
176
     1
290
     0
176
     1
290
     0
176
     1
290
     0
176
     1
290
     0
176
     1
290
     0
176
     1
290
     0
176
     1
 90
       50
176
     1
 40
0.0
176
     1
 40
1.0
176
     1
 90
        0
176
     1
 62
    18
420
        0
176
     1
 90
       50
176
     1
 90
        3
176
     1
 62
     5
420
      255
176
     1
290
     0
176
     1
 90
       50
176
     1
 90
       50
176
     1
 90
       50
176
     1
290
     0
176
     1
 90
       50
176
     1
 62
   256
176
     0
 40
1.0
176
     0
 90
        2
176
     1
  1
strokes_ogs.tif
176
     1
290
     0
176
     1
 40
1.0
176
     1
 40
1.0
176
     1
  0
VISUALSTYLE
  5
3E
102
{ACAD_REACTORS
330
2A
102
}
330
2A
100
AcDbVisualStyle
  2
Shades of Gray
 70
    23
177
     3
291
     0
 70
    58
 90
        2
176
     1
 90
        2
176
     1
 90
        3
176
     1
 90
        0
176
     1
 40
0.6
176
     1
 40
30.0
176
     1
 62
     7
420
 16777215
176
     1
 90
        2
176
     1
 90
        2
176
     1
 62
     7
176
     1
 62
     7
176
     1
 90
        1
176
     1
 90
        1
176
     1
 40
40.0
176
     1
 90
        8
176
     1
 62
     7
176
     1
 40
1.0
176
     1
 90
        1
176
     1
 90
        6
176
     1
 90
        2
176
     1
 62
     7
176
     1
 90
        3
176
     1
 90
        0
176
     1
 90
        0
176
     1
290
     0
176
     1
 90
        1
176
     1
 40
0.0
176
     1
 90
        0
176
     1
290
     0
176
     1
290
     1
176
     1
290
     1
176
     1
290
     0
176
     1
290
     0
176
     1
290
     0
176
     1
290
     0
176
     1
290
     0
176
     1
290
     0
176
     1
 90
       50
176
     1
 40
0.0
176
     1
 40
1.0
176
     1
 90
        0
176
     1
 62
    18
420
        0
176
     1
 90
       50
176
     1
 90
        3
176
     1
 62
     5
420
      255
176
     1
290
     0
176
     1
 90
       50
176
     1
 90
       50
176
     1
 90
       50
176
     1
290
     0
176
     1
 90
       50
176
     1
 62
   256
176
     0
 40
1.0
176
     0
 90
        2
176
     1
  1
strokes_ogs.tif
176
     1
290
     0
176
     1
 40
1.0
176
     1
 40
1.0
176
     1
  0
VISUALSTYLE
  5
3F
102
{ACAD_REACTORS
330
2A
102
}
330
2A
100
AcDbVisualStyle
  2
Sketchy
 70
    24
177
     3
291
     0
 70
    58
 90
        1
176
     1
 90
        2
176
     1
 90
        2
176
     1
 90
        0
176
     1
 40
0.6
176
     1
 40
30.0
176
     1
 62
     7
420
 16777215
176
     1
 90
        2
176
     1
 90
        2
176
     1
 62
     7
176
     1
 62
     7
176
     1
 90
        1
176
     1
 90
        1
176
     1
 40
40.0
176
     1
 90
       11
176
     1
 62
     7
176
     1
 40
1.0
176
     1
 90
        1
176
     1
 90
        6
176
     1
 90
        2
176
     1
 62
     7
176
     1
 90
        6
176
     1
 90
        0
176
     1
 90
        0
176
     1
290
     0
176
     1
 90
        1
176
     1
 40
0.0
176
     1
 90
        0
176
     1
290
     0
176
     1
290
     1
176
     1
290
     1
176
     1
290
     0
176
     1
290
     0
176
     1
290
     0
176
     1
290
     0
176
     1
290
     0
176
     1
290
     0
176
     1
 90
       50
176
     1
 40
0.0
176
     1
 40
1.0
176
     1
 90
        0
176
     1
 62
    18
420
        0
176
     1
 90
       50
176
     1
 90
        3
176
     1
 62
     5
420
      255
176
     1
290
     0
176
     1
 90
       50
176
     1
 90
       50
176
     1
 90
       50
176
     1
290
     0
176
     1
 90
       50
176
     1
 62
   256
176
     0
 40
1.0
176
     0
 90
        2
176
     1
  1
strokes_ogs.tif
176
     1
290
     0
176
     1
 40
1.0
176
     1
 40
1.0
176
     1
  0
VISUALSTYLE
  5
37
102
{ACAD_REACTORS
330
2A
102
}
330
2A
100
AcDbVisualStyle
  2
Thicken
 70
    13
177
     3
291
     1
 70
    58
 90
        2
176
     1
 90
        2
176
     1
 90
        0
176
     1
 90
        0
176
     1
 40
0.6
176
     1
 40
30.0
176
     1
 62
     7
420
 16777215
176
     1
 90
        1
176
     1
 90
        4
176
     1
 62
     7
176
     1
 62
   257
176
     1
 90
        1
176
     1
 90
        1
176
     1
 40
1.0
176
     1
 90
       12
176
     1
 62
     7
176
     1
 40
1.0
176
     1
 90
        1
176
     1
 90
        6
176
     1
 90
        2
176
     1
 62
     7
176
     1
 90
        5
176
     1
 90
        0
176
     1
 90
        0
176
     1
290
     0
176
     1
 90
        1
176
     1
 40
0.0
176
     1
 90
        0
176
     1
290
     0
176
     1
290
     1
176
     1
290
     1
176
     1
290
     0
176
     1
290
     0
176
     1
290
     0
176
     1
290
     0
176
     1
290
     0
176
     1
290
     0
176
     1
 90
       50
176
     1
 40
0.0
176
     1
 40
1.0
176
     1
 90
        0
176
     1
 62
    18
420
        0
176
     1
 90
       50
176
     1
 90
        3
176
     1
 62
     5
420
      255
176
     1
290
     0
176
     1
 90
       50
176
     1
 90
       50
176
     1
 90
       50
176
     1
290
     0
176
     1
 90
       50
176
     1
 62
   256
176
     0
 40
1.0
176
     0
 90
        2
176
     1
  1
strokes_ogs.tif
176
     1
290
     0
176
     1
 40
1.0
176
     1
 40
1.0
176
     1
  0
VISUALSTYLE
  5
30
102
{ACAD_REACTORS
330
2A
102
}
330
2A
100
AcDbVisualStyle
  2
Wireframe
 70
     5
177
     3
291
     0
 70
    58
 90
        0
176
     1
 90
        2
176
     1
 90
        0
176
     1
 90
        0
176
     1
 40
0.6
176
     1
 40
30.0
176
     1
 62
     7
420
 16777215
176
     1
 90
        1
176
     1
 90
        4
176
     1
 62
     7
176
     1
 62
   257
176
     1
 90
        1
176
     1
 90
        1
176
     1
 40
1.0
176
     1
 90
        0
176
     1
 62
   257
176
     1
 40
1.0
176
     1
 90
        1
176
     1
 90
        6
176
     1
 90
        2
176
     1
 62
     7
176
     1
 90
        3
176
     1
 90
        0
176
     1
 90
        0
176
     1
290
     0
176
     1
 90
        1
176
     1
 40
0.0
176
     1
 90
        0
176
     1
290
     0
176
     1
290
     1
176
     1
290
     1
176
     1
290
     0
176
     1
290
     0
176
     1
290
     0
176
     1
290
     0
176
     1
290
     0
176
     1
290
     0
176
     1
 90
       50
176
     1
 40
0.0
176
     1
 40
1.0
176
     1
 90
        0
176
     1
 62
    18
420
        0
176
     1
 90
       50
176
     1
 90
        3
176
     1
 62
     5
420
      255
176
     1
290
     0
176
     1
 90
       50
176
     1
 90
       50
176
     1
 90
       50
176
     1
290
     0
176
     1
 90
       50
176
     1
 62
   256
176
     0
 40
1.0
176
     0
 90
        2
176
     1
  1
strokes_ogs.tif
176
     1
290
     0
176
     1
 40
1.0
176
     1
 40
1.0
176
     1
  0
VISUALSTYLE
  5
40
102
{ACAD_REACTORS
330
2A
102
}
330
2A
100
AcDbVisualStyle
  2
X-Ray
 70
    25
177
     3
291
     0
 70
    58
 90
        2
176
     1
 90
        2
176
     1
 90
        1
176
     1
 90
        1
176
     1
 40
0.5
176
     1
 40
30.0
176
     1
 62
     7
420
 16777215
176
     1
 90
        1
176
     1
 90
        0
176
     1
 62
     7
176
     1
 62
   257
176
     1
 90
        1
176
     1
 90
        1
176
     1
 40
1.0
176
     1
 90
        8
176
     1
 62
     7
176
     1
 40
1.0
176
     1
 90
        1
176
     1
 90
        6
176
     1
 90
        2
176
     1
 62
     7
176
     1
 90
        3
176
     1
 90
        0
176
     1
 90
        0
176
     1
290
     0
176
     1
 90
       13
176
     1
 40
0.0
176
     1
 90
        0
176
     1
290
     0
176
     1
290
     1
176
     1
290
     1
176
     1
290
     0
176
     1
290
     0
176
     1
290
     0
176
     1
290
     0
176
     1
290
     0
176
     1
290
     0
176
     1
 90
       50
176
     1
 40
0.0
176
     1
 40
1.0
176
     1
 90
        0
176
     1
 62
    18
420
        0
176
     1
 90
       50
176
     1
 90
        3
176
     1
 62
     5
420
      255
176
     1
290
     0
176
     1
 90
       50
176
     1
 90
       50
176
     1
 90
       50
176
     1
290
     0
176
     1
 90
       50
176
     1
 62
   256
176
     0
 40
1.0
176
     0
 90
        2
176
     1
  1
strokes_ogs.tif
176
     1
290
     0
176
     1
 40
1.0
176
     1
 40
1.0
176
     1
  0
DICTIONARYVAR
  5
169
102
{ACAD_REACTORS
330
168
102
}
330
168
100
DictionaryVariables
280
     0
  1
1:1
  0
DICTIONARYVAR
  5
16E
102
{ACAD_REACTORS
330
168
102
}
330
168
100
DictionaryVariables
280
     0
  1
Standard
  0
DICTIONARYVAR
  5
16D
102
{ACAD_REACTORS
330
168
102
}
330
168
100
DictionaryVariables
280
     0
  1
Standard
  0
DICTIONARY
  5
16A
330
6A
100
AcDbDictionary
280
     1
281
     1
  3
ACAD_ROUNDTRIP_2008_TABLESTYLE_CELLSTYLEMAP
360
16B
  0
CELLSTYLEMAP
  5
16B
102
{ACAD_REACTORS
330
16A
102
}
330
16A
100
AcDbCellStyleMap
 90
        3
300
CELLSTYLE
  1
TABLEFORMAT_BEGIN
 90
        5
170
     1
 91
        0
 92
    32768
 62
   257
 93
        1
300
CONTENTFORMAT
  1
CONTENTFORMAT_BEGIN
 90
        0
 91
        0
 92
        4
 93
        0
300

 40
0.0
140
1.0
 94
        5
 62
     0
340
11
144
0.25
309
CONTENTFORMAT_END
171
     1
301
MARGIN
  1
CELLMARGIN_BEGIN
 40
0.06
 40
0.06
 40
0.06
 40
0.06
 40
0.06
 40
0.06
309
CELLMARGIN_END
 94
        6
 95
        1
302
GRIDFORMAT
  1
GRIDFORMAT_BEGIN
 90
        0
 91
        1
 62
     0
 92
       -2
340
14
 93
        0
 40
0.045
309
GRIDFORMAT_END
 95
        2
302
GRIDFORMAT
  1
GRIDFORMAT_BEGIN
 90
        0
 91
        1
 62
     0
 92
       -2
340
14
 93
        0
 40
0.045
309
GRIDFORMAT_END
 95
        4
302
GRIDFORMAT
  1
GRIDFORMAT_BEGIN
 90
        0
 91
        1
 62
     0
 92
       -2
340
14
 93
        0
 40
0.045
309
GRIDFORMAT_END
 95
        8
302
GRIDFORMAT
  1
GRIDFORMAT_BEGIN
 90
        0
 91
        1
 62
     0
 92
       -2
340
14
 93
        0
 40
0.045
309
GRIDFORMAT_END
 95
       16
302
GRIDFORMAT
  1
GRIDFORMAT_BEGIN
 90
        0
 91
        1
 62
     0
 92
       -2
340
14
 93
        0
 40
0.045
309
GRIDFORMAT_END
 95
       32
302
GRIDFORMAT
  1
GRIDFORMAT_BEGIN
 90
        0
 91
        1
 62
     0
 92
       -2
340
14
 93
        0
 40
0.045
309
GRIDFORMAT_END
309
TABLEFORMAT_END
  1
CELLSTYLE_BEGIN
 90
        1
 91
        1
300
_TITLE
309
CELLSTYLE_END
300
CELLSTYLE
  1
TABLEFORMAT_BEGIN
 90
        5
170
     1
 91
        0
 92
        0
 62
   257
 93
        1
300
CONTENTFORMAT
  1
CONTENTFORMAT_BEGIN
 90
        0
 91
        0
 92
        4
 93
        0
300

 40
0.0
140
1.0
 94
        5
 62
     0
340
11
144
0.18
309
CONTENTFORMAT_END
171
     1
301
MARGIN
  1
CELLMARGIN_BEGIN
 40
0.06
 40
0.06
 40
0.06
 40
0.06
 40
0.06
 40
0.06
309
CELLMARGIN_END
 94
        6
 95
        1
302
GRIDFORMAT
  1
GRIDFORMAT_BEGIN
 90
        0
 91
        1
 62
     0
 92
       -2
340
14
 93
        0
 40
0.045
309
GRIDFORMAT_END
 95
        2
302
GRIDFORMAT
  1
GRIDFORMAT_BEGIN
 90
        0
 91
        1
 62
     0
 92
       -2
340
14
 93
        0
 40
0.045
309
GRIDFORMAT_END
 95
        4
302
GRIDFORMAT
  1
GRIDFORMAT_BEGIN
 90
        0
 91
        1
 62
     0
 92
       -2
340
14
 93
        0
 40
0.045
309
GRIDFORMAT_END
 95
        8
302
GRIDFORMAT
  1
GRIDFORMAT_BEGIN
 90
        0
 91
        1
 62
     0
 92
       -2
340
14
 93
        0
 40
0.045
309
GRIDFORMAT_END
 95
       16
302
GRIDFORMAT
  1
GRIDFORMAT_BEGIN
 90
        0
 91
        1
 62
     0
 92
       -2
340
14
 93
        0
 40
0.045
309
GRIDFORMAT_END
 95
       32
302
GRIDFORMAT
  1
GRIDFORMAT_BEGIN
 90
        0
 91
        1
 62
     0
 92
       -2
340
14
 93
        0
 40
0.045
309
GRIDFORMAT_END
309
TABLEFORMAT_END
  1
CELLSTYLE_BEGIN
 90
        2
 91
        1
300
_HEADER
309
CELLSTYLE_END
300
CELLSTYLE
  1
TABLEFORMAT_BEGIN
 90
        5
170
     1
 91
        0
 92
        0
 62
   257
 93
        1
300
CONTENTFORMAT
  1
CONTENTFORMAT_BEGIN
 90
        0
 91
        0
 92
        4
 93
        0
300

 40
0.0
140
1.0
 94
        2
 62
     0
340
11
144
0.18
309
CONTENTFORMAT_END
171
     1
301
MARGIN
  1
CELLMARGIN_BEGIN
 40
0.06
 40
0.06
 40
0.06
 40
0.06
 40
0.06
 40
0.06
309
CELLMARGIN_END
 94
        6
 95
        1
302
GRIDFORMAT
  1
GRIDFORMAT_BEGIN
 90
        0
 91
        1
 62
     0
 92
       -2
340
14
 93
        0
 40
0.045
309
GRIDFORMAT_END
 95
        2
302
GRIDFORMAT
  1
GRIDFORMAT_BEGIN
 90
        0
 91
        1
 62
     0
 92
       -2
340
14
 93
        0
 40
0.045
309
GRIDFORMAT_END
 95
        4
302
GRIDFORMAT
  1
GRIDFORMAT_BEGIN
 90
        0
 91
        1
 62
     0
 92
       -2
340
14
 93
        0
 40
0.045
309
GRIDFORMAT_END
 95
        8
302
GRIDFORMAT
  1
GRIDFORMAT_BEGIN
 90
        0
 91
        1
 62
     0
 92
       -2
340
14
 93
        0
 40
0.045
309
GRIDFORMAT_END
 95
       16
302
GRIDFORMAT
  1
GRIDFORMAT_BEGIN
 90
        0
 91
        1
 62
     0
 92
       -2
340
14
 93
        0
 40
0.045
309
GRIDFORMAT_END
 95
       32
302
GRIDFORMAT
  1
GRIDFORMAT_BEGIN
 90
        0
 91
        1
 62
     0
 92
       -2
340
14
 93
        0
 40
0.045
309
GRIDFORMAT_END
309
TABLEFORMAT_END
  1
CELLSTYLE_BEGIN
 90
        3
 91
        2
300
_DATA
309
CELLSTYLE_END
  0
ENDSEC
  0
EOF