0
SECTION
  2
HEADER
  9
$ACADVER
  1
AC1027
  9
$ACADMAINTVER
 70
     8
  9
$DWGCODEPAGE
  3
ANSI_1252
  9
$REQUIREDVERSIONS
160
                 0
  9
$COMMENTS
  1
File was created by Cadenas
  9
$CUSTOMPROPERTYTAG
  1
NN
  9
$CUSTOMPROPERTY
  1
Set Screw Four-Bolt Flange Inch Bore - Polymer Housing, Corrosion Resistant Insert
  9
$CUSTOMPROPERTYTAG
  1
NT
  9
$CUSTOMPROPERTY
  1
SC 4 Bolt Flange Bearings -(Normal Duty) -Corrosion Resistant Insert -Polymer Housed -E-Z KLEEN
  9
$CUSTOMPROPERTYTAG
  1
NB
  9
$CUSTOMPROPERTY
  1
127519
  9
$CUSTOMPROPERTYTAG
  1
NBSYN
  9
$CUSTOMPROPERTY
  1
$PN.
  9
$CUSTOMPROPERTYTAG
  1
LINA
  9
$CUSTOMPROPERTY
  1
127519
  9
$CUSTOMPROPERTYTAG
  1
SERIES
  9
$CUSTOMPROPERTY
  1
207
  9
$CUSTOMPROPERTYTAG
  1
SS
  9
$CUSTOMPROPERTY
  1
1-1/4
  9
$CUSTOMPROPERTYTAG
  1
PN
  9
$CUSTOMPROPERTY
  1
127519
  9
$CUSTOMPROPERTYTAG
  1
DESCRIPTION
  9
$CUSTOMPROPERTY
  1
F4B-SCEZ-104-PCR
  9
$CUSTOMPROPERTYTAG
  1
WEIGHT
  9
$CUSTOMPROPERTY
  1
1.40
  9
$CUSTOMPROPERTYTAG
  1
A
  9
$CUSTOMPROPERTY
  1
1.71
  9
$CUSTOMPROPERTYTAG
  1
B
  9
$CUSTOMPROPERTY
  1
4.65
  9
$CUSTOMPROPERTYTAG
  1
C
  9
$CUSTOMPROPERTY
  1
1.84
  9
$CUSTOMPROPERTYTAG
  1
D
  9
$CUSTOMPROPERTY
  1
3.63
  9
$CUSTOMPROPERTYTAG
  1
F
  9
$CUSTOMPROPERTY
  1
1/2
  9
$CUSTOMPROPERTYTAG
  1
H
  9
$CUSTOMPROPERTY
  1
0.62
  9
$CUSTOMPROPERTYTAG
  1
J
  9
$CUSTOMPROPERTY
  1
0.53
  9
$CUSTOMPROPERTYTAG
  1
L
  9
$CUSTOMPROPERTY
  1
1.84
  9
$CUSTOMPROPERTYTAG
  1
COMPANY
  9
$CUSTOMPROPERTY
  1
baldor
  9
$INSBASE
 10
0.0
 20
0.0
 30
0.0
  9
$EXTMIN
 10
1.000000000000000E+20
 20
1.000000000000000E+20
 30
1.000000000000000E+20
  9
$EXTMAX
 10
-1.000000000000000E+20
 20
-1.000000000000000E+20
 30
-1.000000000000000E+20
  9
$LIMMIN
 10
0.0
 20
0.0
  9
$LIMMAX
 10
12.0
 20
9.0
  9
$ORTHOMODE
 70
     0
  9
$REGENMODE
 70
     1
  9
$FILLMODE
 70
     1
  9
$QTEXTMODE
 70
     0
  9
$MIRRTEXT
 70
     1
  9
$LTSCALE
 40
1.0
  9
$ATTMODE
 70
     1
  9
$TEXTSIZE
 40
0.2
  9
$TRACEWID
 40
0.05
  9
$TEXTSTYLE
  7
Standard
  9
$CLAYER
  8
0
  9
$CELTYPE
  6
ByLayer
  9
$CECOLOR
 62
   256
  9
$CELTSCALE
 40
1.0
  9
$DISPSILH
 70
     0
  9
$DIMSCALE
 40
1.0
  9
$DIMASZ
 40
0.18
  9
$DIMEXO
 40
0.0625
  9
$DIMDLI
 40
0.38
  9
$DIMRND
 40
0.0
  9
$DIMDLE
 40
0.0
  9
$DIMEXE
 40
0.18
  9
$DIMTP
 40
0.0
  9
$DIMTM
 40
0.0
  9
$DIMTXT
 40
0.18
  9
$DIMCEN
 40
0.09
  9
$DIMTSZ
 40
0.0
  9
$DIMTOL
 70
     0
  9
$DIMLIM
 70
     0
  9
$DIMTIH
 70
     1
  9
$DIMTOH
 70
     1
  9
$DIMSE1
 70
     0
  9
$DIMSE2
 70
     0
  9
$DIMTAD
 70
     0
  9
$DIMZIN
 70
     0
  9
$DIMBLK
  1

  9
$DIMASO
 70
     1
  9
$DIMSHO
 70
     1
  9
$DIMPOST
  1

  9
$DIMAPOST
  1

  9
$DIMALT
 70
     0
  9
$DIMALTD
 70
     2
  9
$DIMALTF
 40
25.4
  9
$DIMLFAC
 40
1.0
  9
$DIMTOFL
 70
     0
  9
$DIMTVP
 40
0.0
  9
$DIMTIX
 70
     0
  9
$DIMSOXD
 70
     0
  9
$DIMSAH
 70
     0
  9
$DIMBLK1
  1

  9
$DIMBLK2
  1

  9
$DIMSTYLE
  2
Standard
  9
$DIMCLRD
 70
     0
  9
$DIMCLRE
 70
     0
  9
$DIMCLRT
 70
     0
  9
$DIMTFAC
 40
1.0
  9
$DIMGAP
 40
0.09
  9
$DIMJUST
 70
     0
  9
$DIMSD1
 70
     0
  9
$DIMSD2
 70
     0
  9
$DIMTOLJ
 70
     1
  9
$DIMTZIN
 70
     0
  9
$DIMALTZ
 70
     0
  9
$DIMALTTZ
 70
     0
  9
$DIMUPT
 70
     0
  9
$DIMDEC
 70
     4
  9
$DIMTDEC
 70
     4
  9
$DIMALTU
 70
     2
  9
$DIMALTTD
 70
     2
  9
$DIMTXSTY
  7
Standard
  9
$DIMAUNIT
 70
     0
  9
$DIMADEC
 70
     0
  9
$DIMALTRND
 40
0.0
  9
$DIMAZIN
 70
     0
  9
$DIMDSEP
 70
    46
  9
$DIMATFIT
 70
     3
  9
$DIMFRAC
 70
     0
  9
$DIMLDRBLK
  1

  9
$DIMLUNIT
 70
     2
  9
$DIMLWD
 70
    -2
  9
$DIMLWE
 70
    -2
  9
$DIMTMOVE
 70
     0
  9
$DIMFXL
 40
1.0
  9
$DIMFXLON
 70
     0
  9
$DIMJOGANG
 40
0.7853981633974483
  9
$DIMTFILL
 70
     0
  9
$DIMTFILLCLR
 70
     0
  9
$DIMARCSYM
 70
     0
  9
$DIMLTYPE
  6

  9
$DIMLTEX1
  6

  9
$DIMLTEX2
  6

  9
$DIMTXTDIRECTION
 70
     0
  9
$LUNITS
 70
     2
  9
$LUPREC
 70
     4
  9
$SKETCHINC
 40
0.1
  9
$FILLETRAD
 40
0.5
  9
$AUNITS
 70
     0
  9
$AUPREC
 70
     0
  9
$MENU
  1
.
  9
$ELEVATION
 40
0.0
  9
$PELEVATION
 40
0.0
  9
$THICKNESS
 40
0.0
  9
$LIMCHECK
 70
     0
  9
$CHAMFERA
 40
0.0
  9
$CHAMFERB
 40
0.0
  9
$CHAMFERC
 40
0.0
  9
$CHAMFERD
 40
0.0
  9
$SKPOLY
 70
     0
  9
$TDCREATE
 40
2458168.997711725
  9
$TDUCREATE
 40
2458168.956045058
  9
$TDUPDATE
 40
2458168.99771191
  9
$TDUUPDATE
 40
2458168.956045243
  9
$TDINDWG
 40
0.0000000116
  9
$TDUSRTIMER
 40
0.0000000116
  9
$USRTIMER
 70
     1
  9
$ANGBASE
 50
0.0
  9
$ANGDIR
 70
     0
  9
$PDMODE
 70
     0
  9
$PDSIZE
 40
0.0
  9
$PLINEWID
 40
0.0
  9
$SPLFRAME
 70
     0
  9
$SPLINETYPE
 70
     6
  9
$SPLINESEGS
 70
     8
  9
$HANDSEED
  5
18C
  9
$SURFTAB1
 70
     6
  9
$SURFTAB2
 70
     6
  9
$SURFTYPE
 70
     6
  9
$SURFU
 70
     6
  9
$SURFV
 70
     6
  9
$UCSBASE
  2

  9
$UCSNAME
  2

  9
$UCSORG
 10
0.0
 20
0.0
 30
0.0
  9
$UCSXDIR
 10
1.0
 20
0.0
 30
0.0
  9
$UCSYDIR
 10
0.0
 20
1.0
 30
0.0
  9
$UCSORTHOREF
  2

  9
$UCSORTHOVIEW
 70
     0
  9
$UCSORGTOP
 10
0.0
 20
0.0
 30
0.0
  9
$UCSORGBOTTOM
 10
0.0
 20
0.0
 30
0.0
  9
$UCSORGLEFT
 10
0.0
 20
0.0
 30
0.0
  9
$UCSORGRIGHT
 10
0.0
 20
0.0
 30
0.0
  9
$UCSORGFRONT
 10
0.0
 20
0.0
 30
0.0
  9
$UCSORGBACK
 10
0.0
 20
0.0
 30
0.0
  9
$PUCSBASE
  2

  9
$PUCSNAME
  2

  9
$PUCSORG
 10
0.0
 20
0.0
 30
0.0
  9
$PUCSXDIR
 10
1.0
 20
0.0
 30
0.0
  9
$PUCSYDIR
 10
0.0
 20
1.0
 30
0.0
  9
$PUCSORTHOREF
  2

  9
$PUCSORTHOVIEW
 70
     0
  9
$PUCSORGTOP
 10
0.0
 20
0.0
 30
0.0
  9
$PUCSORGBOTTOM
 10
0.0
 20
0.0
 30
0.0
  9
$PUCSORGLEFT
 10
0.0
 20
0.0
 30
0.0
  9
$PUCSORGRIGHT
 10
0.0
 20
0.0
 30
0.0
  9
$PUCSORGFRONT
 10
0.0
 20
0.0
 30
0.0
  9
$PUCSORGBACK
 10
0.0
 20
0.0
 30
0.0
  9
$USERI1
 70
     0
  9
$USERI2
 70
     0
  9
$USERI3
 70
     0
  9
$USERI4
 70
     0
  9
$USERI5
 70
     0
  9
$USERR1
 40
0.0
  9
$USERR2
 40
0.0
  9
$USERR3
 40
0.0
  9
$USERR4
 40
0.0
  9
$USERR5
 40
0.0
  9
$WORLDVIEW
 70
     1
  9
$SHADEDGE
 70
     3
  9
$SHADEDIF
 70
    70
  9
$TILEMODE
 70
     1
  9
$MAXACTVP
 70
    64
  9
$PINSBASE
 10
0.0
 20
0.0
 30
0.0
  9
$PLIMCHECK
 70
     0
  9
$PEXTMIN
 10
1.000000000000000E+20
 20
1.000000000000000E+20
 30
1.000000000000000E+20
  9
$PEXTMAX
 10
-1.000000000000000E+20
 20
-1.000000000000000E+20
 30
-1.000000000000000E+20
  9
$PLIMMIN
 10
0.0
 20
0.0
  9
$PLIMMAX
 10
12.0
 20
9.0
  9
$UNITMODE
 70
     0
  9
$VISRETAIN
 70
     1
  9
$PLINEGEN
 70
     0
  9
$PSLTSCALE
 70
     1
  9
$TREEDEPTH
 70
  3020
  9
$CMLSTYLE
  2
Standard
  9
$CMLJUST
 70
     0
  9
$CMLSCALE
 40
1.0
  9
$PROXYGRAPHICS
 70
     1
  9
$MEASUREMENT
 70
     0
  9
$CELWEIGHT
370
    -1
  9
$ENDCAPS
280
     0
  9
$JOINSTYLE
280
     0
  9
$LWDISPLAY
290
     0
  9
$INSUNITS
 70
     1
  9
$HYPERLINKBASE
  1

  9
$STYLESHEET
  1

  9
$XEDIT
290
     1
  9
$CEPSNTYPE
380
     0
  9
$PSTYLEMODE
290
     1
  9
$FINGERPRINTGUID
  2
{430624FF-BFB7-467E-A9EE-C39E6235785A}
  9
$VERSIONGUID
  2
{FAEB1C32-E019-11D5-929B-00C0DF256EC4}
  9
$EXTNAMES
290
     1
  9
$PSVPSCALE
 40
0.0
  9
$OLESTARTUP
290
     0
  9
$SORTENTS
280
   127
  9
$INDEXCTL
280
     0
  9
$HIDETEXT
280
     1
  9
$XCLIPFRAME
280
     2
  9
$HALOGAP
280
     0
  9
$OBSCOLOR
 70
   257
  9
$OBSLTYPE
280
     0
  9
$INTERSECTIONDISPLAY
280
     0
  9
$INTERSECTIONCOLOR
 70
   257
  9
$DIMASSOC
280
     2
  9
$PROJECTNAME
  1

  9
$CAMERADISPLAY
290
     0
  9
$LENSLENGTH
 40
50.0
  9
$CAMERAHEIGHT
 40
0.0
  9
$STEPSPERSEC
 40
2.0
  9
$STEPSIZE
 40
6.0
  9
$3DDWFPREC
 40
2.0
  9
$PSOLWIDTH
 40
0.25
  9
$PSOLHEIGHT
 40
4.0
  9
$LOFTANG1
 40
1.570796326794897
  9
$LOFTANG2
 40
1.570796326794897
  9
$LOFTMAG1
 40
0.0
  9
$LOFTMAG2
 40
0.0
  9
$LOFTPARAM
 70
     7
  9
$LOFTNORMALS
280
     1
  9
$LATITUDE
 40
37.795
  9
$LONGITUDE
 40
-122.394
  9
$NORTHDIRECTION
 40
0.0
  9
$TIMEZONE
 70
 -8000
  9
$LIGHTGLYPHDISPLAY
280
     1
  9
$TILEMODELIGHTSYNCH
280
     1
  9
$CMATERIAL
347
44
  9
$SOLIDHIST
280
     0
  9
$SHOWHIST
280
     1
  9
$DWFFRAME
280
     2
  9
$DGNFRAME
280
     2
  9
$REALWORLDSCALE
290
     1
  9
$INTERFERECOLOR
 62
   256
  9
$CSHADOW
280
     0
  9
$SHADOWPLANELOCATION
 40
0.0
  0
ENDSEC
  0
SECTION
  2
CLASSES
  0
CLASS
  1
ACDBDICTIONARYWDFLT
  2
AcDbDictionaryWithDefault
  3
ObjectDBX Classes
 90
        0
 91
        4
280
     0
281
     0
  0
CLASS
  1
VISUALSTYLE
  2
AcDbVisualStyle
  3
ObjectDBX Classes
 90
     4095
 91
        4
280
     0
281
     0
  0
CLASS
  1
MATERIAL
  2
AcDbMaterial
  3
ObjectDBX Classes
 90
     1153
 91
        4
280
     0
281
     0
  0
CLASS
  1
SCALE
  2
AcDbScale
  3
ObjectDBX Classes
 90
     1153
 91
        4
280
     0
281
     0
  0
CLASS
  1
TABLESTYLE
  2
AcDbTableStyle
  3
ObjectDBX Classes
 90
     4095
 91
        4
280
     0
281
     0
  0
CLASS
  1
MLEADERSTYLE
  2
AcDbMLeaderStyle
  3
ACDB_MLEADERSTYLE_CLASS
 90
     4095
 91
        4
280
     0
281
     0
  0
CLASS
  1
SUN
  2
AcDbSun
  3
SCENEOE
 90
     1153
 91
        4
280
     0
281
     0
  0
CLASS
  1
DICTIONARYVAR
  2
AcDbDictionaryVar
  3
ObjectDBX Classes
 90
        0
 91
        4
280
     0
281
     0
  0
CLASS
  1
CELLSTYLEMAP
  2
AcDbCellStyleMap
  3
ObjectDBX Classes
 90
     1152
 91
        4
280
     0
281
     0
  0
ENDSEC
  0
SECTION
  2
TABLES
  0
TABLE
  2
VPORT
  5
8
330
0
100
AcDbSymbolTable
 70
     1
  0
VPORT
  5
29
330
8
100
AcDbSymbolTableRecord
100
AcDbViewportTableRecord
  2
*Active
 70
     0
 10
0.0
 20
0.0
 11
1.0
 21
1.0
 12
-0.9299999999999997
 22
0.0
 13
0.0
 23
0.0
 14
0.5
 24
0.5
 15
0.5
 25
0.5
 16
0.0
 26
0.0
 36
1.0
 17
0.0
 27
0.0
 37
0.0
 40
4.743
 41
0.4281720430107526
 42
50.0
 43
0.0
 44
0.0
 50
0.0
 51
0.0
 71
     0
 72
   100
 73
     1
 74
     3
 75
     0
 76
     0
 77
     0
 78
     0
281
     0
 65
     1
110
0.0
120
0.0
130
0.0
111
1.0
121
0.0
131
0.0
112
0.0
122
1.0
132
0.0
 79
     0
146
0.0
348
2F
 60
     3
 61
     5
292
     1
282
     1
141
0.0
142
0.0
 63
   250
361
6D
  0
ENDTAB
  0
TABLE
  2
LTYPE
  5
5
330
0
100
AcDbSymbolTable
 70
     3
  0
LTYPE
  5
14
330
5
100
AcDbSymbolTableRecord
100
AcDbLinetypeTableRecord
  2
ByBlock
 70
     0
  3

 72
    65
 73
     0
 40
0.0
  0
LTYPE
  5
15
330
5
100
AcDbSymbolTableRecord
100
AcDbLinetypeTableRecord
  2
ByLayer
 70
     0
  3

 72
    65
 73
     0
 40
0.0
  0
LTYPE
  5
16
330
5
100
AcDbSymbolTableRecord
100
AcDbLinetypeTableRecord
  2
Continuous
 70
     0
  3
Solid line
 72
    65
 73
     0
 40
0.0
  0
LTYPE
  5
98
330
5
100
AcDbSymbolTableRecord
100
AcDbLinetypeTableRecord
  2
Dashed
 70
     0
  3

 72
    65
 73
     2
 40
2.0
 49
1.0
 74
     0
 49
-1.0
 74
     0
  0
LTYPE
  5
A6
330
5
100
AcDbSymbolTableRecord
100
AcDbLinetypeTableRecord
  2
Center
 70
     0
  3

 72
    65
 73
     4
 40
1.5
 49
0.45
 74
     0
 49
-0.5
 74
     0
 49
0.05
 74
     0
 49
-0.5
 74
     0
  0
ENDTAB
  0
TABLE
  2
LAYER
  5
2
330
0
100
AcDbSymbolTable
 70
     7
  0
LAYER
  5
10
330
2
100
AcDbSymbolTableRecord
100
AcDbLayerTableRecord
  2
0
 70
     0
 62
     7
  6
Continuous
370
    -3
390
F
347
46
348
0
  0
LAYER
  5
72
330
2
100
AcDbSymbolTableRecord
100
AcDbLayerTableRecord
  2
AM_6
 70
     0
 62
    -2
  6
Continuous
370
    35
390
F
347
46
348
0
  0
LAYER
  5
99
330
2
100
AcDbSymbolTableRecord
100
AcDbLayerTableRecord
  2
AM_9
 70
     0
 62
     6
  6
Dashed
370
    25
390
F
347
46
348
0
  0
LAYER
  5
A0
330
2
100
AcDbSymbolTableRecord
100
AcDbLayerTableRecord
  2
AM_5
 70
     0
 62
     3
  6
Continuous
370
    25
390
F
347
46
348
0
  0
LAYER
  5
A7
330
2
100
AcDbSymbolTableRecord
100
AcDbLayerTableRecord
  2
AM_7
 70
     0
 62
     7
  6
Center
370
    25
390
F
347
46
348
0
  0
LAYER
  5
A9
330
2
100
AcDbSymbolTableRecord
100
AcDbLayerTableRecord
  2
AM_4
 70
     0
 62
     7
  6
Continuous
370
    50
390
F
347
46
348
0
  0
LAYER
  5
17E
330
2
100
AcDbSymbolTableRecord
100
AcDbLayerTableRecord
  2
ConnectionPoints
 70
     0
 62
     7
  6
Continuous
370
    50
390
F
347
46
348
0
  0
ENDTAB
  0
TABLE
  2
STYLE
  5
3
330
0
100
AcDbSymbolTable
 70
     1
  0
STYLE
  5
11
330
3
100
AcDbSymbolTableRecord
100
AcDbTextStyleTableRecord
  2
Standard
 70
     0
 40
0.0
 41
1.0
 50
0.0
 71
     0
 42
0.2
  3
txt
  4

  0
ENDTAB
  0
TABLE
  2
VIEW
  5
6
330
0
100
AcDbSymbolTable
 70
     0
  0
ENDTAB
  0
TABLE
  2
UCS
  5
7
330
0
100
AcDbSymbolTable
 70
     0
  0
ENDTAB
  0
TABLE
  2
APPID
  5
9
330
0
100
AcDbSymbolTable
 70
     1
  0
APPID
  5
12
330
9
100
AcDbSymbolTableRecord
100
AcDbRegAppTableRecord
  2
ACAD
 70
     0
  0
ENDTAB
  0
TABLE
  2
DIMSTYLE
  5
A
330
0
100
AcDbSymbolTable
 70
     1
100
AcDbDimStyleTable
  0
DIMSTYLE
105
27
330
A
100
AcDbSymbolTableRecord
100
AcDbDimStyleTableRecord
  2
Standard
 70
     0
178
     0
340
11
  0
ENDTAB
  0
TABLE
  2
BLOCK_RECORD
  5
1
330
0
100
AcDbSymbolTable
 70
     5
  0
BLOCK_RECORD
  5
1F
330
1
100
AcDbSymbolTableRecord
100
AcDbBlockTableRecord
  2
*Model_Space
340
22
 70
     0
280
     1
281
     0
  0
BLOCK_RECORD
  5
1B
330
1
100
AcDbSymbolTableRecord
100
AcDbBlockTableRecord
  2
*Paper_Space
340
1E
 70
     0
280
     1
281
     0
  0
BLOCK_RECORD
  5
23
330
1
100
AcDbSymbolTableRecord
100
AcDbBlockTableRecord
  2
*Paper_Space0
340
26
 70
     0
280
     1
281
     0
  0
BLOCK_RECORD
  5
6E
330
1
100
AcDbSymbolTableRecord
100
AcDbBlockTableRecord
  2
1_127519_2
340
0
102
{BLKREFS
331
6F
102
}
 70
     0
280
     1
281
     0
  0
BLOCK_RECORD
  5
86
330
1
100
AcDbSymbolTableRecord
100
AcDbBlockTableRecord
  2
2_405020c_Inch_0_in_127519_2
340
0
102
{BLKREFS
331
87
102
}
 70
     0
280
     1
281
     0
  0
BLOCK_RECORD
  5
D1
330
1
100
AcDbSymbolTableRecord
100
AcDbBlockTableRecord
  2
3_045412_0_in_127519_2
340
0
102
{BLKREFS
331
D2
102
}
 70
     0
280
     1
281
     0
  0
BLOCK_RECORD
  5
12F
330
1
100
AcDbSymbolTableRecord
100
AcDbBlockTableRecord
  2
4_127519H_0_in_127519_2
340
0
102
{BLKREFS
331
130
102
}
 70
     0
280
     1
281
     0
  0
ENDTAB
  0
ENDSEC
  0
SECTION
  2
BLOCKS
  0
BLOCK
  5
20
330
1F
100
AcDbEntity
  8
0
100
AcDbBlockBegin
  2
*Model_Space
 70
     0
 10
0.0
 20
0.0
 30
0.0
  3
*Model_Space
  1

  0
ENDBLK
  5
21
330
1F
100
AcDbEntity
  8
0
100
AcDbBlockEnd
  0
BLOCK
  5
1C
330
1B
100
AcDbEntity
 67
     1
  8
0
100
AcDbBlockBegin
  2
*Paper_Space
 70
     0
 10
0.0
 20
0.0
 30
0.0
  3
*Paper_Space
  1

  0
ENDBLK
  5
1D
330
1B
100
AcDbEntity
 67
     1
  8
0
100
AcDbBlockEnd
  0
BLOCK
  5
24
330
23
100
AcDbEntity
  8
0
100
AcDbBlockBegin
  2
*Paper_Space0
 70
     0
 10
0.0
 20
0.0
 30
0.0
  3
*Paper_Space0
  1

  0
ENDBLK
  5
25
330
23
100
AcDbEntity
  8
0
100
AcDbBlockEnd
  0
BLOCK
  5
70
330
6E
100
AcDbEntity
  8
0
100
AcDbBlockBegin
  2
1_127519_2
 70
     2
 10
0.0
 20
0.0
 30
0.0
  3
1_127519_2
  1

  0
ATTDEF
  5
73
330
6E
100
AcDbEntity
  8
AM_6
100
AcDbText
 10
5.0655
 20
2.325
 30
0.0
 40
0.5
  1
Set Screw Four-Bolt Flange Inch Bore - Polymer Housing, Corrosion Resistant Insert
100
AcDbAttributeDefinition
  3

  2
NN
 70
     8
280
     0
  0
ATTDEF
  5
74
330
6E
100
AcDbEntity
  8
AM_6
100
AcDbText
 10
5.0655
 20
1.825
 30
0.0
 40
0.5
  1
SC 4 Bolt Flange Bearings -(Normal Duty) -Corrosion Resistant Insert -Polymer Housed -E-Z KLEEN
100
AcDbAttributeDefinition
  3

  2
NT
 70
     8
280
     0
  0
ATTDEF
  5
75
330
6E
100
AcDbEntity
  8
AM_6
100
AcDbText
 10
5.0655
 20
1.325
 30
0.0
 40
0.5
  1
127519
100
AcDbAttributeDefinition
  3

  2
NB
 70
     8
280
     0
  0
ATTDEF
  5
76
330
6E
100
AcDbEntity
  8
AM_6
100
AcDbText
 10
5.0655
 20
0.8250000000000002
 30
0.0
 40
0.5
  1
$PN.
100
AcDbAttributeDefinition
  3

  2
NBSYN
 70
     8
280
     0
  0
ATTDEF
  5
77
330
6E
100
AcDbEntity
  8
AM_6
100
AcDbText
 10
5.0655
 20
0.3250000000000002
 30
0.0
 40
0.5
  1
127519
100
AcDbAttributeDefinition
  3

  2
LINA
 70
     8
280
     0
  0
ATTDEF
  5
78
330
6E
100
AcDbEntity
  8
AM_6
100
AcDbText
 10
5.0655
 20
-0.1749999999999998
 30
0.0
 40
0.5
  1
207
100
AcDbAttributeDefinition
  3

  2
SERIES
 70
     8
280
     0
  0
ATTDEF
  5
79
330
6E
100
AcDbEntity
  8
AM_6
100
AcDbText
 10
5.0655
 20
-0.6749999999999998
 30
0.0
 40
0.5
  1
1-1/4
100
AcDbAttributeDefinition
  3

  2
SS
 70
     8
280
     0
  0
ATTDEF
  5
7A
330
6E
100
AcDbEntity
  8
AM_6
100
AcDbText
 10
5.0655
 20
-1.175
 30
0.0
 40
0.5
  1
127519
100
AcDbAttributeDefinition
  3

  2
PN
 70
     8
280
     0
  0
ATTDEF
  5
7B
330
6E
100
AcDbEntity
  8
AM_6
100
AcDbText
 10
5.0655
 20
-1.675
 30
0.0
 40
0.5
  1
F4B-SCEZ-104-PCR
100
AcDbAttributeDefinition
  3

  2
DESCRIPTION
 70
     8
280
     0
  0
ATTDEF
  5
7C
330
6E
100
AcDbEntity
  8
AM_6
100
AcDbText
 10
5.0655
 20
-2.175
 30
0.0
 40
0.5
  1
1.40
100
AcDbAttributeDefinition
  3

  2
WEIGHT
 70
     8
280
     0
  0
ATTDEF
  5
7D
330
6E
100
AcDbEntity
  8
AM_6
100
AcDbText
 10
5.0655
 20
-2.675
 30
0.0
 40
0.5
  1
1.71
100
AcDbAttributeDefinition
  3

  2
A
 70
     8
280
     0
  0
ATTDEF
  5
7E
330
6E
100
AcDbEntity
  8
AM_6
100
AcDbText
 10
5.0655
 20
-3.175
 30
0.0
 40
0.5
  1
4.65
100
AcDbAttributeDefinition
  3

  2
B
 70
     8
280
     0
  0
ATTDEF
  5
7F
330
6E
100
AcDbEntity
  8
AM_6
100
AcDbText
 10
5.0655
 20
-3.675
 30
0.0
 40
0.5
  1
1.84
100
AcDbAttributeDefinition
  3

  2
C
 70
     8
280
     0
  0
ATTDEF
  5
80
330
6E
100
AcDbEntity
  8
AM_6
100
AcDbText
 10
5.0655
 20
-4.175
 30
0.0
 40
0.5
  1
3.63
100
AcDbAttributeDefinition
  3

  2
D
 70
     8
280
     0
  0
ATTDEF
  5
81
330
6E
100
AcDbEntity
  8
AM_6
100
AcDbText
 10
5.0655
 20
-4.675
 30
0.0
 40
0.5
  1
1/2
100
AcDbAttributeDefinition
  3

  2
F
 70
     8
280
     0
  0
ATTDEF
  5
82
330
6E
100
AcDbEntity
  8
AM_6
100
AcDbText
 10
5.0655
 20
-5.175
 30
0.0
 40
0.5
  1
0.62
100
AcDbAttributeDefinition
  3

  2
H
 70
     8
280
     0
  0
ATTDEF
  5
83
330
6E
100
AcDbEntity
  8
AM_6
100
AcDbText
 10
5.0655
 20
-5.675
 30
0.0
 40
0.5
  1
0.53
100
AcDbAttributeDefinition
  3

  2
J
 70
     8
280
     0
  0
ATTDEF
  5
84
330
6E
100
AcDbEntity
  8
AM_6
100
AcDbText
 10
5.0655
 20
-6.175
 30
0.0
 40
0.5
  1
1.84
100
AcDbAttributeDefinition
  3

  2
L
 70
     8
280
     0
  0
ATTDEF
  5
85
330
6E
100
AcDbEntity
  8
AM_6
100
AcDbText
 10
5.0655
 20
-6.675
 30
0.0
 40
0.5
  1
baldor
100
AcDbAttributeDefinition
  3

  2
COMPANY
 70
     8
280
     0
  0
INSERT
  5
87
330
6E
100
AcDbEntity
  8
0
100
AcDbBlockReference
  2
2_405020c_Inch_0_in_127519_2
 10
0.0
 20
0.0
 30
0.0
  0
INSERT
  5
D2
330
6E
100
AcDbEntity
  8
0
100
AcDbBlockReference
  2
3_045412_0_in_127519_2
 10
0.0
 20
0.0
 30
0.0
  0
INSERT
  5
130
330
6E
100
AcDbEntity
  8
0
100
AcDbBlockReference
  2
4_127519H_0_in_127519_2
 10
0.0
 20
0.0
 30
0.0
  0
ENDBLK
  5
71
330
6E
100
AcDbEntity
  8
0
100
AcDbBlockEnd
  0
BLOCK
  5
88
330
86
100
AcDbEntity
  8
0
100
AcDbBlockBegin
  2
2_405020c_Inch_0_in_127519_2
 70
     2
 10
0.0
 20
0.0
 30
0.0
  3
2_405020c_Inch_0_in_127519_2
  1

  0
ATTDEF
  5
8A
330
86
100
AcDbEntity
  8
AM_6
100
AcDbText
 10
4.197408630723042
 20
2.18725
 30
0.0
 40
0.5
  1
405020C -Inch
100
AcDbAttributeDefinition
  3

  2
NN
 70
     8
280
     0
  0
ATTDEF
  5
8B
330
86
100
AcDbEntity
  8
AM_6
100
AcDbText
 10
4.197408630723042
 20
1.68725
 30
0.0
 40
0.5
  1
Grease fitting
100
AcDbAttributeDefinition
  3

  2
NT
 70
     8
280
     0
  0
ATTDEF
  5
8C
330
86
100
AcDbEntity
  8
AM_6
100
AcDbText
 10
4.197408630723042
 20
1.18725
 30
0.0
 40
0.5
  1
405020c-Inch
100
AcDbAttributeDefinition
  3

  2
NB
 70
     8
280
     0
  0
ATTDEF
  5
8D
330
86
100
AcDbEntity
  8
AM_6
100
AcDbText
 10
4.197408630723042
 20
0.6872499999999997
 30
0.0
 40
0.5
  1
$MN.-Inch
100
AcDbAttributeDefinition
  3

  2
NBSYN
 70
     8
280
     0
  0
ATTDEF
  5
8E
330
86
100
AcDbEntity
  8
AM_6
100
AcDbText
 10
4.197408630723042
 20
0.1872499999999997
 30
0.0
 40
0.5
  1
405020c
100
AcDbAttributeDefinition
  3

  2
LINA
 70
     8
280
     0
  0
ATTDEF
  5
8F
330
86
100
AcDbEntity
  8
AM_6
100
AcDbText
 10
4.197408630723042
 20
-0.3127500000000003
 30
0.0
 40
0.5
  1
405020c
100
AcDbAttributeDefinition
  3

  2
MN
 70
     8
280
     0
  0
ATTDEF
  5
90
330
86
100
AcDbEntity
  8
AM_6
100
AcDbText
 10
4.197408630723042
 20
-0.8127500000000003
 30
0.0
 40
0.5
  1
0.230
100
AcDbAttributeDefinition
  3

  2
NDR
 70
     8
280
     0
  0
ATTDEF
  5
91
330
86
100
AcDbEntity
  8
AM_6
100
AcDbText
 10
4.197408630723042
 20
-1.31275
 30
0.0
 40
0.5
  1
0.210
100
AcDbAttributeDefinition
  3

  2
KDR
 70
     8
280
     0
  0
ATTDEF
  5
92
330
86
100
AcDbEntity
  8
AM_6
100
AcDbText
 10
4.197408630723042
 20
-1.81275
 30
0.0
 40
0.5
  1
0.157
100
AcDbAttributeDefinition
  3

  2
BZE
 70
     8
280
     0
  0
ATTDEF
  5
93
330
86
100
AcDbEntity
  8
AM_6
100
AcDbText
 10
4.197408630723042
 20
-2.31275
 30
0.0
 40
0.5
  1
9/32
100
AcDbAttributeDefinition
  3

  2
WAF
 70
     8
280
     0
  0
ATTDEF
  5
94
330
86
100
AcDbEntity
  8
AM_6
100
AcDbText
 10
4.197408630723042
 20
-2.81275
 30
0.0
 40
0.5
  1
0.2813
100
AcDbAttributeDefinition
  3

  2
WAF1
 70
     8
280
     0
  0
ATTDEF
  5
95
330
86
100
AcDbEntity
  8
AM_6
100
AcDbText
 10
4.197408630723042
 20
-3.31275
 30
0.0
 40
0.5
  1
0.545
100
AcDbAttributeDefinition
  3

  2
BL
 70
     8
280
     0
  0
ATTDEF
  5
96
330
86
100
AcDbEntity
  8
AM_6
100
AcDbText
 10
4.197408630723042
 20
-3.81275
 30
0.0
 40
0.5
  1
0.200
100
AcDbAttributeDefinition
  3

  2
TL
 70
     8
280
     0
  0
ATTDEF
  5
97
330
86
100
AcDbEntity
  8
AM_6
100
AcDbText
 10
4.197408630723042
 20
-4.31275
 30
0.0
 40
0.5
  1
baldor
100
AcDbAttributeDefinition
  3

  2
COMPANY
 70
     8
280
     0
  0
LINE
  5
9A
330
86
100
AcDbEntity
  8
AM_9
100
AcDbLine
 10
-0.8649113772963424
 20
1.615
 30
0.0
 11
-1.065088622703658
 21
1.615
 31
0.0
  0
LINE
  5
9B
330
86
100
AcDbEntity
  8
AM_9
100
AcDbLine
 10
-0.8649113772963424
 20
1.615
 30
0.0
 11
-0.854583740406011
 21
1.625327636890331
 31
0.0
  0
LINE
  5
9C
330
86
100
AcDbEntity
  8
AM_9
100
AcDbLine
 10
-1.075416259593989
 20
1.625327636890331
 30
0.0
 11
-1.065088622703658
 21
1.615
 31
0.0
  0
LINE
  5
9D
330
86
100
AcDbEntity
  8
AM_9
100
AcDbLine
 10
-0.854583740406011
 20
1.625327636890331
 30
0.0
 11
-1.075416259593989
 21
1.625327636890331
 31
0.0
  0
LINE
  5
9E
330
86
100
AcDbEntity
  8
AM_9
100
AcDbLine
 10
-0.854583740406011
 20
1.625327636890331
 30
0.0
 11
-0.848656182846723
 21
1.815
 31
0.0
  0
LINE
  5
9F
330
86
100
AcDbEntity
  8
AM_9
100
AcDbLine
 10
-1.081343817153277
 20
1.815
 30
0.0
 11
-1.075416259593989
 21
1.625327636890331
 31
0.0
  0
LINE
  5
A1
330
86
100
AcDbEntity
  8
AM_5
100
AcDbLine
 10
-1.070766386187875
 20
1.79667935215437
 30
0.0
 11
-1.065088622703658
 21
1.615
 31
0.0
  0
LINE
  5
A2
330
86
100
AcDbEntity
  8
AM_5
100
AcDbLine
 10
-1.081343817153277
 20
1.815
 30
0.0
 11
-1.070766386187875
 21
1.79667935215437
 31
0.0
  0
LINE
  5
A3
330
86
100
AcDbEntity
  8
AM_5
100
AcDbLine
 10
-0.84922873170333
 20
1.79667935215437
 30
0.0
 11
-1.08077126829667
 21
1.79667935215437
 31
0.0
  0
LINE
  5
A4
330
86
100
AcDbEntity
  8
AM_5
100
AcDbLine
 10
-0.8592336138121255
 20
1.79667935215437
 30
0.0
 11
-0.8649113772963424
 21
1.615
 31
0.0
  0
LINE
  5
A5
330
86
100
AcDbEntity
  8
AM_5
100
AcDbLine
 10
-0.848656182846723
 20
1.815
 30
0.0
 11
-0.8592336138121255
 21
1.79667935215437
 31
0.0
  0
LINE
  5
A8
330
86
100
AcDbEntity
  8
AM_7
100
AcDbLine
 10
-0.9650000000000001
 20
2.18725
 30
0.0
 11
-0.9650000000000001
 21
1.58775
 31
0.0
  0
LINE
  5
AA
330
86
100
AcDbEntity
  8
AM_4
100
AcDbLine
 10
-0.8243500000000004
 20
1.815
 30
0.0
 11
-0.8025913692769585
 21
1.820830207530646
 31
0.0
  0
LINE
  5
AB
330
86
100
AcDbEntity
  8
AM_4
100
AcDbLine
 10
-1.127408630723042
 20
1.820830207530646
 30
0.0
 11
-1.10565
 21
1.815
 31
0.0
  0
LINE
  5
AC
330
86
100
AcDbEntity
  8
AM_4
100
AcDbLine
 10
-0.8025913692769583
 20
1.875836459136021
 30
0.0
 11
-0.82435
 21
1.881666666666667
 31
0.0
  0
LINE
  5
AD
330
86
100
AcDbEntity
  8
AM_4
100
AcDbLine
 10
-1.10565
 20
1.881666666666667
 30
0.0
 11
-1.127408630723042
 21
1.875836459136021
 31
0.0
  0
LINE
  5
AE
330
86
100
AcDbEntity
  8
AM_4
100
AcDbLine
 10
-0.8841935702832721
 20
2.16
 30
0.0
 11
-1.045806429317522
 21
2.16
 31
0.0
  0
ARC
  5
AF
330
86
100
AcDbEntity
  8
AM_4
100
AcDbCircle
 10
-1.045806429716729
 20
2.135000000000001
 30
0.0
 40
0.0249999999999986
100
AcDbArc
 50
90.0
 51
157.0000000000015
  0
ARC
  5
B0
330
86
100
AcDbEntity
  8
AM_4
100
AcDbCircle
 10
-0.8841935702832713
 20
2.135000000000001
 30
0.0
 40
0.0249999999999991
100
AcDbArc
 50
22.99999999999939
 51
90.0
  0
ARC
  5
B1
330
86
100
AcDbEntity
  8
AM_4
100
AcDbCircle
 10
-1.109684789639099
 20
1.948342555146223
 30
0.0
 40
0.0500000000000001
100
AcDbArc
 50
315.0000000000002
 51
24.99999999999998
  0
ARC
  5
B2
330
86
100
AcDbEntity
  8
AM_4
100
AcDbCircle
 10
-0.8203152103609012
 20
1.948342555146223
 30
0.0
 40
0.0500000000000001
100
AcDbArc
 50
155.0000000000001
 51
224.9999999999998
  0
LINE
  5
B3
330
86
100
AcDbEntity
  8
AM_4
100
AcDbLine
 10
-0.8656305997127338
 20
1.969473468233258
 30
0.0
 11
-1.064369400287266
 21
1.969473468233258
 31
0.0
  0
LINE
  5
B4
330
86
100
AcDbEntity
  8
AM_4
100
AcDbLine
 10
-0.8656305997127338
 20
1.969473468233258
 30
0.0
 11
-0.8337580886531095
 21
2.037824288774639
 31
0.0
  0
LINE
  5
B5
330
86
100
AcDbEntity
  8
AM_4
100
AcDbLine
 10
-1.096241911346891
 20
2.037824288774639
 30
0.0
 11
-1.064369400287266
 21
1.969473468233258
 31
0.0
  0
LINE
  5
B6
330
86
100
AcDbEntity
  8
AM_4
100
AcDbLine
 10
-0.861180948946961
 20
2.144768278212232
 30
0.0
 11
-1.068819051053039
 21
2.144768278212232
 31
0.0
  0
LINE
  5
B7
330
86
100
AcDbEntity
  8
AM_4
100
AcDbLine
 10
-1.068819051053039
 20
2.144768278212232
 30
0.0
 11
-1.09695176466768
 21
2.078491758286138
 31
0.0
  0
LINE
  5
B8
330
86
100
AcDbEntity
  8
AM_4
100
AcDbLine
 10
-0.8330482353323201
 20
2.078491758286138
 30
0.0
 11
-0.861180948946961
 21
2.144768278212232
 31
0.0
  0
LINE
  5
B9
330
86
100
AcDbEntity
  8
AM_4
100
AcDbLine
 10
-0.8330482353323201
 20
2.078491758286138
 30
0.0
 11
-1.09695176466768
 21
2.078491758286138
 31
0.0
  0
LINE
  5
BA
330
86
100
AcDbEntity
  8
AM_4
100
AcDbLine
 10
-0.8337580886531095
 20
2.037824288774639
 30
0.0
 11
-1.096241911346891
 21
2.037824288774639
 31
0.0
  0
ARC
  5
BB
330
86
100
AcDbEntity
  8
AM_4
100
AcDbCircle
 10
-1.050926521995057
 20
2.058955201861674
 30
0.0
 40
0.050000000000001
100
AcDbArc
 50
157.0000000000003
 51
204.9999999999996
  0
ARC
  5
BC
330
86
100
AcDbEntity
  8
AM_4
100
AcDbCircle
 10
-0.8790734780049433
 20
2.058955201861674
 30
0.0
 40
0.0500000000000012
100
AcDbArc
 50
335.0000000000005
 51
22.99999999999962
  0
LWPOLYLINE
  5
BD
330
86
100
AcDbEntity
  8
AM_4
100
AcDbPolyline
 90
        3
 70
     0
 43
0.0
 10
-0.8025913692769583
 20
1.820830207530646
 10
-0.822801169000346
 20
1.816552470556178
 10
-0.8431935269577188
 20
1.815
  0
LINE
  5
BE
330
86
100
AcDbEntity
  8
AM_4
100
AcDbLine
 10
-0.8025913692769583
 20
1.875836459136021
 30
0.0
 11
-0.8025913692769583
 21
1.820830207530646
 31
0.0
  0
LWPOLYLINE
  5
BF
330
86
100
AcDbEntity
  8
AM_4
100
AcDbPolyline
 90
        3
 70
     0
 43
0.0
 10
-0.8431935269577188
 20
1.881666666666667
 10
-0.8228924481173385
 20
1.880127791204197
 10
-0.8025913692769583
 20
1.875836459136021
  0
LWPOLYLINE
  5
C0
330
86
100
AcDbEntity
  8
AM_4
100
AcDbPolyline
 90
        3
 70
     0
 43
0.0
 10
-0.8837956846384792
 20
1.875836459136021
 10
-0.8635858849150915
 20
1.880114196110488
 10
-0.8431935269577188
 20
1.881666666666667
  0
LWPOLYLINE
  5
C1
330
86
100
AcDbEntity
  8
AM_4
100
AcDbPolyline
 90
        3
 70
     0
 43
0.0
 10
-0.8431935269577188
 20
1.815
 10
-0.863494605798099
 20
1.816538875462469
 10
-0.8837956846384792
 20
1.820830207530646
  0
LWPOLYLINE
  5
C2
330
86
100
AcDbEntity
  8
AM_4
100
AcDbPolyline
 90
        4
 70
     0
 43
0.0
 10
-0.8837956846384792
 20
1.820830207530646
 10
-0.9026982481560969
 20
1.818531798436252
 10
-0.9337571743791796
 20
1.815918591732272
 10
-0.9650000000000001
 20
1.815
  0
LINE
  5
C3
330
86
100
AcDbEntity
  8
AM_4
100
AcDbLine
 10
-0.8837956846384792
 20
1.875836459136021
 30
0.0
 11
-0.8837956846384792
 21
1.820830207530646
 31
0.0
  0
LWPOLYLINE
  5
C4
330
86
100
AcDbEntity
  8
AM_4
100
AcDbPolyline
 90
        4
 70
     0
 43
0.0
 10
-0.9650000000000001
 20
1.881666666666667
 10
-0.9338491240780485
 20
1.880753410066301
 10
-0.9026982481560969
 20
1.878134868230415
 10
-0.8837956846384792
 20
1.875836459136021
  0
LWPOLYLINE
  5
C5
330
86
100
AcDbEntity
  8
AM_4
100
AcDbPolyline
 90
        3
 70
     0
 43
0.0
 10
-1.046204315361521
 20
1.875836459136021
 10
-1.005784715914745
 20
1.880114196110488
 10
-0.9650000000000001
 20
1.881666666666667
  0
LWPOLYLINE
  5
C6
330
86
100
AcDbEntity
  8
AM_4
100
AcDbPolyline
 90
        3
 70
     0
 43
0.0
 10
-0.9650000000000001
 20
1.815
 10
-1.005602157680761
 20
1.816538875462469
 10
-1.046204315361521
 20
1.820830207530646
  0
LINE
  5
C7
330
86
100
AcDbEntity
  8
AM_4
100
AcDbLine
 10
-0.82435
 20
1.881666666666667
 30
0.0
 11
-1.10565
 21
1.881666666666667
 31
0.0
  0
LINE
  5
C8
330
86
100
AcDbEntity
  8
AM_4
100
AcDbLine
 10
-0.8556705494202287
 20
1.912987216086895
 30
0.0
 11
-1.074329450579771
 21
1.912987216086895
 31
0.0
  0
LINE
  5
C9
330
86
100
AcDbEntity
  8
AM_4
100
AcDbLine
 10
-1.074329450579771
 20
1.912987216086895
 30
0.0
 11
-1.10565
 21
1.881666666666667
 31
0.0
  0
LINE
  5
CA
330
86
100
AcDbEntity
  8
AM_4
100
AcDbLine
 10
-0.82435
 20
1.881666666666667
 30
0.0
 11
-0.8556705494202287
 21
1.912987216086895
 31
0.0
  0
LINE
  5
CB
330
86
100
AcDbEntity
  8
AM_4
100
AcDbLine
 10
-1.127408630723042
 20
1.875836459136021
 30
0.0
 11
-1.127408630723042
 21
1.820830207530646
 31
0.0
  0
LWPOLYLINE
  5
CC
330
86
100
AcDbEntity
  8
AM_4
100
AcDbPolyline
 90
        3
 70
     0
 43
0.0
 10
-1.086806473042282
 20
1.815
 10
-1.107107551882662
 20
1.816538875462469
 10
-1.127408630723042
 20
1.820830207530646
  0
LWPOLYLINE
  5
CD
330
86
100
AcDbEntity
  8
AM_4
100
AcDbPolyline
 90
        3
 70
     0
 43
0.0
 10
-1.046204315361521
 20
1.820830207530646
 10
-1.066414115084909
 20
1.816552470556178
 10
-1.086806473042282
 20
1.815
  0
LINE
  5
CE
330
86
100
AcDbEntity
  8
AM_4
100
AcDbLine
 10
-1.046204315361521
 20
1.875836459136021
 30
0.0
 11
-1.046204315361521
 21
1.820830207530646
 31
0.0
  0
LWPOLYLINE
  5
CF
330
86
100
AcDbEntity
  8
AM_4
100
AcDbPolyline
 90
        3
 70
     0
 43
0.0
 10
-1.086806473042282
 20
1.881666666666667
 10
-1.066505394201901
 20
1.880127791204197
 10
-1.046204315361521
 20
1.875836459136021
  0
LWPOLYLINE
  5
D0
330
86
100
AcDbEntity
  8
AM_4
100
AcDbPolyline
 90
        3
 70
     0
 43
0.0
 10
-1.127408630723042
 20
1.875836459136021
 10
-1.107198830999654
 20
1.880114196110488
 10
-1.086806473042282
 20
1.881666666666667
  0
ENDBLK
  5
89
330
86
100
AcDbEntity
  8
0
100
AcDbBlockEnd
  0
BLOCK
  5
D3
330
D1
100
AcDbEntity
  8
0
100
AcDbBlockBegin
  2
3_045412_0_in_127519_2
 70
     2
 10
0.0
 20
0.0
 30
0.0
  3
3_045412_0_in_127519_2
  1

  0
ATTDEF
  5
D5
330
D1
100
AcDbEntity
  8
AM_6
100
AcDbText
 10
4.87
 20
1.416645210840089
 30
0.0
 40
0.5
  1
Set Screw Insert Inch Bore - Corrosion Resistant
100
AcDbAttributeDefinition
  3

  2
NN
 70
     8
280
     0
  0
ATTDEF
  5
D6
330
D1
100
AcDbEntity
  8
AM_6
100
AcDbText
 10
4.87
 20
0.9166452108400887
 30
0.0
 40
0.5
  1
SC Normal Duty Bearing Inserts
100
AcDbAttributeDefinition
  3

  2
NT
 70
     8
280
     0
  0
ATTDEF
  5
D7
330
D1
100
AcDbEntity
  8
AM_6
100
AcDbText
 10
4.87
 20
0.4166452108400887
 30
0.0
 40
0.5
  1
045412
100
AcDbAttributeDefinition
  3

  2
NB
 70
     8
280
     0
  0
ATTDEF
  5
D8
330
D1
100
AcDbEntity
  8
AM_6
100
AcDbText
 10
4.87
 20
-0.0833547891599113
 30
0.0
 40
0.5
  1
$PN.
100
AcDbAttributeDefinition
  3

  2
NBSYN
 70
     8
280
     0
  0
ATTDEF
  5
D9
330
D1
100
AcDbEntity
  8
AM_6
100
AcDbText
 10
4.87
 20
-0.5833547891599113
 30
0.0
 40
0.5
  1
045412
100
AcDbAttributeDefinition
  3

  2
LINA
 70
     8
280
     0
  0
ATTDEF
  5
DA
330
D1
100
AcDbEntity
  8
AM_6
100
AcDbText
 10
4.87
 20
-1.083354789159911
 30
0.0
 40
0.5
  1
207
100
AcDbAttributeDefinition
  3

  2
SERIES
 70
     8
280
     0
  0
ATTDEF
  5
DB
330
D1
100
AcDbEntity
  8
AM_6
100
AcDbText
 10
4.87
 20
-1.583354789159911
 30
0.0
 40
0.5
  1
1-1/4
100
AcDbAttributeDefinition
  3

  2
SS
 70
     8
280
     0
  0
ATTDEF
  5
DC
330
D1
100
AcDbEntity
  8
AM_6
100
AcDbText
 10
4.87
 20
-2.083354789159912
 30
0.0
 40
0.5
  1
045412
100
AcDbAttributeDefinition
  3

  2
PN
 70
     8
280
     0
  0
ATTDEF
  5
DD
330
D1
100
AcDbEntity
  8
AM_6
100
AcDbText
 10
4.87
 20
-2.583354789159912
 30
0.0
 40
0.5
  1
INS-SC-104-CR
100
AcDbAttributeDefinition
  3

  2
DESCRIPTION
 70
     8
280
     0
  0
ATTDEF
  5
DE
330
D1
100
AcDbEntity
  8
AM_6
100
AcDbText
 10
4.87
 20
-3.083354789159912
 30
0.0
 40
0.5
  1
1.71
100
AcDbAttributeDefinition
  3

  2
A
 70
     8
280
     0
  0
ATTDEF
  5
DF
330
D1
100
AcDbEntity
  8
AM_6
100
AcDbText
 10
4.87
 20
-3.583354789159912
 30
0.0
 40
0.5
  1
0.75
100
AcDbAttributeDefinition
  3

  2
C
 70
     8
280
     0
  0
ATTDEF
  5
E0
330
D1
100
AcDbEntity
  8
AM_6
100
AcDbText
 10
4.87
 20
-4.083354789159912
 30
0.0
 40
0.5
  1
2.8346
100
AcDbAttributeDefinition
  3

  2
D
 70
     8
280
     0
  0
ATTDEF
  5
E1
330
D1
100
AcDbEntity
  8
AM_6
100
AcDbText
 10
4.87
 20
-4.583354789159912
 30
0.0
 40
0.5
  1
0.2
100
AcDbAttributeDefinition
  3

  2
J
 70
     8
280
     0
  0
ATTDEF
  5
E2
330
D1
100
AcDbEntity
  8
AM_6
100
AcDbText
 10
4.87
 20
-5.083354789159912
 30
0.0
 40
0.5
  1
1.84
100
AcDbAttributeDefinition
  3

  2
L
 70
     8
280
     0
  0
ATTDEF
  5
E3
330
D1
100
AcDbEntity
  8
AM_6
100
AcDbText
 10
4.87
 20
-5.583354789159912
 30
0.0
 40
0.5
  1
5/16 - 24
100
AcDbAttributeDefinition
  3

  2
N
 70
     8
280
     0
  0
ATTDEF
  5
E4
330
D1
100
AcDbEntity
  8
AM_6
100
AcDbText
 10
4.87
 20
-6.083354789159912
 30
0.0
 40
0.5
  1
0.67
100
AcDbAttributeDefinition
  3

  2
W
 70
     8
280
     0
  0
ATTDEF
  5
E5
330
D1
100
AcDbEntity
  8
AM_6
100
AcDbText
 10
4.87
 20
-6.583354789159912
 30
0.0
 40
0.5
  1
1.04
100
AcDbAttributeDefinition
  3

  2
Y
 70
     8
280
     0
  0
ATTDEF
  5
E6
330
D1
100
AcDbEntity
  8
AM_6
100
AcDbText
 10
4.87
 20
-7.083354789159912
 30
0.0
 40
0.5
  1
baldor
100
AcDbAttributeDefinition
  3

  2
COMPANY
 70
     8
280
     0
  0
ARC
  5
E7
330
D1
100
AcDbEntity
  8
AM_9
100
AcDbCircle
 10
-0.5999999999999989
 20
-0.0000000000000004
 30
0.0
 40
0.1041666666666606
100
AcDbArc
 50
350.4519788181867
 51
1.722995022849415
  0
CIRCLE
  5
E8
330
D1
100
AcDbEntity
  8
AM_9
100
AcDbCircle
 10
-0.6000000000000002
 20
-0.0000000000000001
 30
0.0
 40
0.0359848484848541
  0
LINE
  5
E9
330
D1
100
AcDbEntity
  8
AM_9
100
AcDbLine
 10
-0.6902358589107882
 20
0.0520370221014979
 30
0.0
 11
-0.68694323921031
 21
0.0573721848988015
 31
0.0
  0
LWPOLYLINE
  5
EA
330
D1
100
AcDbEntity
  8
AM_9
100
AcDbPolyline
 90
        8
 70
     0
 43
0.0
 10
-0.6893642261974123
 20
-0.053521488641734
 10
-0.6952055678140636
 20
-0.0422186377740575
 10
-0.7008680515588731
 20
-0.0258916831503881
 10
-0.7037483545515189
 20
-0.008728425032925
 10
-0.7037625800098825
 20
0.0086796943424884
 10
-0.700859397791513
 20
0.0258840688380959
 10
-0.6951548169703639
 20
0.0423578369960911
 10
-0.6902358589107882
 20
0.0520370221014979
  0
LINE
  5
EB
330
D1
100
AcDbEntity
  8
AM_9
100
AcDbLine
 10
-1.532915196589309
 20
0.6126536478449086
 30
0.0
 11
-1.482084803410691
 21
0.6126536478449086
 31
0.0
  0
LINE
  5
EC
330
D1
100
AcDbEntity
  8
AM_9
100
AcDbLine
 10
-1.3813
 20
0.625
 30
0.0
 11
-1.3813
 21
0.8991344012334843
 31
0.0
  0
LINE
  5
ED
330
D1
100
AcDbEntity
  8
AM_9
100
AcDbLine
 10
-1.6337
 20
0.8991344012334843
 30
0.0
 11
-1.6337
 21
0.625
 31
0.0
  0
LINE
  5
EE
330
D1
100
AcDbEntity
  8
AM_9
100
AcDbLine
 10
-1.6337
 20
0.8991344012334843
 30
0.0
 11
-1.3813
 21
0.8991344012334843
 31
0.0
  0
LINE
  5
EF
330
D1
100
AcDbEntity
  8
AM_9
100
AcDbLine
 10
-1.3813
 20
0.8991344012334843
 30
0.0
 11
-1.360434401233484
 21
0.92
 31
0.0
  0
LINE
  5
F0
330
D1
100
AcDbEntity
  8
AM_9
100
AcDbLine
 10
-1.654565598766516
 20
0.92
 30
0.0
 11
-1.6337
 21
0.8991344012334843
 31
0.0
  0
LWPOLYLINE
  5
F1
330
D1
100
AcDbEntity
  8
AM_9
100
AcDbPolyline
 90
        4
 70
     0
 43
0.0
 10
-1.532915196589309
 20
0.6126536478449086
 10
-1.516037987533183
 20
0.6120639405846138
 10
-1.498368153505212
 20
0.6120747521575212
 10
-1.482084803410691
 20
0.6126536478449086
  0
LWPOLYLINE
  5
F2
330
D1
100
AcDbEntity
  8
AM_9
100
AcDbPolyline
 90
       10
 70
     0
 43
0.0
 10
-1.482084803410691
 20
0.6126536478449086
 10
-1.462030747505717
 20
0.6138126855339411
 10
-1.442725330044758
 20
0.6155439203402228
 10
-1.42578906082209
 20
0.6175558578633483
 10
-1.41070452419877
 20
0.6197321390210342
 10
-1.398591530090475
 20
0.6217391855255981
 10
-1.389279124700161
 20
0.6234378360002384
 10
-1.383596231434494
 20
0.6245403941017222
 10
-1.381323731635991
 20
0.6249952085402465
 10
-1.381300000000793
 20
0.6249999999998398
  0
LWPOLYLINE
  5
F3
330
D1
100
AcDbEntity
  8
AM_9
100
AcDbPolyline
 90
        5
 70
     0
 43
0.0
 10
-1.53291519658931
 20
0.1468859707668957
 10
-1.524284978834104
 20
0.1450578494666401
 10
-1.506878965044174
 20
0.1436609753757866
 10
-1.48892258290199
 20
0.1453743779094747
 10
-1.482084803410691
 20
0.1468859707668957
  0
LWPOLYLINE
  5
F4
330
D1
100
AcDbEntity
  8
AM_9
100
AcDbPolyline
 90
        4
 70
     0
 43
0.0
 10
-1.482084803410692
 20
0.3709512686357322
 10
-1.503837750294389
 20
0.3735616244833173
 10
-1.518335710527354
 20
0.3731371533645921
 10
-1.532915196589308
 20
0.3709512686357322
  0
LINE
  5
F5
330
D1
100
AcDbEntity
  8
AM_9
100
AcDbLine
 10
-1.8032
 20
-0.625
 30
0.0
 11
-0.1668000000000001
 21
-0.625
 31
0.0
  0
LINE
  5
F6
330
D1
100
AcDbEntity
  8
AM_9
100
AcDbLine
 10
-0.1668000000000001
 20
0.625
 30
0.0
 11
-1.3813
 21
0.625
 31
0.0
  0
LINE
  5
F7
330
D1
100
AcDbEntity
  8
AM_9
100
AcDbLine
 10
-1.6337
 20
0.625
 30
0.0
 11
-1.8032
 21
0.625
 31
0.0
  0
LWPOLYLINE
  5
F8
330
D1
100
AcDbEntity
  8
AM_9
100
AcDbPolyline
 90
       10
 70
     0
 43
0.0
 10
-1.633699999999207
 20
0.6249999999998398
 10
-1.632387074062193
 20
0.624736217349223
 10
-1.627577356135929
 20
0.623792538795227
 10
-1.619679353243735
 20
0.6223204699302303
 10
-1.608477643554194
 20
0.6203991009807782
 10
-1.594639688110244
 20
0.6182975701423632
 10
-1.577930131590425
 20
0.6161647210250232
 10
-1.55951724867916
 20
0.6143324459607759
 10
-1.539009693777457
 20
0.6129367184318044
 10
-1.532915196589308
 20
0.6126536478449084
  0
LINE
  5
F9
330
D1
100
AcDbEntity
  8
AM_9
100
AcDbLine
 10
-0.1668000000000001
 20
-0.625
 30
0.0
 11
-0.13
 21
-0.6617999999999999
 31
0.0
  0
LINE
  5
FA
330
D1
100
AcDbEntity
  8
AM_9
100
AcDbLine
 10
-0.13
 20
0.6617999999999999
 30
0.0
 11
-0.1668000000000001
 21
0.625
 31
0.0
  0
LINE
  5
FB
330
D1
100
AcDbEntity
  8
AM_9
100
AcDbLine
 10
-1.8032
 20
0.6250000000000001
 30
0.0
 11
-1.84
 21
0.6618000000000002
 31
0.0
  0
LINE
  5
FC
330
D1
100
AcDbEntity
  8
AM_9
100
AcDbLine
 10
-1.84
 20
-0.6618000000000002
 30
0.0
 11
-1.8032
 21
-0.6250000000000001
 31
0.0
  0
ELLIPSE
  5
FD
330
D1
100
AcDbEntity
  8
AM_9
100
AcDbEllipse
 10
-1.5075
 20
0.2589186197013134
 30
0.0
 11
0.1261999999999992
 21
0.0
 31
0.0
210
0.0
220
0.0
230
1.0
 40
0.9063077870366527
 41
4.509613981979749
 42
4.915163978789627
  0
LWPOLYLINE
  5
FE
330
D1
100
AcDbEntity
  8
AM_9
100
AcDbPolyline
 90
        6
 70
     0
 43
0.0
 10
-1.615561219429748
 20
0.3217744166113069
 10
-1.616408469909525
 20
0.3205448565170436
 10
-1.625720875299839
 20
0.3035003984411027
 10
-1.631403768565506
 20
0.2856613674317907
 10
-1.633676268364009
 20
0.2663524002028703
 10
-1.633699999517179
 20
0.2641464184595732
  0
LWPOLYLINE
  5
FF
330
D1
100
AcDbEntity
  8
AM_9
100
AcDbPolyline
 90
       10
 70
     0
 43
0.0
 10
-1.48208480341069
 20
0.1468859707668957
 10
-1.462030747505717
 20
0.1527140917358613
 10
-1.442725330044757
 20
0.1619794698667933
 10
-1.42578906082209
 20
0.1738256107813289
 10
-1.41070452419877
 20
0.188521145418691
 10
-1.398591530090474
 20
0.2049718111687703
 10
-1.389279124700161
 20
0.2234520306665065
 10
-1.383596231434494
 20
0.2422229840524528
 10
-1.381323731635991
 20
0.2619163770562208
 10
-1.381300000482821
 20
0.2641264086338982
  0
LINE
  5
100
330
D1
100
AcDbEntity
  8
AM_9
100
AcDbLine
 10
-1.3813
 20
0.2641214462775162
 30
0.0
 11
-1.3813
 21
0.3799906177205598
 31
0.0
  0
LINE
  5
101
330
D1
100
AcDbEntity
  8
AM_9
100
AcDbLine
 10
-1.6337
 20
0.3799906177205598
 30
0.0
 11
-1.6337
 21
0.2641214462775162
 31
0.0
  0
LWPOLYLINE
  5
102
330
D1
100
AcDbEntity
  8
AM_9
100
AcDbPolyline
 90
       10
 70
     0
 43
0.0
 10
-1.633699999517179
 20
0.2641464184595732
 10
-1.632387074062193
 20
0.2475695508989224
 10
-1.62757735613593
 20
0.228433024222498
 10
-1.619679353243735
 20
0.2106084874353245
 10
-1.608477643554194
 20
0.1935876898381916
 10
-1.594639688110244
 20
0.17857072620113
 10
-1.577930131590426
 20
0.1654949583868579
 10
-1.559517248679161
 20
0.1554198737776087
 10
-1.539009693777457
 20
0.148284697792826
 10
-1.53291519658931
 20
0.1468859707668957
  0
LWPOLYLINE
  5
103
330
D1
100
AcDbEntity
  8
AM_9
100
AcDbPolyline
 90
        5
 70
     0
 43
0.0
 10
-1.381300000482821
 20
0.2641264086338982
 10
-1.382612925937808
 20
0.2804803175462555
 10
-1.387422643864071
 20
0.2988192126424165
 10
-1.395320646756266
 20
0.3153995030598147
 10
-1.399410775273563
 20
0.3217343782684121
  0
LINE
  5
104
330
D1
100
AcDbEntity
  8
AM_9
100
AcDbLine
 10
-1.31
 20
-0.92
 30
0.0
 11
-1.175
 21
-0.92
 31
0.0
  0
LINE
  5
105
330
D1
100
AcDbEntity
  8
AM_9
100
AcDbLine
 10
-1.175
 20
0.92
 30
0.0
 11
-1.31
 21
0.92
 31
0.0
  0
LINE
  5
106
330
D1
100
AcDbEntity
  8
AM_9
100
AcDbLine
 10
-0.4250000000000001
 20
-0.9199999999999997
 30
0.0
 11
-0.1668000000000001
 21
-0.9199999999999997
 31
0.0
  0
LINE
  5
107
330
D1
100
AcDbEntity
  8
AM_9
100
AcDbLine
 10
-0.1668000000000001
 20
0.9199999999999997
 30
0.0
 11
-0.4250000000000001
 21
0.9199999999999997
 31
0.0
  0
LINE
  5
108
330
D1
100
AcDbEntity
  8
AM_9
100
AcDbLine
 10
-0.13
 20
0.8832000000000002
 30
0.0
 11
-0.1668000000000001
 21
0.9200000000000002
 31
0.0
  0
LINE
  5
109
330
D1
100
AcDbEntity
  8
AM_9
100
AcDbLine
 10
-0.1668000000000001
 20
-0.9200000000000002
 30
0.0
 11
-0.13
 21
-0.8832000000000002
 31
0.0
  0
LINE
  5
10A
330
D1
100
AcDbEntity
  8
AM_9
100
AcDbLine
 10
-0.1668000000000001
 20
0.9200000000000002
 30
0.0
 11
-0.1668000000000001
 21
-0.9200000000000002
 31
0.0
  0
LINE
  5
10B
330
D1
100
AcDbEntity
  8
AM_9
100
AcDbLine
 10
-0.13
 20
0.8832000000000002
 30
0.0
 11
-0.13
 21
-0.8832000000000002
 31
0.0
  0
LINE
  5
10C
330
D1
100
AcDbEntity
  8
AM_9
100
AcDbLine
 10
-1.04
 20
-1.350633333333333
 30
0.0
 11
-0.96
 21
-1.350633333333333
 31
0.0
  0
LINE
  5
10D
330
D1
100
AcDbEntity
  8
AM_9
100
AcDbLine
 10
-0.96
 20
1.350633333333333
 30
0.0
 11
-1.04
 21
1.350633333333333
 31
0.0
  0
LINE
  5
10E
330
D1
100
AcDbEntity
  8
AM_9
100
AcDbLine
 10
-0.4250000000000001
 20
1.335937981344943
 30
0.0
 11
-0.4250000000000001
 21
-1.335937981344943
 31
0.0
  0
ARC
  5
10F
330
D1
100
AcDbEntity
  8
AM_9
100
AcDbCircle
 10
-0.465
 20
-1.335937981344943
 30
0.0
 40
0.0399999999999997
100
AcDbArc
 50
284.0772302633403
 51
0.0
  0
ARC
  5
110
330
D1
100
AcDbEntity
  8
AM_9
100
AcDbCircle
 10
-0.465
 20
1.335937981344943
 30
0.0
 40
0.0399999999999999
100
AcDbArc
 50
0.0
 51
75.92276973665967
  0
LINE
  5
111
330
D1
100
AcDbEntity
  8
AM_9
100
AcDbLine
 10
-1.175
 20
1.335937981344943
 30
0.0
 11
-1.175
 21
-1.335937981344943
 31
0.0
  0
ARC
  5
112
330
D1
100
AcDbEntity
  8
AM_9
100
AcDbCircle
 10
-1.135
 20
-1.335937981344942
 30
0.0
 40
0.0400000000000003
100
AcDbArc
 50
180.0
 51
255.9227727932864
  0
ARC
  5
113
330
D1
100
AcDbEntity
  8
AM_9
100
AcDbCircle
 10
-1.135
 20
1.335937981344942
 30
0.0
 40
0.0400000000000003
100
AcDbArc
 50
104.0772272067136
 51
180.0
  0
ARC
  5
114
330
D1
100
AcDbEntity
  8
AM_9
100
AcDbCircle
 10
-0.7999999999999614
 20
-0.0000000000002034
 30
0.0
 40
1.417300000000207
100
AcDbArc
 50
99.74921852491417
 51
104.0772272067128
  0
ARC
  5
115
330
D1
100
AcDbEntity
  8
AM_9
100
AcDbCircle
 10
-0.7999999999822412
 20
0.0000000000842582
 30
0.0
 40
1.417300000085986
100
AcDbArc
 50
255.9227727934182
 51
260.2507814749548
  0
LINE
  5
116
330
D1
100
AcDbEntity
  8
AM_9
100
AcDbLine
 10
-1.144729180280259
 20
1.374736731983001
 30
0.0
 11
-1.144729180280259
 21
-1.374736731982938
 31
0.0
  0
LINE
  5
117
330
D1
100
AcDbEntity
  8
AM_9
100
AcDbLine
 10
-1.04
 20
1.396831876068126
 30
0.0
 11
-1.04
 21
-1.396831876068063
 31
0.0
  0
LINE
  5
118
330
D1
100
AcDbEntity
  8
AM_9
100
AcDbLine
 10
-0.6869432392102877
 20
-0.0573721848988361
 30
0.0
 11
-0.6893642261974123
 21
-0.053521488641734
 31
0.0
  0
LWPOLYLINE
  5
119
330
D1
100
AcDbEntity
  8
AM_9
100
AcDbPolyline
 90
       32
 70
     0
 43
0.0
 10
-0.6869432392102874
 20
-0.0573721848988359
 10
-0.6760712653317806
 20
-0.0711454425388031
 10
-0.6630782415148769
 20
-0.0828965010831841
 10
-0.6482757225045647
 20
-0.0922931504464032
 10
-0.6321372248247114
 20
-0.0990852825853034
 10
-0.6149819679696343
 20
-0.103073289871416
 10
-0.5974100090046497
 20
-0.1041344630325978
 10
-0.5798061041151003
 20
-0.1021798149451518
 10
-0.5627722449946424
 20
-0.0972871456139224
 10
-0.5468069769524573
 20
-0.089548609515587
 10
-0.532354612907656
 20
-0.0792136102546171
 10
-0.5199367345453368
 20
-0.0666205077869522
 10
-0.5097959034760787
 20
-0.0520952532842152
 10
-0.5023341719683817
 20
-0.0361913484339223
 10
-0.4976268161898468
 20
-0.0192464459320681
 10
-0.4958612393164648
 20
-0.001895539446796
 10
-0.4969943707165842
 20
0.0155091837428968
 10
-0.5010116558076774
 20
0.0324012891371602
 10
-0.507752177998872
 20
0.0483842307006283
 10
-0.5170827261278382
 20
0.0630341909257807
 10
-0.5286828111813215
 20
0.0759246535944972
 10
-0.5423668723941217
 20
0.0867584053967769
 10
-0.5576342320053463
 20
0.0951621571144045
 10
-0.5742433336257694
 20
0.1009215982604728
 10
-0.5915678824907198
 20
0.1038248228447953
 10
-0.6092597737968358
 20
0.1037438154083771
 10
-0.6266918950119547
 20
0.1006888136046613
 10
-0.6433887662630284
 20
0.0946883226980254
 10
-0.6588540957487315
 20
0.0859470177379215
 10
-0.6725544506050328
 20
0.0747280119463394
 10
-0.6841900500720677
 20
0.0613410948166578
 10
-0.68694323921031
 20
0.0573721848988015
  0
ARC
  5
11A
330
D1
100
AcDbEntity
  8
AM_9
100
AcDbCircle
 10
-0.7999999999999962
 20
0.000000000000054
 30
0.0
 40
1.417299999999947
100
AcDbArc
 50
75.9227727070202
 51
96.48197920051842
  0
ARC
  5
11B
330
D1
100
AcDbEntity
  8
AM_9
100
AcDbCircle
 10
-0.8000000000000033
 20
0.0000000000000626
 30
0.0
 40
1.417300000000061
100
AcDbArc
 50
263.5180207994824
 51
284.0772272929789
  0
LINE
  5
11C
330
D1
100
AcDbEntity
  8
AM_9
100
AcDbLine
 10
-0.96
 20
1.40823978426971
 30
0.0
 11
-0.96
 21
-1.408239784269709
 31
0.0
  0
LINE
  5
11D
330
D1
100
AcDbEntity
  8
AM_9
100
AcDbLine
 10
-0.4552708176498979
 20
1.374736731463966
 30
0.0
 11
-0.4552708176498979
 21
-1.374736731463966
 31
0.0
  0
LINE
  5
11E
330
D1
100
AcDbEntity
  8
AM_5
100
AcDbLine
 10
-1.35125
 20
0.625
 30
0.0
 11
-1.35125
 21
0.92
 31
0.0
  0
LINE
  5
11F
330
D1
100
AcDbEntity
  8
AM_5
100
AcDbLine
 10
-1.66375
 20
0.625
 30
0.0
 11
-1.66375
 21
0.92
 31
0.0
  0
LINE
  5
120
330
D1
100
AcDbEntity
  8
AM_7
100
AcDbLine
 10
-0.6000000000000002
 20
-0.0377840909090969
 30
0.0
 11
-0.6000000000000002
 21
0.0377840909090967
 31
0.0
  0
LINE
  5
121
330
D1
100
AcDbEntity
  8
AM_7
100
AcDbLine
 10
-1.5075
 20
0.9465134389029138
 30
0.0
 11
-1.5075
 21
0.5652746101754798
 31
0.0
  0
LWPOLYLINE
  5
122
330
D1
100
AcDbEntity
  8
AM_4
100
AcDbPolyline
 90
        6
 70
     0
 43
0.0
 10
-1.532915196589308
 20
0.3709512686357322
 10
-1.552969252494282
 20
0.3661028086536286
 10
-1.572274669955242
 20
0.3583007334116883
 10
-1.589210939177909
 20
0.3481551555746613
 10
-1.60429547580123
 20
0.3352990932571397
 10
-1.615561219429748
 20
0.3217744166113069
  0
ELLIPSE
  5
123
330
D1
100
AcDbEntity
  8
AM_4
100
AcDbEllipse
 10
-1.5075
 20
0.2589186197013147
 30
0.0
 11
0.1262000000000016
 21
0.0
 31
0.0
210
0.0
220
0.0
230
1.0
 40
0.9063077870366312
 41
1.368021328389971
 42
1.77357132519982
  0
LWPOLYLINE
  5
124
330
D1
100
AcDbEntity
  8
AM_4
100
AcDbPolyline
 90
        7
 70
     0
 43
0.0
 10
-1.399410775273563
 20
0.3217343782684121
 10
-1.406522356445807
 20
0.3307962894457876
 10
-1.420360311889757
 20
0.3440369624629982
 10
-1.437069868409575
 20
0.3553099683042193
 10
-1.455482751320841
 20
0.3638363471081023
 10
-1.475990306222544
 20
0.3697918032085697
 10
-1.482084803410692
 20
0.3709512686357329
  0
LWPOLYLINE
  5
125
330
D1
100
AcDbEntity
  8
AM_4
100
AcDbPolyline
 90
       39
 70
     0
 43
0.0
 10
-1.36058790827888
 20
0.3831468696165903
 10
-1.36356803566994
 20
0.3632781926959329
 10
-1.37017294150792
 20
0.3439609398142159
 10
-1.379923739369652
 20
0.3261664671045509
 10
-1.392545338161938
 20
0.3098848853577551
 10
-1.408634546105366
 20
0.2947371385201887
 10
-1.427020047003139
 20
0.2820561800758902
 10
-1.448751955752624
 20
0.2715409242079174
 10
-1.471959314178339
 20
0.2644166700217198
 10
-1.497331216822106
 20
0.2608037887576972
 10
-1.522978829147051
 20
0.2612115006936286
 10
-1.548722166329964
 20
0.2658199659526827
 10
-1.57328707486616
 20
0.2744889513719074
 10
-1.595751488410156
 20
0.2869406238376951
 10
-1.615592100612282
 20
0.3028337006592151
 10
-1.631435801956261
 20
0.320929310637152
 10
-1.643571312991382
 20
0.3412258141340099
 10
-1.65096280160379
 20
0.3614455537922164
 10
-1.654364995150952
 20
0.3823351054802132
 10
-1.653728340589699
 20
0.4018250662339457
 10
-1.649496834881177
 20
0.4207350632430682
 10
-1.641921484303223
 20
0.43829961330239
 10
-1.631295558663528
 20
0.4544069053250742
 10
-1.61728363479781
 20
0.46931470387109
 10
-1.600767127281401
 20
0.4820388056805551
 10
-1.580772242004618
 20
0.4930258231171737
 10
-1.558988278381379
 20
0.501153724514045
 10
-1.53451362704652
 20
0.506516399014524
 10
-1.509323221429411
 20
0.508488236195261
 10
-1.483299974210065
 20
0.5069073389414688
 10
-1.457957872439703
 20
0.5017163786486232
 10
-1.433998489361334
 20
0.4929165459099835
 10
-1.412199127722069
 20
0.4806806880771297
 10
-1.393834546057553
 20
0.4656486804273735
 10
-1.378887730866234
 20
0.4478496842383146
 10
-1.368626074280928
 20
0.4290304935181857
 10
-1.362359048713396
 20
0.4086554104226282
 10
-1.360686268088152
 20
0.3959919728227245
 10
-1.360587895740303
 20
0.3831468582600498
  0
LINE
  5
126
330
D1
100
AcDbEntity
  8
AM_4
100
AcDbLine
 10
-1.8032
 20
-0.92
 30
0.0
 11
-1.31
 21
-0.92
 31
0.0
  0
LINE
  5
127
330
D1
100
AcDbEntity
  8
AM_4
100
AcDbLine
 10
-1.31
 20
0.92
 30
0.0
 11
-1.360434401233484
 21
0.92
 31
0.0
  0
LINE
  5
128
330
D1
100
AcDbEntity
  8
AM_4
100
AcDbLine
 10
-1.654565598766516
 20
0.92
 30
0.0
 11
-1.8032
 21
0.92
 31
0.0
  0
LWPOLYLINE
  5
129
330
D1
100
AcDbEntity
  8
AM_4
100
AcDbPolyline
 90
       20
 70
     0
 43
0.0
 10
-1.360434401233617
 20
0.9199999999999817
 10
-1.362132856383576
 20
0.9197672156824251
 10
-1.367208884942602
 20
0.9190870475333615
 10
-1.375737401136482
 20
0.9179968743670353
 10
-1.38730182454522
 20
0.9166246334032568
 10
-1.401919379660177
 20
0.9150660433539636
 10
-1.419625130926782
 20
0.9134435749968242
 10
-1.439897328290216
 20
0.9119461854092924
 10
-1.46272102344004
 20
0.9107244668690447
 10
-1.487323160109407
 20
0.9099618570187382
 10
-1.512830933575591
 20
0.9097809805555592
 10
-1.538905759595551
 20
0.9102383946655802
 10
-1.563667926452418
 20
0.9112724224166411
 10
-1.587508596106986
 20
0.9128166953186599
 10
-1.607950695161804
 20
0.9145659356338822
 10
-1.625973913522221
 20
0.9164305360844839
 10
-1.639118001804216
 20
0.9179789615843863
 10
-1.648724767186288
 20
0.9192104035587126
 10
-1.653492592610008
 20
0.9198526347972742
 10
-1.654565598766126
 20
0.9199999999999463
  0
LINE
  5
12A
330
D1
100
AcDbEntity
  8
AM_4
100
AcDbLine
 10
-1.84
 20
-0.8832
 30
0.0
 11
-1.8032
 21
-0.92
 31
0.0
  0
LINE
  5
12B
330
D1
100
AcDbEntity
  8
AM_4
100
AcDbLine
 10
-1.8032
 20
0.92
 30
0.0
 11
-1.84
 21
0.8832
 31
0.0
  0
LINE
  5
12C
330
D1
100
AcDbEntity
  8
AM_4
100
AcDbLine
 10
-1.84
 20
0.8832
 30
0.0
 11
-1.84
 21
-0.8832
 31
0.0
  0
LINE
  5
12D
330
D1
100
AcDbEntity
  8
AM_4
100
AcDbLine
 10
-1.8032
 20
0.92
 30
0.0
 11
-1.8032
 21
-0.92
 31
0.0
  0
ELLIPSE
  5
12E
330
D1
100
AcDbEntity
  8
AM_4
100
AcDbEllipse
 10
-1.507500000000001
 20
0.3799906177205603
 30
0.0
 11
0.1261999999999996
 21
0.0
 31
0.0
210
0.0
220
0.0
230
1.0
 40
0.9063077870366495
 41
0.0
 42
6.283185307179586
  0
ENDBLK
  5
D4
330
D1
100
AcDbEntity
  8
0
100
AcDbBlockEnd
  0
BLOCK
  5
131
330
12F
100
AcDbEntity
  8
0
100
AcDbBlockBegin
  2
4_127519H_0_in_127519_2
 70
     2
 10
0.0
 20
0.0
 30
0.0
  3
4_127519H_0_in_127519_2
  1

  0
ATTDEF
  5
133
330
12F
100
AcDbEntity
  8
AM_6
100
AcDbText
 10
5.0655
 20
2.325
 30
0.0
 40
0.5
  1
F4B-SCEZ-PCR -I-Housing
100
AcDbAttributeDefinition
  3

  2
NN
 70
     8
280
     0
  0
ATTDEF
  5
134
330
12F
100
AcDbEntity
  8
AM_6
100
AcDbText
 10
5.0655
 20
1.825
 30
0.0
 40
0.5
  1
SC 4 Bolt Flange Bearings -(Normal Duty) -Corrosion Resistant Insert -Polymer Housed -E-Z KLEEN
100
AcDbAttributeDefinition
  3

  2
NT
 70
     8
280
     0
  0
ATTDEF
  5
135
330
12F
100
AcDbEntity
  8
AM_6
100
AcDbText
 10
5.0655
 20
1.325
 30
0.0
 40
0.5
  1
127519H
100
AcDbAttributeDefinition
  3

  2
NB
 70
     8
280
     0
  0
ATTDEF
  5
136
330
12F
100
AcDbEntity
  8
AM_6
100
AcDbText
 10
5.0655
 20
0.8250000000000002
 30
0.0
 40
0.5
  1
$PN.H
100
AcDbAttributeDefinition
  3

  2
NBSYN
 70
     8
280
     0
  0
ATTDEF
  5
137
330
12F
100
AcDbEntity
  8
AM_6
100
AcDbText
 10
5.0655
 20
0.3250000000000002
 30
0.0
 40
0.5
  1
127519
100
AcDbAttributeDefinition
  3

  2
LINA
 70
     8
280
     0
  0
ATTDEF
  5
138
330
12F
100
AcDbEntity
  8
AM_6
100
AcDbText
 10
5.0655
 20
-0.1749999999999998
 30
0.0
 40
0.5
  1
1-1/4
100
AcDbAttributeDefinition
  3

  2
SS
 70
     8
280
     0
  0
ATTDEF
  5
139
330
12F
100
AcDbEntity
  8
AM_6
100
AcDbText
 10
5.0655
 20
-0.6749999999999998
 30
0.0
 40
0.5
  1
127519
100
AcDbAttributeDefinition
  3

  2
PN
 70
     8
280
     0
  0
ATTDEF
  5
13A
330
12F
100
AcDbEntity
  8
AM_6
100
AcDbText
 10
5.0655
 20
-1.175
 30
0.0
 40
0.5
  1
F4B-SCEZ-104-PCR
100
AcDbAttributeDefinition
  3

  2
DESCRIPTION
 70
     8
280
     0
  0
ATTDEF
  5
13B
330
12F
100
AcDbEntity
  8
AM_6
100
AcDbText
 10
5.0655
 20
-1.675
 30
0.0
 40
0.5
  1
207
100
AcDbAttributeDefinition
  3

  2
SERIES
 70
     8
280
     0
  0
ATTDEF
  5
13C
330
12F
100
AcDbEntity
  8
AM_6
100
AcDbText
 10
5.0655
 20
-2.175
 30
0.0
 40
0.5
  1
1
100
AcDbAttributeDefinition
  3

  2
INSERTHELP
 70
     8
280
     0
  0
ATTDEF
  5
13D
330
12F
100
AcDbEntity
  8
AM_6
100
AcDbText
 10
5.0655
 20
-2.675
 30
0.0
 40
0.5
  1
1.71
100
AcDbAttributeDefinition
  3

  2
A
 70
     8
280
     0
  0
ATTDEF
  5
13E
330
12F
100
AcDbEntity
  8
AM_6
100
AcDbText
 10
5.0655
 20
-3.175
 30
0.0
 40
0.5
  1
4.65
100
AcDbAttributeDefinition
  3

  2
B
 70
     8
280
     0
  0
ATTDEF
  5
13F
330
12F
100
AcDbEntity
  8
AM_6
100
AcDbText
 10
5.0655
 20
-3.675
 30
0.0
 40
0.5
  1
1.84
100
AcDbAttributeDefinition
  3

  2
C
 70
     8
280
     0
  0
ATTDEF
  5
140
330
12F
100
AcDbEntity
  8
AM_6
100
AcDbText
 10
5.0655
 20
-4.175
 30
0.0
 40
0.5
  1
3.63
100
AcDbAttributeDefinition
  3

  2
D
 70
     8
280
     0
  0
ATTDEF
  5
141
330
12F
100
AcDbEntity
  8
AM_6
100
AcDbText
 10
5.0655
 20
-4.675
 30
0.0
 40
0.5
  1
1/2
100
AcDbAttributeDefinition
  3

  2
F
 70
     8
280
     0
  0
ATTDEF
  5
142
330
12F
100
AcDbEntity
  8
AM_6
100
AcDbText
 10
5.0655
 20
-5.175
 30
0.0
 40
0.5
  1
0.62
100
AcDbAttributeDefinition
  3

  2
H
 70
     8
280
     0
  0
ATTDEF
  5
143
330
12F
100
AcDbEntity
  8
AM_6
100
AcDbText
 10
5.0655
 20
-5.675
 30
0.0
 40
0.5
  1
0.53
100
AcDbAttributeDefinition
  3

  2
J
 70
     8
280
     0
  0
ATTDEF
  5
144
330
12F
100
AcDbEntity
  8
AM_6
100
AcDbText
 10
5.0655
 20
-6.175
 30
0.0
 40
0.5
  1
1.84
100
AcDbAttributeDefinition
  3

  2
L
 70
     8
280
     0
  0
ATTDEF
  5
145
330
12F
100
AcDbEntity
  8
AM_6
100
AcDbText
 10
5.0655
 20
-6.675
 30
0.0
 40
0.5
  1
baldor
100
AcDbAttributeDefinition
  3

  2
COMPANY
 70
     8
280
     0
  0
LINE
  5
146
330
12F
100
AcDbEntity
  8
AM_9
100
AcDbLine
 10
-0.62
 20
1.815
 30
0.0
 11
-0.5579999999999998
 21
1.815
 31
0.0
  0
LINE
  5
147
330
12F
100
AcDbEntity
  8
AM_9
100
AcDbLine
 10
-0.62
 20
-1.815
 30
0.0
 11
-0.5579999999999998
 21
-1.815
 31
0.0
  0
LINE
  5
148
330
12F
100
AcDbEntity
  8
AM_9
100
AcDbLine
 10
-0.8514999999999999
 20
0.5100000000000003
 30
0.0
 11
-0.0674180828645772
 21
0.5100000000000009
 31
0.0
  0
LINE
  5
149
330
12F
100
AcDbEntity
  8
AM_9
100
AcDbLine
 10
-0.8514999999999999
 20
-0.5100000000000003
 30
0.0
 11
-0.0674180828645772
 21
-0.5100000000000009
 31
0.0
  0
LINE
  5
14A
330
12F
100
AcDbEntity
  8
AM_9
100
AcDbLine
 10
-1.186
 20
-1.4173
 30
0.0
 11
-0.0833333333333333
 21
-1.4173
 31
0.0
  0
LINE
  5
14B
330
12F
100
AcDbEntity
  8
AM_9
100
AcDbLine
 10
-0.0833333333333333
 20
1.4173
 30
0.0
 11
-1.186
 21
1.4173
 31
0.0
  0
LINE
  5
14C
330
12F
100
AcDbEntity
  8
AM_9
100
AcDbLine
 10
-0.5579999999999999
 20
2.325
 30
0.0
 11
-0.5579999999999999
 21
1.708679761570717
 31
0.0
  0
LINE
  5
14D
330
12F
100
AcDbEntity
  8
AM_9
100
AcDbLine
 10
-0.5579999999999999
 20
-1.708679761570717
 30
0.0
 11
-0.5579999999999999
 21
-2.325
 31
0.0
  0
LINE
  5
14E
330
12F
100
AcDbEntity
  8
AM_9
100
AcDbLine
 10
-0.8514999999999999
 20
-0.5100000000000003
 30
0.0
 11
-0.8514999999999999
 21
0.5100000000000003
 31
0.0
  0
LINE
  5
14F
330
12F
100
AcDbEntity
  8
AM_9
100
AcDbLine
 10
-0.0833333333333332
 20
-0.5100000000000003
 30
0.0
 11
-0.0833333333333333
 21
-1.438133333333333
 31
0.0
  0
LINE
  5
150
330
12F
100
AcDbEntity
  8
AM_9
100
AcDbLine
 10
-0.0674180828645772
 20
-0.5100000000000009
 30
0.0
 11
-0.0674180828645772
 21
0.5100000000000009
 31
0.0
  0
LINE
  5
151
330
12F
100
AcDbEntity
  8
AM_9
100
AcDbLine
 10
-0.0833333333333333
 20
1.438133333333333
 30
0.0
 11
-0.0833333333333332
 21
0.5100000000000001
 31
0.0
  0
ARC
  5
152
330
12F
100
AcDbEntity
  8
AM_9
100
AcDbCircle
 10
-0.0208333333333329
 20
-1.438133333333333
 30
0.0
 40
0.0625000000000005
100
AcDbArc
 50
180.0
 51
270.0
  0
ARC
  5
153
330
12F
100
AcDbEntity
  8
AM_9
100
AcDbCircle
 10
-0.0208333333333329
 20
1.438133333333333
 30
0.0
 40
0.0625000000000004
100
AcDbArc
 50
90.0
 51
180.0
  0
LINE
  5
154
330
12F
100
AcDbEntity
  8
AM_9
100
AcDbLine
 10
-0.020833333333333
 20
-1.500633333333333
 30
0.0
 11
0.0
 21
-1.500633333333333
 31
0.0
  0
LINE
  5
155
330
12F
100
AcDbEntity
  8
AM_9
100
AcDbLine
 10
0.0
 20
1.500633333333333
 30
0.0
 11
-0.020833333333333
 21
1.500633333333333
 31
0.0
  0
LINE
  5
156
330
12F
100
AcDbEntity
  8
AM_9
100
AcDbLine
 10
-0.020833333333333
 20
1.500633333333333
 30
0.0
 11
-0.020833333333333
 21
-1.500633333333333
 31
0.0
  0
LINE
  5
157
330
12F
100
AcDbEntity
  8
AM_9
100
AcDbLine
 10
-1.31
 20
-1.500633333333333
 30
0.0
 11
-1.186
 21
-1.500633333333333
 31
0.0
  0
LINE
  5
158
330
12F
100
AcDbEntity
  8
AM_9
100
AcDbLine
 10
-1.186
 20
1.500633333333333
 30
0.0
 11
-1.31
 21
1.500633333333333
 31
0.0
  0
LINE
  5
159
330
12F
100
AcDbEntity
  8
AM_9
100
AcDbLine
 10
-1.186
 20
1.500633333333333
 30
0.0
 11
-1.186
 21
-1.500633333333333
 31
0.0
  0
LINE
  5
15A
330
12F
100
AcDbEntity
  8
AM_9
100
AcDbLine
 10
-0.62
 20
-1.708679761570717
 30
0.0
 11
-0.5579999999999999
 21
-1.708679761570717
 31
0.0
  0
LINE
  5
15B
330
12F
100
AcDbEntity
  8
AM_9
100
AcDbLine
 10
-0.6199999999999997
 20
-1.741776695296636
 30
0.0
 11
-0.5579999999999998
 21
-1.741776695296636
 31
0.0
  0
LINE
  5
15C
330
12F
100
AcDbEntity
  8
AM_9
100
AcDbLine
 10
-0.5579999999999999
 20
1.708679761570717
 30
0.0
 11
-0.62
 21
1.708679761570717
 31
0.0
  0
LINE
  5
15D
330
12F
100
AcDbEntity
  8
AM_9
100
AcDbLine
 10
-0.6199999999999997
 20
1.741776695296637
 30
0.0
 11
-0.5579999999999998
 21
1.741776695296637
 31
0.0
  0
LINE
  5
15E
330
12F
100
AcDbEntity
  8
AM_9
100
AcDbLine
 10
-0.6199999999999998
 20
-2.065000000000001
 30
0.0
 11
0.0000000000000001
 21
-2.065000000000001
 31
0.0
  0
LINE
  5
15F
330
12F
100
AcDbEntity
  8
AM_9
100
AcDbLine
 10
0.0000000000000001
 20
-1.565000000000001
 30
0.0
 11
-0.6199999999999998
 21
-1.565000000000001
 31
0.0
  0
LINE
  5
160
330
12F
100
AcDbEntity
  8
AM_9
100
AcDbLine
 10
-0.6199999999999998
 20
1.565
 30
0.0
 11
0.0000000000000001
 21
1.565
 31
0.0
  0
LINE
  5
161
330
12F
100
AcDbEntity
  8
AM_9
100
AcDbLine
 10
0.0000000000000001
 20
2.065
 30
0.0
 11
-0.6199999999999998
 21
2.065
 31
0.0
  0
LINE
  5
162
330
12F
100
AcDbEntity
  8
AM_7
100
AcDbLine
 10
0.0309999999999999
 20
1.815
 30
0.0
 11
-0.6510000000000001
 21
1.815
 31
0.0
  0
LINE
  5
163
330
12F
100
AcDbEntity
  8
AM_7
100
AcDbLine
 10
0.0309999999999999
 20
-1.814999999999999
 30
0.0
 11
-0.6510000000000001
 21
-1.814999999999999
 31
0.0
  0
LINE
  5
164
330
12F
100
AcDbEntity
  8
AM_7
100
AcDbLine
 10
-1.9255
 20
0.0
 30
0.0
 11
0.0655
 21
0.0
 31
0.0
  0
LINE
  5
165
330
12F
100
AcDbEntity
  8
AM_4
100
AcDbLine
 10
-1.31
 20
1.815
 30
0.0
 11
-0.62
 21
1.815
 31
0.0
  0
LINE
  5
166
330
12F
100
AcDbEntity
  8
AM_4
100
AcDbLine
 10
-1.31
 20
-1.815
 30
0.0
 11
-0.62
 21
-1.815
 31
0.0
  0
LINE
  5
167
330
12F
100
AcDbEntity
  8
AM_4
100
AcDbLine
 10
-1.31
 20
-1.741776695296636
 30
0.0
 11
-0.6199999999999997
 21
-1.741776695296636
 31
0.0
  0
LINE
  5
168
330
12F
100
AcDbEntity
  8
AM_4
100
AcDbLine
 10
-1.31
 20
1.741776695296637
 30
0.0
 11
-0.6199999999999997
 21
1.741776695296637
 31
0.0
  0
LINE
  5
169
330
12F
100
AcDbEntity
  8
AM_4
100
AcDbLine
 10
-1.31
 20
-0.8250209204105321
 30
0.0
 11
-0.5579999999999997
 21
-0.8250209204105321
 31
0.0
  0
LINE
  5
16A
330
12F
100
AcDbEntity
  8
AM_4
100
AcDbLine
 10
-1.31
 20
-1.815
 30
0.0
 11
-1.31
 21
1.815
 31
0.0
  0
LINE
  5
16B
330
12F
100
AcDbEntity
  8
AM_4
100
AcDbLine
 10
-1.31
 20
0.8250209204105305
 30
0.0
 11
-0.5579999999999997
 21
0.8250209204105305
 31
0.0
  0
LINE
  5
16C
330
12F
100
AcDbEntity
  8
AM_4
100
AcDbLine
 10
-1.31
 20
0.6482442251138936
 30
0.0
 11
-0.5579999999999997
 21
0.6482442251138936
 31
0.0
  0
LINE
  5
16D
330
12F
100
AcDbEntity
  8
AM_4
100
AcDbLine
 10
-1.31
 20
-0.6482442251138952
 30
0.0
 11
-0.5579999999999997
 21
-0.6482442251138952
 31
0.0
  0
LINE
  5
16E
330
12F
100
AcDbEntity
  8
AM_4
100
AcDbLine
 10
-0.6199999999999998
 20
-2.325
 30
0.0
 11
0.0000000000000001
 21
-2.325
 31
0.0
  0
LINE
  5
16F
330
12F
100
AcDbEntity
  8
AM_4
100
AcDbLine
 10
-0.6199999999999998
 20
2.325
 30
0.0
 11
0.0000000000000001
 21
2.325
 31
0.0
  0
LINE
  5
170
330
12F
100
AcDbEntity
  8
AM_4
100
AcDbLine
 10
-0.6199999999999998
 20
-2.251776695296638
 30
0.0
 11
0.0000000000000001
 21
-2.251776695296638
 31
0.0
  0
LINE
  5
171
330
12F
100
AcDbEntity
  8
AM_4
100
AcDbLine
 10
-0.6199999999999998
 20
2.251776695296637
 30
0.0
 11
0.0000000000000001
 21
2.251776695296637
 31
0.0
  0
LINE
  5
172
330
12F
100
AcDbEntity
  8
AM_4
100
AcDbLine
 10
-0.6199999999999998
 20
-2.058223304703364
 30
0.0
 11
0.0000000000000001
 21
-2.058223304703364
 31
0.0
  0
LINE
  5
173
330
12F
100
AcDbEntity
  8
AM_4
100
AcDbLine
 10
-0.5579999999999998
 20
-1.474438092565734
 30
0.0
 11
-0.5579999999999998
 21
1.474438092565733
 31
0.0
  0
LINE
  5
174
330
12F
100
AcDbEntity
  8
AM_4
100
AcDbLine
 10
-0.6199999999999998
 20
-1.881446609406728
 30
0.0
 11
0.0000000000000001
 21
-1.881446609406728
 31
0.0
  0
LINE
  5
175
330
12F
100
AcDbEntity
  8
AM_4
100
AcDbLine
 10
-0.6199999999999998
 20
0.8581178541364506
 30
0.0
 11
-0.6199999999999998
 21
2.325
 31
0.0
  0
LINE
  5
176
330
12F
100
AcDbEntity
  8
AM_4
100
AcDbLine
 10
0.0000000000000001
 20
-2.325
 30
0.0
 11
0.0000000000000001
 21
2.325
 31
0.0
  0
LINE
  5
177
330
12F
100
AcDbEntity
  8
AM_4
100
AcDbLine
 10
-0.6199999999999998
 20
2.058223304703363
 30
0.0
 11
0.0000000000000001
 21
2.058223304703363
 31
0.0
  0
LINE
  5
178
330
12F
100
AcDbEntity
  8
AM_4
100
AcDbLine
 10
-0.6199999999999998
 20
1.881446609406727
 30
0.0
 11
0.0000000000000001
 21
1.881446609406727
 31
0.0
  0
LINE
  5
179
330
12F
100
AcDbEntity
  8
AM_4
100
AcDbLine
 10
-0.6199999999999998
 20
0.8581178541364506
 30
0.0
 11
-0.5579999999999998
 21
0.8581178541364506
 31
0.0
  0
LINE
  5
17A
330
12F
100
AcDbEntity
  8
AM_4
100
AcDbLine
 10
-0.5579999999999998
 20
1.474438092565733
 30
0.0
 11
-0.6199999999999998
 21
1.474438092565734
 31
0.0
  0
LINE
  5
17B
330
12F
100
AcDbEntity
  8
AM_4
100
AcDbLine
 10
-0.5579999999999998
 20
-0.8581178541364507
 30
0.0
 11
-0.6199999999999998
 21
-0.8581178541364505
 31
0.0
  0
LINE
  5
17C
330
12F
100
AcDbEntity
  8
AM_4
100
AcDbLine
 10
-0.6199999999999998
 20
-2.325
 30
0.0
 11
-0.6199999999999998
 21
-0.8581178541364505
 31
0.0
  0
LINE
  5
17D
330
12F
100
AcDbEntity
  8
AM_4
100
AcDbLine
 10
-0.6199999999999998
 20
-1.474438092565734
 30
0.0
 11
-0.5579999999999998
 21
-1.474438092565734
 31
0.0
  0
ENDBLK
  5
132
330
12F
100
AcDbEntity
  8
0
100
AcDbBlockEnd
  0
ENDSEC
  0
SECTION
  2
ENTITIES
  0
INSERT
  5
6F
330
1F
100
AcDbEntity
  8
0
100
AcDbBlockReference
  2
1_127519_2
 10
0.0
 20
0.0
 30
0.0
  0
POINT
  5
17F
330
1F
100
AcDbEntity
  8
ConnectionPoints
100
AcDbPoint
 10
-0.13
 20
0.0
 30
0.0
  0
POINT
  5
180
330
1F
100
AcDbEntity
  8
ConnectionPoints
100
AcDbPoint
 10
-1.84
 20
0.0
 30
0.0000000000000001
  0
POINT
  5
181
330
1F
100
AcDbEntity
  8
ConnectionPoints
100
AcDbPoint
 10
-0.9650000000000001
 20
1.815
 30
0.0000000000000001
  0
POINT
  5
182
330
1F
100
AcDbEntity
  8
ConnectionPoints
100
AcDbPoint
 10
-1.84
 20
0.0
 30
0.0000000000000001
  0
ENDSEC
  0
SECTION
  2
OBJECTS
  0
DICTIONARY
  5
C
330
0
100
AcDbDictionary
281
     1
  3
ACAD_DETAILVIEWSTYLE
350
18A
  3
ACAD_GROUP
350
D
  3
ACAD_LAYOUT
350
1A
  3
ACAD_MATERIAL
350
43
  3
ACAD_MLEADERSTYLE
350
6B
  3
ACAD_MLINESTYLE
350
17
  3
ACAD_PLOTSETTINGS
350
19
  3
ACAD_PLOTSTYLENAME
350
E
  3
ACAD_SCALELIST
350
47
  3
ACAD_SECTIONVIEWSTYLE
350
18B
  3
ACAD_TABLESTYLE
350
69
  3
ACAD_VISUALSTYLE
350
2A
  3
ACDB_RECOMPOSE_DATA
350
187
  3
AcDbVariableDictionary
350
183
  0
SUN
  5
6D
330
29
100
AcDbSun
 90
        1
290
     0
 63
     7
421
 16777215
 40
1.0
291
     1
 91
  2455826
 92
 54000000
292
     0
 70
     2
 71
   256
280
     1
  0
DICTIONARY
  5
18A
102
{ACAD_REACTORS
330
C
102
}
330
C
100
AcDbDictionary
281
     1
  0
DICTIONARY
  5
D
102
{ACAD_REACTORS
330
C
102
}
330
C
100
AcDbDictionary
281
     1
  0
DICTIONARY
  5
1A
102
{ACAD_REACTORS
330
C
102
}
330
C
100
AcDbDictionary
281
     1
  3
Layout1
350
1E
  3
Layout2
350
26
  3
Model
350
22
  0
DICTIONARY
  5
43
102
{ACAD_REACTORS
330
C
102
}
330
C
100
AcDbDictionary
281
     1
  3
ByBlock
350
45
  3
ByLayer
350
44
  3
Global
350
46
  0
DICTIONARY
  5
6B
102
{ACAD_REACTORS
330
C
102
}
330
C
100
AcDbDictionary
281
     1
  3
Standard
350
6C
  0
DICTIONARY
  5
17
102
{ACAD_REACTORS
330
C
102
}
330
C
100
AcDbDictionary
281
     1
  3
Standard
350
18
  0
DICTIONARY
  5
19
102
{ACAD_REACTORS
330
C
102
}
330
C
100
AcDbDictionary
281
     1
  0
ACDBDICTIONARYWDFLT
  5
E
102
{ACAD_REACTORS
330
C
102
}
330
C
100
AcDbDictionary
281
     1
  3
Normal
350
F
100
AcDbDictionaryWithDefault
340
F
  0
DICTIONARY
  5
47
102
{ACAD_REACTORS
330
C
102
}
330
C
100
AcDbDictionary
281
     1
  3
A0
350
48
  3
A1
350
49
  3
A2
350
4A
  3
A3
350
4B
  3
A4
350
4C
  3
A5
350
4D
  3
A6
350
4E
  3
A7
350
4F
  3
A8
350
50
  3
A9
350
51
  3
B0
350
52
  3
B1
350
53
  3
B2
350
54
  3
B3
350
55
  3
B4
350
56
  3
B5
350
57
  3
B6
350
58
  3
B7
350
59
  3
B8
350
5A
  3
B9
350
5B
  3
C0
350
5C
  3
C1
350
5D
  3
C2
350
5E
  3
C3
350
5F
  3
C4
350
60
  3
C5
350
61
  3
C6
350
62
  3
C7
350
63
  3
C8
350
64
  3
C9
350
65
  3
D0
350
66
  3
D1
350
67
  3
D2
350
68
  0
DICTIONARY
  5
18B
102
{ACAD_REACTORS
330
C
102
}
330
C
100
AcDbDictionary
281
     1
  0
DICTIONARY
  5
69
102
{ACAD_REACTORS
330
C
102
}
330
C
100
AcDbDictionary
281
     1
  3
Standard
350
6A
  0
DICTIONARY
  5
2A
102
{ACAD_REACTORS
330
C
102
}
330
C
100
AcDbDictionary
281
     1
  3
2dWireframe
350
2F
  3
Basic
350
32
  3
Brighten
350
36
  3
ColorChange
350
3A
  3
Conceptual
350
34
  3
Dim
350
35
  3
EdgeColorOff
350
3D
  3
Facepattern
350
39
  3
Flat
350
2B
  3
FlatWithEdges
350
2C
  3
Gouraud
350
2D
  3
GouraudWithEdges
350
2E
  3
Hidden
350
31
  3
JitterOff
350
3B
  3
Linepattern
350
38
  3
OverhangOff
350
3C
  3
Realistic
350
33
  3
Shaded
350
42
  3
Shaded with edges
350
41
  3
Shades of Gray
350
3E
  3
Sketchy
350
3F
  3
Thicken
350
37
  3
Wireframe
350
30
  3
X-Ray
350
40
  0
XRECORD
  5
187
102
{ACAD_REACTORS
330
C
102
}
330
C
100
AcDbXrecord
280
     1
 90
        1
330
6A
  0
DICTIONARY
  5
183
102
{ACAD_REACTORS
330
C
102
}
330
C
100
AcDbDictionary
281
     1
  3
CANNOSCALE
350
184
  3
CMLEADERSTYLE
350
189
  3
CTABLESTYLE
350
188
  0
LAYOUT
  5
1E
102
{ACAD_REACTORS
330
1A
102
}
330
1A
100
AcDbPlotSettings
  1

  2
none_device
  4

  6

 40
0.0
 41
0.0
 42
0.0
 43
0.0
 44
0.0
 45
0.0
 46
0.0
 47
0.0
 48
0.0
 49
0.0
140
0.0
141
0.0
142
1.0
143
1.0
 70
   688
 72
     0
 73
     0
 74
     5
  7

 75
    16
 76
     0
 77
     2
 78
   300
147
1.0
148
0.0
149
0.0
100
AcDbLayout
  1
Layout1
 70
     1
 71
     1
 10
0.0
 20
0.0
 11
12.0
 21
9.0
 12
0.0
 22
0.0
 32
0.0
 14
1.000000000000000E+20
 24
1.000000000000000E+20
 34
1.000000000000000E+20
 15
-1.000000000000000E+20
 25
-1.000000000000000E+20
 35
-1.000000000000000E+20
146
0.0
 13
0.0
 23
0.0
 33
0.0
 16
1.0
 26
0.0
 36
0.0
 17
0.0
 27
1.0
 37
0.0
 76
     0
330
1B
  0
LAYOUT
  5
26
102
{ACAD_REACTORS
330
1A
102
}
330
1A
100
AcDbPlotSettings
  1

  2
none_device
  4

  6

 40
0.0
 41
0.0
 42
0.0
 43
0.0
 44
0.0
 45
0.0
 46
0.0
 47
0.0
 48
0.0
 49
0.0
140
0.0
141
0.0
142
1.0
143
1.0
 70
   688
 72
     0
 73
     0
 74
     5
  7

 75
    16
 76
     0
 77
     2
 78
   300
147
1.0
148
0.0
149
0.0
100
AcDbLayout
  1
Layout2
 70
     1
 71
     2
 10
0.0
 20
0.0
 11
0.0
 21
0.0
 12
0.0
 22
0.0
 32
0.0
 14
0.0
 24
0.0
 34
0.0
 15
0.0
 25
0.0
 35
0.0
146
0.0
 13
0.0
 23
0.0
 33
0.0
 16
1.0
 26
0.0
 36
0.0
 17
0.0
 27
1.0
 37
0.0
 76
     0
330
23
  0
LAYOUT
  5
22
102
{ACAD_REACTORS
330
1A
102
}
330
1A
100
AcDbPlotSettings
  1

  2
none_device
  4
Letter_(8.50_x_11.00_Inches)
  6

 40
6.35
 41
6.35
 42
6.35000508
 43
6.35000508
 44
215.9
 45
279.4
 46
0.0
 47
0.0
 48
0.0
 49
0.0
140
0.0
141
0.0
142
1.0
143
1.0
 70
  1712
 72
     0
 73
     0
 74
     0
  7

 75
     0
 76
     0
 77
     2
 78
   300
147
1.0
148
0.0
149
0.0
100
AcDbLayout
  1
Model
 70
     1
 71
     0
 10
0.0
 20
0.0
 11
12.0
 21
9.0
 12
0.0
 22
0.0
 32
0.0
 14
1.000000000000000E+20
 24
1.000000000000000E+20
 34
1.000000000000000E+20
 15
-1.000000000000000E+20
 25
-1.000000000000000E+20
 35
-1.000000000000000E+20
146
0.0
 13
0.0
 23
0.0
 33
0.0
 16
1.0
 26
0.0
 36
0.0
 17
0.0
 27
1.0
 37
0.0
 76
     0
330
1F
331
29
  0
MATERIAL
  5
45
102
{ACAD_REACTORS
330
43
102
}
330
43
100
AcDbMaterial
  1
ByBlock
 72
     1
 94
      127
  0
MATERIAL
  5
44
102
{ACAD_REACTORS
330
43
102
}
330
43
100
AcDbMaterial
  1
ByLayer
 72
     1
 94
      127
  0
MATERIAL
  5
46
102
{ACAD_REACTORS
330
43
102
}
330
43
100
AcDbMaterial
  1
Global
 72
     1
 94
      127
  0
MLEADERSTYLE
  5
6C
102
{ACAD_REACTORS
330
6B
102
}
330
6B
100
AcDbMLeaderStyle
179
     2
170
     2
171
     1
172
     0
 90
        2
 40
0.0
 41
0.0
173
     1
 91
-1056964608
340
14
 92
       -2
290
     1
 42
0.09
291
     1
 43
0.36
  3
Standard
341
0
 44
0.18
300

342
11
174
     1
178
     6
175
     1
176
     0
 93
-1056964608
 45
0.18
292
     0
297
     0
 46
0.18
343
0
 94
-1056964608
 47
1.0
 49
1.0
140
1.0
293
     1
141
0.0
294
     1
177
     0
142
1.0
295
     0
296
     0
143
0.125
271
     0
272
     9
273
     9
298
     0
  0
MLINESTYLE
  5
18
102
{ACAD_REACTORS
330
17
102
}
330
17
100
AcDbMlineStyle
  2
Standard
 70
     0
  3

 62
   256
 51
90.0
 52
90.0
 71
     2
 49
0.5
 62
   256
  6
BYLAYER
 49
-0.5
 62
   256
  6
BYLAYER
  0
ACDBPLACEHOLDER
  5
F
102
{ACAD_REACTORS
330
E
102
}
330
E
  0
SCALE
  5
48
102
{ACAD_REACTORS
330
47
102
}
330
47
100
AcDbScale
 70
     0
300
1:1
140
1.0
141
1.0
290
     1
  0
SCALE
  5
49
102
{ACAD_REACTORS
330
47
102
}
330
47
100
AcDbScale
 70
     0
300
1:2
140
1.0
141
2.0
290
     0
  0
SCALE
  5
4A
102
{ACAD_REACTORS
330
47
102
}
330
47
100
AcDbScale
 70
     0
300
1:4
140
1.0
141
4.0
290
     0
  0
SCALE
  5
4B
102
{ACAD_REACTORS
330
47
102
}
330
47
100
AcDbScale
 70
     0
300
1:5
140
1.0
141
5.0
290
     0
  0
SCALE
  5
4C
102
{ACAD_REACTORS
330
47
102
}
330
47
100
AcDbScale
 70
     0
300
1:8
140
1.0
141
8.0
290
     0
  0
SCALE
  5
4D
102
{ACAD_REACTORS
330
47
102
}
330
47
100
AcDbScale
 70
     0
300
1:10
140
1.0
141
10.0
290
     0
  0
SCALE
  5
4E
102
{ACAD_REACTORS
330
47
102
}
330
47
100
AcDbScale
 70
     0
300
1:16
140
1.0
141
16.0
290
     0
  0
SCALE
  5
4F
102
{ACAD_REACTORS
330
47
102
}
330
47
100
AcDbScale
 70
     0
300
1:20
140
1.0
141
20.0
290
     0
  0
SCALE
  5
50
102
{ACAD_REACTORS
330
47
102
}
330
47
100
AcDbScale
 70
     0
300
1:30
140
1.0
141
30.0
290
     0
  0
SCALE
  5
51
102
{ACAD_REACTORS
330
47
102
}
330
47
100
AcDbScale
 70
     0
300
1:40
140
1.0
141
40.0
290
     0
  0
SCALE
  5
52
102
{ACAD_REACTORS
330
47
102
}
330
47
100
AcDbScale
 70
     0
300
1:50
140
1.0
141
50.0
290
     0
  0
SCALE
  5
53
102
{ACAD_REACTORS
330
47
102
}
330
47
100
AcDbScale
 70
     0
300
1:100
140
1.0
141
100.0
290
     0
  0
SCALE
  5
54
102
{ACAD_REACTORS
330
47
102
}
330
47
100
AcDbScale
 70
     0
300
2:1
140
2.0
141
1.0
290
     0
  0
SCALE
  5
55
102
{ACAD_REACTORS
330
47
102
}
330
47
100
AcDbScale
 70
     0
300
4:1
140
4.0
141
1.0
290
     0
  0
SCALE
  5
56
102
{ACAD_REACTORS
330
47
102
}
330
47
100
AcDbScale
 70
     0
300
8:1
140
8.0
141
1.0
290
     0
  0
SCALE
  5
57
102
{ACAD_REACTORS
330
47
102
}
330
47
100
AcDbScale
 70
     0
300
10:1
140
10.0
141
1.0
290
     0
  0
SCALE
  5
58
102
{ACAD_REACTORS
330
47
102
}
330
47
100
AcDbScale
 70
     0
300
100:1
140
100.0
141
1.0
290
     0
  0
SCALE
  5
59
102
{ACAD_REACTORS
330
47
102
}
330
47
100
AcDbScale
 70
     0
300
1/128" = 1'-0"
140
0.0078125
141
12.0
290
     0
  0
SCALE
  5
5A
102
{ACAD_REACTORS
330
47
102
}
330
47
100
AcDbScale
 70
     0
300
1/64" = 1'-0"
140
0.015625
141
12.0
290
     0
  0
SCALE
  5
5B
102
{ACAD_REACTORS
330
47
102
}
330
47
100
AcDbScale
 70
     0
300
1/32" = 1'-0"
140
0.03125
141
12.0
290
     0
  0
SCALE
  5
5C
102
{ACAD_REACTORS
330
47
102
}
330
47
100
AcDbScale
 70
     0
300
1/16" = 1'-0"
140
0.0625
141
12.0
290
     0
  0
SCALE
  5
5D
102
{ACAD_REACTORS
330
47
102
}
330
47
100
AcDbScale
 70
     0
300
3/32" = 1'-0"
140
0.09375
141
12.0
290
     0
  0
SCALE
  5
5E
102
{ACAD_REACTORS
330
47
102
}
330
47
100
AcDbScale
 70
     0
300
1/8" = 1'-0"
140
0.125
141
12.0
290
     0
  0
SCALE
  5
5F
102
{ACAD_REACTORS
330
47
102
}
330
47
100
AcDbScale
 70
     0
300
3/16" = 1'-0"
140
0.1875
141
12.0
290
     0
  0
SCALE
  5
60
102
{ACAD_REACTORS
330
47
102
}
330
47
100
AcDbScale
 70
     0
300
1/4" = 1'-0"
140
0.25
141
12.0
290
     0
  0
SCALE
  5
61
102
{ACAD_REACTORS
330
47
102
}
330
47
100
AcDbScale
 70
     0
300
3/8" = 1'-0"
140
0.375
141
12.0
290
     0
  0
SCALE
  5
62
102
{ACAD_REACTORS
330
47
102
}
330
47
100
AcDbScale
 70
     0
300
1/2" = 1'-0"
140
0.5
141
12.0
290
     0
  0
SCALE
  5
63
102
{ACAD_REACTORS
330
47
102
}
330
47
100
AcDbScale
 70
     0
300
3/4" = 1'-0"
140
0.75
141
12.0
290
     0
  0
SCALE
  5
64
102
{ACAD_REACTORS
330
47
102
}
330
47
100
AcDbScale
 70
     0
300
1" = 1'-0"
140
1.0
141
12.0
290
     0
  0
SCALE
  5
65
102
{ACAD_REACTORS
330
47
102
}
330
47
100
AcDbScale
 70
     0
300
1-1/2" = 1'-0"
140
1.5
141
12.0
290
     0
  0
SCALE
  5
66
102
{ACAD_REACTORS
330
47
102
}
330
47
100
AcDbScale
 70
     0
300
3" = 1'-0"
140
3.0
141
12.0
290
     0
  0
SCALE
  5
67
102
{ACAD_REACTORS
330
47
102
}
330
47
100
AcDbScale
 70
     0
300
6" = 1'-0"
140
6.0
141
12.0
290
     0
  0
SCALE
  5
68
102
{ACAD_REACTORS
330
47
102
}
330
47
100
AcDbScale
 70
     0
300
1'-0" = 1'-0"
140
12.0
141
12.0
290
     0
  0
TABLESTYLE
  5
6A
102
{ACAD_REACTORS
330
69
102
}
102
{ACAD_XDICTIONARY
360
185
102
}
330
69
100
AcDbTableStyle
  3
Standard
 70
     0
 71
     0
 40
0.06
 41
0.06
280
     0
281
     0
  7
Standard
140
0.18
170
     2
 62
     0
 63
   257
283
     0
 90
        4
 91
        0
  1

274
    -2
284
     1
 64
     0
275
    -2
285
     1
 65
     0
276
    -2
286
     1
 66
     0
277
    -2
287
     1
 67
     0
278
    -2
288
     1
 68
     0
279
    -2
289
     1
 69
     0
  7
Standard
140
0.25
170
     5
 62
     0
 63
   257
283
     0
 90
        4
 91
        0
  1

274
    -2
284
     1
 64
     0
275
    -2
285
     1
 65
     0
276
    -2
286
     1
 66
     0
277
    -2
287
     1
 67
     0
278
    -2
288
     1
 68
     0
279
    -2
289
     1
 69
     0
  7
Standard
140
0.18
170
     5
 62
     0
 63
   257
283
     0
 90
        4
 91
        0
  1

274
    -2
284
     1
 64
     0
275
    -2
285
     1
 65
     0
276
    -2
286
     1
 66
     0
277
    -2
287
     1
 67
     0
278
    -2
288
     1
 68
     0
279
    -2
289
     1
 69
     0
  0
VISUALSTYLE
  5
2F
102
{ACAD_REACTORS
330
2A
102
}
330
2A
100
AcDbVisualStyle
  2
2dWireframe
 70
     4
177
     3
291
     0
 70
    58
 90
        0
176
     1
 90
        2
176
     1
 90
        0
176
     1
 90
        0
176
     1
 40
0.6
176
     1
 40
30.0
176
     1
 62
     7
420
 16777215
176
     1
 90
        1
176
     1
 90
        4
176
     1
 62
     7
176
     1
 62
   257
176
     1
 90
        1
176
     1
 90
        1
176
     1
 40
1.0
176
     1
 90
        0
176
     1
 62
   257
176
     1
 40
1.0
176
     1
 90
        1
176
     1
 90
        6
176
     1
 90
        2
176
     1
 62
     7
176
     1
 90
        5
176
     1
 90
        0
176
     1
 90
        0
176
     1
290
     0
176
     1
 90
        1
176
     1
 40
0.0
176
     1
 90
        0
176
     1
290
     1
176
     1
290
     1
176
     1
290
     0
176
     1
290
     0
176
     1
290
     0
176
     1
290
     0
176
     1
290
     0
176
     1
290
     0
176
     1
290
     0
176
     1
 90
       50
176
     1
 40
0.0
176
     1
 40
1.0
176
     1
 90
        0
176
     1
 62
    18
420
        0
176
     1
 90
       50
176
     1
 90
        3
176
     1
 62
     5
420
      255
176
     1
290
     0
176
     1
 90
       50
176
     1
 90
       50
176
     1
 90
       50
176
     1
290
     0
176
     1
 90
       50
176
     1
 62
   256
176
     0
 40
1.0
176
     0
 90
        2
176
     1
  1
strokes_ogs.tif
176
     1
290
     0
176
     1
 40
1.0
176
     1
 40
1.0
176
     1
  0
VISUALSTYLE
  5
32
102
{ACAD_REACTORS
330
2A
102
}
330
2A
100
AcDbVisualStyle
  2
Basic
 70
     7
177
     3
291
     1
 70
    58
 90
        1
176
     1
 90
        0
176
     1
 90
        1
176
     1
 90
        0
176
     1
 40
0.6
176
     1
 40
30.0
176
     1
 62
     7
420
 16777215
176
     1
 90
        0
176
     1
 90
        4
176
     1
 62
     7
176
     1
 62
   257
176
     1
 90
        1
176
     1
 90
        1
176
     1
 40
1.0
176
     1
 90
        8
176
     1
 62
     7
176
     1
 40
1.0
176
     1
 90
        1
176
     1
 90
        6
176
     1
 90
        2
176
     1
 62
     7
176
     1
 90
        5
176
     1
 90
        0
176
     1
 90
        0
176
     1
290
     0
176
     1
 90
        1
176
     1
 40
0.0
176
     1
 90
        0
176
     1
290
     0
176
     1
290
     1
176
     1
290
     1
176
     1
290
     0
176
     1
290
     0
176
     1
290
     0
176
     1
290
     0
176
     1
290
     0
176
     1
290
     0
176
     1
 90
       50
176
     1
 40
0.0
176
     1
 40
1.0
176
     1
 90
        0
176
     1
 62
    18
420
        0
176
     1
 90
       50
176
     1
 90
        3
176
     1
 62
     5
420
      255
176
     1
290
     0
176
     1
 90
       50
176
     1
 90
       50
176
     1
 90
       50
176
     1
290
     0
176
     1
 90
       50
176
     1
 62
   256
176
     0
 40
1.0
176
     0
 90
        2
176
     1
  1
strokes_ogs.tif
176
     1
290
     0
176
     1
 40
1.0
176
     1
 40
1.0
176
     1
  0
VISUALSTYLE
  5
36
102
{ACAD_REACTORS
330
2A
102
}
330
2A
100
AcDbVisualStyle
  2
Brighten
 70
    12
177
     3
291
     1
 70
    58
 90
        2
176
     1
 90
        2
176
     1
 90
        0
176
     1
 90
        0
176
     1
 40
0.6
176
     1
 40
30.0
176
     1
 62
     7
420
 16777215
176
     1
 90
        1
176
     1
 90
        4
176
     1
 62
     7
176
     1
 62
   257
176
     1
 90
        1
176
     1
 90
        1
176
     1
 40
1.0
176
     1
 90
        8
176
     1
 62
     7
176
     1
 40
1.0
176
     1
 90
        1
176
     1
 90
        6
176
     1
 90
        2
176
     1
 62
     7
176
     1
 90
        5
176
     1
 90
        0
176
     1
 90
        0
176
     1
290
     0
176
     1
 90
        1
176
     1
 40
50.0
176
     1
 90
        0
176
     1
290
     0
176
     1
290
     1
176
     1
290
     1
176
     1
290
     0
176
     1
290
     0
176
     1
290
     0
176
     1
290
     0
176
     1
290
     0
176
     1
290
     0
176
     1
 90
       50
176
     1
 40
0.0
176
     1
 40
1.0
176
     1
 90
        0
176
     1
 62
    18
420
        0
176
     1
 90
       50
176
     1
 90
        3
176
     1
 62
     5
420
      255
176
     1
290
     0
176
     1
 90
       50
176
     1
 90
       50
176
     1
 90
       50
176
     1
290
     0
176
     1
 90
       50
176
     1
 62
   256
176
     0
 40
1.0
176
     0
 90
        2
176
     1
  1
strokes_ogs.tif
176
     1
290
     0
176
     1
 40
1.0
176
     1
 40
1.0
176
     1
  0
VISUALSTYLE
  5
3A
102
{ACAD_REACTORS
330
2A
102
}
330
2A
100
AcDbVisualStyle
  2
ColorChange
 70
    16
177
     3
291
     1
 70
    58
 90
        2
176
     1
 90
        2
176
     1
 90
        3
176
     1
 90
        0
176
     1
 40
0.6
176
     1
 40
30.0
176
     1
 62
     8
420
  8421504
176
     1
 90
        1
176
     1
 90
        4
176
     1
 62
     7
176
     1
 62
   257
176
     1
 90
        1
176
     1
 90
        1
176
     1
 40
1.0
176
     1
 90
        8
176
     1
 62
     8
420
  8421504
176
     1
 40
1.0
176
     1
 90
        1
176
     1
 90
        6
176
     1
 90
        2
176
     1
 62
     7
176
     1
 90
        5
176
     1
 90
        0
176
     1
 90
        0
176
     1
290
     0
176
     1
 90
        1
176
     1
 40
0.0
176
     1
 90
        0
176
     1
290
     0
176
     1
290
     1
176
     1
290
     1
176
     1
290
     0
176
     1
290
     0
176
     1
290
     0
176
     1
290
     0
176
     1
290
     0
176
     1
290
     0
176
     1
 90
       50
176
     1
 40
0.0
176
     1
 40
1.0
176
     1
 90
        0
176
     1
 62
    18
420
        0
176
     1
 90
       50
176
     1
 90
        3
176
     1
 62
     5
420
      255
176
     1
290
     0
176
     1
 90
       50
176
     1
 90
       50
176
     1
 90
       50
176
     1
290
     0
176
     1
 90
       50
176
     1
 62
   256
176
     0
 40
1.0
176
     0
 90
        2
176
     1
  1
strokes_ogs.tif
176
     1
290
     0
176
     1
 40
1.0
176
     1
 40
1.0
176
     1
  0
VISUALSTYLE
  5
34
102
{ACAD_REACTORS
330
2A
102
}
330
2A
100
AcDbVisualStyle
  2
Conceptual
 70
     9
177
     3
291
     0
 70
    58
 90
        3
176
     1
 90
        2
176
     1
 90
        0
176
     1
 90
        0
176
     1
 40
0.6
176
     1
 40
30.0
176
     1
 62
     7
420
 16777215
176
     1
 90
        2
176
     1
 90
        2
176
     1
 62
     7
176
     1
 62
   257
176
     1
 90
        1
176
     1
 90
        1
176
     1
 40
179.0
176
     1
 90
        8
176
     1
 62
     7
176
     1
 40
1.0
176
     1
 90
        1
176
     1
 90
        6
176
     1
 90
        2
176
     1
 62
     7
176
     1
 90
        3
176
     1
 90
        0
176
     1
 90
        0
176
     1
290
     0
176
     1
 90
        1
176
     1
 40
0.0
176
     1
 90
        0
176
     1
290
     0
176
     1
290
     1
176
     1
290
     1
176
     1
290
     0
176
     1
290
     0
176
     1
290
     0
176
     1
290
     0
176
     1
290
     0
176
     1
290
     0
176
     1
 90
       50
176
     1
 40
0.0
176
     1
 40
1.0
176
     1
 90
        0
176
     1
 62
    18
420
        0
176
     1
 90
       50
176
     1
 90
        3
176
     1
 62
     5
420
      255
176
     1
290
     0
176
     1
 90
       50
176
     1
 90
       50
176
     1
 90
       50
176
     1
290
     0
176
     1
 90
       50
176
     1
 62
   256
176
     0
 40
1.0
176
     0
 90
        2
176
     1
  1
strokes_ogs.tif
176
     1
290
     0
176
     1
 40
1.0
176
     1
 40
1.0
176
     1
  0
VISUALSTYLE
  5
35
102
{ACAD_REACTORS
330
2A
102
}
330
2A
100
AcDbVisualStyle
  2
Dim
 70
    11
177
     3
291
     1
 70
    58
 90
        2
176
     1
 90
        2
176
     1
 90
        0
176
     1
 90
        0
176
     1
 40
0.6
176
     1
 40
30.0
176
     1
 62
     7
420
 16777215
176
     1
 90
        1
176
     1
 90
        4
176
     1
 62
     7
176
     1
 62
   257
176
     1
 90
        1
176
     1
 90
        1
176
     1
 40
1.0
176
     1
 90
        8
176
     1
 62
     7
176
     1
 40
1.0
176
     1
 90
        1
176
     1
 90
        6
176
     1
 90
        2
176
     1
 62
     7
176
     1
 90
        5
176
     1
 90
        0
176
     1
 90
        0
176
     1
290
     0
176
     1
 90
        1
176
     1
 40
-50.0
176
     1
 90
        0
176
     1
290
     0
176
     1
290
     1
176
     1
290
     1
176
     1
290
     0
176
     1
290
     0
176
     1
290
     0
176
     1
290
     0
176
     1
290
     0
176
     1
290
     0
176
     1
 90
       50
176
     1
 40
0.0
176
     1
 40
1.0
176
     1
 90
        0
176
     1
 62
    18
420
        0
176
     1
 90
       50
176
     1
 90
        3
176
     1
 62
     5
420
      255
176
     1
290
     0
176
     1
 90
       50
176
     1
 90
       50
176
     1
 90
       50
176
     1
290
     0
176
     1
 90
       50
176
     1
 62
   256
176
     0
 40
1.0
176
     0
 90
        2
176
     1
  1
strokes_ogs.tif
176
     1
290
     0
176
     1
 40
1.0
176
     1
 40
1.0
176
     1
  0
VISUALSTYLE
  5
3D
102
{ACAD_REACTORS
330
2A
102
}
330
2A
100
AcDbVisualStyle
  2
EdgeColorOff
 70
    22
177
     3
291
     1
 70
    58
 90
        2
176
     0
 90
        2
176
     0
 90
        0
176
     0
 90
        0
176
     0
 40
0.6
176
     0
 40
30.0
176
     0
 62
     7
420
 16777215
176
     0
 90
        1
176
     0
 90
        4
176
     0
 62
     7
176
     0
 62
   257
176
     0
 90
        1
176
     0
 90
        1
176
     0
 40
1.0
176
     0
 90
        8
176
     2
 62
     7
176
     0
 40
1.0
176
     0
 90
        1
176
     0
 90
        6
176
     0
 90
        2
176
     0
 62
     7
176
     0
 90
        5
176
     0
 90
        0
176
     0
 90
        0
176
     0
290
     0
176
     0
 90
        1
176
     0
 40
0.0
176
     0
 90
        0
176
     0
290
     0
176
     0
290
     1
176
     0
290
     1
176
     0
290
     0
176
     0
290
     0
176
     0
290
     0
176
     0
290
     0
176
     0
290
     0
176
     0
290
     0
176
     0
 90
       50
176
     0
 40
0.0
176
     0
 40
1.0
176
     0
 90
        0
176
     0
 62
    18
420
        0
176
     0
 90
       50
176
     0
 90
        3
176
     0
 62
     5
420
      255
176
     0
290
     0
176
     0
 90
       50
176
     0
 90
       50
176
     0
 90
       50
176
     0
290
     0
176
     0
 90
       50
176
     0
 62
   256
176
     0
 40
1.0
176
     0
 90
        2
176
     0
  1
strokes_ogs.tif
176
     0
290
     0
176
     0
 40
1.0
176
     0
 40
1.0
176
     0
  0
VISUALSTYLE
  5
39
102
{ACAD_REACTORS
330
2A
102
}
330
2A
100
AcDbVisualStyle
  2
Facepattern
 70
    15
177
     3
291
     1
 70
    58
 90
        2
176
     1
 90
        2
176
     1
 90
        0
176
     1
 90
        0
176
     1
 40
0.6
176
     1
 40
30.0
176
     1
 62
     7
420
 16777215
176
     1
 90
        1
176
     1
 90
        4
176
     1
 62
     7
176
     1
 62
   257
176
     1
 90
        1
176
     1
 90
        1
176
     1
 40
1.0
176
     1
 90
        8
176
     1
 62
     7
176
     1
 40
1.0
176
     1
 90
        1
176
     1
 90
        6
176
     1
 90
        2
176
     1
 62
     7
176
     1
 90
        5
176
     1
 90
        0
176
     1
 90
        0
176
     1
290
     0
176
     1
 90
        1
176
     1
 40
0.0
176
     1
 90
        0
176
     1
290
     0
176
     1
290
     1
176
     1
290
     1
176
     1
290
     0
176
     1
290
     0
176
     1
290
     0
176
     1
290
     0
176
     1
290
     0
176
     1
290
     0
176
     1
 90
       50
176
     1
 40
0.0
176
     1
 40
1.0
176
     1
 90
        0
176
     1
 62
    18
420
        0
176
     1
 90
       50
176
     1
 90
        3
176
     1
 62
     5
420
      255
176
     1
290
     0
176
     1
 90
       50
176
     1
 90
       50
176
     1
 90
       50
176
     1
290
     0
176
     1
 90
       50
176
     1
 62
   256
176
     0
 40
1.0
176
     0
 90
        2
176
     1
  1
strokes_ogs.tif
176
     1
290
     0
176
     1
 40
1.0
176
     1
 40
1.0
176
     1
  0
VISUALSTYLE
  5
2B
102
{ACAD_REACTORS
330
2A
102
}
330
2A
100
AcDbVisualStyle
  2
Flat
 70
     0
177
     3
291
     1
 70
    58
 90
        2
176
     1
 90
        1
176
     1
 90
        1
176
     1
 90
        2
176
     1
 40
0.6
176
     1
 40
30.0
176
     1
 62
     7
420
 16777215
176
     1
 90
        0
176
     1
 90
        0
176
     1
 62
     7
176
     1
 62
   257
176
     1
 90
        1
176
     1
 90
        1
176
     1
 40
1.0
176
     1
 90
        8
176
     1
 62
     7
176
     1
 40
1.0
176
     1
 90
        1
176
     1
 90
        6
176
     1
 90
        2
176
     1
 62
     7
176
     1
 90
        5
176
     1
 90
        0
176
     1
 90
        0
176
     1
290
     0
176
     1
 90
       13
176
     1
 40
0.0
176
     1
 90
        0
176
     1
290
     0
176
     1
290
     1
176
     1
290
     1
176
     1
290
     0
176
     1
290
     0
176
     1
290
     0
176
     1
290
     0
176
     1
290
     0
176
     1
290
     0
176
     1
 90
       50
176
     1
 40
0.0
176
     1
 40
1.0
176
     1
 90
        0
176
     1
 62
    18
420
        0
176
     1
 90
       50
176
     1
 90
        3
176
     1
 62
     5
420
      255
176
     1
290
     0
176
     1
 90
       50
176
     1
 90
       50
176
     1
 90
       50
176
     1
290
     0
176
     1
 90
       50
176
     1
 62
   256
176
     0
 40
1.0
176
     0
 90
        2
176
     1
  1
strokes_ogs.tif
176
     1
290
     0
176
     1
 40
1.0
176
     1
 40
1.0
176
     1
  0
VISUALSTYLE
  5
2C
102
{ACAD_REACTORS
330
2A
102
}
330
2A
100
AcDbVisualStyle
  2
FlatWithEdges
 70
     1
177
     3
291
     1
 70
    58
 90
        2
176
     1
 90
        1
176
     1
 90
        1
176
     1
 90
        2
176
     1
 40
0.6
176
     1
 40
30.0
176
     1
 62
     7
420
 16777215
176
     1
 90
        1
176
     1
 90
        0
176
     1
 62
     7
176
     1
 62
   257
176
     1
 90
        1
176
     1
 90
        1
176
     1
 40
1.0
176
     1
 90
        0
176
     1
 62
   257
176
     1
 40
1.0
176
     1
 90
        1
176
     1
 90
        6
176
     1
 90
        2
176
     1
 62
     7
176
     1
 90
        5
176
     1
 90
        0
176
     1
 90
        0
176
     1
290
     0
176
     1
 90
       13
176
     1
 40
0.0
176
     1
 90
        0
176
     1
290
     0
176
     1
290
     1
176
     1
290
     1
176
     1
290
     0
176
     1
290
     0
176
     1
290
     0
176
     1
290
     0
176
     1
290
     0
176
     1
290
     0
176
     1
 90
       50
176
     1
 40
0.0
176
     1
 40
1.0
176
     1
 90
        0
176
     1
 62
    18
420
        0
176
     1
 90
       50
176
     1
 90
        3
176
     1
 62
     5
420
      255
176
     1
290
     0
176
     1
 90
       50
176
     1
 90
       50
176
     1
 90
       50
176
     1
290
     0
176
     1
 90
       50
176
     1
 62
   256
176
     0
 40
1.0
176
     0
 90
        2
176
     1
  1
strokes_ogs.tif
176
     1
290
     0
176
     1
 40
1.0
176
     1
 40
1.0
176
     1
  0
VISUALSTYLE
  5
2D
102
{ACAD_REACTORS
330
2A
102
}
330
2A
100
AcDbVisualStyle
  2
Gouraud
 70
     2
177
     3
291
     1
 70
    58
 90
        2
176
     1
 90
        2
176
     1
 90
        1
176
     1
 90
        2
176
     1
 40
0.6
176
     1
 40
30.0
176
     1
 62
     7
420
 16777215
176
     1
 90
        0
176
     1
 90
        0
176
     1
 62
     7
176
     1
 62
   257
176
     1
 90
        1
176
     1
 90
        1
176
     1
 40
1.0
176
     1
 90
        0
176
     1
 62
     7
176
     1
 40
1.0
176
     1
 90
        1
176
     1
 90
        6
176
     1
 90
        2
176
     1
 62
     7
176
     1
 90
        5
176
     1
 90
        0
176
     1
 90
        0
176
     1
290
     0
176
     1
 90
       13
176
     1
 40
0.0
176
     1
 90
        0
176
     1
290
     0
176
     1
290
     1
176
     1
290
     1
176
     1
290
     0
176
     1
290
     0
176
     1
290
     0
176
     1
290
     0
176
     1
290
     0
176
     1
290
     0
176
     1
 90
       50
176
     1
 40
0.0
176
     1
 40
1.0
176
     1
 90
        0
176
     1
 62
    18
420
        0
176
     1
 90
       50
176
     1
 90
        3
176
     1
 62
     5
420
      255
176
     1
290
     0
176
     1
 90
       50
176
     1
 90
       50
176
     1
 90
       50
176
     1
290
     0
176
     1
 90
       50
176
     1
 62
   256
176
     0
 40
1.0
176
     0
 90
        2
176
     1
  1
strokes_ogs.tif
176
     1
290
     0
176
     1
 40
1.0
176
     1
 40
1.0
176
     1
  0
VISUALSTYLE
  5
2E
102
{ACAD_REACTORS
330
2A
102
}
330
2A
100
AcDbVisualStyle
  2
GouraudWithEdges
 70
     3
177
     3
291
     1
 70
    58
 90
        2
176
     1
 90
        2
176
     1
 90
        1
176
     1
 90
        2
176
     1
 40
0.6
176
     1
 40
30.0
176
     1
 62
     7
420
 16777215
176
     1
 90
        1
176
     1
 90
        0
176
     1
 62
     7
176
     1
 62
   257
176
     1
 90
        1
176
     1
 90
        1
176
     1
 40
1.0
176
     1
 90
        0
176
     1
 62
   257
176
     1
 40
1.0
176
     1
 90
        1
176
     1
 90
        6
176
     1
 90
        2
176
     1
 62
     7
176
     1
 90
        5
176
     1
 90
        0
176
     1
 90
        0
176
     1
290
     0
176
     1
 90
       13
176
     1
 40
0.0
176
     1
 90
        0
176
     1
290
     0
176
     1
290
     1
176
     1
290
     1
176
     1
290
     0
176
     1
290
     0
176
     1
290
     0
176
     1
290
     0
176
     1
290
     0
176
     1
290
     0
176
     1
 90
       50
176
     1
 40
0.0
176
     1
 40
1.0
176
     1
 90
        0
176
     1
 62
    18
420
        0
176
     1
 90
       50
176
     1
 90
        3
176
     1
 62
     5
420
      255
176
     1
290
     0
176
     1
 90
       50
176
     1
 90
       50
176
     1
 90
       50
176
     1
290
     0
176
     1
 90
       50
176
     1
 62
   256
176
     0
 40
1.0
176
     0
 90
        2
176
     1
  1
strokes_ogs.tif
176
     1
290
     0
176
     1
 40
1.0
176
     1
 40
1.0
176
     1
  0
VISUALSTYLE
  5
31
102
{ACAD_REACTORS
330
2A
102
}
330
2A
100
AcDbVisualStyle
  2
Hidden
 70
     6
177
     3
291
     0
 70
    58
 90
        1
176
     1
 90
        2
176
     1
 90
        2
176
     1
 90
        0
176
     1
 40
0.6
176
     1
 40
30.0
176
     1
 62
     7
420
 16777215
176
     1
 90
        2
176
     1
 90
        2
176
     1
 62
     7
176
     1
 62
   257
176
     1
 90
        2
176
     1
 90
        1
176
     1
 40
40.0
176
     1
 90
        0
176
     1
 62
   257
176
     1
 40
1.0
176
     1
 90
        1
176
     1
 90
        6
176
     1
 90
        2
176
     1
 62
     7
176
     1
 90
        3
176
     1
 90
        0
176
     1
 90
        0
176
     1
290
     0
176
     1
 90
        1
176
     1
 40
0.0
176
     1
 90
        0
176
     1
290
     0
176
     1
290
     1
176
     1
290
     1
176
     1
290
     0
176
     1
290
     0
176
     1
290
     0
176
     1
290
     0
176
     1
290
     0
176
     1
290
     0
176
     1
 90
       50
176
     1
 40
0.0
176
     1
 40
1.0
176
     1
 90
        0
176
     1
 62
    18
420
        0
176
     1
 90
       50
176
     1
 90
        3
176
     1
 62
     5
420
      255
176
     1
290
     0
176
     1
 90
       50
176
     1
 90
       50
176
     1
 90
       50
176
     1
290
     0
176
     1
 90
       50
176
     1
 62
   256
176
     0
 40
1.0
176
     0
 90
        2
176
     1
  1
strokes_ogs.tif
176
     1
290
     0
176
     1
 40
1.0
176
     1
 40
1.0
176
     1
  0
VISUALSTYLE
  5
3B
102
{ACAD_REACTORS
330
2A
102
}
330
2A
100
AcDbVisualStyle
  2
JitterOff
 70
    20
177
     3
291
     1
 70
    58
 90
        2
176
     0
 90
        2
176
     0
 90
        0
176
     0
 90
        0
176
     0
 40
0.6
176
     0
 40
30.0
176
     0
 62
     7
420
 16777215
176
     0
 90
        1
176
     0
 90
        4
176
     0
 62
     7
176
     0
 62
   257
176
     0
 90
        1
176
     0
 90
        1
176
     0
 40
1.0
176
     0
 90
       10
176
     2
 62
     7
176
     0
 40
1.0
176
     0
 90
        1
176
     0
 90
        6
176
     0
 90
        2
176
     0
 62
     7
176
     0
 90
        5
176
     0
 90
        0
176
     0
 90
        0
176
     0
290
     0
176
     0
 90
        1
176
     0
 40
0.0
176
     0
 90
        0
176
     0
290
     0
176
     0
290
     1
176
     0
290
     1
176
     0
290
     0
176
     0
290
     0
176
     0
290
     0
176
     0
290
     0
176
     0
290
     0
176
     0
290
     0
176
     0
 90
       50
176
     0
 40
0.0
176
     0
 40
1.0
176
     0
 90
        0
176
     0
 62
    18
420
        0
176
     0
 90
       50
176
     0
 90
        3
176
     0
 62
     5
420
      255
176
     0
290
     0
176
     0
 90
       50
176
     0
 90
       50
176
     0
 90
       50
176
     0
290
     0
176
     0
 90
       50
176
     0
 62
   256
176
     0
 40
1.0
176
     0
 90
        2
176
     0
  1
strokes_ogs.tif
176
     0
290
     0
176
     0
 40
1.0
176
     0
 40
1.0
176
     0
  0
VISUALSTYLE
  5
38
102
{ACAD_REACTORS
330
2A
102
}
330
2A
100
AcDbVisualStyle
  2
Linepattern
 70
    14
177
     3
291
     1
 70
    58
 90
        2
176
     1
 90
        2
176
     1
 90
        0
176
     1
 90
        0
176
     1
 40
0.6
176
     1
 40
30.0
176
     1
 62
     7
420
 16777215
176
     1
 90
        1
176
     1
 90
        4
176
     1
 62
     7
176
     1
 62
   257
176
     1
 90
        7
176
     1
 90
        7
176
     1
 40
1.0
176
     1
 90
        8
176
     1
 62
     7
176
     1
 40
1.0
176
     1
 90
        1
176
     1
 90
        6
176
     1
 90
        2
176
     1
 62
     7
176
     1
 90
        5
176
     1
 90
        0
176
     1
 90
        0
176
     1
290
     0
176
     1
 90
        1
176
     1
 40
0.0
176
     1
 90
        0
176
     1
290
     0
176
     1
290
     1
176
     1
290
     1
176
     1
290
     0
176
     1
290
     0
176
     1
290
     0
176
     1
290
     0
176
     1
290
     0
176
     1
290
     0
176
     1
 90
       50
176
     1
 40
0.0
176
     1
 40
1.0
176
     1
 90
        0
176
     1
 62
    18
420
        0
176
     1
 90
       50
176
     1
 90
        3
176
     1
 62
     5
420
      255
176
     1
290
     0
176
     1
 90
       50
176
     1
 90
       50
176
     1
 90
       50
176
     1
290
     0
176
     1
 90
       50
176
     1
 62
   256
176
     0
 40
1.0
176
     0
 90
        2
176
     1
  1
strokes_ogs.tif
176
     1
290
     0
176
     1
 40
1.0
176
     1
 40
1.0
176
     1
  0
VISUALSTYLE
  5
3C
102
{ACAD_REACTORS
330
2A
102
}
330
2A
100
AcDbVisualStyle
  2
OverhangOff
 70
    21
177
     3
291
     1
 70
    58
 90
        2
176
     0
 90
        2
176
     0
 90
        0
176
     0
 90
        0
176
     0
 40
0.6
176
     0
 40
30.0
176
     0
 62
     7
420
 16777215
176
     0
 90
        1
176
     0
 90
        4
176
     0
 62
     7
176
     0
 62
   257
176
     0
 90
        1
176
     0
 90
        1
176
     0
 40
1.0
176
     0
 90
        9
176
     2
 62
     7
176
     0
 40
1.0
176
     0
 90
        1
176
     0
 90
        6
176
     0
 90
        2
176
     0
 62
     7
176
     0
 90
        5
176
     0
 90
        0
176
     0
 90
        0
176
     0
290
     0
176
     0
 90
        1
176
     0
 40
0.0
176
     0
 90
        0
176
     0
290
     0
176
     0
290
     1
176
     0
290
     1
176
     0
290
     0
176
     0
290
     0
176
     0
290
     0
176
     0
290
     0
176
     0
290
     0
176
     0
290
     0
176
     0
 90
       50
176
     0
 40
0.0
176
     0
 40
1.0
176
     0
 90
        0
176
     0
 62
    18
420
        0
176
     0
 90
       50
176
     0
 90
        3
176
     0
 62
     5
420
      255
176
     0
290
     0
176
     0
 90
       50
176
     0
 90
       50
176
     0
 90
       50
176
     0
290
     0
176
     0
 90
       50
176
     0
 62
   256
176
     0
 40
1.0
176
     0
 90
        2
176
     0
  1
strokes_ogs.tif
176
     0
290
     0
176
     0
 40
1.0
176
     0
 40
1.0
176
     0
  0
VISUALSTYLE
  5
33
102
{ACAD_REACTORS
330
2A
102
}
330
2A
100
AcDbVisualStyle
  2
Realistic
 70
     8
177
     3
291
     0
 70
    58
 90
        2
176
     1
 90
        3
176
     1
 90
        0
176
     1
 90
        2
176
     1
 40
0.6
176
     1
 40
30.0
176
     1
 62
     7
420
 16777215
176
     1
 90
        0
176
     1
 90
        0
176
     1
 62
     7
176
     1
 62
   257
176
     1
 90
        1
176
     1
 90
        1
176
     1
 40
1.0
176
     1
 90
        8
176
     1
 62
   257
176
     1
 40
1.0
176
     1
 90
        1
176
     1
 90
        6
176
     1
 90
        2
176
     1
 62
     7
176
     1
 90
        3
176
     1
 90
        0
176
     1
 90
        0
176
     1
290
     0
176
     1
 90
       13
176
     1
 40
0.0
176
     1
 90
        0
176
     1
290
     0
176
     1
290
     1
176
     1
290
     1
176
     1
290
     0
176
     1
290
     0
176
     1
290
     0
176
     1
290
     0
176
     1
290
     0
176
     1
290
     0
176
     1
 90
       50
176
     1
 40
0.0
176
     1
 40
1.0
176
     1
 90
        0
176
     1
 62
    18
420
        0
176
     1
 90
       50
176
     1
 90
        3
176
     1
 62
     5
420
      255
176
     1
290
     0
176
     1
 90
       50
176
     1
 90
       50
176
     1
 90
       50
176
     1
290
     0
176
     1
 90
       50
176
     1
 62
   256
176
     0
 40
1.0
176
     0
 90
        2
176
     1
  1
strokes_ogs.tif
176
     1
290
     0
176
     1
 40
1.0
176
     1
 40
1.0
176
     1
  0
VISUALSTYLE
  5
42
102
{ACAD_REACTORS
330
2A
102
}
330
2A
100
AcDbVisualStyle
  2
Shaded
 70
    27
177
     3
291
     0
 70
    58
 90
        2
176
     1
 90
        2
176
     1
 90
        1
176
     1
 90
        2
176
     1
 40
0.6
176
     1
 40
30.0
176
     1
 62
     7
420
 16777215
176
     1
 90
        0
176
     1
 90
        4
176
     1
 62
     7
176
     1
 62
   257
176
     1
 90
        1
176
     1
 90
        1
176
     1
 40
1.0
176
     1
 90
        8
176
     1
 62
   257
176
     1
 40
1.0
176
     1
 90
        1
176
     1
 90
        6
176
     1
 90
        2
176
     1
 62
     8
420
  7895160
176
     1
 90
        3
176
     1
 90
        0
176
     1
 90
        0
176
     1
290
     0
176
     1
 90
        5
176
     1
 40
0.0
176
     1
 90
        0
176
     1
290
     0
176
     1
290
     1
176
     1
290
     1
176
     1
290
     0
176
     1
290
     0
176
     1
290
     0
176
     1
290
     0
176
     1
290
     0
176
     1
290
     0
176
     1
 90
       50
176
     1
 40
0.0
176
     1
 40
1.0
176
     1
 90
        0
176
     1
 62
    18
420
        0
176
     1
 90
       50
176
     1
 90
        3
176
     1
 62
     5
420
      255
176
     1
290
     0
176
     1
 90
       50
176
     1
 90
       50
176
     1
 90
       50
176
     1
290
     0
176
     1
 90
       50
176
     1
 62
   256
176
     0
 40
1.0
176
     0
 90
        2
176
     1
  1
strokes_ogs.tif
176
     1
290
     0
176
     1
 40
1.0
176
     1
 40
1.0
176
     1
  0
VISUALSTYLE
  5
41
102
{ACAD_REACTORS
330
2A
102
}
330
2A
100
AcDbVisualStyle
  2
Shaded with edges
 70
    26
177
     3
291
     0
 70
    58
 90
        2
176
     1
 90
        2
176
     1
 90
        1
176
     1
 90
        2
176
     1
 40
0.6
176
     1
 40
30.0
176
     1
 62
     7
420
 16777215
176
     1
 90
        1
176
     1
 90
       10
176
     1
 62
     7
176
     1
 62
   257
176
     1
 90
        2
176
     1
 90
        1
176
     1
 40
1.0
176
     1
 90
        8
176
     1
 62
   257
176
     1
 40
1.0
176
     1
 90
        1
176
     1
 90
        6
176
     1
 90
        2
176
     1
 62
     7
176
     1
 90
        3
176
     1
 90
        0
176
     1
 90
        0
176
     1
290
     0
176
     1
 90
        5
176
     1
 40
0.0
176
     1
 90
        0
176
     1
290
     0
176
     1
290
     1
176
     1
290
     1
176
     1
290
     0
176
     1
290
     0
176
     1
290
     0
176
     1
290
     0
176
     1
290
     0
176
     1
290
     0
176
     1
 90
       50
176
     1
 40
0.0
176
     1
 40
1.0
176
     1
 90
        0
176
     1
 62
    18
420
        0
176
     1
 90
       50
176
     1
 90
        3
176
     1
 62
     5
420
      255
176
     1
290
     0
176
     1
 90
       50
176
     1
 90
       50
176
     1
 90
       50
176
     1
290
     0
176
     1
 90
       50
176
     1
 62
   256
176
     0
 40
1.0
176
     0
 90
        2
176
     1
  1
strokes_ogs.tif
176
     1
290
     0
176
     1
 40
1.0
176
     1
 40
1.0
176
     1
  0
VISUALSTYLE
  5
3E
102
{ACAD_REACTORS
330
2A
102
}
330
2A
100
AcDbVisualStyle
  2
Shades of Gray
 70
    23
177
     3
291
     0
 70
    58
 90
        2
176
     1
 90
        2
176
     1
 90
        3
176
     1
 90
        0
176
     1
 40
0.6
176
     1
 40
30.0
176
     1
 62
     7
420
 16777215
176
     1
 90
        2
176
     1
 90
        2
176
     1
 62
     7
176
     1
 62
     7
176
     1
 90
        1
176
     1
 90
        1
176
     1
 40
40.0
176
     1
 90
        8
176
     1
 62
     7
176
     1
 40
1.0
176
     1
 90
        1
176
     1
 90
        6
176
     1
 90
        2
176
     1
 62
     7
176
     1
 90
        3
176
     1
 90
        0
176
     1
 90
        0
176
     1
290
     0
176
     1
 90
        1
176
     1
 40
0.0
176
     1
 90
        0
176
     1
290
     0
176
     1
290
     1
176
     1
290
     1
176
     1
290
     0
176
     1
290
     0
176
     1
290
     0
176
     1
290
     0
176
     1
290
     0
176
     1
290
     0
176
     1
 90
       50
176
     1
 40
0.0
176
     1
 40
1.0
176
     1
 90
        0
176
     1
 62
    18
420
        0
176
     1
 90
       50
176
     1
 90
        3
176
     1
 62
     5
420
      255
176
     1
290
     0
176
     1
 90
       50
176
     1
 90
       50
176
     1
 90
       50
176
     1
290
     0
176
     1
 90
       50
176
     1
 62
   256
176
     0
 40
1.0
176
     0
 90
        2
176
     1
  1
strokes_ogs.tif
176
     1
290
     0
176
     1
 40
1.0
176
     1
 40
1.0
176
     1
  0
VISUALSTYLE
  5
3F
102
{ACAD_REACTORS
330
2A
102
}
330
2A
100
AcDbVisualStyle
  2
Sketchy
 70
    24
177
     3
291
     0
 70
    58
 90
        1
176
     1
 90
        2
176
     1
 90
        2
176
     1
 90
        0
176
     1
 40
0.6
176
     1
 40
30.0
176
     1
 62
     7
420
 16777215
176
     1
 90
        2
176
     1
 90
        2
176
     1
 62
     7
176
     1
 62
     7
176
     1
 90
        1
176
     1
 90
        1
176
     1
 40
40.0
176
     1
 90
       11
176
     1
 62
     7
176
     1
 40
1.0
176
     1
 90
        1
176
     1
 90
        6
176
     1
 90
        2
176
     1
 62
     7
176
     1
 90
        6
176
     1
 90
        0
176
     1
 90
        0
176
     1
290
     0
176
     1
 90
        1
176
     1
 40
0.0
176
     1
 90
        0
176
     1
290
     0
176
     1
290
     1
176
     1
290
     1
176
     1
290
     0
176
     1
290
     0
176
     1
290
     0
176
     1
290
     0
176
     1
290
     0
176
     1
290
     0
176
     1
 90
       50
176
     1
 40
0.0
176
     1
 40
1.0
176
     1
 90
        0
176
     1
 62
    18
420
        0
176
     1
 90
       50
176
     1
 90
        3
176
     1
 62
     5
420
      255
176
     1
290
     0
176
     1
 90
       50
176
     1
 90
       50
176
     1
 90
       50
176
     1
290
     0
176
     1
 90
       50
176
     1
 62
   256
176
     0
 40
1.0
176
     0
 90
        2
176
     1
  1
strokes_ogs.tif
176
     1
290
     0
176
     1
 40
1.0
176
     1
 40
1.0
176
     1
  0
VISUALSTYLE
  5
37
102
{ACAD_REACTORS
330
2A
102
}
330
2A
100
AcDbVisualStyle
  2
Thicken
 70
    13
177
     3
291
     1
 70
    58
 90
        2
176
     1
 90
        2
176
     1
 90
        0
176
     1
 90
        0
176
     1
 40
0.6
176
     1
 40
30.0
176
     1
 62
     7
420
 16777215
176
     1
 90
        1
176
     1
 90
        4
176
     1
 62
     7
176
     1
 62
   257
176
     1
 90
        1
176
     1
 90
        1
176
     1
 40
1.0
176
     1
 90
       12
176
     1
 62
     7
176
     1
 40
1.0
176
     1
 90
        1
176
     1
 90
        6
176
     1
 90
        2
176
     1
 62
     7
176
     1
 90
        5
176
     1
 90
        0
176
     1
 90
        0
176
     1
290
     0
176
     1
 90
        1
176
     1
 40
0.0
176
     1
 90
        0
176
     1
290
     0
176
     1
290
     1
176
     1
290
     1
176
     1
290
     0
176
     1
290
     0
176
     1
290
     0
176
     1
290
     0
176
     1
290
     0
176
     1
290
     0
176
     1
 90
       50
176
     1
 40
0.0
176
     1
 40
1.0
176
     1
 90
        0
176
     1
 62
    18
420
        0
176
     1
 90
       50
176
     1
 90
        3
176
     1
 62
     5
420
      255
176
     1
290
     0
176
     1
 90
       50
176
     1
 90
       50
176
     1
 90
       50
176
     1
290
     0
176
     1
 90
       50
176
     1
 62
   256
176
     0
 40
1.0
176
     0
 90
        2
176
     1
  1
strokes_ogs.tif
176
     1
290
     0
176
     1
 40
1.0
176
     1
 40
1.0
176
     1
  0
VISUALSTYLE
  5
30
102
{ACAD_REACTORS
330
2A
102
}
330
2A
100
AcDbVisualStyle
  2
Wireframe
 70
     5
177
     3
291
     0
 70
    58
 90
        0
176
     1
 90
        2
176
     1
 90
        0
176
     1
 90
        0
176
     1
 40
0.6
176
     1
 40
30.0
176
     1
 62
     7
420
 16777215
176
     1
 90
        1
176
     1
 90
        4
176
     1
 62
     7
176
     1
 62
   257
176
     1
 90
        1
176
     1
 90
        1
176
     1
 40
1.0
176
     1
 90
        0
176
     1
 62
   257
176
     1
 40
1.0
176
     1
 90
        1
176
     1
 90
        6
176
     1
 90
        2
176
     1
 62
     7
176
     1
 90
        3
176
     1
 90
        0
176
     1
 90
        0
176
     1
290
     0
176
     1
 90
        1
176
     1
 40
0.0
176
     1
 90
        0
176
     1
290
     0
176
     1
290
     1
176
     1
290
     1
176
     1
290
     0
176
     1
290
     0
176
     1
290
     0
176
     1
290
     0
176
     1
290
     0
176
     1
290
     0
176
     1
 90
       50
176
     1
 40
0.0
176
     1
 40
1.0
176
     1
 90
        0
176
     1
 62
    18
420
        0
176
     1
 90
       50
176
     1
 90
        3
176
     1
 62
     5
420
      255
176
     1
290
     0
176
     1
 90
       50
176
     1
 90
       50
176
     1
 90
       50
176
     1
290
     0
176
     1
 90
       50
176
     1
 62
   256
176
     0
 40
1.0
176
     0
 90
        2
176
     1
  1
strokes_ogs.tif
176
     1
290
     0
176
     1
 40
1.0
176
     1
 40
1.0
176
     1
  0
VISUALSTYLE
  5
40
102
{ACAD_REACTORS
330
2A
102
}
330
2A
100
AcDbVisualStyle
  2
X-Ray
 70
    25
177
     3
291
     0
 70
    58
 90
        2
176
     1
 90
        2
176
     1
 90
        1
176
     1
 90
        1
176
     1
 40
0.5
176
     1
 40
30.0
176
     1
 62
     7
420
 16777215
176
     1
 90
        1
176
     1
 90
        0
176
     1
 62
     7
176
     1
 62
   257
176
     1
 90
        1
176
     1
 90
        1
176
     1
 40
1.0
176
     1
 90
        8
176
     1
 62
     7
176
     1
 40
1.0
176
     1
 90
        1
176
     1
 90
        6
176
     1
 90
        2
176
     1
 62
     7
176
     1
 90
        3
176
     1
 90
        0
176
     1
 90
        0
176
     1
290
     0
176
     1
 90
       13
176
     1
 40
0.0
176
     1
 90
        0
176
     1
290
     0
176
     1
290
     1
176
     1
290
     1
176
     1
290
     0
176
     1
290
     0
176
     1
290
     0
176
     1
290
     0
176
     1
290
     0
176
     1
290
     0
176
     1
 90
       50
176
     1
 40
0.0
176
     1
 40
1.0
176
     1
 90
        0
176
     1
 62
    18
420
        0
176
     1
 90
       50
176
     1
 90
        3
176
     1
 62
     5
420
      255
176
     1
290
     0
176
     1
 90
       50
176
     1
 90
       50
176
     1
 90
       50
176
     1
290
     0
176
     1
 90
       50
176
     1
 62
   256
176
     0
 40
1.0
176
     0
 90
        2
176
     1
  1
strokes_ogs.tif
176
     1
290
     0
176
     1
 40
1.0
176
     1
 40
1.0
176
     1
  0
DICTIONARYVAR
  5
184
102
{ACAD_REACTORS
330
183
102
}
330
183
100
DictionaryVariables
280
     0
  1
1:1
  0
DICTIONARYVAR
  5
189
102
{ACAD_REACTORS
330
183
102
}
330
183
100
DictionaryVariables
280
     0
  1
Standard
  0
DICTIONARYVAR
  5
188
102
{ACAD_REACTORS
330
183
102
}
330
183
100
DictionaryVariables
280
     0
  1
Standard
  0
DICTIONARY
  5
185
330
6A
100
AcDbDictionary
280
     1
281
     1
  3
ACAD_ROUNDTRIP_2008_TABLESTYLE_CELLSTYLEMAP
360
186
  0
CELLSTYLEMAP
  5
186
102
{ACAD_REACTORS
330
185
102
}
330
185
100
AcDbCellStyleMap
 90
        3
300
CELLSTYLE
  1
TABLEFORMAT_BEGIN
 90
        5
170
     1
 91
        0
 92
    32768
 62
   257
 93
        1
300
CONTENTFORMAT
  1
CONTENTFORMAT_BEGIN
 90
        0
 91
        0
 92
        4
 93
        0
300

 40
0.0
140
1.0
 94
        5
 62
     0
340
11
144
0.25
309
CONTENTFORMAT_END
171
     1
301
MARGIN
  1
CELLMARGIN_BEGIN
 40
0.06
 40
0.06
 40
0.06
 40
0.06
 40
0.06
 40
0.06
309
CELLMARGIN_END
 94
        6
 95
        1
302
GRIDFORMAT
  1
GRIDFORMAT_BEGIN
 90
        0
 91
        1
 62
     0
 92
       -2
340
14
 93
        0
 40
0.045
309
GRIDFORMAT_END
 95
        2
302
GRIDFORMAT
  1
GRIDFORMAT_BEGIN
 90
        0
 91
        1
 62
     0
 92
       -2
340
14
 93
        0
 40
0.045
309
GRIDFORMAT_END
 95
        4
302
GRIDFORMAT
  1
GRIDFORMAT_BEGIN
 90
        0
 91
        1
 62
     0
 92
       -2
340
14
 93
        0
 40
0.045
309
GRIDFORMAT_END
 95
        8
302
GRIDFORMAT
  1
GRIDFORMAT_BEGIN
 90
        0
 91
        1
 62
     0
 92
       -2
340
14
 93
        0
 40
0.045
309
GRIDFORMAT_END
 95
       16
302
GRIDFORMAT
  1
GRIDFORMAT_BEGIN
 90
        0
 91
        1
 62
     0
 92
       -2
340
14
 93
        0
 40
0.045
309
GRIDFORMAT_END
 95
       32
302
GRIDFORMAT
  1
GRIDFORMAT_BEGIN
 90
        0
 91
        1
 62
     0
 92
       -2
340
14
 93
        0
 40
0.045
309
GRIDFORMAT_END
309
TABLEFORMAT_END
  1
CELLSTYLE_BEGIN
 90
        1
 91
        1
300
_TITLE
309
CELLSTYLE_END
300
CELLSTYLE
  1
TABLEFORMAT_BEGIN
 90
        5
170
     1
 91
        0
 92
        0
 62
   257
 93
        1
300
CONTENTFORMAT
  1
CONTENTFORMAT_BEGIN
 90
        0
 91
        0
 92
        4
 93
        0
300

 40
0.0
140
1.0
 94
        5
 62
     0
340
11
144
0.18
309
CONTENTFORMAT_END
171
     1
301
MARGIN
  1
CELLMARGIN_BEGIN
 40
0.06
 40
0.06
 40
0.06
 40
0.06
 40
0.06
 40
0.06
309
CELLMARGIN_END
 94
        6
 95
        1
302
GRIDFORMAT
  1
GRIDFORMAT_BEGIN
 90
        0
 91
        1
 62
     0
 92
       -2
340
14
 93
        0
 40
0.045
309
GRIDFORMAT_END
 95
        2
302
GRIDFORMAT
  1
GRIDFORMAT_BEGIN
 90
        0
 91
        1
 62
     0
 92
       -2
340
14
 93
        0
 40
0.045
309
GRIDFORMAT_END
 95
        4
302
GRIDFORMAT
  1
GRIDFORMAT_BEGIN
 90
        0
 91
        1
 62
     0
 92
       -2
340
14
 93
        0
 40
0.045
309
GRIDFORMAT_END
 95
        8
302
GRIDFORMAT
  1
GRIDFORMAT_BEGIN
 90
        0
 91
        1
 62
     0
 92
       -2
340
14
 93
        0
 40
0.045
309
GRIDFORMAT_END
 95
       16
302
GRIDFORMAT
  1
GRIDFORMAT_BEGIN
 90
        0
 91
        1
 62
     0
 92
       -2
340
14
 93
        0
 40
0.045
309
GRIDFORMAT_END
 95
       32
302
GRIDFORMAT
  1
GRIDFORMAT_BEGIN
 90
        0
 91
        1
 62
     0
 92
       -2
340
14
 93
        0
 40
0.045
309
GRIDFORMAT_END
309
TABLEFORMAT_END
  1
CELLSTYLE_BEGIN
 90
        2
 91
        1
300
_HEADER
309
CELLSTYLE_END
300
CELLSTYLE
  1
TABLEFORMAT_BEGIN
 90
        5
170
     1
 91
        0
 92
        0
 62
   257
 93
        1
300
CONTENTFORMAT
  1
CONTENTFORMAT_BEGIN
 90
        0
 91
        0
 92
        4
 93
        0
300

 40
0.0
140
1.0
 94
        2
 62
     0
340
11
144
0.18
309
CONTENTFORMAT_END
171
     1
301
MARGIN
  1
CELLMARGIN_BEGIN
 40
0.06
 40
0.06
 40
0.06
 40
0.06
 40
0.06
 40
0.06
309
CELLMARGIN_END
 94
        6
 95
        1
302
GRIDFORMAT
  1
GRIDFORMAT_BEGIN
 90
        0
 91
        1
 62
     0
 92
       -2
340
14
 93
        0
 40
0.045
309
GRIDFORMAT_END
 95
        2
302
GRIDFORMAT
  1
GRIDFORMAT_BEGIN
 90
        0
 91
        1
 62
     0
 92
       -2
340
14
 93
        0
 40
0.045
309
GRIDFORMAT_END
 95
        4
302
GRIDFORMAT
  1
GRIDFORMAT_BEGIN
 90
        0
 91
        1
 62
     0
 92
       -2
340
14
 93
        0
 40
0.045
309
GRIDFORMAT_END
 95
        8
302
GRIDFORMAT
  1
GRIDFORMAT_BEGIN
 90
        0
 91
        1
 62
     0
 92
       -2
340
14
 93
        0
 40
0.045
309
GRIDFORMAT_END
 95
       16
302
GRIDFORMAT
  1
GRIDFORMAT_BEGIN
 90
        0
 91
        1
 62
     0
 92
       -2
340
14
 93
        0
 40
0.045
309
GRIDFORMAT_END
 95
       32
302
GRIDFORMAT
  1
GRIDFORMAT_BEGIN
 90
        0
 91
        1
 62
     0
 92
       -2
340
14
 93
        0
 40
0.045
309
GRIDFORMAT_END
309
TABLEFORMAT_END
  1
CELLSTYLE_BEGIN
 90
        3
 91
        2
300
_DATA
309
CELLSTYLE_END
  0
ENDSEC
  0
EOF