0
SECTION
  2
HEADER
  9
$ACADVER
  1
AC1027
  9
$ACADMAINTVER
 70
     8
  9
$DWGCODEPAGE
  3
ANSI_1252
  9
$REQUIREDVERSIONS
160
                 0
  9
$COMMENTS
  1
File was created by Cadenas
  9
$CUSTOMPROPERTYTAG
  1
NN
  9
$CUSTOMPROPERTY
  1
Set Screw Two-Bolt Pillow Block Inch Bore - Polymer Housing, Corrosion Resistant Insert
  9
$CUSTOMPROPERTYTAG
  1
NT
  9
$CUSTOMPROPERTY
  1
SC Pillow Block Bearings -(Normal Duty) -Corrosion Resistant Insert -Polymer Housed -E-Z KLEEN
  9
$CUSTOMPROPERTYTAG
  1
NB
  9
$CUSTOMPROPERTY
  1
127501
  9
$CUSTOMPROPERTYTAG
  1
NBSYN
  9
$CUSTOMPROPERTY
  1
$PN.
  9
$CUSTOMPROPERTYTAG
  1
LINA
  9
$CUSTOMPROPERTY
  1
127501
  9
$CUSTOMPROPERTYTAG
  1
SERIES
  9
$CUSTOMPROPERTY
  1
205
  9
$CUSTOMPROPERTYTAG
  1
SS
  9
$CUSTOMPROPERTY
  1
1
  9
$CUSTOMPROPERTYTAG
  1
PN
  9
$CUSTOMPROPERTY
  1
127501
  9
$CUSTOMPROPERTYTAG
  1
DESCRIPTION
  9
$CUSTOMPROPERTY
  1
P2B-SCEZ-100-PCR
  9
$CUSTOMPROPERTYTAG
  1
WEIGHT
  9
$CUSTOMPROPERTY
  1
0.69
  9
$CUSTOMPROPERTYTAG
  1
A
  9
$CUSTOMPROPERTY
  1
1.34
  9
$CUSTOMPROPERTYTAG
  1
B
  9
$CUSTOMPROPERTY
  1
5.48
  9
$CUSTOMPROPERTYTAG
  1
C
  9
$CUSTOMPROPERTY
  1
1.48
  9
$CUSTOMPROPERTYTAG
  1
DMIN
  9
$CUSTOMPROPERTY
  1
3.96
  9
$CUSTOMPROPERTYTAG
  1
DMAX
  9
$CUSTOMPROPERTY
  1
4.20
  9
$CUSTOMPROPERTYTAG
  1
F
  9
$CUSTOMPROPERTY
  1
3/8
  9
$CUSTOMPROPERTYTAG
  1
G
  9
$CUSTOMPROPERTY
  1
0.59
  9
$CUSTOMPROPERTYTAG
  1
H
  9
$CUSTOMPROPERTY
  1
0.61
  9
$CUSTOMPROPERTYTAG
  1
J
  9
$CUSTOMPROPERTY
  1
2.86
  9
$CUSTOMPROPERTYTAG
  1
L
  9
$CUSTOMPROPERTY
  1
1.32
  9
$CUSTOMPROPERTYTAG
  1
M
  9
$CUSTOMPROPERTY
  1
1.44
  9
$CUSTOMPROPERTYTAG
  1
R
  9
$CUSTOMPROPERTY
  1
0.56
  9
$CUSTOMPROPERTYTAG
  1
S
  9
$CUSTOMPROPERTY
  1
0.78
  9
$CUSTOMPROPERTYTAG
  1
COMPANY
  9
$CUSTOMPROPERTY
  1
baldor
  9
$INSBASE
 10
0.0
 20
0.0
 30
0.0
  9
$EXTMIN
 10
1.000000000000000E+20
 20
1.000000000000000E+20
 30
1.000000000000000E+20
  9
$EXTMAX
 10
-1.000000000000000E+20
 20
-1.000000000000000E+20
 30
-1.000000000000000E+20
  9
$LIMMIN
 10
0.0
 20
0.0
  9
$LIMMAX
 10
12.0
 20
9.0
  9
$ORTHOMODE
 70
     0
  9
$REGENMODE
 70
     1
  9
$FILLMODE
 70
     1
  9
$QTEXTMODE
 70
     0
  9
$MIRRTEXT
 70
     1
  9
$LTSCALE
 40
1.0
  9
$ATTMODE
 70
     1
  9
$TEXTSIZE
 40
0.2
  9
$TRACEWID
 40
0.05
  9
$TEXTSTYLE
  7
Standard
  9
$CLAYER
  8
0
  9
$CELTYPE
  6
ByLayer
  9
$CECOLOR
 62
   256
  9
$CELTSCALE
 40
1.0
  9
$DISPSILH
 70
     0
  9
$DIMSCALE
 40
1.0
  9
$DIMASZ
 40
0.18
  9
$DIMEXO
 40
0.0625
  9
$DIMDLI
 40
0.38
  9
$DIMRND
 40
0.0
  9
$DIMDLE
 40
0.0
  9
$DIMEXE
 40
0.18
  9
$DIMTP
 40
0.0
  9
$DIMTM
 40
0.0
  9
$DIMTXT
 40
0.18
  9
$DIMCEN
 40
0.09
  9
$DIMTSZ
 40
0.0
  9
$DIMTOL
 70
     0
  9
$DIMLIM
 70
     0
  9
$DIMTIH
 70
     1
  9
$DIMTOH
 70
     1
  9
$DIMSE1
 70
     0
  9
$DIMSE2
 70
     0
  9
$DIMTAD
 70
     0
  9
$DIMZIN
 70
     0
  9
$DIMBLK
  1

  9
$DIMASO
 70
     1
  9
$DIMSHO
 70
     1
  9
$DIMPOST
  1

  9
$DIMAPOST
  1

  9
$DIMALT
 70
     0
  9
$DIMALTD
 70
     2
  9
$DIMALTF
 40
25.4
  9
$DIMLFAC
 40
1.0
  9
$DIMTOFL
 70
     0
  9
$DIMTVP
 40
0.0
  9
$DIMTIX
 70
     0
  9
$DIMSOXD
 70
     0
  9
$DIMSAH
 70
     0
  9
$DIMBLK1
  1

  9
$DIMBLK2
  1

  9
$DIMSTYLE
  2
Standard
  9
$DIMCLRD
 70
     0
  9
$DIMCLRE
 70
     0
  9
$DIMCLRT
 70
     0
  9
$DIMTFAC
 40
1.0
  9
$DIMGAP
 40
0.09
  9
$DIMJUST
 70
     0
  9
$DIMSD1
 70
     0
  9
$DIMSD2
 70
     0
  9
$DIMTOLJ
 70
     1
  9
$DIMTZIN
 70
     0
  9
$DIMALTZ
 70
     0
  9
$DIMALTTZ
 70
     0
  9
$DIMUPT
 70
     0
  9
$DIMDEC
 70
     4
  9
$DIMTDEC
 70
     4
  9
$DIMALTU
 70
     2
  9
$DIMALTTD
 70
     2
  9
$DIMTXSTY
  7
Standard
  9
$DIMAUNIT
 70
     0
  9
$DIMADEC
 70
     0
  9
$DIMALTRND
 40
0.0
  9
$DIMAZIN
 70
     0
  9
$DIMDSEP
 70
    46
  9
$DIMATFIT
 70
     3
  9
$DIMFRAC
 70
     0
  9
$DIMLDRBLK
  1

  9
$DIMLUNIT
 70
     2
  9
$DIMLWD
 70
    -2
  9
$DIMLWE
 70
    -2
  9
$DIMTMOVE
 70
     0
  9
$DIMFXL
 40
1.0
  9
$DIMFXLON
 70
     0
  9
$DIMJOGANG
 40
0.7853981633974483
  9
$DIMTFILL
 70
     0
  9
$DIMTFILLCLR
 70
     0
  9
$DIMARCSYM
 70
     0
  9
$DIMLTYPE
  6

  9
$DIMLTEX1
  6

  9
$DIMLTEX2
  6

  9
$DIMTXTDIRECTION
 70
     0
  9
$LUNITS
 70
     2
  9
$LUPREC
 70
     4
  9
$SKETCHINC
 40
0.1
  9
$FILLETRAD
 40
0.5
  9
$AUNITS
 70
     0
  9
$AUPREC
 70
     0
  9
$MENU
  1
.
  9
$ELEVATION
 40
0.0
  9
$PELEVATION
 40
0.0
  9
$THICKNESS
 40
0.0
  9
$LIMCHECK
 70
     0
  9
$CHAMFERA
 40
0.0
  9
$CHAMFERB
 40
0.0
  9
$CHAMFERC
 40
0.0
  9
$CHAMFERD
 40
0.0
  9
$SKPOLY
 70
     0
  9
$TDCREATE
 40
2458168.997413507
  9
$TDUCREATE
 40
2458168.95574684
  9
$TDUPDATE
 40
2458168.997413507
  9
$TDUUPDATE
 40
2458168.95574684
  9
$TDINDWG
 40
0.0000000116
  9
$TDUSRTIMER
 40
0.0000000116
  9
$USRTIMER
 70
     1
  9
$ANGBASE
 50
0.0
  9
$ANGDIR
 70
     0
  9
$PDMODE
 70
     0
  9
$PDSIZE
 40
0.0
  9
$PLINEWID
 40
0.0
  9
$SPLFRAME
 70
     0
  9
$SPLINETYPE
 70
     6
  9
$SPLINESEGS
 70
     8
  9
$HANDSEED
  5
173
  9
$SURFTAB1
 70
     6
  9
$SURFTAB2
 70
     6
  9
$SURFTYPE
 70
     6
  9
$SURFU
 70
     6
  9
$SURFV
 70
     6
  9
$UCSBASE
  2

  9
$UCSNAME
  2

  9
$UCSORG
 10
0.0
 20
0.0
 30
0.0
  9
$UCSXDIR
 10
1.0
 20
0.0
 30
0.0
  9
$UCSYDIR
 10
0.0
 20
1.0
 30
0.0
  9
$UCSORTHOREF
  2

  9
$UCSORTHOVIEW
 70
     0
  9
$UCSORGTOP
 10
0.0
 20
0.0
 30
0.0
  9
$UCSORGBOTTOM
 10
0.0
 20
0.0
 30
0.0
  9
$UCSORGLEFT
 10
0.0
 20
0.0
 30
0.0
  9
$UCSORGRIGHT
 10
0.0
 20
0.0
 30
0.0
  9
$UCSORGFRONT
 10
0.0
 20
0.0
 30
0.0
  9
$UCSORGBACK
 10
0.0
 20
0.0
 30
0.0
  9
$PUCSBASE
  2

  9
$PUCSNAME
  2

  9
$PUCSORG
 10
0.0
 20
0.0
 30
0.0
  9
$PUCSXDIR
 10
1.0
 20
0.0
 30
0.0
  9
$PUCSYDIR
 10
0.0
 20
1.0
 30
0.0
  9
$PUCSORTHOREF
  2

  9
$PUCSORTHOVIEW
 70
     0
  9
$PUCSORGTOP
 10
0.0
 20
0.0
 30
0.0
  9
$PUCSORGBOTTOM
 10
0.0
 20
0.0
 30
0.0
  9
$PUCSORGLEFT
 10
0.0
 20
0.0
 30
0.0
  9
$PUCSORGRIGHT
 10
0.0
 20
0.0
 30
0.0
  9
$PUCSORGFRONT
 10
0.0
 20
0.0
 30
0.0
  9
$PUCSORGBACK
 10
0.0
 20
0.0
 30
0.0
  9
$USERI1
 70
     0
  9
$USERI2
 70
     0
  9
$USERI3
 70
     0
  9
$USERI4
 70
     0
  9
$USERI5
 70
     0
  9
$USERR1
 40
0.0
  9
$USERR2
 40
0.0
  9
$USERR3
 40
0.0
  9
$USERR4
 40
0.0
  9
$USERR5
 40
0.0
  9
$WORLDVIEW
 70
     1
  9
$SHADEDGE
 70
     3
  9
$SHADEDIF
 70
    70
  9
$TILEMODE
 70
     1
  9
$MAXACTVP
 70
    64
  9
$PINSBASE
 10
0.0
 20
0.0
 30
0.0
  9
$PLIMCHECK
 70
     0
  9
$PEXTMIN
 10
1.000000000000000E+20
 20
1.000000000000000E+20
 30
1.000000000000000E+20
  9
$PEXTMAX
 10
-1.000000000000000E+20
 20
-1.000000000000000E+20
 30
-1.000000000000000E+20
  9
$PLIMMIN
 10
0.0
 20
0.0
  9
$PLIMMAX
 10
12.0
 20
9.0
  9
$UNITMODE
 70
     0
  9
$VISRETAIN
 70
     1
  9
$PLINEGEN
 70
     0
  9
$PSLTSCALE
 70
     1
  9
$TREEDEPTH
 70
  3020
  9
$CMLSTYLE
  2
Standard
  9
$CMLJUST
 70
     0
  9
$CMLSCALE
 40
1.0
  9
$PROXYGRAPHICS
 70
     1
  9
$MEASUREMENT
 70
     0
  9
$CELWEIGHT
370
    -1
  9
$ENDCAPS
280
     0
  9
$JOINSTYLE
280
     0
  9
$LWDISPLAY
290
     0
  9
$INSUNITS
 70
     1
  9
$HYPERLINKBASE
  1

  9
$STYLESHEET
  1

  9
$XEDIT
290
     1
  9
$CEPSNTYPE
380
     0
  9
$PSTYLEMODE
290
     1
  9
$FINGERPRINTGUID
  2
{98FAD86B-BD0B-4086-AC91-297B804E75FC}
  9
$VERSIONGUID
  2
{FAEB1C32-E019-11D5-929B-00C0DF256EC4}
  9
$EXTNAMES
290
     1
  9
$PSVPSCALE
 40
0.0
  9
$OLESTARTUP
290
     0
  9
$SORTENTS
280
   127
  9
$INDEXCTL
280
     0
  9
$HIDETEXT
280
     1
  9
$XCLIPFRAME
280
     2
  9
$HALOGAP
280
     0
  9
$OBSCOLOR
 70
   257
  9
$OBSLTYPE
280
     0
  9
$INTERSECTIONDISPLAY
280
     0
  9
$INTERSECTIONCOLOR
 70
   257
  9
$DIMASSOC
280
     2
  9
$PROJECTNAME
  1

  9
$CAMERADISPLAY
290
     0
  9
$LENSLENGTH
 40
50.0
  9
$CAMERAHEIGHT
 40
0.0
  9
$STEPSPERSEC
 40
2.0
  9
$STEPSIZE
 40
6.0
  9
$3DDWFPREC
 40
2.0
  9
$PSOLWIDTH
 40
0.25
  9
$PSOLHEIGHT
 40
4.0
  9
$LOFTANG1
 40
1.570796326794897
  9
$LOFTANG2
 40
1.570796326794897
  9
$LOFTMAG1
 40
0.0
  9
$LOFTMAG2
 40
0.0
  9
$LOFTPARAM
 70
     7
  9
$LOFTNORMALS
280
     1
  9
$LATITUDE
 40
37.795
  9
$LONGITUDE
 40
-122.394
  9
$NORTHDIRECTION
 40
0.0
  9
$TIMEZONE
 70
 -8000
  9
$LIGHTGLYPHDISPLAY
280
     1
  9
$TILEMODELIGHTSYNCH
280
     1
  9
$CMATERIAL
347
44
  9
$SOLIDHIST
280
     0
  9
$SHOWHIST
280
     1
  9
$DWFFRAME
280
     2
  9
$DGNFRAME
280
     2
  9
$REALWORLDSCALE
290
     1
  9
$INTERFERECOLOR
 62
   256
  9
$CSHADOW
280
     0
  9
$SHADOWPLANELOCATION
 40
0.0
  0
ENDSEC
  0
SECTION
  2
CLASSES
  0
CLASS
  1
ACDBDICTIONARYWDFLT
  2
AcDbDictionaryWithDefault
  3
ObjectDBX Classes
 90
        0
 91
        4
280
     0
281
     0
  0
CLASS
  1
VISUALSTYLE
  2
AcDbVisualStyle
  3
ObjectDBX Classes
 90
     4095
 91
        4
280
     0
281
     0
  0
CLASS
  1
MATERIAL
  2
AcDbMaterial
  3
ObjectDBX Classes
 90
     1153
 91
        4
280
     0
281
     0
  0
CLASS
  1
SCALE
  2
AcDbScale
  3
ObjectDBX Classes
 90
     1153
 91
        4
280
     0
281
     0
  0
CLASS
  1
TABLESTYLE
  2
AcDbTableStyle
  3
ObjectDBX Classes
 90
     4095
 91
        4
280
     0
281
     0
  0
CLASS
  1
MLEADERSTYLE
  2
AcDbMLeaderStyle
  3
ACDB_MLEADERSTYLE_CLASS
 90
     4095
 91
        4
280
     0
281
     0
  0
CLASS
  1
SUN
  2
AcDbSun
  3
SCENEOE
 90
     1153
 91
        4
280
     0
281
     0
  0
CLASS
  1
DICTIONARYVAR
  2
AcDbDictionaryVar
  3
ObjectDBX Classes
 90
        0
 91
        4
280
     0
281
     0
  0
CLASS
  1
CELLSTYLEMAP
  2
AcDbCellStyleMap
  3
ObjectDBX Classes
 90
     1152
 91
        4
280
     0
281
     0
  0
ENDSEC
  0
SECTION
  2
TABLES
  0
TABLE
  2
VPORT
  5
8
330
0
100
AcDbSymbolTable
 70
     1
  0
VPORT
  5
29
330
8
100
AcDbSymbolTableRecord
100
AcDbViewportTableRecord
  2
*Active
 70
     0
 10
0.0
 20
0.0
 11
1.0
 21
1.0
 12
0.0
 22
0.0462500000000006
 13
0.0
 23
0.0
 14
0.5
 24
0.5
 15
0.5
 25
0.5
 16
0.0
 26
0.0
 36
1.0
 17
0.0
 27
0.0
 37
0.0
 40
3.03195
 41
1.843566021867115
 42
50.0
 43
0.0
 44
0.0
 50
0.0
 51
0.0
 71
     0
 72
   100
 73
     1
 74
     3
 75
     0
 76
     0
 77
     0
 78
     0
281
     0
 65
     1
110
0.0
120
0.0
130
0.0
111
1.0
121
0.0
131
0.0
112
0.0
122
1.0
132
0.0
 79
     0
146
0.0
348
2F
 60
     3
 61
     5
292
     1
282
     1
141
0.0
142
0.0
 63
   250
361
6D
  0
ENDTAB
  0
TABLE
  2
LTYPE
  5
5
330
0
100
AcDbSymbolTable
 70
     3
  0
LTYPE
  5
14
330
5
100
AcDbSymbolTableRecord
100
AcDbLinetypeTableRecord
  2
ByBlock
 70
     0
  3

 72
    65
 73
     0
 40
0.0
  0
LTYPE
  5
15
330
5
100
AcDbSymbolTableRecord
100
AcDbLinetypeTableRecord
  2
ByLayer
 70
     0
  3

 72
    65
 73
     0
 40
0.0
  0
LTYPE
  5
16
330
5
100
AcDbSymbolTableRecord
100
AcDbLinetypeTableRecord
  2
Continuous
 70
     0
  3
Solid line
 72
    65
 73
     0
 40
0.0
  0
LTYPE
  5
9D
330
5
100
AcDbSymbolTableRecord
100
AcDbLinetypeTableRecord
  2
Dashed
 70
     0
  3

 72
    65
 73
     2
 40
2.0
 49
1.0
 74
     0
 49
-1.0
 74
     0
  0
LTYPE
  5
AB
330
5
100
AcDbSymbolTableRecord
100
AcDbLinetypeTableRecord
  2
Center
 70
     0
  3

 72
    65
 73
     4
 40
1.5
 49
0.45
 74
     0
 49
-0.5
 74
     0
 49
0.05
 74
     0
 49
-0.5
 74
     0
  0
ENDTAB
  0
TABLE
  2
LAYER
  5
2
330
0
100
AcDbSymbolTable
 70
     7
  0
LAYER
  5
10
330
2
100
AcDbSymbolTableRecord
100
AcDbLayerTableRecord
  2
0
 70
     0
 62
     7
  6
Continuous
370
    -3
390
F
347
46
348
0
  0
LAYER
  5
72
330
2
100
AcDbSymbolTableRecord
100
AcDbLayerTableRecord
  2
AM_6
 70
     0
 62
    -2
  6
Continuous
370
    35
390
F
347
46
348
0
  0
LAYER
  5
9E
330
2
100
AcDbSymbolTableRecord
100
AcDbLayerTableRecord
  2
AM_9
 70
     0
 62
     6
  6
Dashed
370
    25
390
F
347
46
348
0
  0
LAYER
  5
A5
330
2
100
AcDbSymbolTableRecord
100
AcDbLayerTableRecord
  2
AM_5
 70
     0
 62
     3
  6
Continuous
370
    25
390
F
347
46
348
0
  0
LAYER
  5
AC
330
2
100
AcDbSymbolTableRecord
100
AcDbLayerTableRecord
  2
AM_7
 70
     0
 62
     7
  6
Center
370
    25
390
F
347
46
348
0
  0
LAYER
  5
AE
330
2
100
AcDbSymbolTableRecord
100
AcDbLayerTableRecord
  2
AM_4
 70
     0
 62
     7
  6
Continuous
370
    50
390
F
347
46
348
0
  0
LAYER
  5
165
330
2
100
AcDbSymbolTableRecord
100
AcDbLayerTableRecord
  2
ConnectionPoints
 70
     0
 62
     7
  6
Continuous
370
    50
390
F
347
46
348
0
  0
ENDTAB
  0
TABLE
  2
STYLE
  5
3
330
0
100
AcDbSymbolTable
 70
     1
  0
STYLE
  5
11
330
3
100
AcDbSymbolTableRecord
100
AcDbTextStyleTableRecord
  2
Standard
 70
     0
 40
0.0
 41
1.0
 50
0.0
 71
     0
 42
0.2
  3
txt
  4

  0
ENDTAB
  0
TABLE
  2
VIEW
  5
6
330
0
100
AcDbSymbolTable
 70
     0
  0
ENDTAB
  0
TABLE
  2
UCS
  5
7
330
0
100
AcDbSymbolTable
 70
     0
  0
ENDTAB
  0
TABLE
  2
APPID
  5
9
330
0
100
AcDbSymbolTable
 70
     1
  0
APPID
  5
12
330
9
100
AcDbSymbolTableRecord
100
AcDbRegAppTableRecord
  2
ACAD
 70
     0
  0
ENDTAB
  0
TABLE
  2
DIMSTYLE
  5
A
330
0
100
AcDbSymbolTable
 70
     1
100
AcDbDimStyleTable
  0
DIMSTYLE
105
27
330
A
100
AcDbSymbolTableRecord
100
AcDbDimStyleTableRecord
  2
Standard
 70
     0
178
     0
340
11
  0
ENDTAB
  0
TABLE
  2
BLOCK_RECORD
  5
1
330
0
100
AcDbSymbolTable
 70
     5
  0
BLOCK_RECORD
  5
1F
330
1
100
AcDbSymbolTableRecord
100
AcDbBlockTableRecord
  2
*Model_Space
340
22
 70
     0
280
     1
281
     0
  0
BLOCK_RECORD
  5
1B
330
1
100
AcDbSymbolTableRecord
100
AcDbBlockTableRecord
  2
*Paper_Space
340
1E
 70
     0
280
     1
281
     0
  0
BLOCK_RECORD
  5
23
330
1
100
AcDbSymbolTableRecord
100
AcDbBlockTableRecord
  2
*Paper_Space0
340
26
 70
     0
280
     1
281
     0
  0
BLOCK_RECORD
  5
6E
330
1
100
AcDbSymbolTableRecord
100
AcDbBlockTableRecord
  2
1_127501_0
340
0
102
{BLKREFS
331
6F
102
}
 70
     0
280
     1
281
     0
  0
BLOCK_RECORD
  5
8B
330
1
100
AcDbSymbolTableRecord
100
AcDbBlockTableRecord
  2
2_405020c_Inch_0_in_127501_0
340
0
102
{BLKREFS
331
8C
102
}
 70
     0
280
     1
281
     0
  0
BLOCK_RECORD
  5
D6
330
1
100
AcDbSymbolTableRecord
100
AcDbBlockTableRecord
  2
3_045601_0_in_127501_0
340
0
102
{BLKREFS
331
D7
102
}
 70
     0
280
     1
281
     0
  0
BLOCK_RECORD
  5
115
330
1
100
AcDbSymbolTableRecord
100
AcDbBlockTableRecord
  2
4_127501Hou_0_in_127501_0
340
0
102
{BLKREFS
331
116
102
}
 70
     0
280
     1
281
     0
  0
ENDTAB
  0
ENDSEC
  0
SECTION
  2
BLOCKS
  0
BLOCK
  5
20
330
1F
100
AcDbEntity
  8
0
100
AcDbBlockBegin
  2
*Model_Space
 70
     0
 10
0.0
 20
0.0
 30
0.0
  3
*Model_Space
  1

  0
ENDBLK
  5
21
330
1F
100
AcDbEntity
  8
0
100
AcDbBlockEnd
  0
BLOCK
  5
1C
330
1B
100
AcDbEntity
 67
     1
  8
0
100
AcDbBlockBegin
  2
*Paper_Space
 70
     0
 10
0.0
 20
0.0
 30
0.0
  3
*Paper_Space
  1

  0
ENDBLK
  5
1D
330
1B
100
AcDbEntity
 67
     1
  8
0
100
AcDbBlockEnd
  0
BLOCK
  5
24
330
23
100
AcDbEntity
  8
0
100
AcDbBlockBegin
  2
*Paper_Space0
 70
     0
 10
0.0
 20
0.0
 30
0.0
  3
*Paper_Space0
  1

  0
ENDBLK
  5
25
330
23
100
AcDbEntity
  8
0
100
AcDbBlockEnd
  0
BLOCK
  5
70
330
6E
100
AcDbEntity
  8
0
100
AcDbBlockBegin
  2
1_127501_0
 70
     2
 10
0.0
 20
0.0
 30
0.0
  3
1_127501_0
  1

  0
ATTDEF
  5
73
330
6E
100
AcDbEntity
  8
AM_6
100
AcDbText
 10
7.74
 20
1.5325
 30
0.0
 40
0.5
  1
Set Screw Two-Bolt Pillow Block Inch Bore - Polymer Housing, Corrosion Resistant Insert
100
AcDbAttributeDefinition
  3

  2
NN
 70
     8
280
     0
  0
ATTDEF
  5
74
330
6E
100
AcDbEntity
  8
AM_6
100
AcDbText
 10
7.74
 20
1.0325
 30
0.0
 40
0.5
  1
SC Pillow Block Bearings -(Normal Duty) -Corrosion Resistant Insert -Polymer Housed -E-Z KLEEN
100
AcDbAttributeDefinition
  3

  2
NT
 70
     8
280
     0
  0
ATTDEF
  5
75
330
6E
100
AcDbEntity
  8
AM_6
100
AcDbText
 10
7.74
 20
0.5325000000000002
 30
0.0
 40
0.5
  1
127501
100
AcDbAttributeDefinition
  3

  2
NB
 70
     8
280
     0
  0
ATTDEF
  5
76
330
6E
100
AcDbEntity
  8
AM_6
100
AcDbText
 10
7.74
 20
0.0325000000000002
 30
0.0
 40
0.5
  1
$PN.
100
AcDbAttributeDefinition
  3

  2
NBSYN
 70
     8
280
     0
  0
ATTDEF
  5
77
330
6E
100
AcDbEntity
  8
AM_6
100
AcDbText
 10
7.74
 20
-0.4674999999999998
 30
0.0
 40
0.5
  1
127501
100
AcDbAttributeDefinition
  3

  2
LINA
 70
     8
280
     0
  0
ATTDEF
  5
78
330
6E
100
AcDbEntity
  8
AM_6
100
AcDbText
 10
7.74
 20
-0.9674999999999998
 30
0.0
 40
0.5
  1
205
100
AcDbAttributeDefinition
  3

  2
SERIES
 70
     8
280
     0
  0
ATTDEF
  5
79
330
6E
100
AcDbEntity
  8
AM_6
100
AcDbText
 10
7.74
 20
-1.4675
 30
0.0
 40
0.5
  1
1
100
AcDbAttributeDefinition
  3

  2
SS
 70
     8
280
     0
  0
ATTDEF
  5
7A
330
6E
100
AcDbEntity
  8
AM_6
100
AcDbText
 10
7.74
 20
-1.9675
 30
0.0
 40
0.5
  1
127501
100
AcDbAttributeDefinition
  3

  2
PN
 70
     8
280
     0
  0
ATTDEF
  5
7B
330
6E
100
AcDbEntity
  8
AM_6
100
AcDbText
 10
7.74
 20
-2.4675
 30
0.0
 40
0.5
  1
P2B-SCEZ-100-PCR
100
AcDbAttributeDefinition
  3

  2
DESCRIPTION
 70
     8
280
     0
  0
ATTDEF
  5
7C
330
6E
100
AcDbEntity
  8
AM_6
100
AcDbText
 10
7.74
 20
-2.9675
 30
0.0
 40
0.5
  1
0.69
100
AcDbAttributeDefinition
  3

  2
WEIGHT
 70
     8
280
     0
  0
ATTDEF
  5
7D
330
6E
100
AcDbEntity
  8
AM_6
100
AcDbText
 10
7.74
 20
-3.4675
 30
0.0
 40
0.5
  1
1.34
100
AcDbAttributeDefinition
  3

  2
A
 70
     8
280
     0
  0
ATTDEF
  5
7E
330
6E
100
AcDbEntity
  8
AM_6
100
AcDbText
 10
7.74
 20
-3.9675
 30
0.0
 40
0.5
  1
5.48
100
AcDbAttributeDefinition
  3

  2
B
 70
     8
280
     0
  0
ATTDEF
  5
7F
330
6E
100
AcDbEntity
  8
AM_6
100
AcDbText
 10
7.74
 20
-4.467499999999999
 30
0.0
 40
0.5
  1
1.48
100
AcDbAttributeDefinition
  3

  2
C
 70
     8
280
     0
  0
ATTDEF
  5
80
330
6E
100
AcDbEntity
  8
AM_6
100
AcDbText
 10
7.74
 20
-4.967499999999999
 30
0.0
 40
0.5
  1
3.96
100
AcDbAttributeDefinition
  3

  2
DMIN
 70
     8
280
     0
  0
ATTDEF
  5
81
330
6E
100
AcDbEntity
  8
AM_6
100
AcDbText
 10
7.74
 20
-5.467499999999999
 30
0.0
 40
0.5
  1
4.20
100
AcDbAttributeDefinition
  3

  2
DMAX
 70
     8
280
     0
  0
ATTDEF
  5
82
330
6E
100
AcDbEntity
  8
AM_6
100
AcDbText
 10
7.74
 20
-5.967499999999999
 30
0.0
 40
0.5
  1
3/8
100
AcDbAttributeDefinition
  3

  2
F
 70
     8
280
     0
  0
ATTDEF
  5
83
330
6E
100
AcDbEntity
  8
AM_6
100
AcDbText
 10
7.74
 20
-6.467499999999999
 30
0.0
 40
0.5
  1
0.59
100
AcDbAttributeDefinition
  3

  2
G
 70
     8
280
     0
  0
ATTDEF
  5
84
330
6E
100
AcDbEntity
  8
AM_6
100
AcDbText
 10
7.74
 20
-6.967499999999999
 30
0.0
 40
0.5
  1
0.61
100
AcDbAttributeDefinition
  3

  2
H
 70
     8
280
     0
  0
ATTDEF
  5
85
330
6E
100
AcDbEntity
  8
AM_6
100
AcDbText
 10
7.74
 20
-7.467499999999999
 30
0.0
 40
0.5
  1
2.86
100
AcDbAttributeDefinition
  3

  2
J
 70
     8
280
     0
  0
ATTDEF
  5
86
330
6E
100
AcDbEntity
  8
AM_6
100
AcDbText
 10
7.74
 20
-7.967499999999999
 30
0.0
 40
0.5
  1
1.32
100
AcDbAttributeDefinition
  3

  2
L
 70
     8
280
     0
  0
ATTDEF
  5
87
330
6E
100
AcDbEntity
  8
AM_6
100
AcDbText
 10
7.74
 20
-8.4675
 30
0.0
 40
0.5
  1
1.44
100
AcDbAttributeDefinition
  3

  2
M
 70
     8
280
     0
  0
ATTDEF
  5
88
330
6E
100
AcDbEntity
  8
AM_6
100
AcDbText
 10
7.74
 20
-8.9675
 30
0.0
 40
0.5
  1
0.56
100
AcDbAttributeDefinition
  3

  2
R
 70
     8
280
     0
  0
ATTDEF
  5
89
330
6E
100
AcDbEntity
  8
AM_6
100
AcDbText
 10
7.74
 20
-9.4675
 30
0.0
 40
0.5
  1
0.78
100
AcDbAttributeDefinition
  3

  2
S
 70
     8
280
     0
  0
ATTDEF
  5
8A
330
6E
100
AcDbEntity
  8
AM_6
100
AcDbText
 10
7.74
 20
-9.9675
 30
0.0
 40
0.5
  1
baldor
100
AcDbAttributeDefinition
  3

  2
COMPANY
 70
     8
280
     0
  0
INSERT
  5
8C
330
6E
100
AcDbEntity
  8
0
100
AcDbBlockReference
  2
2_405020c_Inch_0_in_127501_0
 10
0.0
 20
0.0
 30
0.0
  0
INSERT
  5
D7
330
6E
100
AcDbEntity
  8
0
100
AcDbBlockReference
  2
3_045601_0_in_127501_0
 10
0.0
 20
0.0
 30
0.0
  0
INSERT
  5
116
330
6E
100
AcDbEntity
  8
0
100
AcDbBlockReference
  2
4_127501Hou_0_in_127501_0
 10
0.0
 20
0.0
 30
0.0
  0
ENDBLK
  5
71
330
6E
100
AcDbEntity
  8
0
100
AcDbBlockEnd
  0
BLOCK
  5
8D
330
8B
100
AcDbEntity
  8
0
100
AcDbBlockBegin
  2
2_405020c_Inch_0_in_127501_0
 70
     2
 10
0.0
 20
0.0
 30
0.0
  3
2_405020c_Inch_0_in_127501_0
  1

  0
ATTDEF
  5
8F
330
8B
100
AcDbEntity
  8
AM_6
100
AcDbText
 10
6.312490412639104
 20
1.312490412639103
 30
0.0
 40
0.5
  1
405020C -Inch
100
AcDbAttributeDefinition
  3

  2
NN
 70
     8
280
     0
  0
ATTDEF
  5
90
330
8B
100
AcDbEntity
  8
AM_6
100
AcDbText
 10
6.312490412639104
 20
0.8124904126391033
 30
0.0
 40
0.5
  1
Grease fitting
100
AcDbAttributeDefinition
  3

  2
NT
 70
     8
280
     0
  0
ATTDEF
  5
91
330
8B
100
AcDbEntity
  8
AM_6
100
AcDbText
 10
6.312490412639104
 20
0.3124904126391033
 30
0.0
 40
0.5
  1
405020c-Inch
100
AcDbAttributeDefinition
  3

  2
NB
 70
     8
280
     0
  0
ATTDEF
  5
92
330
8B
100
AcDbEntity
  8
AM_6
100
AcDbText
 10
6.312490412639104
 20
-0.1875095873608967
 30
0.0
 40
0.5
  1
$MN.-Inch
100
AcDbAttributeDefinition
  3

  2
NBSYN
 70
     8
280
     0
  0
ATTDEF
  5
93
330
8B
100
AcDbEntity
  8
AM_6
100
AcDbText
 10
6.312490412639104
 20
-0.6875095873608967
 30
0.0
 40
0.5
  1
405020c
100
AcDbAttributeDefinition
  3

  2
LINA
 70
     8
280
     0
  0
ATTDEF
  5
94
330
8B
100
AcDbEntity
  8
AM_6
100
AcDbText
 10
6.312490412639104
 20
-1.187509587360897
 30
0.0
 40
0.5
  1
405020c
100
AcDbAttributeDefinition
  3

  2
MN
 70
     8
280
     0
  0
ATTDEF
  5
95
330
8B
100
AcDbEntity
  8
AM_6
100
AcDbText
 10
6.312490412639104
 20
-1.687509587360897
 30
0.0
 40
0.5
  1
0.230
100
AcDbAttributeDefinition
  3

  2
NDR
 70
     8
280
     0
  0
ATTDEF
  5
96
330
8B
100
AcDbEntity
  8
AM_6
100
AcDbText
 10
6.312490412639104
 20
-2.187509587360897
 30
0.0
 40
0.5
  1
0.210
100
AcDbAttributeDefinition
  3

  2
KDR
 70
     8
280
     0
  0
ATTDEF
  5
97
330
8B
100
AcDbEntity
  8
AM_6
100
AcDbText
 10
6.312490412639104
 20
-2.687509587360897
 30
0.0
 40
0.5
  1
0.157
100
AcDbAttributeDefinition
  3

  2
BZE
 70
     8
280
     0
  0
ATTDEF
  5
98
330
8B
100
AcDbEntity
  8
AM_6
100
AcDbText
 10
6.312490412639104
 20
-3.187509587360897
 30
0.0
 40
0.5
  1
9/32
100
AcDbAttributeDefinition
  3

  2
WAF
 70
     8
280
     0
  0
ATTDEF
  5
99
330
8B
100
AcDbEntity
  8
AM_6
100
AcDbText
 10
6.312490412639104
 20
-3.687509587360897
 30
0.0
 40
0.5
  1
0.2813
100
AcDbAttributeDefinition
  3

  2
WAF1
 70
     8
280
     0
  0
ATTDEF
  5
9A
330
8B
100
AcDbEntity
  8
AM_6
100
AcDbText
 10
6.312490412639104
 20
-4.187509587360896
 30
0.0
 40
0.5
  1
0.545
100
AcDbAttributeDefinition
  3

  2
BL
 70
     8
280
     0
  0
ATTDEF
  5
9B
330
8B
100
AcDbEntity
  8
AM_6
100
AcDbText
 10
6.312490412639104
 20
-4.687509587360896
 30
0.0
 40
0.5
  1
0.200
100
AcDbAttributeDefinition
  3

  2
TL
 70
     8
280
     0
  0
ATTDEF
  5
9C
330
8B
100
AcDbEntity
  8
AM_6
100
AcDbText
 10
6.312490412639104
 20
-5.187509587360896
 30
0.0
 40
0.5
  1
baldor
100
AcDbAttributeDefinition
  3

  2
COMPANY
 70
     8
280
     0
  0
LINE
  5
9F
330
8B
100
AcDbEntity
  8
AM_9
100
AcDbLine
 10
0.9334436168809663
 20
0.7918969292142096
 30
0.0
 11
0.9480491010385377
 21
0.7918969292142096
 31
0.0
  0
LINE
  5
A0
330
8B
100
AcDbEntity
  8
AM_9
100
AcDbLine
 10
0.79189692921421
 20
0.9480491010385375
 30
0.0
 11
0.79189692921421
 21
0.9334436168809661
 31
0.0
  0
LINE
  5
A1
330
8B
100
AcDbEntity
  8
AM_9
100
AcDbLine
 10
0.9334436168809663
 20
0.7918969292142096
 30
0.0
 11
0.79189692921421
 21
0.9334436168809661
 31
0.0
  0
LINE
  5
A2
330
8B
100
AcDbEntity
  8
AM_9
100
AcDbLine
 10
0.9480491010385377
 20
0.7918969292142096
 30
0.0
 11
1.086359131343108
 21
0.9218241272266873
 31
0.0
  0
LINE
  5
A3
330
8B
100
AcDbEntity
  8
AM_9
100
AcDbLine
 10
0.9218241272266876
 20
1.086359131343107
 30
0.0
 11
0.79189692921421
 21
0.9480491010385375
 31
0.0
  0
LINE
  5
A4
330
8B
100
AcDbEntity
  8
AM_9
100
AcDbLine
 10
0.9480491010385377
 20
0.7918969292142096
 30
0.0
 11
0.79189692921421
 21
0.9480491010385375
 31
0.0
  0
LINE
  5
A6
330
8B
100
AcDbEntity
  8
AM_5
100
AcDbLine
 10
1.065925103852563
 20
0.9163488460624805
 30
0.0
 11
0.9334436168809661
 21
0.7918969292142094
 31
0.0
  0
LINE
  5
A7
330
8B
100
AcDbEntity
  8
AM_5
100
AcDbLine
 10
1.086359131343107
 20
0.9218241272266872
 30
0.0
 11
1.065925103852563
 21
0.9163488460624807
 31
0.0
  0
LINE
  5
A8
330
8B
100
AcDbEntity
  8
AM_5
100
AcDbLine
 10
0.9092743260783794
 20
1.072999623836665
 30
0.0
 11
1.072999623836665
 21
0.9092743260783798
 31
0.0
  0
LINE
  5
A9
330
8B
100
AcDbEntity
  8
AM_5
100
AcDbLine
 10
0.9163488460624808
 20
1.065925103852563
 30
0.0
 11
0.7918969292142092
 21
0.9334436168809654
 31
0.0
  0
LINE
  5
AA
330
8B
100
AcDbEntity
  8
AM_5
100
AcDbLine
 10
0.9218241272266874
 20
1.086359131343107
 30
0.0
 11
0.9163488460624809
 21
1.065925103852563
 31
0.0
  0
LINE
  5
AD
330
8B
100
AcDbEntity
  8
AM_7
100
AcDbLine
 10
1.26731212858159
 20
1.26731212858159
 30
0.0
 11
0.8434016132602546
 21
0.8434016132602544
 31
0.0
  0
LINE
  5
AF
330
8B
100
AcDbEntity
  8
AM_4
100
AcDbLine
 10
0.951777512590113
 20
1.150686650137888
 30
0.0
 11
0.9322692579758713
 21
1.161949746190841
 31
0.0
  0
LINE
  5
B0
330
8B
100
AcDbEntity
  8
AM_4
100
AcDbLine
 10
1.161949746190841
 20
0.9322692579758711
 30
0.0
 11
1.150686650137889
 21
0.9517775125901126
 31
0.0
  0
LINE
  5
B1
330
8B
100
AcDbEntity
  8
AM_4
100
AcDbLine
 10
0.8933739644580577
 20
1.123054452673027
 30
0.0
 11
0.9046370605110099
 21
1.103546198058785
 31
0.0
  0
LINE
  5
B2
330
8B
100
AcDbEntity
  8
AM_4
100
AcDbLine
 10
1.103546198058785
 20
0.9046370605110096
 30
0.0
 11
1.123054452673027
 21
0.8933739644580575
 31
0.0
  0
LINE
  5
B3
330
8B
100
AcDbEntity
  8
AM_4
100
AcDbLine
 10
1.305182241473754
 20
1.190904696114758
 30
0.0
 11
1.190904694378084
 21
1.305182243210429
 31
0.0
  0
ARC
  5
B4
330
8B
100
AcDbEntity
  8
AM_4
100
AcDbCircle
 10
1.17322702484842
 20
1.287504573680765
 30
0.0
 40
0.0250000000000001
100
AcDbArc
 50
45.00000000000108
 51
112.0000000000004
  0
ARC
  5
B5
330
8B
100
AcDbEntity
  8
AM_4
100
AcDbCircle
 10
1.287504573680765
 20
1.17322702484842
 30
0.0
 40
0.0250000000000001
100
AcDbArc
 50
337.9999999999994
 51
44.99999999999928
  0
ARC
  5
B6
330
8B
100
AcDbEntity
  8
AM_4
100
AcDbCircle
 10
0.9960714583611766
 20
1.200686650137889
 30
0.0
 40
0.0500000000000005
100
AcDbArc
 50
270.0
 51
339.9999999999997
  0
ARC
  5
B7
330
8B
100
AcDbEntity
  8
AM_4
100
AcDbCircle
 10
1.200686650137889
 20
0.9960714583611769
 30
0.0
 40
0.0499999999999998
100
AcDbArc
 50
110.0
 51
180.0
  0
LINE
  5
B8
330
8B
100
AcDbEntity
  8
AM_4
100
AcDbLine
 10
1.183585642971605
 20
1.043056089400472
 30
0.0
 11
1.254454240379784
 21
1.068850149401244
 31
0.0
  0
LINE
  5
B9
330
8B
100
AcDbEntity
  8
AM_4
100
AcDbLine
 10
1.068850149401245
 20
1.254454240379784
 30
0.0
 11
1.043056089400473
 21
1.183585642971605
 31
0.0
  0
LINE
  5
BA
330
8B
100
AcDbEntity
  8
AM_4
100
AcDbLine
 10
1.183585642971605
 20
1.043056089400472
 30
0.0
 11
1.043056089400473
 21
1.183585642971605
 31
0.0
  0
LINE
  5
BB
330
8B
100
AcDbEntity
  8
AM_4
100
AcDbLine
 10
1.163861860013022
 20
1.310684170044935
 30
0.0
 11
1.097104450769744
 21
1.28371242594184
 31
0.0
  0
LINE
  5
BC
330
8B
100
AcDbEntity
  8
AM_4
100
AcDbLine
 10
1.28371242594184
 20
1.097104450769744
 30
0.0
 11
1.310684170044935
 21
1.163861860013022
 31
0.0
  0
LINE
  5
BD
330
8B
100
AcDbEntity
  8
AM_4
100
AcDbLine
 10
1.310684170044935
 20
1.163861860013022
 30
0.0
 11
1.163861860013022
 21
1.310684170044935
 31
0.0
  0
ARC
  5
BE
330
8B
100
AcDbEntity
  8
AM_4
100
AcDbCircle
 10
1.115834780440539
 20
1.237353233213502
 30
0.0
 40
0.0499999999999982
100
AcDbArc
 50
111.999999999999
 51
160.000000000001
  0
ARC
  5
BF
330
8B
100
AcDbEntity
  8
AM_4
100
AcDbCircle
 10
1.237353233213502
 20
1.115834780440539
 30
0.0
 40
0.0499999999999989
100
AcDbArc
 50
289.9999999999995
 51
338.0000000000008
  0
LINE
  5
C0
330
8B
100
AcDbEntity
  8
AM_4
100
AcDbLine
 10
1.28371242594184
 20
1.097104450769744
 30
0.0
 11
1.097104450769744
 21
1.28371242594184
 31
0.0
  0
LINE
  5
C1
330
8B
100
AcDbEntity
  8
AM_4
100
AcDbLine
 10
1.254454240379784
 20
1.068850149401244
 30
0.0
 11
1.068850149401245
 21
1.254454240379784
 31
0.0
  0
LINE
  5
C2
330
8B
100
AcDbEntity
  8
AM_4
100
AcDbLine
 10
0.996071458361177
 20
1.150686650137888
 30
0.0
 11
0.951777512590113
 21
1.150686650137888
 31
0.0
  0
LINE
  5
C3
330
8B
100
AcDbEntity
  8
AM_4
100
AcDbLine
 10
1.150686650137889
 20
0.9517775125901126
 30
0.0
 11
1.150686650137889
 21
0.9960714583611766
 31
0.0
  0
LINE
  5
C4
330
8B
100
AcDbEntity
  8
AM_4
100
AcDbLine
 10
1.150686650137889
 20
0.9517775125901126
 30
0.0
 11
0.951777512590113
 21
1.150686650137888
 31
0.0
  0
LINE
  5
C5
330
8B
100
AcDbEntity
  8
AM_4
100
AcDbLine
 10
1.150686650137889
 20
0.9960714583611766
 30
0.0
 11
0.996071458361177
 21
1.150686650137888
 31
0.0
  0
LINE
  5
C6
330
8B
100
AcDbEntity
  8
AM_4
100
AcDbLine
 10
0.9322692579758713
 20
1.161949746190841
 30
0.0
 11
0.8933739644580577
 21
1.123054452673027
 31
0.0
  0
LWPOLYLINE
  5
C7
330
8B
100
AcDbEntity
  8
AM_4
100
AcDbPolyline
 90
        3
 70
     0
 43
0.0
 10
0.9179614462042841
 20
1.090221812365511
 10
0.9046945649657622
 20
1.10566499215386
 10
0.8933739644580577
 20
1.123054452673027
  0
LWPOLYLINE
  5
C8
330
8B
100
AcDbEntity
  8
AM_4
100
AcDbPolyline
 90
        3
 70
     0
 43
0.0
 10
0.9507940865118001
 20
1.065634330619284
 10
0.9334787832581922
 20
1.076900000227335
 10
0.9179614462042841
 20
1.090221812365511
  0
LWPOLYLINE
  5
C9
330
8B
100
AcDbEntity
  8
AM_4
100
AcDbPolyline
 90
        3
 70
     0
 43
0.0
 10
0.9651018982833873
 20
1.137362264444614
 10
0.9783687795219094
 20
1.121919084656265
 10
0.9896893800296138
 20
1.104529624137098
  0
LWPOLYLINE
  5
CA
330
8B
100
AcDbEntity
  8
AM_4
100
AcDbPolyline
 90
        3
 70
     0
 43
0.0
 10
0.9322692579758713
 20
1.161949746190841
 10
0.9495845612294794
 20
1.150684076582789
 10
0.9651018982833873
 20
1.137362264444614
  0
LINE
  5
CB
330
8B
100
AcDbEntity
  8
AM_4
100
AcDbLine
 10
0.9896893800296138
 20
1.104529624137098
 30
0.0
 11
0.9507940865118001
 21
1.065634330619284
 31
0.0
  0
LWPOLYLINE
  5
CC
330
8B
100
AcDbEntity
  8
AM_4
100
AcDbPolyline
 90
        4
 70
     0
 43
0.0
 10
1.004091629284898
 20
1.004091629284897
 10
0.9827104036156667
 20
1.026764394824292
 10
0.96253499670033
 20
1.050642979117581
 10
0.9507940865118001
 20
1.065634330619284
  0
LWPOLYLINE
  5
CD
330
8B
100
AcDbEntity
  8
AM_4
100
AcDbPolyline
 90
        3
 70
     0
 43
0.0
 10
1.065634330619285
 20
0.9507940865117999
 10
1.034028540934848
 20
0.9763502425506803
 10
1.004091629284898
 20
1.004091629284897
  0
LWPOLYLINE
  5
CE
330
8B
100
AcDbEntity
  8
AM_4
100
AcDbPolyline
 90
        4
 70
     0
 43
0.0
 10
0.9896893800296138
 20
1.104529624137098
 10
1.004680731531318
 20
1.092788713948568
 10
1.028490525061058
 20
1.07267455278088
 10
1.051232081364001
 20
1.051232081364001
  0
LINE
  5
CF
330
8B
100
AcDbEntity
  8
AM_4
100
AcDbLine
 10
1.104529624137098
 20
0.9896893800296135
 30
0.0
 11
1.065634330619285
 21
0.9507940865117999
 31
0.0
  0
LWPOLYLINE
  5
D0
330
8B
100
AcDbEntity
  8
AM_4
100
AcDbPolyline
 90
        3
 70
     0
 43
0.0
 10
1.090221812365511
 20
0.9179614462042839
 10
1.076954931126989
 20
0.933404625992633
 10
1.065634330619285
 20
0.9507940865117999
  0
LWPOLYLINE
  5
D1
330
8B
100
AcDbEntity
  8
AM_4
100
AcDbPolyline
 90
        3
 70
     0
 43
0.0
 10
1.123054452673027
 20
0.8933739644580575
 10
1.105739149419419
 20
0.9046396340661085
 10
1.090221812365511
 20
0.9179614462042839
  0
LINE
  5
D2
330
8B
100
AcDbEntity
  8
AM_4
100
AcDbLine
 10
1.161949746190841
 20
0.9322692579758711
 30
0.0
 11
1.123054452673027
 21
0.8933739644580575
 31
0.0
  0
LWPOLYLINE
  5
D3
330
8B
100
AcDbEntity
  8
AM_4
100
AcDbPolyline
 90
        3
 70
     0
 43
0.0
 10
1.137362264444614
 20
0.9651018982833871
 10
1.150629145683136
 20
0.949658718495038
 10
1.161949746190841
 20
0.9322692579758711
  0
LWPOLYLINE
  5
D4
330
8B
100
AcDbEntity
  8
AM_4
100
AcDbPolyline
 90
        3
 70
     0
 43
0.0
 10
1.051232081364001
 20
1.051232081364001
 10
1.078853993115958
 20
1.021433871062216
 10
1.104529624137098
 20
0.9896893800296135
  0
LWPOLYLINE
  5
D5
330
8B
100
AcDbEntity
  8
AM_4
100
AcDbPolyline
 90
        3
 70
     0
 43
0.0
 10
1.104529624137098
 20
0.9896893800296135
 10
1.121844927390706
 20
0.9784237104215625
 10
1.137362264444614
 20
0.9651018982833871
  0
ENDBLK
  5
8E
330
8B
100
AcDbEntity
  8
0
100
AcDbBlockEnd
  0
BLOCK
  5
D8
330
D6
100
AcDbEntity
  8
0
100
AcDbBlockBegin
  2
3_045601_0_in_127501_0
 70
     2
 10
0.0
 20
0.0
 30
0.0
  3
3_045601_0_in_127501_0
  1

  0
ATTDEF
  5
DA
330
D6
100
AcDbEntity
  8
AM_6
100
AcDbText
 10
6.015565340093881
 20
1.015565340093881
 30
0.0
 40
0.5
  1
Set Screw Insert Inch Bore - Corrosion Resistant
100
AcDbAttributeDefinition
  3

  2
NN
 70
     8
280
     0
  0
ATTDEF
  5
DB
330
D6
100
AcDbEntity
  8
AM_6
100
AcDbText
 10
6.015565340093881
 20
0.5155653400938811
 30
0.0
 40
0.5
  1
SC Normal Duty Bearing Inserts
100
AcDbAttributeDefinition
  3

  2
NT
 70
     8
280
     0
  0
ATTDEF
  5
DC
330
D6
100
AcDbEntity
  8
AM_6
100
AcDbText
 10
6.015565340093881
 20
0.0155653400938811
 30
0.0
 40
0.5
  1
045601
100
AcDbAttributeDefinition
  3

  2
NB
 70
     8
280
     0
  0
ATTDEF
  5
DD
330
D6
100
AcDbEntity
  8
AM_6
100
AcDbText
 10
6.015565340093881
 20
-0.4844346599061189
 30
0.0
 40
0.5
  1
$PN.
100
AcDbAttributeDefinition
  3

  2
NBSYN
 70
     8
280
     0
  0
ATTDEF
  5
DE
330
D6
100
AcDbEntity
  8
AM_6
100
AcDbText
 10
6.015565340093881
 20
-0.9844346599061189
 30
0.0
 40
0.5
  1
045601
100
AcDbAttributeDefinition
  3

  2
LINA
 70
     8
280
     0
  0
ATTDEF
  5
DF
330
D6
100
AcDbEntity
  8
AM_6
100
AcDbText
 10
6.015565340093881
 20
-1.484434659906119
 30
0.0
 40
0.5
  1
205
100
AcDbAttributeDefinition
  3

  2
SERIES
 70
     8
280
     0
  0
ATTDEF
  5
E0
330
D6
100
AcDbEntity
  8
AM_6
100
AcDbText
 10
6.015565340093881
 20
-1.984434659906119
 30
0.0
 40
0.5
  1
1
100
AcDbAttributeDefinition
  3

  2
SS
 70
     8
280
     0
  0
ATTDEF
  5
E1
330
D6
100
AcDbEntity
  8
AM_6
100
AcDbText
 10
6.015565340093881
 20
-2.484434659906119
 30
0.0
 40
0.5
  1
045601
100
AcDbAttributeDefinition
  3

  2
PN
 70
     8
280
     0
  0
ATTDEF
  5
E2
330
D6
100
AcDbEntity
  8
AM_6
100
AcDbText
 10
6.015565340093881
 20
-2.984434659906119
 30
0.0
 40
0.5
  1
INS-SC-100-CR
100
AcDbAttributeDefinition
  3

  2
DESCRIPTION
 70
     8
280
     0
  0
ATTDEF
  5
E3
330
D6
100
AcDbEntity
  8
AM_6
100
AcDbText
 10
6.015565340093881
 20
-3.484434659906119
 30
0.0
 40
0.5
  1
1.34
100
AcDbAttributeDefinition
  3

  2
A
 70
     8
280
     0
  0
ATTDEF
  5
E4
330
D6
100
AcDbEntity
  8
AM_6
100
AcDbText
 10
6.015565340093881
 20
-3.984434659906119
 30
0.0
 40
0.5
  1
0.59
100
AcDbAttributeDefinition
  3

  2
C
 70
     8
280
     0
  0
ATTDEF
  5
E5
330
D6
100
AcDbEntity
  8
AM_6
100
AcDbText
 10
6.015565340093881
 20
-4.484434659906119
 30
0.0
 40
0.5
  1
2.0472
100
AcDbAttributeDefinition
  3

  2
D
 70
     8
280
     0
  0
ATTDEF
  5
E6
330
D6
100
AcDbEntity
  8
AM_6
100
AcDbText
 10
6.015565340093881
 20
-4.984434659906119
 30
0.0
 40
0.5
  1
0.16
100
AcDbAttributeDefinition
  3

  2
J
 70
     8
280
     0
  0
ATTDEF
  5
E7
330
D6
100
AcDbEntity
  8
AM_6
100
AcDbText
 10
6.015565340093881
 20
-5.484434659906119
 30
0.0
 40
0.5
  1
1.32
100
AcDbAttributeDefinition
  3

  2
L
 70
     8
280
     0
  0
ATTDEF
  5
E8
330
D6
100
AcDbEntity
  8
AM_6
100
AcDbText
 10
6.015565340093881
 20
-5.984434659906119
 30
0.0
 40
0.5
  1
1/4 - 28
100
AcDbAttributeDefinition
  3

  2
N
 70
     8
280
     0
  0
ATTDEF
  5
E9
330
D6
100
AcDbEntity
  8
AM_6
100
AcDbText
 10
6.015565340093881
 20
-6.484434659906119
 30
0.0
 40
0.5
  1
0.56
100
AcDbAttributeDefinition
  3

  2
W
 70
     8
280
     0
  0
ATTDEF
  5
EA
330
D6
100
AcDbEntity
  8
AM_6
100
AcDbText
 10
6.015565340093881
 20
-6.984434659906119
 30
0.0
 40
0.5
  1
0.78
100
AcDbAttributeDefinition
  3

  2
Y
 70
     8
280
     0
  0
ATTDEF
  5
EB
330
D6
100
AcDbEntity
  8
AM_6
100
AcDbText
 10
6.015565340093881
 20
-7.484434659906119
 30
0.0
 40
0.5
  1
baldor
100
AcDbAttributeDefinition
  3

  2
COMPANY
 70
     8
280
     0
  0
LINE
  5
EC
330
D6
100
AcDbEntity
  8
AM_9
100
AcDbLine
 10
-1.019963636363636
 20
-0.0833333333333381
 30
0.0
 11
-1.00757832485208
 21
-0.0833333333333381
 31
0.0
  0
LINE
  5
ED
330
D6
100
AcDbEntity
  8
AM_9
100
AcDbLine
 10
-1.007578273717142
 20
0.083333333333338
 30
0.0
 11
-1.019963636363636
 21
0.083333333333338
 31
0.0
  0
LWPOLYLINE
  5
EE
330
D6
100
AcDbEntity
  8
AM_9
100
AcDbPolyline
 90
       20
 70
     0
 43
0.0
 10
-1.007578870605481
 20
-0.0833333329172124
 10
-1.006023823951722
 20
-0.0827578292890572
 10
-1.003807145420292
 20
-0.0798836170070013
 10
-1.001692866919502
 20
-0.0746937839584694
 10
-0.9997488049762048
 20
-0.0673150793055322
 10
-0.9980256603424201
 20
-0.0579693049479655
 10
-0.9965920502855519
 20
-0.0470020046122547
 10
-0.9954710074718116
 20
-0.0346648507755378
 10
-0.9947103494992666
 20
-0.0214661347541256
 10
-0.9943130477892107
 20
-0.007649565566097
 10
-0.9942956277127362
 20
0.0062536263610553
 10
-0.9946474948614754
 20
0.0199797709157446
 10
-0.9953604424607881
 20
0.0330991214359625
 10
-0.9964078569688599
 20
0.045293338166543
 10
-0.9977706965240668
 20
0.0562688842041388
 10
-0.9993992318369883
 20
0.0656772009801908
 10
-1.001271081430489
 20
0.0733196640009521
 10
-1.003312444728696
 20
0.0789056077057874
 10
-1.005493564114255
 20
0.082287428079505
 10
-1.0075784277382
 20
0.0833333331492537
  0
LWPOLYLINE
  5
EF
330
D6
100
AcDbEntity
  8
AM_9
100
AcDbPolyline
 90
        9
 70
     0
 43
0.0
 10
-1.0075784277382
 20
0.0833333331492537
 10
-1.007727966044922
 20
0.0833279488248237
 10
-1.009969648875622
 20
0.0819486193418307
 10
-1.01213927562418
 20
0.0782014884214026
 10
-1.014173356441759
 20
0.0721555310475879
 10
-1.016016496431649
 20
0.0640043177434095
 10
-1.01760070360092
 20
0.0540294318845792
 10
-1.018898703529508
 20
0.0424785490745904
 10
-1.019963636363637
 20
0.0280264028516576
  0
LINE
  5
F0
330
D6
100
AcDbEntity
  8
AM_9
100
AcDbLine
 10
-1.0736
 20
0.0296969696969725
 30
0.0
 11
-1.0736
 21
-0.0296969661198727
 31
0.0
  0
LINE
  5
F1
330
D6
100
AcDbEntity
  8
AM_9
100
AcDbLine
 10
-1.019963636363636
 20
-0.0280264028516496
 30
0.0
 11
-1.019963636363636
 21
-0.0833333333333381
 31
0.0
  0
ARC
  5
F2
330
D6
100
AcDbEntity
  8
AM_9
100
AcDbCircle
 10
-1.019963636363637
 20
-0.0296969696969744
 30
0.0
 40
0.0536363636363635
100
AcDbArc
 50
180.0
 51
270.0
  0
ARC
  5
F3
330
D6
100
AcDbEntity
  8
AM_9
100
AcDbCircle
 10
-1.019963636363637
 20
0.0296969696969743
 30
0.0
 40
0.0536363636363636
100
AcDbArc
 50
90.0
 51
180.0
  0
LINE
  5
F4
330
D6
100
AcDbEntity
  8
AM_9
100
AcDbLine
 10
-1.019963636363636
 20
0.083333333333338
 30
0.0
 11
-1.019963636363636
 21
0.0280264028516576
 31
0.0
  0
LWPOLYLINE
  5
F5
330
D6
100
AcDbEntity
  8
AM_9
100
AcDbPolyline
 90
        5
 70
     0
 43
0.0
 10
-1.019963636363636
 20
-0.0280264028516496
 10
-1.020507993728831
 20
-0.0151126402575172
 10
-1.020722506360759
 20
-0.0014295001176374
 10
-1.02055777161958
 20
0.0132744454557197
 10
-1.019963636363636
 20
0.0280264028516576
  0
LWPOLYLINE
  5
F6
330
D6
100
AcDbEntity
  8
AM_9
100
AcDbPolyline
 90
        9
 70
     0
 43
0.0
 10
-1.019963636363646
 20
-0.0280264028516489
 10
-1.019057514852868
 20
-0.0407062469307168
 10
-1.017835694890528
 20
-0.0522378082729406
 10
-1.016320988112791
 20
-0.0623301990593489
 10
-1.014565076341581
 20
-0.0706734118152677
 10
-1.012596661164598
 20
-0.0770655677473124
 10
-1.010486663268347
 20
-0.0812887552121742
 10
-1.00826723683141
 20
-0.0832117747367514
 10
-1.007578870605481
 20
-0.0833333329172124
  0
CIRCLE
  5
F7
330
D6
100
AcDbEntity
  8
AM_9
100
AcDbCircle
 10
0.0
 20
0.0
 30
0.0
 40
0.9702666666666667
  0
LINE
  5
F8
330
D6
100
AcDbEntity
  8
AM_9
100
AcDbLine
 10
0.4037583818774872
 20
0.2963514926761187
 30
0.0
 11
0.4025293733611147
 21
0.296798815193738
 31
0.0
  0
LINE
  5
F9
330
D6
100
AcDbEntity
  8
AM_9
100
AcDbLine
 10
0.486056288917574
 20
0.1174512621581512
 30
0.0
 11
0.4865492993524902
 21
0.118805797195639
 31
0.0
  0
LINE
  5
FA
330
D6
100
AcDbEntity
  8
AM_9
100
AcDbLine
 10
0.093536967837907
 20
0.4911729182759269
 30
0.0
 11
0.09795
 21
0.4911729182759269
 31
0.0
  0
LINE
  5
FB
330
D6
100
AcDbEntity
  8
AM_9
100
AcDbLine
 10
0.09795
 20
0.4911729182759269
 30
0.0
 11
0.09795
 21
0.6410047816350097
 31
0.0
  0
LINE
  5
FC
330
D6
100
AcDbEntity
  8
AM_9
100
AcDbLine
 10
-0.09795
 20
0.6410047816350097
 30
0.0
 11
-0.09795
 21
0.4911729182759269
 31
0.0
  0
LINE
  5
FD
330
D6
100
AcDbEntity
  8
AM_9
100
AcDbLine
 10
-0.09795
 20
0.4911729182759269
 30
0.0
 11
-0.093536967837907
 21
0.4911729182759269
 31
0.0
  0
LINE
  5
FE
330
D6
100
AcDbEntity
  8
AM_9
100
AcDbLine
 10
0.4846842713711406
 20
0.1228053626085873
 30
0.0
 11
0.4865492993524902
 21
0.1188057971956391
 31
0.0
  0
LINE
  5
FF
330
D6
100
AcDbEntity
  8
AM_9
100
AcDbLine
 10
0.4865492993524902
 20
0.1188057971956391
 30
0.0
 11
0.6223430838610382
 21
0.1821274788418246
 31
0.0
  0
LINE
  5
100
330
D6
100
AcDbEntity
  8
AM_9
100
AcDbLine
 10
0.5395521663860352
 20
0.3596731743223043
 30
0.0
 11
0.4037583818774872
 21
0.2963514926761187
 31
0.0
  0
LINE
  5
101
330
D6
100
AcDbEntity
  8
AM_9
100
AcDbLine
 10
0.4037583818774872
 20
0.2963514926761187
 30
0.0
 11
0.4056234098588368
 21
0.2923519272631706
 31
0.0
  0
LINE
  5
102
330
D6
100
AcDbEntity
  8
AM_9
100
AcDbLine
 10
0.5395521663860352
 20
0.3596731743223043
 30
0.0
 11
0.6223430838610382
 21
0.1821274788418246
 31
0.0
  0
LINE
  5
103
330
D6
100
AcDbEntity
  8
AM_9
100
AcDbLine
 10
0.6223430838610382
 20
0.1821274788418246
 30
0.0
 11
0.6355268282664823
 21
0.1773289883020694
 31
0.0
  0
LINE
  5
104
330
D6
100
AcDbEntity
  8
AM_9
100
AcDbLine
 10
0.5444002872919429
 20
0.3729932770380716
 30
0.0
 11
0.5395521663860352
 21
0.3596731743223043
 31
0.0
  0
LINE
  5
105
330
D6
100
AcDbEntity
  8
AM_9
100
AcDbLine
 10
-0.09795
 20
0.6410047816350097
 30
0.0
 11
0.09795
 21
0.6410047816350097
 31
0.0
  0
LINE
  5
106
330
D6
100
AcDbEntity
  8
AM_9
100
AcDbLine
 10
0.09795
 20
0.6410047816350097
 30
0.0
 11
0.1079410208998562
 21
0.650995802534866
 31
0.0
  0
LINE
  5
107
330
D6
100
AcDbEntity
  8
AM_9
100
AcDbLine
 10
-0.1078675433761158
 20
0.6509223250111255
 30
0.0
 11
-0.09795
 21
0.6410047816350097
 31
0.0
  0
LINE
  5
108
330
D6
100
AcDbEntity
  8
AM_5
100
AcDbLine
 10
-0.125
 20
0.4841229182759271
 30
0.0
 11
-0.125
 21
0.6480547816350094
 31
0.0
  0
LINE
  5
109
330
D6
100
AcDbEntity
  8
AM_5
100
AcDbLine
 10
0.125
 20
0.4841229182759271
 30
0.0
 11
0.125
 21
0.6480547816350094
 31
0.0
  0
LINE
  5
10A
330
D6
100
AcDbEntity
  8
AM_5
100
AcDbLine
 10
0.385937087998793
 20
0.3178876595701882
 30
0.0
 11
0.5345098123045573
 21
0.3871682587069175
 31
0.0
  0
LINE
  5
10B
330
D6
100
AcDbEntity
  8
AM_5
100
AcDbLine
 10
0.491591653433968
 20
0.0913107128110258
 30
0.0
 11
0.6401643777397323
 21
0.1605913119477551
 31
0.0
  0
LINE
  5
10C
330
D6
100
AcDbEntity
  8
AM_7
100
AcDbLine
 10
0.3636657601602625
 20
0.1695801289714894
 30
0.0
 11
0.6624357055782628
 21
0.3088988425464539
 31
0.0
  0
CIRCLE
  5
10D
330
D6
100
AcDbEntity
  8
AM_4
100
AcDbCircle
 10
0.0
 20
0.0
 30
0.0
 40
1.015565340093881
  0
CIRCLE
  5
10E
330
D6
100
AcDbEntity
  8
AM_4
100
AcDbCircle
 10
0.0
 20
0.0
 30
0.0
 40
1.005431728164573
  0
CIRCLE
  5
10F
330
D6
100
AcDbEntity
  8
AM_4
100
AcDbCircle
 10
0.0
 20
0.0
 30
0.0
 40
0.9869405299188527
  0
CIRCLE
  5
110
330
D6
100
AcDbEntity
  8
AM_4
100
AcDbCircle
 10
0.0
 20
0.0
 30
0.0
 40
0.9560865860370598
  0
CIRCLE
  5
111
330
D6
100
AcDbEntity
  8
AM_4
100
AcDbCircle
 10
0.0
 20
0.0
 30
0.0
 40
0.6336
  0
CIRCLE
  5
112
330
D6
100
AcDbEntity
  8
AM_4
100
AcDbCircle
 10
0.0
 20
0.0
 30
0.0
 40
0.66
  0
CIRCLE
  5
113
330
D6
100
AcDbEntity
  8
AM_4
100
AcDbCircle
 10
0.0
 20
0.0
 30
0.0
 40
0.4999999999999999
  0
CIRCLE
  5
114
330
D6
100
AcDbEntity
  8
AM_4
100
AcDbCircle
 10
0.0
 20
0.0
 30
0.0
 40
0.5264
  0
ENDBLK
  5
D9
330
D6
100
AcDbEntity
  8
0
100
AcDbBlockEnd
  0
BLOCK
  5
117
330
115
100
AcDbEntity
  8
0
100
AcDbBlockBegin
  2
4_127501Hou_0_in_127501_0
 70
     2
 10
0.0
 20
0.0
 30
0.0
  3
4_127501Hou_0_in_127501_0
  1

  0
ATTDEF
  5
119
330
115
100
AcDbEntity
  8
AM_6
100
AcDbText
 10
7.74
 20
1.5325
 30
0.0
 40
0.5
  1
P2B-SCEZ-PCR -I-Housing
100
AcDbAttributeDefinition
  3

  2
NN
 70
     8
280
     0
  0
ATTDEF
  5
11A
330
115
100
AcDbEntity
  8
AM_6
100
AcDbText
 10
7.74
 20
1.0325
 30
0.0
 40
0.5
  1
SC Pillow Block Bearings -(Normal Duty) -Corrosion Resistant Insert -Polymer Housed -E-Z KLEEN
100
AcDbAttributeDefinition
  3

  2
NT
 70
     8
280
     0
  0
ATTDEF
  5
11B
330
115
100
AcDbEntity
  8
AM_6
100
AcDbText
 10
7.74
 20
0.5325000000000002
 30
0.0
 40
0.5
  1
127501Hou
100
AcDbAttributeDefinition
  3

  2
NB
 70
     8
280
     0
  0
ATTDEF
  5
11C
330
115
100
AcDbEntity
  8
AM_6
100
AcDbText
 10
7.74
 20
0.0325000000000002
 30
0.0
 40
0.5
  1
$PN.Hou
100
AcDbAttributeDefinition
  3

  2
NBSYN
 70
     8
280
     0
  0
ATTDEF
  5
11D
330
115
100
AcDbEntity
  8
AM_6
100
AcDbText
 10
7.74
 20
-0.4674999999999998
 30
0.0
 40
0.5
  1
127501
100
AcDbAttributeDefinition
  3

  2
LINA
 70
     8
280
     0
  0
ATTDEF
  5
11E
330
115
100
AcDbEntity
  8
AM_6
100
AcDbText
 10
7.74
 20
-0.9674999999999998
 30
0.0
 40
0.5
  1
205
100
AcDbAttributeDefinition
  3

  2
SERIES
 70
     8
280
     0
  0
ATTDEF
  5
11F
330
115
100
AcDbEntity
  8
AM_6
100
AcDbText
 10
7.74
 20
-1.4675
 30
0.0
 40
0.5
  1
1
100
AcDbAttributeDefinition
  3

  2
SS
 70
     8
280
     0
  0
ATTDEF
  5
120
330
115
100
AcDbEntity
  8
AM_6
100
AcDbText
 10
7.74
 20
-1.9675
 30
0.0
 40
0.5
  1
127501
100
AcDbAttributeDefinition
  3

  2
PN
 70
     8
280
     0
  0
ATTDEF
  5
121
330
115
100
AcDbEntity
  8
AM_6
100
AcDbText
 10
7.74
 20
-2.4675
 30
0.0
 40
0.5
  1
1
100
AcDbAttributeDefinition
  3

  2
HLP
 70
     8
280
     0
  0
ATTDEF
  5
122
330
115
100
AcDbEntity
  8
AM_6
100
AcDbText
 10
7.74
 20
-2.9675
 30
0.0
 40
0.5
  1
P2B-SCEZ-100-PCR
100
AcDbAttributeDefinition
  3

  2
DESCRIPTION
 70
     8
280
     0
  0
ATTDEF
  5
123
330
115
100
AcDbEntity
  8
AM_6
100
AcDbText
 10
7.74
 20
-3.4675
 30
0.0
 40
0.5
  1
1.34
100
AcDbAttributeDefinition
  3

  2
A
 70
     8
280
     0
  0
ATTDEF
  5
124
330
115
100
AcDbEntity
  8
AM_6
100
AcDbText
 10
7.74
 20
-3.9675
 30
0.0
 40
0.5
  1
5.48
100
AcDbAttributeDefinition
  3

  2
B
 70
     8
280
     0
  0
ATTDEF
  5
125
330
115
100
AcDbEntity
  8
AM_6
100
AcDbText
 10
7.74
 20
-4.467499999999999
 30
0.0
 40
0.5
  1
1.48
100
AcDbAttributeDefinition
  3

  2
C
 70
     8
280
     0
  0
ATTDEF
  5
126
330
115
100
AcDbEntity
  8
AM_6
100
AcDbText
 10
7.74
 20
-4.967499999999999
 30
0.0
 40
0.5
  1
3.96
100
AcDbAttributeDefinition
  3

  2
DMIN
 70
     8
280
     0
  0
ATTDEF
  5
127
330
115
100
AcDbEntity
  8
AM_6
100
AcDbText
 10
7.74
 20
-5.467499999999999
 30
0.0
 40
0.5
  1
4.20
100
AcDbAttributeDefinition
  3

  2
DMAX
 70
     8
280
     0
  0
ATTDEF
  5
128
330
115
100
AcDbEntity
  8
AM_6
100
AcDbText
 10
7.74
 20
-5.967499999999999
 30
0.0
 40
0.5
  1
3/8
100
AcDbAttributeDefinition
  3

  2
F
 70
     8
280
     0
  0
ATTDEF
  5
129
330
115
100
AcDbEntity
  8
AM_6
100
AcDbText
 10
7.74
 20
-6.467499999999999
 30
0.0
 40
0.5
  1
0.59
100
AcDbAttributeDefinition
  3

  2
G
 70
     8
280
     0
  0
ATTDEF
  5
12A
330
115
100
AcDbEntity
  8
AM_6
100
AcDbText
 10
7.74
 20
-6.967499999999999
 30
0.0
 40
0.5
  1
0.61
100
AcDbAttributeDefinition
  3

  2
H
 70
     8
280
     0
  0
ATTDEF
  5
12B
330
115
100
AcDbEntity
  8
AM_6
100
AcDbText
 10
7.74
 20
-7.467499999999999
 30
0.0
 40
0.5
  1
2.86
100
AcDbAttributeDefinition
  3

  2
J
 70
     8
280
     0
  0
ATTDEF
  5
12C
330
115
100
AcDbEntity
  8
AM_6
100
AcDbText
 10
7.74
 20
-7.967499999999999
 30
0.0
 40
0.5
  1
1.32
100
AcDbAttributeDefinition
  3

  2
L
 70
     8
280
     0
  0
ATTDEF
  5
12D
330
115
100
AcDbEntity
  8
AM_6
100
AcDbText
 10
7.74
 20
-8.4675
 30
0.0
 40
0.5
  1
1.44
100
AcDbAttributeDefinition
  3

  2
M
 70
     8
280
     0
  0
ATTDEF
  5
12E
330
115
100
AcDbEntity
  8
AM_6
100
AcDbText
 10
7.74
 20
-8.9675
 30
0.0
 40
0.5
  1
0.56
100
AcDbAttributeDefinition
  3

  2
R
 70
     8
280
     0
  0
ATTDEF
  5
12F
330
115
100
AcDbEntity
  8
AM_6
100
AcDbText
 10
7.74
 20
-9.4675
 30
0.0
 40
0.5
  1
0.78
100
AcDbAttributeDefinition
  3

  2
S
 70
     8
280
     0
  0
ATTDEF
  5
130
330
115
100
AcDbEntity
  8
AM_6
100
AcDbText
 10
7.74
 20
-9.9675
 30
0.0
 40
0.5
  1
baldor
100
AcDbAttributeDefinition
  3

  2
COMPANY
 70
     8
280
     0
  0
ARC
  5
131
330
115
100
AcDbEntity
  8
AM_9
100
AcDbCircle
 10
0.0000000000000001
 20
-0.0000000000000213
 30
0.0
 40
1.123599999999993
100
AcDbArc
 50
343.3291801370765
 51
196.6708198629235
  0
LINE
  5
132
330
115
100
AcDbEntity
  8
AM_9
100
AcDbLine
 10
0.9500615559004582
 20
0.5000000000000008
 30
0.0
 11
0.8931724133670946
 21
0.5
 31
0.0
  0
ARC
  5
133
330
115
100
AcDbEntity
  8
AM_9
100
AcDbCircle
 10
0.0
 20
0.0
 30
0.0
 40
1.0736
100
AcDbArc
 50
332.242989426859
 51
27.75701057314108
  0
LINE
  5
134
330
115
100
AcDbEntity
  8
AM_9
100
AcDbLine
 10
0.8931724133670946
 20
-0.5
 30
0.0
 11
0.9500615559004586
 21
-0.5
 31
0.0
  0
LINE
  5
135
330
115
100
AcDbEntity
  8
AM_9
100
AcDbLine
 10
-0.8931724133670946
 20
0.5
 30
0.0
 11
-0.9500615559004587
 21
0.4999999999999997
 31
0.0
  0
ARC
  5
136
330
115
100
AcDbEntity
  8
AM_9
100
AcDbCircle
 10
0.0000000000000002
 20
-0.0000000000000001
 30
0.0
 40
1.0736
100
AcDbArc
 50
152.242989426859
 51
207.757010573141
  0
LINE
  5
137
330
115
100
AcDbEntity
  8
AM_9
100
AcDbLine
 10
-0.9500615559004587
 20
-0.5
 30
0.0
 11
-0.8931724133670946
 21
-0.5
 31
0.0
  0
LINE
  5
138
330
115
100
AcDbEntity
  8
AM_9
100
AcDbLine
 10
-1.98
 20
-0.8299999999999998
 30
0.0
 11
-1.98
 21
-1.44
 31
0.0
  0
LINE
  5
139
330
115
100
AcDbEntity
  8
AM_9
100
AcDbLine
 10
-1.745
 20
-1.44
 30
0.0
 11
-1.745
 21
-0.8299999999999998
 31
0.0
  0
LINE
  5
13A
330
115
100
AcDbEntity
  8
AM_9
100
AcDbLine
 10
-2.1
 20
-0.8299999999999998
 30
0.0
 11
-2.1
 21
-1.44
 31
0.0
  0
LINE
  5
13B
330
115
100
AcDbEntity
  8
AM_9
100
AcDbLine
 10
-2.335
 20
-0.8299999999999998
 30
0.0
 11
-2.335
 21
-1.44
 31
0.0
  0
LINE
  5
13C
330
115
100
AcDbEntity
  8
AM_9
100
AcDbLine
 10
2.1
 20
-0.8299999999999998
 30
0.0
 11
2.1
 21
-1.44
 31
0.0
  0
LINE
  5
13D
330
115
100
AcDbEntity
  8
AM_9
100
AcDbLine
 10
2.335
 20
-1.44
 30
0.0
 11
2.335
 21
-0.8299999999999998
 31
0.0
  0
LINE
  5
13E
330
115
100
AcDbEntity
  8
AM_9
100
AcDbLine
 10
1.98
 20
-0.8299999999999998
 30
0.0
 11
1.98
 21
-1.44
 31
0.0
  0
LINE
  5
13F
330
115
100
AcDbEntity
  8
AM_9
100
AcDbLine
 10
1.745
 20
-0.8299999999999998
 30
0.0
 11
1.745
 21
-1.44
 31
0.0
  0
LINE
  5
140
330
115
100
AcDbEntity
  8
AM_9
100
AcDbLine
 10
1.486666666666667
 20
0.511037268964308
 30
0.0
 11
1.486666666666667
 21
-0.8299999999999998
 31
0.0
  0
LINE
  5
141
330
115
100
AcDbEntity
  8
AM_9
100
AcDbLine
 10
-1.486666666666667
 20
-0.8299999999999998
 30
0.0
 11
-1.486666666666667
 21
0.5110372689643083
 31
0.0
  0
LINE
  5
142
330
115
100
AcDbEntity
  8
AM_7
100
AcDbLine
 10
1.98
 20
-0.9424999999999999
 30
0.0
 11
1.98
 21
1.5325
 31
0.0
  0
LINE
  5
143
330
115
100
AcDbEntity
  8
AM_7
100
AcDbLine
 10
-1.98
 20
-0.9424999999999999
 30
0.0
 11
-1.98
 21
1.5325
 31
0.0
  0
LINE
  5
144
330
115
100
AcDbEntity
  8
AM_7
100
AcDbLine
 10
-1.179779999999999
 20
-0.0000000000000015
 30
0.0
 11
1.179779999999946
 21
-0.0000000000000015
 31
0.0
  0
LINE
  5
145
330
115
100
AcDbEntity
  8
AM_7
100
AcDbLine
 10
-0.0000000000000264
 20
-1.179779999999974
 30
0.0
 11
-0.0000000000000264
 21
1.179779999999971
 31
0.0
  0
CIRCLE
  5
146
330
115
100
AcDbEntity
  8
AM_4
100
AcDbCircle
 10
0.0
 20
0.0
 30
0.0
 40
1.0236
  0
ARC
  5
147
330
115
100
AcDbEntity
  8
AM_4
100
AcDbCircle
 10
-0.0000000000000001
 20
-0.0000000000000001
 30
0.0
 40
1.123599999999999
100
AcDbArc
 50
209.8168356091815
 51
330.1831643908186
  0
LWPOLYLINE
  5
148
330
115
100
AcDbEntity
  8
AM_4
100
AcDbPolyline
 90
        4
 70
     0
 43
0.0
 10
-1.07637365413733
 20
-0.3223301361632986
 10
-1.04418480498998
 20
-0.4149157179814182
 10
-1.004049078980633
 20
-0.5043435406527391
 10
-0.9748571428571428
 20
-0.5586864156397645
  0
LINE
  5
149
330
115
100
AcDbEntity
  8
AM_4
100
AcDbLine
 10
-0.9748571428571426
 20
-0.5586864156397642
 30
0.0
 11
-0.9748571428571426
 21
-1.44
 31
0.0
  0
LWPOLYLINE
  5
14A
330
115
100
AcDbEntity
  8
AM_4
100
AcDbPolyline
 90
       19
 70
     0
 43
0.0
 10
-2.74
 20
-0.8909999969852845
 10
-2.739767876320847
 20
-0.8856834966891494
 10
-2.739073272410245
 20
-0.8804074581934022
 10
-2.737921474623368
 20
-0.8752120353367547
 10
-2.736321248836847
 20
-0.8701367684242284
 10
-2.734284773735162
 20
-0.8652202833015573
 10
-2.731827548123494
 20
-0.8604999973891798
 10
-2.728968272972459
 20
-0.8560118349130759
 10
-2.725728709092436
 20
-0.8517899534997151
 10
-2.722133511520654
 20
-0.8478664842158949
 10
-2.718210041881473
 20
-0.8442712870319207
 10
-2.713988160147904
 20
-0.8410317235692018
 10
-2.709499997389181
 20
-0.8381724488617915
 10
-2.704779711233923
 20
-0.8357152237166906
 10
-2.699863225909961
 20
-0.8336787491009662
 10
-2.694787958839263
 20
-0.832078523816101
 10
-2.689592535868768
 20
-0.8309267265427555
 10
-2.684316497304364
 20
-0.8302321231536538
 10
-2.679
 20
-0.8299999999999998
  0
LINE
  5
14B
330
115
100
AcDbEntity
  8
AM_4
100
AcDbLine
 10
-2.74
 20
-0.8909999999999997
 30
0.0
 11
-2.74
 21
-1.44
 31
0.0
  0
LWPOLYLINE
  5
14C
330
115
100
AcDbEntity
  8
AM_4
100
AcDbPolyline
 90
        4
 70
     0
 43
0.0
 10
0.9748571428571431
 20
-0.5586864156397635
 10
1.019840246629264
 20
-0.4715960467976396
 10
1.057061750328158
 20
-0.380916547281907
 10
1.07637365413733
 20
-0.3223301361632979
  0
LINE
  5
14D
330
115
100
AcDbEntity
  8
AM_4
100
AcDbLine
 10
0.9748571428571429
 20
-0.5586864156397636
 30
0.0
 11
0.9748571428571429
 21
-1.44
 31
0.0
  0
LINE
  5
14E
330
115
100
AcDbEntity
  8
AM_4
100
AcDbLine
 10
-1.159857142857143
 20
-0.8299999999999996
 30
0.0
 11
-1.159857142857143
 21
-1.44
 31
0.0
  0
LINE
  5
14F
330
115
100
AcDbEntity
  8
AM_4
100
AcDbLine
 10
-2.592
 20
-0.8299999999999996
 30
0.0
 11
-2.592
 21
-1.44
 31
0.0
  0
LINE
  5
150
330
115
100
AcDbEntity
  8
AM_4
100
AcDbLine
 10
-2.74
 20
-1.44
 30
0.0
 11
2.74
 21
-1.44
 31
0.0
  0
LINE
  5
151
330
115
100
AcDbEntity
  8
AM_4
100
AcDbLine
 10
2.74
 20
-0.8910000000000008
 30
0.0
 11
2.74
 21
-1.44
 31
0.0
  0
LWPOLYLINE
  5
152
330
115
100
AcDbEntity
  8
AM_4
100
AcDbPolyline
 90
       19
 70
     0
 43
0.0
 10
2.678999999999999
 20
-0.8299999999999995
 10
2.684316500307606
 20
-0.8302321234164031
 10
2.689592538837682
 20
-0.8309267270662548
 10
2.694787961751253
 20
-0.8320785245963663
 10
2.699863228742865
 20
-0.833678750132059
 10
2.704779713966182
 20
-0.8357152249907639
 10
2.7095
 20
-0.8381724503691488
 10
2.713988162617413
 20
-0.8410317252983711
 10
2.718210044190879
 20
-0.844271288969742
 10
2.722133513652379
 20
-0.8478664863476203
 10
2.725728711030257
 20
-0.8517899558091209
 10
2.728968274701628
 20
-0.856011837382586
 10
2.731827549630851
 20
-0.8605
 10
2.734284775009236
 20
-0.8652202860338174
 10
2.73632124986794
 20
-0.8701367712571344
 10
2.737921475403633
 20
-0.8752120382487465
 10
2.739073272933745
 20
-0.8804074611623176
 10
2.739767876583597
 20
-0.8856834996923934
 10
2.74
 20
-0.8910000000000006
  0
LINE
  5
153
330
115
100
AcDbEntity
  8
AM_4
100
AcDbLine
 10
2.592
 20
-0.8299999999999998
 30
0.0
 11
2.592
 21
-1.44
 31
0.0
  0
LINE
  5
154
330
115
100
AcDbEntity
  8
AM_4
100
AcDbLine
 10
1.159857142857143
 20
-0.8299999999999986
 30
0.0
 11
1.159857142857143
 21
-1.44
 31
0.0
  0
LWPOLYLINE
  5
155
330
115
100
AcDbEntity
  8
AM_4
100
AcDbPolyline
 90
       44
 70
     0
 43
0.0
 10
1.07637365413733
 20
-0.322330136163299
 10
1.100370649844512
 20
-0.2272914273807191
 10
1.115993160484414
 20
-0.1305228935934557
 10
1.123122289317935
 20
-0.0327610017740682
 10
1.121703779369966
 20
0.0652502210504537
 10
1.111748426357732
 20
0.162764850293621
 10
1.093331996528863
 20
0.2590407407459501
 10
1.066594650034499
 20
0.3533451747481269
 10
1.031739874225915
 20
0.4449604386148204
 10
0.9890329349929021
 20
0.5331892848691966
 10
0.9387988579301795
 20
0.6173602387172255
 10
0.8814199546963594
 20
0.6968327083763125
 10
0.8173329133913801
 20
0.7710018603655623
 10
0.747025475096386
 20
0.8393032226537784
 10
0.6710327218695937
 20
0.9012169806324576
 10
0.5899330044487386
 20
0.9562719332188326
 10
0.5043435406527413
 20
1.004049078980632
 10
0.4149157179814206
 20
1.044184804989979
 10
0.322330136163301
 20
1.076373654137329
 10
0.2272914273807211
 20
1.100370649844512
 10
0.1305228935934578
 20
1.115993160484413
 10
0.0327610017740702
 20
1.123122289317934
 10
-0.0652502210504517
 20
1.121703779369966
 10
-0.162764850293619
 20
1.111748426357732
 10
-0.2590407407459482
 20
1.093331996528863
 10
-0.3533451747481249
 20
1.066594650034499
 10
-0.4449604386148186
 20
1.031739874225915
 10
-0.5331892848691949
 20
0.9890329349929028
 10
-0.617360238717224
 20
0.9387988579301805
 10
-0.696832708376311
 20
0.8814199546963605
 10
-0.7710018603655608
 20
0.8173329133913814
 10
-0.8393032226537771
 20
0.7470254750963873
 10
-0.9012169806324565
 20
0.6710327218695955
 10
-0.9562719332188319
 20
0.5899330044487403
 10
-1.004049078980631
 20
0.5043435406527431
 10
-1.044184804989979
 20
0.4149157179814225
 10
-1.076373654137329
 20
0.3223301361633029
 10
-1.100370649844512
 20
0.2272914273807231
 10
-1.115993160484413
 20
0.1305228935934598
 10
-1.123122289317935
 20
0.0327610017740723
 10
-1.121703779369967
 20
-0.0652502210504496
 10
-1.111748426357733
 20
-0.1627648502936169
 10
-1.093331996528863
 20
-0.2590407407459461
 10
-1.07637365413733
 20
-0.3223301361632985
  0
LINE
  5
156
330
115
100
AcDbEntity
  8
AM_4
100
AcDbLine
 10
1.07637365413733
 20
-0.3223301361632983
 30
0.0
 11
1.159857142857143
 21
-0.8299999999999986
 31
0.0
  0
LINE
  5
157
330
115
100
AcDbEntity
  8
AM_4
100
AcDbLine
 10
1.159857142857143
 20
-0.8299999999999986
 30
0.0
 11
2.678999999999999
 21
-0.8299999999999998
 31
0.0
  0
LWPOLYLINE
  5
158
330
115
100
AcDbEntity
  8
AM_4
100
AcDbPolyline
 90
       17
 70
     0
 43
0.0
 10
1.918954445769115
 20
-0.8299999999999998
 10
1.908321445153901
 20
-0.8295357531671929
 10
1.897769368093749
 20
-0.8281465458674894
 10
1.887378522266607
 20
-0.8258429508072662
 10
1.877227988283383
 20
-0.8226424997358808
 10
1.86739501783675
 20
-0.8185695500184712
 10
1.857954445769115
 20
-0.8136550992617014
 10
1.848978120534287
 20
-0.8079365494032569
 10
1.840534357387357
 20
-0.8014574220605153
 10
1.832687418464356
 20
-0.7942670273047587
 10
1.825497023708599
 20
-0.7864200883817577
 10
1.819017896365858
 20
-0.7779763252348276
 10
1.813299346507413
 20
-0.7689999999999999
 10
1.808384895750643
 20
-0.7595594279323652
 10
1.804311946033234
 20
-0.7497264574857315
 10
1.801111494961849
 20
-0.7395759235025076
 10
1.800578367163443
 20
-0.7375144712631593
  0
LINE
  5
159
330
115
100
AcDbEntity
  8
AM_4
100
AcDbLine
 10
1.494851753952889
 20
0.4886879998762189
 30
0.0
 11
1.800578367163443
 21
-0.7375144712631593
 31
0.0
  0
LWPOLYLINE
  5
15A
330
115
100
AcDbEntity
  8
AM_4
100
AcDbPolyline
 90
        8
 70
     0
 43
0.0
 10
1.462742702651977
 20
0.5454405559178185
 10
1.469933097407733
 20
0.5375936169948173
 10
1.476412224750475
 20
0.529149853847887
 10
1.48213077460892
 20
0.5201735286130592
 10
1.487045225365689
 20
0.5107329565454244
 10
1.491118175083099
 20
0.5008999860987905
 10
1.494318626154484
 20
0.4907494521155664
 10
1.494851753952889
 20
0.4886879998762189
  0
LINE
  5
15B
330
115
100
AcDbEntity
  8
AM_4
100
AcDbLine
 10
0.6239162312650369
 20
1.384267027304758
 30
0.0
 11
1.462742702651977
 21
0.5454405559178185
 31
0.0
  0
LWPOLYLINE
  5
15C
330
115
100
AcDbEntity
  8
AM_4
100
AcDbPolyline
 90
       10
 70
     0
 43
0.0
 10
0.5376492039602786
 20
1.42
 10
0.5482822045754926
 20
1.419535753167193
 10
0.5588342816356435
 20
1.418146545867489
 10
0.5692251274627853
 20
1.415842950807266
 10
0.5793756614460092
 20
1.412642499735881
 10
0.5892086318926426
 20
1.408569550018471
 10
0.5986492039602771
 20
1.403655099261702
 10
0.6076255291951045
 20
1.397936549403257
 10
0.6160692923420344
 20
1.391457422060516
 10
0.6239162312650353
 20
1.38426702730476
  0
LINE
  5
15D
330
115
100
AcDbEntity
  8
AM_4
100
AcDbLine
 10
0.5376492039602785
 20
1.42
 30
0.0
 11
-0.5376492039602787
 21
1.42
 31
0.0
  0
LWPOLYLINE
  5
15E
330
115
100
AcDbEntity
  8
AM_4
100
AcDbPolyline
 90
       10
 70
     0
 43
0.0
 10
-0.6239162312650361
 20
1.384267027304759
 10
-0.6160692923420354
 20
1.391457422060515
 10
-0.6076255291951055
 20
1.397936549403257
 10
-0.5986492039602782
 20
1.403655099261701
 10
-0.5892086318926437
 20
1.408569550018471
 10
-0.5793756614460104
 20
1.41264249973588
 10
-0.5692251274627866
 20
1.415842950807266
 10
-0.5588342816356449
 20
1.418146545867489
 10
-0.5482822045754939
 20
1.419535753167193
 10
-0.5376492039602799
 20
1.42
  0
LINE
  5
15F
330
115
100
AcDbEntity
  8
AM_4
100
AcDbLine
 10
-1.462742702651977
 20
0.5454405559178185
 30
0.0
 11
-0.6239162312650363
 21
1.384267027304759
 31
0.0
  0
LWPOLYLINE
  5
160
330
115
100
AcDbEntity
  8
AM_4
100
AcDbPolyline
 90
        8
 70
     0
 43
0.0
 10
-1.494851753952889
 20
0.488687999876219
 10
-1.491828941570335
 20
0.4988928434568323
 10
-1.487928221179615
 20
0.5087953990683066
 10
-1.483179279618225
 20
0.5183203022831119
 10
-1.477618259198934
 20
0.5273950628364896
 10
-1.471287482644969
 20
0.5359506163211386
 10
-1.464235130988535
 20
0.5439218498090559
 10
-1.462742702651977
 20
0.5454405559178185
  0
LINE
  5
161
330
115
100
AcDbEntity
  8
AM_4
100
AcDbLine
 10
-1.800578367163443
 20
-0.7375144712631594
 30
0.0
 11
-1.494851753952889
 21
0.488687999876219
 31
0.0
  0
LWPOLYLINE
  5
162
330
115
100
AcDbEntity
  8
AM_4
100
AcDbPolyline
 90
       17
 70
     0
 43
0.0
 10
-1.800578367163443
 20
-0.7375144712631594
 10
-1.803601179545998
 20
-0.747719314843773
 10
-1.807501899936718
 20
-0.7576218704552475
 10
-1.812250841498109
 20
-0.767146773670053
 10
-1.8178118619174
 20
-0.7762215342234309
 10
-1.824142638471365
 20
-0.78477708770808
 10
-1.831194990127799
 20
-0.7927483211959975
 10
-1.838915244232273
 20
-0.8000745687871781
 10
-1.847244644989433
 20
-0.8067000733137434
 10
-1.856119800630088
 20
-0.8125744106856575
 10
-1.865473165860847
 20
-0.8176528736484981
 10
-1.875233555924588
 20
-0.8218968120326585
 10
-1.885326688359441
 20
-0.8252739269044748
 10
-1.895675748333176
 20
-0.8277585163806148
 10
-1.906201973250461
 20
-0.8293316712349292
 10
-1.916825252183766
 20
-0.8299814188090796
 10
-1.918954445769115
 20
-0.8299999999999998
  0
LINE
  5
163
330
115
100
AcDbEntity
  8
AM_4
100
AcDbLine
 10
-2.679
 20
-0.8299999999999998
 30
0.0
 11
-1.159857142857143
 21
-0.8299999999999996
 31
0.0
  0
LINE
  5
164
330
115
100
AcDbEntity
  8
AM_4
100
AcDbLine
 10
-1.159857142857143
 20
-0.8299999999999996
 30
0.0
 11
-1.07637365413733
 21
-0.3223301361632985
 31
0.0
  0
ENDBLK
  5
118
330
115
100
AcDbEntity
  8
0
100
AcDbBlockEnd
  0
ENDSEC
  0
SECTION
  2
ENTITIES
  0
INSERT
  5
6F
330
1F
100
AcDbEntity
  8
0
100
AcDbBlockReference
  2
1_127501_0
 10
0.0
 20
0.0
 30
0.0
  0
POINT
  5
166
330
1F
100
AcDbEntity
  8
ConnectionPoints
100
AcDbPoint
 10
0.0
 20
0.0
 30
-0.56
  0
POINT
  5
167
330
1F
100
AcDbEntity
  8
ConnectionPoints
100
AcDbPoint
 10
0.0
 20
0.0
 30
0.78
  0
POINT
  5
168
330
1F
100
AcDbEntity
  8
ConnectionPoints
100
AcDbPoint
 10
1.004091629284898
 20
1.004091629284897
 30
0.0
  0
POINT
  5
169
330
1F
100
AcDbEntity
  8
ConnectionPoints
100
AcDbPoint
 10
0.0
 20
0.0
 30
0.78
  0
ENDSEC
  0
SECTION
  2
OBJECTS
  0
DICTIONARY
  5
C
330
0
100
AcDbDictionary
281
     1
  3
ACAD_DETAILVIEWSTYLE
350
171
  3
ACAD_GROUP
350
D
  3
ACAD_LAYOUT
350
1A
  3
ACAD_MATERIAL
350
43
  3
ACAD_MLEADERSTYLE
350
6B
  3
ACAD_MLINESTYLE
350
17
  3
ACAD_PLOTSETTINGS
350
19
  3
ACAD_PLOTSTYLENAME
350
E
  3
ACAD_SCALELIST
350
47
  3
ACAD_SECTIONVIEWSTYLE
350
172
  3
ACAD_TABLESTYLE
350
69
  3
ACAD_VISUALSTYLE
350
2A
  3
ACDB_RECOMPOSE_DATA
350
16E
  3
AcDbVariableDictionary
350
16A
  0
SUN
  5
6D
330
29
100
AcDbSun
 90
        1
290
     0
 63
     7
421
 16777215
 40
1.0
291
     1
 91
  2455826
 92
 54000000
292
     0
 70
     2
 71
   256
280
     1
  0
DICTIONARY
  5
171
102
{ACAD_REACTORS
330
C
102
}
330
C
100
AcDbDictionary
281
     1
  0
DICTIONARY
  5
D
102
{ACAD_REACTORS
330
C
102
}
330
C
100
AcDbDictionary
281
     1
  0
DICTIONARY
  5
1A
102
{ACAD_REACTORS
330
C
102
}
330
C
100
AcDbDictionary
281
     1
  3
Layout1
350
1E
  3
Layout2
350
26
  3
Model
350
22
  0
DICTIONARY
  5
43
102
{ACAD_REACTORS
330
C
102
}
330
C
100
AcDbDictionary
281
     1
  3
ByBlock
350
45
  3
ByLayer
350
44
  3
Global
350
46
  0
DICTIONARY
  5
6B
102
{ACAD_REACTORS
330
C
102
}
330
C
100
AcDbDictionary
281
     1
  3
Standard
350
6C
  0
DICTIONARY
  5
17
102
{ACAD_REACTORS
330
C
102
}
330
C
100
AcDbDictionary
281
     1
  3
Standard
350
18
  0
DICTIONARY
  5
19
102
{ACAD_REACTORS
330
C
102
}
330
C
100
AcDbDictionary
281
     1
  0
ACDBDICTIONARYWDFLT
  5
E
102
{ACAD_REACTORS
330
C
102
}
330
C
100
AcDbDictionary
281
     1
  3
Normal
350
F
100
AcDbDictionaryWithDefault
340
F
  0
DICTIONARY
  5
47
102
{ACAD_REACTORS
330
C
102
}
330
C
100
AcDbDictionary
281
     1
  3
A0
350
48
  3
A1
350
49
  3
A2
350
4A
  3
A3
350
4B
  3
A4
350
4C
  3
A5
350
4D
  3
A6
350
4E
  3
A7
350
4F
  3
A8
350
50
  3
A9
350
51
  3
B0
350
52
  3
B1
350
53
  3
B2
350
54
  3
B3
350
55
  3
B4
350
56
  3
B5
350
57
  3
B6
350
58
  3
B7
350
59
  3
B8
350
5A
  3
B9
350
5B
  3
C0
350
5C
  3
C1
350
5D
  3
C2
350
5E
  3
C3
350
5F
  3
C4
350
60
  3
C5
350
61
  3
C6
350
62
  3
C7
350
63
  3
C8
350
64
  3
C9
350
65
  3
D0
350
66
  3
D1
350
67
  3
D2
350
68
  0
DICTIONARY
  5
172
102
{ACAD_REACTORS
330
C
102
}
330
C
100
AcDbDictionary
281
     1
  0
DICTIONARY
  5
69
102
{ACAD_REACTORS
330
C
102
}
330
C
100
AcDbDictionary
281
     1
  3
Standard
350
6A
  0
DICTIONARY
  5
2A
102
{ACAD_REACTORS
330
C
102
}
330
C
100
AcDbDictionary
281
     1
  3
2dWireframe
350
2F
  3
Basic
350
32
  3
Brighten
350
36
  3
ColorChange
350
3A
  3
Conceptual
350
34
  3
Dim
350
35
  3
EdgeColorOff
350
3D
  3
Facepattern
350
39
  3
Flat
350
2B
  3
FlatWithEdges
350
2C
  3
Gouraud
350
2D
  3
GouraudWithEdges
350
2E
  3
Hidden
350
31
  3
JitterOff
350
3B
  3
Linepattern
350
38
  3
OverhangOff
350
3C
  3
Realistic
350
33
  3
Shaded
350
42
  3
Shaded with edges
350
41
  3
Shades of Gray
350
3E
  3
Sketchy
350
3F
  3
Thicken
350
37
  3
Wireframe
350
30
  3
X-Ray
350
40
  0
XRECORD
  5
16E
102
{ACAD_REACTORS
330
C
102
}
330
C
100
AcDbXrecord
280
     1
 90
        1
330
6A
  0
DICTIONARY
  5
16A
102
{ACAD_REACTORS
330
C
102
}
330
C
100
AcDbDictionary
281
     1
  3
CANNOSCALE
350
16B
  3
CMLEADERSTYLE
350
170
  3
CTABLESTYLE
350
16F
  0
LAYOUT
  5
1E
102
{ACAD_REACTORS
330
1A
102
}
330
1A
100
AcDbPlotSettings
  1

  2
none_device
  4

  6

 40
0.0
 41
0.0
 42
0.0
 43
0.0
 44
0.0
 45
0.0
 46
0.0
 47
0.0
 48
0.0
 49
0.0
140
0.0
141
0.0
142
1.0
143
1.0
 70
   688
 72
     0
 73
     0
 74
     5
  7

 75
    16
 76
     0
 77
     2
 78
   300
147
1.0
148
0.0
149
0.0
100
AcDbLayout
  1
Layout1
 70
     1
 71
     1
 10
0.0
 20
0.0
 11
12.0
 21
9.0
 12
0.0
 22
0.0
 32
0.0
 14
1.000000000000000E+20
 24
1.000000000000000E+20
 34
1.000000000000000E+20
 15
-1.000000000000000E+20
 25
-1.000000000000000E+20
 35
-1.000000000000000E+20
146
0.0
 13
0.0
 23
0.0
 33
0.0
 16
1.0
 26
0.0
 36
0.0
 17
0.0
 27
1.0
 37
0.0
 76
     0
330
1B
  0
LAYOUT
  5
26
102
{ACAD_REACTORS
330
1A
102
}
330
1A
100
AcDbPlotSettings
  1

  2
none_device
  4

  6

 40
0.0
 41
0.0
 42
0.0
 43
0.0
 44
0.0
 45
0.0
 46
0.0
 47
0.0
 48
0.0
 49
0.0
140
0.0
141
0.0
142
1.0
143
1.0
 70
   688
 72
     0
 73
     0
 74
     5
  7

 75
    16
 76
     0
 77
     2
 78
   300
147
1.0
148
0.0
149
0.0
100
AcDbLayout
  1
Layout2
 70
     1
 71
     2
 10
0.0
 20
0.0
 11
0.0
 21
0.0
 12
0.0
 22
0.0
 32
0.0
 14
0.0
 24
0.0
 34
0.0
 15
0.0
 25
0.0
 35
0.0
146
0.0
 13
0.0
 23
0.0
 33
0.0
 16
1.0
 26
0.0
 36
0.0
 17
0.0
 27
1.0
 37
0.0
 76
     0
330
23
  0
LAYOUT
  5
22
102
{ACAD_REACTORS
330
1A
102
}
330
1A
100
AcDbPlotSettings
  1

  2
none_device
  4
Letter_(8.50_x_11.00_Inches)
  6

 40
6.35
 41
6.35
 42
6.35000508
 43
6.35000508
 44
215.9
 45
279.4
 46
0.0
 47
0.0
 48
0.0
 49
0.0
140
0.0
141
0.0
142
1.0
143
1.0
 70
  1712
 72
     0
 73
     0
 74
     0
  7

 75
     0
 76
     0
 77
     2
 78
   300
147
1.0
148
0.0
149
0.0
100
AcDbLayout
  1
Model
 70
     1
 71
     0
 10
0.0
 20
0.0
 11
12.0
 21
9.0
 12
0.0
 22
0.0
 32
0.0
 14
1.000000000000000E+20
 24
1.000000000000000E+20
 34
1.000000000000000E+20
 15
-1.000000000000000E+20
 25
-1.000000000000000E+20
 35
-1.000000000000000E+20
146
0.0
 13
0.0
 23
0.0
 33
0.0
 16
1.0
 26
0.0
 36
0.0
 17
0.0
 27
1.0
 37
0.0
 76
     0
330
1F
331
29
  0
MATERIAL
  5
45
102
{ACAD_REACTORS
330
43
102
}
330
43
100
AcDbMaterial
  1
ByBlock
 72
     1
 94
      127
  0
MATERIAL
  5
44
102
{ACAD_REACTORS
330
43
102
}
330
43
100
AcDbMaterial
  1
ByLayer
 72
     1
 94
      127
  0
MATERIAL
  5
46
102
{ACAD_REACTORS
330
43
102
}
330
43
100
AcDbMaterial
  1
Global
 72
     1
 94
      127
  0
MLEADERSTYLE
  5
6C
102
{ACAD_REACTORS
330
6B
102
}
330
6B
100
AcDbMLeaderStyle
179
     2
170
     2
171
     1
172
     0
 90
        2
 40
0.0
 41
0.0
173
     1
 91
-1056964608
340
14
 92
       -2
290
     1
 42
0.09
291
     1
 43
0.36
  3
Standard
341
0
 44
0.18
300

342
11
174
     1
178
     6
175
     1
176
     0
 93
-1056964608
 45
0.18
292
     0
297
     0
 46
0.18
343
0
 94
-1056964608
 47
1.0
 49
1.0
140
1.0
293
     1
141
0.0
294
     1
177
     0
142
1.0
295
     0
296
     0
143
0.125
271
     0
272
     9
273
     9
298
     0
  0
MLINESTYLE
  5
18
102
{ACAD_REACTORS
330
17
102
}
330
17
100
AcDbMlineStyle
  2
Standard
 70
     0
  3

 62
   256
 51
90.0
 52
90.0
 71
     2
 49
0.5
 62
   256
  6
BYLAYER
 49
-0.5
 62
   256
  6
BYLAYER
  0
ACDBPLACEHOLDER
  5
F
102
{ACAD_REACTORS
330
E
102
}
330
E
  0
SCALE
  5
48
102
{ACAD_REACTORS
330
47
102
}
330
47
100
AcDbScale
 70
     0
300
1:1
140
1.0
141
1.0
290
     1
  0
SCALE
  5
49
102
{ACAD_REACTORS
330
47
102
}
330
47
100
AcDbScale
 70
     0
300
1:2
140
1.0
141
2.0
290
     0
  0
SCALE
  5
4A
102
{ACAD_REACTORS
330
47
102
}
330
47
100
AcDbScale
 70
     0
300
1:4
140
1.0
141
4.0
290
     0
  0
SCALE
  5
4B
102
{ACAD_REACTORS
330
47
102
}
330
47
100
AcDbScale
 70
     0
300
1:5
140
1.0
141
5.0
290
     0
  0
SCALE
  5
4C
102
{ACAD_REACTORS
330
47
102
}
330
47
100
AcDbScale
 70
     0
300
1:8
140
1.0
141
8.0
290
     0
  0
SCALE
  5
4D
102
{ACAD_REACTORS
330
47
102
}
330
47
100
AcDbScale
 70
     0
300
1:10
140
1.0
141
10.0
290
     0
  0
SCALE
  5
4E
102
{ACAD_REACTORS
330
47
102
}
330
47
100
AcDbScale
 70
     0
300
1:16
140
1.0
141
16.0
290
     0
  0
SCALE
  5
4F
102
{ACAD_REACTORS
330
47
102
}
330
47
100
AcDbScale
 70
     0
300
1:20
140
1.0
141
20.0
290
     0
  0
SCALE
  5
50
102
{ACAD_REACTORS
330
47
102
}
330
47
100
AcDbScale
 70
     0
300
1:30
140
1.0
141
30.0
290
     0
  0
SCALE
  5
51
102
{ACAD_REACTORS
330
47
102
}
330
47
100
AcDbScale
 70
     0
300
1:40
140
1.0
141
40.0
290
     0
  0
SCALE
  5
52
102
{ACAD_REACTORS
330
47
102
}
330
47
100
AcDbScale
 70
     0
300
1:50
140
1.0
141
50.0
290
     0
  0
SCALE
  5
53
102
{ACAD_REACTORS
330
47
102
}
330
47
100
AcDbScale
 70
     0
300
1:100
140
1.0
141
100.0
290
     0
  0
SCALE
  5
54
102
{ACAD_REACTORS
330
47
102
}
330
47
100
AcDbScale
 70
     0
300
2:1
140
2.0
141
1.0
290
     0
  0
SCALE
  5
55
102
{ACAD_REACTORS
330
47
102
}
330
47
100
AcDbScale
 70
     0
300
4:1
140
4.0
141
1.0
290
     0
  0
SCALE
  5
56
102
{ACAD_REACTORS
330
47
102
}
330
47
100
AcDbScale
 70
     0
300
8:1
140
8.0
141
1.0
290
     0
  0
SCALE
  5
57
102
{ACAD_REACTORS
330
47
102
}
330
47
100
AcDbScale
 70
     0
300
10:1
140
10.0
141
1.0
290
     0
  0
SCALE
  5
58
102
{ACAD_REACTORS
330
47
102
}
330
47
100
AcDbScale
 70
     0
300
100:1
140
100.0
141
1.0
290
     0
  0
SCALE
  5
59
102
{ACAD_REACTORS
330
47
102
}
330
47
100
AcDbScale
 70
     0
300
1/128" = 1'-0"
140
0.0078125
141
12.0
290
     0
  0
SCALE
  5
5A
102
{ACAD_REACTORS
330
47
102
}
330
47
100
AcDbScale
 70
     0
300
1/64" = 1'-0"
140
0.015625
141
12.0
290
     0
  0
SCALE
  5
5B
102
{ACAD_REACTORS
330
47
102
}
330
47
100
AcDbScale
 70
     0
300
1/32" = 1'-0"
140
0.03125
141
12.0
290
     0
  0
SCALE
  5
5C
102
{ACAD_REACTORS
330
47
102
}
330
47
100
AcDbScale
 70
     0
300
1/16" = 1'-0"
140
0.0625
141
12.0
290
     0
  0
SCALE
  5
5D
102
{ACAD_REACTORS
330
47
102
}
330
47
100
AcDbScale
 70
     0
300
3/32" = 1'-0"
140
0.09375
141
12.0
290
     0
  0
SCALE
  5
5E
102
{ACAD_REACTORS
330
47
102
}
330
47
100
AcDbScale
 70
     0
300
1/8" = 1'-0"
140
0.125
141
12.0
290
     0
  0
SCALE
  5
5F
102
{ACAD_REACTORS
330
47
102
}
330
47
100
AcDbScale
 70
     0
300
3/16" = 1'-0"
140
0.1875
141
12.0
290
     0
  0
SCALE
  5
60
102
{ACAD_REACTORS
330
47
102
}
330
47
100
AcDbScale
 70
     0
300
1/4" = 1'-0"
140
0.25
141
12.0
290
     0
  0
SCALE
  5
61
102
{ACAD_REACTORS
330
47
102
}
330
47
100
AcDbScale
 70
     0
300
3/8" = 1'-0"
140
0.375
141
12.0
290
     0
  0
SCALE
  5
62
102
{ACAD_REACTORS
330
47
102
}
330
47
100
AcDbScale
 70
     0
300
1/2" = 1'-0"
140
0.5
141
12.0
290
     0
  0
SCALE
  5
63
102
{ACAD_REACTORS
330
47
102
}
330
47
100
AcDbScale
 70
     0
300
3/4" = 1'-0"
140
0.75
141
12.0
290
     0
  0
SCALE
  5
64
102
{ACAD_REACTORS
330
47
102
}
330
47
100
AcDbScale
 70
     0
300
1" = 1'-0"
140
1.0
141
12.0
290
     0
  0
SCALE
  5
65
102
{ACAD_REACTORS
330
47
102
}
330
47
100
AcDbScale
 70
     0
300
1-1/2" = 1'-0"
140
1.5
141
12.0
290
     0
  0
SCALE
  5
66
102
{ACAD_REACTORS
330
47
102
}
330
47
100
AcDbScale
 70
     0
300
3" = 1'-0"
140
3.0
141
12.0
290
     0
  0
SCALE
  5
67
102
{ACAD_REACTORS
330
47
102
}
330
47
100
AcDbScale
 70
     0
300
6" = 1'-0"
140
6.0
141
12.0
290
     0
  0
SCALE
  5
68
102
{ACAD_REACTORS
330
47
102
}
330
47
100
AcDbScale
 70
     0
300
1'-0" = 1'-0"
140
12.0
141
12.0
290
     0
  0
TABLESTYLE
  5
6A
102
{ACAD_REACTORS
330
69
102
}
102
{ACAD_XDICTIONARY
360
16C
102
}
330
69
100
AcDbTableStyle
  3
Standard
 70
     0
 71
     0
 40
0.06
 41
0.06
280
     0
281
     0
  7
Standard
140
0.18
170
     2
 62
     0
 63
   257
283
     0
 90
        4
 91
        0
  1

274
    -2
284
     1
 64
     0
275
    -2
285
     1
 65
     0
276
    -2
286
     1
 66
     0
277
    -2
287
     1
 67
     0
278
    -2
288
     1
 68
     0
279
    -2
289
     1
 69
     0
  7
Standard
140
0.25
170
     5
 62
     0
 63
   257
283
     0
 90
        4
 91
        0
  1

274
    -2
284
     1
 64
     0
275
    -2
285
     1
 65
     0
276
    -2
286
     1
 66
     0
277
    -2
287
     1
 67
     0
278
    -2
288
     1
 68
     0
279
    -2
289
     1
 69
     0
  7
Standard
140
0.18
170
     5
 62
     0
 63
   257
283
     0
 90
        4
 91
        0
  1

274
    -2
284
     1
 64
     0
275
    -2
285
     1
 65
     0
276
    -2
286
     1
 66
     0
277
    -2
287
     1
 67
     0
278
    -2
288
     1
 68
     0
279
    -2
289
     1
 69
     0
  0
VISUALSTYLE
  5
2F
102
{ACAD_REACTORS
330
2A
102
}
330
2A
100
AcDbVisualStyle
  2
2dWireframe
 70
     4
177
     3
291
     0
 70
    58
 90
        0
176
     1
 90
        2
176
     1
 90
        0
176
     1
 90
        0
176
     1
 40
0.6
176
     1
 40
30.0
176
     1
 62
     7
420
 16777215
176
     1
 90
        1
176
     1
 90
        4
176
     1
 62
     7
176
     1
 62
   257
176
     1
 90
        1
176
     1
 90
        1
176
     1
 40
1.0
176
     1
 90
        0
176
     1
 62
   257
176
     1
 40
1.0
176
     1
 90
        1
176
     1
 90
        6
176
     1
 90
        2
176
     1
 62
     7
176
     1
 90
        5
176
     1
 90
        0
176
     1
 90
        0
176
     1
290
     0
176
     1
 90
        1
176
     1
 40
0.0
176
     1
 90
        0
176
     1
290
     1
176
     1
290
     1
176
     1
290
     0
176
     1
290
     0
176
     1
290
     0
176
     1
290
     0
176
     1
290
     0
176
     1
290
     0
176
     1
290
     0
176
     1
 90
       50
176
     1
 40
0.0
176
     1
 40
1.0
176
     1
 90
        0
176
     1
 62
    18
420
        0
176
     1
 90
       50
176
     1
 90
        3
176
     1
 62
     5
420
      255
176
     1
290
     0
176
     1
 90
       50
176
     1
 90
       50
176
     1
 90
       50
176
     1
290
     0
176
     1
 90
       50
176
     1
 62
   256
176
     0
 40
1.0
176
     0
 90
        2
176
     1
  1
strokes_ogs.tif
176
     1
290
     0
176
     1
 40
1.0
176
     1
 40
1.0
176
     1
  0
VISUALSTYLE
  5
32
102
{ACAD_REACTORS
330
2A
102
}
330
2A
100
AcDbVisualStyle
  2
Basic
 70
     7
177
     3
291
     1
 70
    58
 90
        1
176
     1
 90
        0
176
     1
 90
        1
176
     1
 90
        0
176
     1
 40
0.6
176
     1
 40
30.0
176
     1
 62
     7
420
 16777215
176
     1
 90
        0
176
     1
 90
        4
176
     1
 62
     7
176
     1
 62
   257
176
     1
 90
        1
176
     1
 90
        1
176
     1
 40
1.0
176
     1
 90
        8
176
     1
 62
     7
176
     1
 40
1.0
176
     1
 90
        1
176
     1
 90
        6
176
     1
 90
        2
176
     1
 62
     7
176
     1
 90
        5
176
     1
 90
        0
176
     1
 90
        0
176
     1
290
     0
176
     1
 90
        1
176
     1
 40
0.0
176
     1
 90
        0
176
     1
290
     0
176
     1
290
     1
176
     1
290
     1
176
     1
290
     0
176
     1
290
     0
176
     1
290
     0
176
     1
290
     0
176
     1
290
     0
176
     1
290
     0
176
     1
 90
       50
176
     1
 40
0.0
176
     1
 40
1.0
176
     1
 90
        0
176
     1
 62
    18
420
        0
176
     1
 90
       50
176
     1
 90
        3
176
     1
 62
     5
420
      255
176
     1
290
     0
176
     1
 90
       50
176
     1
 90
       50
176
     1
 90
       50
176
     1
290
     0
176
     1
 90
       50
176
     1
 62
   256
176
     0
 40
1.0
176
     0
 90
        2
176
     1
  1
strokes_ogs.tif
176
     1
290
     0
176
     1
 40
1.0
176
     1
 40
1.0
176
     1
  0
VISUALSTYLE
  5
36
102
{ACAD_REACTORS
330
2A
102
}
330
2A
100
AcDbVisualStyle
  2
Brighten
 70
    12
177
     3
291
     1
 70
    58
 90
        2
176
     1
 90
        2
176
     1
 90
        0
176
     1
 90
        0
176
     1
 40
0.6
176
     1
 40
30.0
176
     1
 62
     7
420
 16777215
176
     1
 90
        1
176
     1
 90
        4
176
     1
 62
     7
176
     1
 62
   257
176
     1
 90
        1
176
     1
 90
        1
176
     1
 40
1.0
176
     1
 90
        8
176
     1
 62
     7
176
     1
 40
1.0
176
     1
 90
        1
176
     1
 90
        6
176
     1
 90
        2
176
     1
 62
     7
176
     1
 90
        5
176
     1
 90
        0
176
     1
 90
        0
176
     1
290
     0
176
     1
 90
        1
176
     1
 40
50.0
176
     1
 90
        0
176
     1
290
     0
176
     1
290
     1
176
     1
290
     1
176
     1
290
     0
176
     1
290
     0
176
     1
290
     0
176
     1
290
     0
176
     1
290
     0
176
     1
290
     0
176
     1
 90
       50
176
     1
 40
0.0
176
     1
 40
1.0
176
     1
 90
        0
176
     1
 62
    18
420
        0
176
     1
 90
       50
176
     1
 90
        3
176
     1
 62
     5
420
      255
176
     1
290
     0
176
     1
 90
       50
176
     1
 90
       50
176
     1
 90
       50
176
     1
290
     0
176
     1
 90
       50
176
     1
 62
   256
176
     0
 40
1.0
176
     0
 90
        2
176
     1
  1
strokes_ogs.tif
176
     1
290
     0
176
     1
 40
1.0
176
     1
 40
1.0
176
     1
  0
VISUALSTYLE
  5
3A
102
{ACAD_REACTORS
330
2A
102
}
330
2A
100
AcDbVisualStyle
  2
ColorChange
 70
    16
177
     3
291
     1
 70
    58
 90
        2
176
     1
 90
        2
176
     1
 90
        3
176
     1
 90
        0
176
     1
 40
0.6
176
     1
 40
30.0
176
     1
 62
     8
420
  8421504
176
     1
 90
        1
176
     1
 90
        4
176
     1
 62
     7
176
     1
 62
   257
176
     1
 90
        1
176
     1
 90
        1
176
     1
 40
1.0
176
     1
 90
        8
176
     1
 62
     8
420
  8421504
176
     1
 40
1.0
176
     1
 90
        1
176
     1
 90
        6
176
     1
 90
        2
176
     1
 62
     7
176
     1
 90
        5
176
     1
 90
        0
176
     1
 90
        0
176
     1
290
     0
176
     1
 90
        1
176
     1
 40
0.0
176
     1
 90
        0
176
     1
290
     0
176
     1
290
     1
176
     1
290
     1
176
     1
290
     0
176
     1
290
     0
176
     1
290
     0
176
     1
290
     0
176
     1
290
     0
176
     1
290
     0
176
     1
 90
       50
176
     1
 40
0.0
176
     1
 40
1.0
176
     1
 90
        0
176
     1
 62
    18
420
        0
176
     1
 90
       50
176
     1
 90
        3
176
     1
 62
     5
420
      255
176
     1
290
     0
176
     1
 90
       50
176
     1
 90
       50
176
     1
 90
       50
176
     1
290
     0
176
     1
 90
       50
176
     1
 62
   256
176
     0
 40
1.0
176
     0
 90
        2
176
     1
  1
strokes_ogs.tif
176
     1
290
     0
176
     1
 40
1.0
176
     1
 40
1.0
176
     1
  0
VISUALSTYLE
  5
34
102
{ACAD_REACTORS
330
2A
102
}
330
2A
100
AcDbVisualStyle
  2
Conceptual
 70
     9
177
     3
291
     0
 70
    58
 90
        3
176
     1
 90
        2
176
     1
 90
        0
176
     1
 90
        0
176
     1
 40
0.6
176
     1
 40
30.0
176
     1
 62
     7
420
 16777215
176
     1
 90
        2
176
     1
 90
        2
176
     1
 62
     7
176
     1
 62
   257
176
     1
 90
        1
176
     1
 90
        1
176
     1
 40
179.0
176
     1
 90
        8
176
     1
 62
     7
176
     1
 40
1.0
176
     1
 90
        1
176
     1
 90
        6
176
     1
 90
        2
176
     1
 62
     7
176
     1
 90
        3
176
     1
 90
        0
176
     1
 90
        0
176
     1
290
     0
176
     1
 90
        1
176
     1
 40
0.0
176
     1
 90
        0
176
     1
290
     0
176
     1
290
     1
176
     1
290
     1
176
     1
290
     0
176
     1
290
     0
176
     1
290
     0
176
     1
290
     0
176
     1
290
     0
176
     1
290
     0
176
     1
 90
       50
176
     1
 40
0.0
176
     1
 40
1.0
176
     1
 90
        0
176
     1
 62
    18
420
        0
176
     1
 90
       50
176
     1
 90
        3
176
     1
 62
     5
420
      255
176
     1
290
     0
176
     1
 90
       50
176
     1
 90
       50
176
     1
 90
       50
176
     1
290
     0
176
     1
 90
       50
176
     1
 62
   256
176
     0
 40
1.0
176
     0
 90
        2
176
     1
  1
strokes_ogs.tif
176
     1
290
     0
176
     1
 40
1.0
176
     1
 40
1.0
176
     1
  0
VISUALSTYLE
  5
35
102
{ACAD_REACTORS
330
2A
102
}
330
2A
100
AcDbVisualStyle
  2
Dim
 70
    11
177
     3
291
     1
 70
    58
 90
        2
176
     1
 90
        2
176
     1
 90
        0
176
     1
 90
        0
176
     1
 40
0.6
176
     1
 40
30.0
176
     1
 62
     7
420
 16777215
176
     1
 90
        1
176
     1
 90
        4
176
     1
 62
     7
176
     1
 62
   257
176
     1
 90
        1
176
     1
 90
        1
176
     1
 40
1.0
176
     1
 90
        8
176
     1
 62
     7
176
     1
 40
1.0
176
     1
 90
        1
176
     1
 90
        6
176
     1
 90
        2
176
     1
 62
     7
176
     1
 90
        5
176
     1
 90
        0
176
     1
 90
        0
176
     1
290
     0
176
     1
 90
        1
176
     1
 40
-50.0
176
     1
 90
        0
176
     1
290
     0
176
     1
290
     1
176
     1
290
     1
176
     1
290
     0
176
     1
290
     0
176
     1
290
     0
176
     1
290
     0
176
     1
290
     0
176
     1
290
     0
176
     1
 90
       50
176
     1
 40
0.0
176
     1
 40
1.0
176
     1
 90
        0
176
     1
 62
    18
420
        0
176
     1
 90
       50
176
     1
 90
        3
176
     1
 62
     5
420
      255
176
     1
290
     0
176
     1
 90
       50
176
     1
 90
       50
176
     1
 90
       50
176
     1
290
     0
176
     1
 90
       50
176
     1
 62
   256
176
     0
 40
1.0
176
     0
 90
        2
176
     1
  1
strokes_ogs.tif
176
     1
290
     0
176
     1
 40
1.0
176
     1
 40
1.0
176
     1
  0
VISUALSTYLE
  5
3D
102
{ACAD_REACTORS
330
2A
102
}
330
2A
100
AcDbVisualStyle
  2
EdgeColorOff
 70
    22
177
     3
291
     1
 70
    58
 90
        2
176
     0
 90
        2
176
     0
 90
        0
176
     0
 90
        0
176
     0
 40
0.6
176
     0
 40
30.0
176
     0
 62
     7
420
 16777215
176
     0
 90
        1
176
     0
 90
        4
176
     0
 62
     7
176
     0
 62
   257
176
     0
 90
        1
176
     0
 90
        1
176
     0
 40
1.0
176
     0
 90
        8
176
     2
 62
     7
176
     0
 40
1.0
176
     0
 90
        1
176
     0
 90
        6
176
     0
 90
        2
176
     0
 62
     7
176
     0
 90
        5
176
     0
 90
        0
176
     0
 90
        0
176
     0
290
     0
176
     0
 90
        1
176
     0
 40
0.0
176
     0
 90
        0
176
     0
290
     0
176
     0
290
     1
176
     0
290
     1
176
     0
290
     0
176
     0
290
     0
176
     0
290
     0
176
     0
290
     0
176
     0
290
     0
176
     0
290
     0
176
     0
 90
       50
176
     0
 40
0.0
176
     0
 40
1.0
176
     0
 90
        0
176
     0
 62
    18
420
        0
176
     0
 90
       50
176
     0
 90
        3
176
     0
 62
     5
420
      255
176
     0
290
     0
176
     0
 90
       50
176
     0
 90
       50
176
     0
 90
       50
176
     0
290
     0
176
     0
 90
       50
176
     0
 62
   256
176
     0
 40
1.0
176
     0
 90
        2
176
     0
  1
strokes_ogs.tif
176
     0
290
     0
176
     0
 40
1.0
176
     0
 40
1.0
176
     0
  0
VISUALSTYLE
  5
39
102
{ACAD_REACTORS
330
2A
102
}
330
2A
100
AcDbVisualStyle
  2
Facepattern
 70
    15
177
     3
291
     1
 70
    58
 90
        2
176
     1
 90
        2
176
     1
 90
        0
176
     1
 90
        0
176
     1
 40
0.6
176
     1
 40
30.0
176
     1
 62
     7
420
 16777215
176
     1
 90
        1
176
     1
 90
        4
176
     1
 62
     7
176
     1
 62
   257
176
     1
 90
        1
176
     1
 90
        1
176
     1
 40
1.0
176
     1
 90
        8
176
     1
 62
     7
176
     1
 40
1.0
176
     1
 90
        1
176
     1
 90
        6
176
     1
 90
        2
176
     1
 62
     7
176
     1
 90
        5
176
     1
 90
        0
176
     1
 90
        0
176
     1
290
     0
176
     1
 90
        1
176
     1
 40
0.0
176
     1
 90
        0
176
     1
290
     0
176
     1
290
     1
176
     1
290
     1
176
     1
290
     0
176
     1
290
     0
176
     1
290
     0
176
     1
290
     0
176
     1
290
     0
176
     1
290
     0
176
     1
 90
       50
176
     1
 40
0.0
176
     1
 40
1.0
176
     1
 90
        0
176
     1
 62
    18
420
        0
176
     1
 90
       50
176
     1
 90
        3
176
     1
 62
     5
420
      255
176
     1
290
     0
176
     1
 90
       50
176
     1
 90
       50
176
     1
 90
       50
176
     1
290
     0
176
     1
 90
       50
176
     1
 62
   256
176
     0
 40
1.0
176
     0
 90
        2
176
     1
  1
strokes_ogs.tif
176
     1
290
     0
176
     1
 40
1.0
176
     1
 40
1.0
176
     1
  0
VISUALSTYLE
  5
2B
102
{ACAD_REACTORS
330
2A
102
}
330
2A
100
AcDbVisualStyle
  2
Flat
 70
     0
177
     3
291
     1
 70
    58
 90
        2
176
     1
 90
        1
176
     1
 90
        1
176
     1
 90
        2
176
     1
 40
0.6
176
     1
 40
30.0
176
     1
 62
     7
420
 16777215
176
     1
 90
        0
176
     1
 90
        0
176
     1
 62
     7
176
     1
 62
   257
176
     1
 90
        1
176
     1
 90
        1
176
     1
 40
1.0
176
     1
 90
        8
176
     1
 62
     7
176
     1
 40
1.0
176
     1
 90
        1
176
     1
 90
        6
176
     1
 90
        2
176
     1
 62
     7
176
     1
 90
        5
176
     1
 90
        0
176
     1
 90
        0
176
     1
290
     0
176
     1
 90
       13
176
     1
 40
0.0
176
     1
 90
        0
176
     1
290
     0
176
     1
290
     1
176
     1
290
     1
176
     1
290
     0
176
     1
290
     0
176
     1
290
     0
176
     1
290
     0
176
     1
290
     0
176
     1
290
     0
176
     1
 90
       50
176
     1
 40
0.0
176
     1
 40
1.0
176
     1
 90
        0
176
     1
 62
    18
420
        0
176
     1
 90
       50
176
     1
 90
        3
176
     1
 62
     5
420
      255
176
     1
290
     0
176
     1
 90
       50
176
     1
 90
       50
176
     1
 90
       50
176
     1
290
     0
176
     1
 90
       50
176
     1
 62
   256
176
     0
 40
1.0
176
     0
 90
        2
176
     1
  1
strokes_ogs.tif
176
     1
290
     0
176
     1
 40
1.0
176
     1
 40
1.0
176
     1
  0
VISUALSTYLE
  5
2C
102
{ACAD_REACTORS
330
2A
102
}
330
2A
100
AcDbVisualStyle
  2
FlatWithEdges
 70
     1
177
     3
291
     1
 70
    58
 90
        2
176
     1
 90
        1
176
     1
 90
        1
176
     1
 90
        2
176
     1
 40
0.6
176
     1
 40
30.0
176
     1
 62
     7
420
 16777215
176
     1
 90
        1
176
     1
 90
        0
176
     1
 62
     7
176
     1
 62
   257
176
     1
 90
        1
176
     1
 90
        1
176
     1
 40
1.0
176
     1
 90
        0
176
     1
 62
   257
176
     1
 40
1.0
176
     1
 90
        1
176
     1
 90
        6
176
     1
 90
        2
176
     1
 62
     7
176
     1
 90
        5
176
     1
 90
        0
176
     1
 90
        0
176
     1
290
     0
176
     1
 90
       13
176
     1
 40
0.0
176
     1
 90
        0
176
     1
290
     0
176
     1
290
     1
176
     1
290
     1
176
     1
290
     0
176
     1
290
     0
176
     1
290
     0
176
     1
290
     0
176
     1
290
     0
176
     1
290
     0
176
     1
 90
       50
176
     1
 40
0.0
176
     1
 40
1.0
176
     1
 90
        0
176
     1
 62
    18
420
        0
176
     1
 90
       50
176
     1
 90
        3
176
     1
 62
     5
420
      255
176
     1
290
     0
176
     1
 90
       50
176
     1
 90
       50
176
     1
 90
       50
176
     1
290
     0
176
     1
 90
       50
176
     1
 62
   256
176
     0
 40
1.0
176
     0
 90
        2
176
     1
  1
strokes_ogs.tif
176
     1
290
     0
176
     1
 40
1.0
176
     1
 40
1.0
176
     1
  0
VISUALSTYLE
  5
2D
102
{ACAD_REACTORS
330
2A
102
}
330
2A
100
AcDbVisualStyle
  2
Gouraud
 70
     2
177
     3
291
     1
 70
    58
 90
        2
176
     1
 90
        2
176
     1
 90
        1
176
     1
 90
        2
176
     1
 40
0.6
176
     1
 40
30.0
176
     1
 62
     7
420
 16777215
176
     1
 90
        0
176
     1
 90
        0
176
     1
 62
     7
176
     1
 62
   257
176
     1
 90
        1
176
     1
 90
        1
176
     1
 40
1.0
176
     1
 90
        0
176
     1
 62
     7
176
     1
 40
1.0
176
     1
 90
        1
176
     1
 90
        6
176
     1
 90
        2
176
     1
 62
     7
176
     1
 90
        5
176
     1
 90
        0
176
     1
 90
        0
176
     1
290
     0
176
     1
 90
       13
176
     1
 40
0.0
176
     1
 90
        0
176
     1
290
     0
176
     1
290
     1
176
     1
290
     1
176
     1
290
     0
176
     1
290
     0
176
     1
290
     0
176
     1
290
     0
176
     1
290
     0
176
     1
290
     0
176
     1
 90
       50
176
     1
 40
0.0
176
     1
 40
1.0
176
     1
 90
        0
176
     1
 62
    18
420
        0
176
     1
 90
       50
176
     1
 90
        3
176
     1
 62
     5
420
      255
176
     1
290
     0
176
     1
 90
       50
176
     1
 90
       50
176
     1
 90
       50
176
     1
290
     0
176
     1
 90
       50
176
     1
 62
   256
176
     0
 40
1.0
176
     0
 90
        2
176
     1
  1
strokes_ogs.tif
176
     1
290
     0
176
     1
 40
1.0
176
     1
 40
1.0
176
     1
  0
VISUALSTYLE
  5
2E
102
{ACAD_REACTORS
330
2A
102
}
330
2A
100
AcDbVisualStyle
  2
GouraudWithEdges
 70
     3
177
     3
291
     1
 70
    58
 90
        2
176
     1
 90
        2
176
     1
 90
        1
176
     1
 90
        2
176
     1
 40
0.6
176
     1
 40
30.0
176
     1
 62
     7
420
 16777215
176
     1
 90
        1
176
     1
 90
        0
176
     1
 62
     7
176
     1
 62
   257
176
     1
 90
        1
176
     1
 90
        1
176
     1
 40
1.0
176
     1
 90
        0
176
     1
 62
   257
176
     1
 40
1.0
176
     1
 90
        1
176
     1
 90
        6
176
     1
 90
        2
176
     1
 62
     7
176
     1
 90
        5
176
     1
 90
        0
176
     1
 90
        0
176
     1
290
     0
176
     1
 90
       13
176
     1
 40
0.0
176
     1
 90
        0
176
     1
290
     0
176
     1
290
     1
176
     1
290
     1
176
     1
290
     0
176
     1
290
     0
176
     1
290
     0
176
     1
290
     0
176
     1
290
     0
176
     1
290
     0
176
     1
 90
       50
176
     1
 40
0.0
176
     1
 40
1.0
176
     1
 90
        0
176
     1
 62
    18
420
        0
176
     1
 90
       50
176
     1
 90
        3
176
     1
 62
     5
420
      255
176
     1
290
     0
176
     1
 90
       50
176
     1
 90
       50
176
     1
 90
       50
176
     1
290
     0
176
     1
 90
       50
176
     1
 62
   256
176
     0
 40
1.0
176
     0
 90
        2
176
     1
  1
strokes_ogs.tif
176
     1
290
     0
176
     1
 40
1.0
176
     1
 40
1.0
176
     1
  0
VISUALSTYLE
  5
31
102
{ACAD_REACTORS
330
2A
102
}
330
2A
100
AcDbVisualStyle
  2
Hidden
 70
     6
177
     3
291
     0
 70
    58
 90
        1
176
     1
 90
        2
176
     1
 90
        2
176
     1
 90
        0
176
     1
 40
0.6
176
     1
 40
30.0
176
     1
 62
     7
420
 16777215
176
     1
 90
        2
176
     1
 90
        2
176
     1
 62
     7
176
     1
 62
   257
176
     1
 90
        2
176
     1
 90
        1
176
     1
 40
40.0
176
     1
 90
        0
176
     1
 62
   257
176
     1
 40
1.0
176
     1
 90
        1
176
     1
 90
        6
176
     1
 90
        2
176
     1
 62
     7
176
     1
 90
        3
176
     1
 90
        0
176
     1
 90
        0
176
     1
290
     0
176
     1
 90
        1
176
     1
 40
0.0
176
     1
 90
        0
176
     1
290
     0
176
     1
290
     1
176
     1
290
     1
176
     1
290
     0
176
     1
290
     0
176
     1
290
     0
176
     1
290
     0
176
     1
290
     0
176
     1
290
     0
176
     1
 90
       50
176
     1
 40
0.0
176
     1
 40
1.0
176
     1
 90
        0
176
     1
 62
    18
420
        0
176
     1
 90
       50
176
     1
 90
        3
176
     1
 62
     5
420
      255
176
     1
290
     0
176
     1
 90
       50
176
     1
 90
       50
176
     1
 90
       50
176
     1
290
     0
176
     1
 90
       50
176
     1
 62
   256
176
     0
 40
1.0
176
     0
 90
        2
176
     1
  1
strokes_ogs.tif
176
     1
290
     0
176
     1
 40
1.0
176
     1
 40
1.0
176
     1
  0
VISUALSTYLE
  5
3B
102
{ACAD_REACTORS
330
2A
102
}
330
2A
100
AcDbVisualStyle
  2
JitterOff
 70
    20
177
     3
291
     1
 70
    58
 90
        2
176
     0
 90
        2
176
     0
 90
        0
176
     0
 90
        0
176
     0
 40
0.6
176
     0
 40
30.0
176
     0
 62
     7
420
 16777215
176
     0
 90
        1
176
     0
 90
        4
176
     0
 62
     7
176
     0
 62
   257
176
     0
 90
        1
176
     0
 90
        1
176
     0
 40
1.0
176
     0
 90
       10
176
     2
 62
     7
176
     0
 40
1.0
176
     0
 90
        1
176
     0
 90
        6
176
     0
 90
        2
176
     0
 62
     7
176
     0
 90
        5
176
     0
 90
        0
176
     0
 90
        0
176
     0
290
     0
176
     0
 90
        1
176
     0
 40
0.0
176
     0
 90
        0
176
     0
290
     0
176
     0
290
     1
176
     0
290
     1
176
     0
290
     0
176
     0
290
     0
176
     0
290
     0
176
     0
290
     0
176
     0
290
     0
176
     0
290
     0
176
     0
 90
       50
176
     0
 40
0.0
176
     0
 40
1.0
176
     0
 90
        0
176
     0
 62
    18
420
        0
176
     0
 90
       50
176
     0
 90
        3
176
     0
 62
     5
420
      255
176
     0
290
     0
176
     0
 90
       50
176
     0
 90
       50
176
     0
 90
       50
176
     0
290
     0
176
     0
 90
       50
176
     0
 62
   256
176
     0
 40
1.0
176
     0
 90
        2
176
     0
  1
strokes_ogs.tif
176
     0
290
     0
176
     0
 40
1.0
176
     0
 40
1.0
176
     0
  0
VISUALSTYLE
  5
38
102
{ACAD_REACTORS
330
2A
102
}
330
2A
100
AcDbVisualStyle
  2
Linepattern
 70
    14
177
     3
291
     1
 70
    58
 90
        2
176
     1
 90
        2
176
     1
 90
        0
176
     1
 90
        0
176
     1
 40
0.6
176
     1
 40
30.0
176
     1
 62
     7
420
 16777215
176
     1
 90
        1
176
     1
 90
        4
176
     1
 62
     7
176
     1
 62
   257
176
     1
 90
        7
176
     1
 90
        7
176
     1
 40
1.0
176
     1
 90
        8
176
     1
 62
     7
176
     1
 40
1.0
176
     1
 90
        1
176
     1
 90
        6
176
     1
 90
        2
176
     1
 62
     7
176
     1
 90
        5
176
     1
 90
        0
176
     1
 90
        0
176
     1
290
     0
176
     1
 90
        1
176
     1
 40
0.0
176
     1
 90
        0
176
     1
290
     0
176
     1
290
     1
176
     1
290
     1
176
     1
290
     0
176
     1
290
     0
176
     1
290
     0
176
     1
290
     0
176
     1
290
     0
176
     1
290
     0
176
     1
 90
       50
176
     1
 40
0.0
176
     1
 40
1.0
176
     1
 90
        0
176
     1
 62
    18
420
        0
176
     1
 90
       50
176
     1
 90
        3
176
     1
 62
     5
420
      255
176
     1
290
     0
176
     1
 90
       50
176
     1
 90
       50
176
     1
 90
       50
176
     1
290
     0
176
     1
 90
       50
176
     1
 62
   256
176
     0
 40
1.0
176
     0
 90
        2
176
     1
  1
strokes_ogs.tif
176
     1
290
     0
176
     1
 40
1.0
176
     1
 40
1.0
176
     1
  0
VISUALSTYLE
  5
3C
102
{ACAD_REACTORS
330
2A
102
}
330
2A
100
AcDbVisualStyle
  2
OverhangOff
 70
    21
177
     3
291
     1
 70
    58
 90
        2
176
     0
 90
        2
176
     0
 90
        0
176
     0
 90
        0
176
     0
 40
0.6
176
     0
 40
30.0
176
     0
 62
     7
420
 16777215
176
     0
 90
        1
176
     0
 90
        4
176
     0
 62
     7
176
     0
 62
   257
176
     0
 90
        1
176
     0
 90
        1
176
     0
 40
1.0
176
     0
 90
        9
176
     2
 62
     7
176
     0
 40
1.0
176
     0
 90
        1
176
     0
 90
        6
176
     0
 90
        2
176
     0
 62
     7
176
     0
 90
        5
176
     0
 90
        0
176
     0
 90
        0
176
     0
290
     0
176
     0
 90
        1
176
     0
 40
0.0
176
     0
 90
        0
176
     0
290
     0
176
     0
290
     1
176
     0
290
     1
176
     0
290
     0
176
     0
290
     0
176
     0
290
     0
176
     0
290
     0
176
     0
290
     0
176
     0
290
     0
176
     0
 90
       50
176
     0
 40
0.0
176
     0
 40
1.0
176
     0
 90
        0
176
     0
 62
    18
420
        0
176
     0
 90
       50
176
     0
 90
        3
176
     0
 62
     5
420
      255
176
     0
290
     0
176
     0
 90
       50
176
     0
 90
       50
176
     0
 90
       50
176
     0
290
     0
176
     0
 90
       50
176
     0
 62
   256
176
     0
 40
1.0
176
     0
 90
        2
176
     0
  1
strokes_ogs.tif
176
     0
290
     0
176
     0
 40
1.0
176
     0
 40
1.0
176
     0
  0
VISUALSTYLE
  5
33
102
{ACAD_REACTORS
330
2A
102
}
330
2A
100
AcDbVisualStyle
  2
Realistic
 70
     8
177
     3
291
     0
 70
    58
 90
        2
176
     1
 90
        3
176
     1
 90
        0
176
     1
 90
        2
176
     1
 40
0.6
176
     1
 40
30.0
176
     1
 62
     7
420
 16777215
176
     1
 90
        0
176
     1
 90
        0
176
     1
 62
     7
176
     1
 62
   257
176
     1
 90
        1
176
     1
 90
        1
176
     1
 40
1.0
176
     1
 90
        8
176
     1
 62
   257
176
     1
 40
1.0
176
     1
 90
        1
176
     1
 90
        6
176
     1
 90
        2
176
     1
 62
     7
176
     1
 90
        3
176
     1
 90
        0
176
     1
 90
        0
176
     1
290
     0
176
     1
 90
       13
176
     1
 40
0.0
176
     1
 90
        0
176
     1
290
     0
176
     1
290
     1
176
     1
290
     1
176
     1
290
     0
176
     1
290
     0
176
     1
290
     0
176
     1
290
     0
176
     1
290
     0
176
     1
290
     0
176
     1
 90
       50
176
     1
 40
0.0
176
     1
 40
1.0
176
     1
 90
        0
176
     1
 62
    18
420
        0
176
     1
 90
       50
176
     1
 90
        3
176
     1
 62
     5
420
      255
176
     1
290
     0
176
     1
 90
       50
176
     1
 90
       50
176
     1
 90
       50
176
     1
290
     0
176
     1
 90
       50
176
     1
 62
   256
176
     0
 40
1.0
176
     0
 90
        2
176
     1
  1
strokes_ogs.tif
176
     1
290
     0
176
     1
 40
1.0
176
     1
 40
1.0
176
     1
  0
VISUALSTYLE
  5
42
102
{ACAD_REACTORS
330
2A
102
}
330
2A
100
AcDbVisualStyle
  2
Shaded
 70
    27
177
     3
291
     0
 70
    58
 90
        2
176
     1
 90
        2
176
     1
 90
        1
176
     1
 90
        2
176
     1
 40
0.6
176
     1
 40
30.0
176
     1
 62
     7
420
 16777215
176
     1
 90
        0
176
     1
 90
        4
176
     1
 62
     7
176
     1
 62
   257
176
     1
 90
        1
176
     1
 90
        1
176
     1
 40
1.0
176
     1
 90
        8
176
     1
 62
   257
176
     1
 40
1.0
176
     1
 90
        1
176
     1
 90
        6
176
     1
 90
        2
176
     1
 62
     8
420
  7895160
176
     1
 90
        3
176
     1
 90
        0
176
     1
 90
        0
176
     1
290
     0
176
     1
 90
        5
176
     1
 40
0.0
176
     1
 90
        0
176
     1
290
     0
176
     1
290
     1
176
     1
290
     1
176
     1
290
     0
176
     1
290
     0
176
     1
290
     0
176
     1
290
     0
176
     1
290
     0
176
     1
290
     0
176
     1
 90
       50
176
     1
 40
0.0
176
     1
 40
1.0
176
     1
 90
        0
176
     1
 62
    18
420
        0
176
     1
 90
       50
176
     1
 90
        3
176
     1
 62
     5
420
      255
176
     1
290
     0
176
     1
 90
       50
176
     1
 90
       50
176
     1
 90
       50
176
     1
290
     0
176
     1
 90
       50
176
     1
 62
   256
176
     0
 40
1.0
176
     0
 90
        2
176
     1
  1
strokes_ogs.tif
176
     1
290
     0
176
     1
 40
1.0
176
     1
 40
1.0
176
     1
  0
VISUALSTYLE
  5
41
102
{ACAD_REACTORS
330
2A
102
}
330
2A
100
AcDbVisualStyle
  2
Shaded with edges
 70
    26
177
     3
291
     0
 70
    58
 90
        2
176
     1
 90
        2
176
     1
 90
        1
176
     1
 90
        2
176
     1
 40
0.6
176
     1
 40
30.0
176
     1
 62
     7
420
 16777215
176
     1
 90
        1
176
     1
 90
       10
176
     1
 62
     7
176
     1
 62
   257
176
     1
 90
        2
176
     1
 90
        1
176
     1
 40
1.0
176
     1
 90
        8
176
     1
 62
   257
176
     1
 40
1.0
176
     1
 90
        1
176
     1
 90
        6
176
     1
 90
        2
176
     1
 62
     7
176
     1
 90
        3
176
     1
 90
        0
176
     1
 90
        0
176
     1
290
     0
176
     1
 90
        5
176
     1
 40
0.0
176
     1
 90
        0
176
     1
290
     0
176
     1
290
     1
176
     1
290
     1
176
     1
290
     0
176
     1
290
     0
176
     1
290
     0
176
     1
290
     0
176
     1
290
     0
176
     1
290
     0
176
     1
 90
       50
176
     1
 40
0.0
176
     1
 40
1.0
176
     1
 90
        0
176
     1
 62
    18
420
        0
176
     1
 90
       50
176
     1
 90
        3
176
     1
 62
     5
420
      255
176
     1
290
     0
176
     1
 90
       50
176
     1
 90
       50
176
     1
 90
       50
176
     1
290
     0
176
     1
 90
       50
176
     1
 62
   256
176
     0
 40
1.0
176
     0
 90
        2
176
     1
  1
strokes_ogs.tif
176
     1
290
     0
176
     1
 40
1.0
176
     1
 40
1.0
176
     1
  0
VISUALSTYLE
  5
3E
102
{ACAD_REACTORS
330
2A
102
}
330
2A
100
AcDbVisualStyle
  2
Shades of Gray
 70
    23
177
     3
291
     0
 70
    58
 90
        2
176
     1
 90
        2
176
     1
 90
        3
176
     1
 90
        0
176
     1
 40
0.6
176
     1
 40
30.0
176
     1
 62
     7
420
 16777215
176
     1
 90
        2
176
     1
 90
        2
176
     1
 62
     7
176
     1
 62
     7
176
     1
 90
        1
176
     1
 90
        1
176
     1
 40
40.0
176
     1
 90
        8
176
     1
 62
     7
176
     1
 40
1.0
176
     1
 90
        1
176
     1
 90
        6
176
     1
 90
        2
176
     1
 62
     7
176
     1
 90
        3
176
     1
 90
        0
176
     1
 90
        0
176
     1
290
     0
176
     1
 90
        1
176
     1
 40
0.0
176
     1
 90
        0
176
     1
290
     0
176
     1
290
     1
176
     1
290
     1
176
     1
290
     0
176
     1
290
     0
176
     1
290
     0
176
     1
290
     0
176
     1
290
     0
176
     1
290
     0
176
     1
 90
       50
176
     1
 40
0.0
176
     1
 40
1.0
176
     1
 90
        0
176
     1
 62
    18
420
        0
176
     1
 90
       50
176
     1
 90
        3
176
     1
 62
     5
420
      255
176
     1
290
     0
176
     1
 90
       50
176
     1
 90
       50
176
     1
 90
       50
176
     1
290
     0
176
     1
 90
       50
176
     1
 62
   256
176
     0
 40
1.0
176
     0
 90
        2
176
     1
  1
strokes_ogs.tif
176
     1
290
     0
176
     1
 40
1.0
176
     1
 40
1.0
176
     1
  0
VISUALSTYLE
  5
3F
102
{ACAD_REACTORS
330
2A
102
}
330
2A
100
AcDbVisualStyle
  2
Sketchy
 70
    24
177
     3
291
     0
 70
    58
 90
        1
176
     1
 90
        2
176
     1
 90
        2
176
     1
 90
        0
176
     1
 40
0.6
176
     1
 40
30.0
176
     1
 62
     7
420
 16777215
176
     1
 90
        2
176
     1
 90
        2
176
     1
 62
     7
176
     1
 62
     7
176
     1
 90
        1
176
     1
 90
        1
176
     1
 40
40.0
176
     1
 90
       11
176
     1
 62
     7
176
     1
 40
1.0
176
     1
 90
        1
176
     1
 90
        6
176
     1
 90
        2
176
     1
 62
     7
176
     1
 90
        6
176
     1
 90
        0
176
     1
 90
        0
176
     1
290
     0
176
     1
 90
        1
176
     1
 40
0.0
176
     1
 90
        0
176
     1
290
     0
176
     1
290
     1
176
     1
290
     1
176
     1
290
     0
176
     1
290
     0
176
     1
290
     0
176
     1
290
     0
176
     1
290
     0
176
     1
290
     0
176
     1
 90
       50
176
     1
 40
0.0
176
     1
 40
1.0
176
     1
 90
        0
176
     1
 62
    18
420
        0
176
     1
 90
       50
176
     1
 90
        3
176
     1
 62
     5
420
      255
176
     1
290
     0
176
     1
 90
       50
176
     1
 90
       50
176
     1
 90
       50
176
     1
290
     0
176
     1
 90
       50
176
     1
 62
   256
176
     0
 40
1.0
176
     0
 90
        2
176
     1
  1
strokes_ogs.tif
176
     1
290
     0
176
     1
 40
1.0
176
     1
 40
1.0
176
     1
  0
VISUALSTYLE
  5
37
102
{ACAD_REACTORS
330
2A
102
}
330
2A
100
AcDbVisualStyle
  2
Thicken
 70
    13
177
     3
291
     1
 70
    58
 90
        2
176
     1
 90
        2
176
     1
 90
        0
176
     1
 90
        0
176
     1
 40
0.6
176
     1
 40
30.0
176
     1
 62
     7
420
 16777215
176
     1
 90
        1
176
     1
 90
        4
176
     1
 62
     7
176
     1
 62
   257
176
     1
 90
        1
176
     1
 90
        1
176
     1
 40
1.0
176
     1
 90
       12
176
     1
 62
     7
176
     1
 40
1.0
176
     1
 90
        1
176
     1
 90
        6
176
     1
 90
        2
176
     1
 62
     7
176
     1
 90
        5
176
     1
 90
        0
176
     1
 90
        0
176
     1
290
     0
176
     1
 90
        1
176
     1
 40
0.0
176
     1
 90
        0
176
     1
290
     0
176
     1
290
     1
176
     1
290
     1
176
     1
290
     0
176
     1
290
     0
176
     1
290
     0
176
     1
290
     0
176
     1
290
     0
176
     1
290
     0
176
     1
 90
       50
176
     1
 40
0.0
176
     1
 40
1.0
176
     1
 90
        0
176
     1
 62
    18
420
        0
176
     1
 90
       50
176
     1
 90
        3
176
     1
 62
     5
420
      255
176
     1
290
     0
176
     1
 90
       50
176
     1
 90
       50
176
     1
 90
       50
176
     1
290
     0
176
     1
 90
       50
176
     1
 62
   256
176
     0
 40
1.0
176
     0
 90
        2
176
     1
  1
strokes_ogs.tif
176
     1
290
     0
176
     1
 40
1.0
176
     1
 40
1.0
176
     1
  0
VISUALSTYLE
  5
30
102
{ACAD_REACTORS
330
2A
102
}
330
2A
100
AcDbVisualStyle
  2
Wireframe
 70
     5
177
     3
291
     0
 70
    58
 90
        0
176
     1
 90
        2
176
     1
 90
        0
176
     1
 90
        0
176
     1
 40
0.6
176
     1
 40
30.0
176
     1
 62
     7
420
 16777215
176
     1
 90
        1
176
     1
 90
        4
176
     1
 62
     7
176
     1
 62
   257
176
     1
 90
        1
176
     1
 90
        1
176
     1
 40
1.0
176
     1
 90
        0
176
     1
 62
   257
176
     1
 40
1.0
176
     1
 90
        1
176
     1
 90
        6
176
     1
 90
        2
176
     1
 62
     7
176
     1
 90
        3
176
     1
 90
        0
176
     1
 90
        0
176
     1
290
     0
176
     1
 90
        1
176
     1
 40
0.0
176
     1
 90
        0
176
     1
290
     0
176
     1
290
     1
176
     1
290
     1
176
     1
290
     0
176
     1
290
     0
176
     1
290
     0
176
     1
290
     0
176
     1
290
     0
176
     1
290
     0
176
     1
 90
       50
176
     1
 40
0.0
176
     1
 40
1.0
176
     1
 90
        0
176
     1
 62
    18
420
        0
176
     1
 90
       50
176
     1
 90
        3
176
     1
 62
     5
420
      255
176
     1
290
     0
176
     1
 90
       50
176
     1
 90
       50
176
     1
 90
       50
176
     1
290
     0
176
     1
 90
       50
176
     1
 62
   256
176
     0
 40
1.0
176
     0
 90
        2
176
     1
  1
strokes_ogs.tif
176
     1
290
     0
176
     1
 40
1.0
176
     1
 40
1.0
176
     1
  0
VISUALSTYLE
  5
40
102
{ACAD_REACTORS
330
2A
102
}
330
2A
100
AcDbVisualStyle
  2
X-Ray
 70
    25
177
     3
291
     0
 70
    58
 90
        2
176
     1
 90
        2
176
     1
 90
        1
176
     1
 90
        1
176
     1
 40
0.5
176
     1
 40
30.0
176
     1
 62
     7
420
 16777215
176
     1
 90
        1
176
     1
 90
        0
176
     1
 62
     7
176
     1
 62
   257
176
     1
 90
        1
176
     1
 90
        1
176
     1
 40
1.0
176
     1
 90
        8
176
     1
 62
     7
176
     1
 40
1.0
176
     1
 90
        1
176
     1
 90
        6
176
     1
 90
        2
176
     1
 62
     7
176
     1
 90
        3
176
     1
 90
        0
176
     1
 90
        0
176
     1
290
     0
176
     1
 90
       13
176
     1
 40
0.0
176
     1
 90
        0
176
     1
290
     0
176
     1
290
     1
176
     1
290
     1
176
     1
290
     0
176
     1
290
     0
176
     1
290
     0
176
     1
290
     0
176
     1
290
     0
176
     1
290
     0
176
     1
 90
       50
176
     1
 40
0.0
176
     1
 40
1.0
176
     1
 90
        0
176
     1
 62
    18
420
        0
176
     1
 90
       50
176
     1
 90
        3
176
     1
 62
     5
420
      255
176
     1
290
     0
176
     1
 90
       50
176
     1
 90
       50
176
     1
 90
       50
176
     1
290
     0
176
     1
 90
       50
176
     1
 62
   256
176
     0
 40
1.0
176
     0
 90
        2
176
     1
  1
strokes_ogs.tif
176
     1
290
     0
176
     1
 40
1.0
176
     1
 40
1.0
176
     1
  0
DICTIONARYVAR
  5
16B
102
{ACAD_REACTORS
330
16A
102
}
330
16A
100
DictionaryVariables
280
     0
  1
1:1
  0
DICTIONARYVAR
  5
170
102
{ACAD_REACTORS
330
16A
102
}
330
16A
100
DictionaryVariables
280
     0
  1
Standard
  0
DICTIONARYVAR
  5
16F
102
{ACAD_REACTORS
330
16A
102
}
330
16A
100
DictionaryVariables
280
     0
  1
Standard
  0
DICTIONARY
  5
16C
330
6A
100
AcDbDictionary
280
     1
281
     1
  3
ACAD_ROUNDTRIP_2008_TABLESTYLE_CELLSTYLEMAP
360
16D
  0
CELLSTYLEMAP
  5
16D
102
{ACAD_REACTORS
330
16C
102
}
330
16C
100
AcDbCellStyleMap
 90
        3
300
CELLSTYLE
  1
TABLEFORMAT_BEGIN
 90
        5
170
     1
 91
        0
 92
    32768
 62
   257
 93
        1
300
CONTENTFORMAT
  1
CONTENTFORMAT_BEGIN
 90
        0
 91
        0
 92
        4
 93
        0
300

 40
0.0
140
1.0
 94
        5
 62
     0
340
11
144
0.25
309
CONTENTFORMAT_END
171
     1
301
MARGIN
  1
CELLMARGIN_BEGIN
 40
0.06
 40
0.06
 40
0.06
 40
0.06
 40
0.06
 40
0.06
309
CELLMARGIN_END
 94
        6
 95
        1
302
GRIDFORMAT
  1
GRIDFORMAT_BEGIN
 90
        0
 91
        1
 62
     0
 92
       -2
340
14
 93
        0
 40
0.045
309
GRIDFORMAT_END
 95
        2
302
GRIDFORMAT
  1
GRIDFORMAT_BEGIN
 90
        0
 91
        1
 62
     0
 92
       -2
340
14
 93
        0
 40
0.045
309
GRIDFORMAT_END
 95
        4
302
GRIDFORMAT
  1
GRIDFORMAT_BEGIN
 90
        0
 91
        1
 62
     0
 92
       -2
340
14
 93
        0
 40
0.045
309
GRIDFORMAT_END
 95
        8
302
GRIDFORMAT
  1
GRIDFORMAT_BEGIN
 90
        0
 91
        1
 62
     0
 92
       -2
340
14
 93
        0
 40
0.045
309
GRIDFORMAT_END
 95
       16
302
GRIDFORMAT
  1
GRIDFORMAT_BEGIN
 90
        0
 91
        1
 62
     0
 92
       -2
340
14
 93
        0
 40
0.045
309
GRIDFORMAT_END
 95
       32
302
GRIDFORMAT
  1
GRIDFORMAT_BEGIN
 90
        0
 91
        1
 62
     0
 92
       -2
340
14
 93
        0
 40
0.045
309
GRIDFORMAT_END
309
TABLEFORMAT_END
  1
CELLSTYLE_BEGIN
 90
        1
 91
        1
300
_TITLE
309
CELLSTYLE_END
300
CELLSTYLE
  1
TABLEFORMAT_BEGIN
 90
        5
170
     1
 91
        0
 92
        0
 62
   257
 93
        1
300
CONTENTFORMAT
  1
CONTENTFORMAT_BEGIN
 90
        0
 91
        0
 92
        4
 93
        0
300

 40
0.0
140
1.0
 94
        5
 62
     0
340
11
144
0.18
309
CONTENTFORMAT_END
171
     1
301
MARGIN
  1
CELLMARGIN_BEGIN
 40
0.06
 40
0.06
 40
0.06
 40
0.06
 40
0.06
 40
0.06
309
CELLMARGIN_END
 94
        6
 95
        1
302
GRIDFORMAT
  1
GRIDFORMAT_BEGIN
 90
        0
 91
        1
 62
     0
 92
       -2
340
14
 93
        0
 40
0.045
309
GRIDFORMAT_END
 95
        2
302
GRIDFORMAT
  1
GRIDFORMAT_BEGIN
 90
        0
 91
        1
 62
     0
 92
       -2
340
14
 93
        0
 40
0.045
309
GRIDFORMAT_END
 95
        4
302
GRIDFORMAT
  1
GRIDFORMAT_BEGIN
 90
        0
 91
        1
 62
     0
 92
       -2
340
14
 93
        0
 40
0.045
309
GRIDFORMAT_END
 95
        8
302
GRIDFORMAT
  1
GRIDFORMAT_BEGIN
 90
        0
 91
        1
 62
     0
 92
       -2
340
14
 93
        0
 40
0.045
309
GRIDFORMAT_END
 95
       16
302
GRIDFORMAT
  1
GRIDFORMAT_BEGIN
 90
        0
 91
        1
 62
     0
 92
       -2
340
14
 93
        0
 40
0.045
309
GRIDFORMAT_END
 95
       32
302
GRIDFORMAT
  1
GRIDFORMAT_BEGIN
 90
        0
 91
        1
 62
     0
 92
       -2
340
14
 93
        0
 40
0.045
309
GRIDFORMAT_END
309
TABLEFORMAT_END
  1
CELLSTYLE_BEGIN
 90
        2
 91
        1
300
_HEADER
309
CELLSTYLE_END
300
CELLSTYLE
  1
TABLEFORMAT_BEGIN
 90
        5
170
     1
 91
        0
 92
        0
 62
   257
 93
        1
300
CONTENTFORMAT
  1
CONTENTFORMAT_BEGIN
 90
        0
 91
        0
 92
        4
 93
        0
300

 40
0.0
140
1.0
 94
        2
 62
     0
340
11
144
0.18
309
CONTENTFORMAT_END
171
     1
301
MARGIN
  1
CELLMARGIN_BEGIN
 40
0.06
 40
0.06
 40
0.06
 40
0.06
 40
0.06
 40
0.06
309
CELLMARGIN_END
 94
        6
 95
        1
302
GRIDFORMAT
  1
GRIDFORMAT_BEGIN
 90
        0
 91
        1
 62
     0
 92
       -2
340
14
 93
        0
 40
0.045
309
GRIDFORMAT_END
 95
        2
302
GRIDFORMAT
  1
GRIDFORMAT_BEGIN
 90
        0
 91
        1
 62
     0
 92
       -2
340
14
 93
        0
 40
0.045
309
GRIDFORMAT_END
 95
        4
302
GRIDFORMAT
  1
GRIDFORMAT_BEGIN
 90
        0
 91
        1
 62
     0
 92
       -2
340
14
 93
        0
 40
0.045
309
GRIDFORMAT_END
 95
        8
302
GRIDFORMAT
  1
GRIDFORMAT_BEGIN
 90
        0
 91
        1
 62
     0
 92
       -2
340
14
 93
        0
 40
0.045
309
GRIDFORMAT_END
 95
       16
302
GRIDFORMAT
  1
GRIDFORMAT_BEGIN
 90
        0
 91
        1
 62
     0
 92
       -2
340
14
 93
        0
 40
0.045
309
GRIDFORMAT_END
 95
       32
302
GRIDFORMAT
  1
GRIDFORMAT_BEGIN
 90
        0
 91
        1
 62
     0
 92
       -2
340
14
 93
        0
 40
0.045
309
GRIDFORMAT_END
309
TABLEFORMAT_END
  1
CELLSTYLE_BEGIN
 90
        3
 91
        2
300
_DATA
309
CELLSTYLE_END
  0
ENDSEC
  0
EOF