0
SECTION
  2
HEADER
  9
$ACADVER
  1
AC1027
  9
$ACADMAINTVER
 70
     8
  9
$DWGCODEPAGE
  3
ANSI_1252
  9
$REQUIREDVERSIONS
160
                 0
  9
$COMMENTS
  1
File was created by Cadenas
  9
$CUSTOMPROPERTYTAG
  1
NN
  9
$CUSTOMPROPERTY
  1
D-Lok Normal Duty Pillow Block Metric Bore
  9
$CUSTOMPROPERTYTAG
  1
NT
  9
$CUSTOMPROPERTY
  1
D-LOK
  9
$CUSTOMPROPERTYTAG
  1
NB
  9
$CUSTOMPROPERTY
  1
126601
  9
$CUSTOMPROPERTYTAG
  1
NBSYN
  9
$CUSTOMPROPERTY
  1
$PN.
  9
$CUSTOMPROPERTYTAG
  1
LINA
  9
$CUSTOMPROPERTY
  1
126601
  9
$CUSTOMPROPERTYTAG
  1
SS
  9
$CUSTOMPROPERTY
  1
20
  9
$CUSTOMPROPERTYTAG
  1
PN
  9
$CUSTOMPROPERTY
  1
126601
  9
$CUSTOMPROPERTYTAG
  1
RS
  9
$CUSTOMPROPERTY
  1
204
  9
$CUSTOMPROPERTYTAG
  1
DESCRIPTION
  9
$CUSTOMPROPERTY
  1
P2B-DL-20M
  9
$CUSTOMPROPERTYTAG
  1
A
  9
$CUSTOMPROPERTY
  1
32.5
  9
$CUSTOMPROPERTYTAG
  1
B
  9
$CUSTOMPROPERTY
  1
133.4
  9
$CUSTOMPROPERTYTAG
  1
C
  9
$CUSTOMPROPERTY
  1
34.0
  9
$CUSTOMPROPERTYTAG
  1
DMIN
  9
$CUSTOMPROPERTY
  1
85.9
  9
$CUSTOMPROPERTYTAG
  1
DMAX
  9
$CUSTOMPROPERTY
  1
106.4
  9
$CUSTOMPROPERTYTAG
  1
F
  9
$CUSTOMPROPERTY
  1
M10
  9
$CUSTOMPROPERTYTAG
  1
G
  9
$CUSTOMPROPERTY
  1
21.6
  9
$CUSTOMPROPERTYTAG
  1
H
  9
$CUSTOMPROPERTY
  1
13.5
  9
$CUSTOMPROPERTYTAG
  1
J
  9
$CUSTOMPROPERTY
  1
65.0
  9
$CUSTOMPROPERTYTAG
  1
L
  9
$CUSTOMPROPERTY
  1
43.4
  9
$CUSTOMPROPERTYTAG
  1
M
  9
$CUSTOMPROPERTY
  1
33.3
  9
$CUSTOMPROPERTYTAG
  1
R
  9
$CUSTOMPROPERTY
  1
12.7
  9
$CUSTOMPROPERTYTAG
  1
S
  9
$CUSTOMPROPERTY
  1
19.8
  9
$CUSTOMPROPERTYTAG
  1
U
  9
$CUSTOMPROPERTY
  1
57.2
  9
$CUSTOMPROPERTYTAG
  1
V
  9
$CUSTOMPROPERTY
  1
114.3
  9
$CUSTOMPROPERTYTAG
  1
W
  9
$CUSTOMPROPERTY
  1
12.7
  9
$CUSTOMPROPERTYTAG
  1
X
  9
$CUSTOMPROPERTY
  1
3
  9
$CUSTOMPROPERTYTAG
  1
COMPANY
  9
$CUSTOMPROPERTY
  1
baldor
  9
$INSBASE
 10
0.0
 20
0.0
 30
0.0
  9
$EXTMIN
 10
1.000000000000000E+20
 20
1.000000000000000E+20
 30
1.000000000000000E+20
  9
$EXTMAX
 10
-1.000000000000000E+20
 20
-1.000000000000000E+20
 30
-1.000000000000000E+20
  9
$LIMMIN
 10
0.0
 20
0.0
  9
$LIMMAX
 10
420.0
 20
297.0
  9
$ORTHOMODE
 70
     0
  9
$REGENMODE
 70
     1
  9
$FILLMODE
 70
     1
  9
$QTEXTMODE
 70
     0
  9
$MIRRTEXT
 70
     1
  9
$LTSCALE
 40
1.0
  9
$ATTMODE
 70
     1
  9
$TEXTSIZE
 40
2.5
  9
$TRACEWID
 40
1.0
  9
$TEXTSTYLE
  7
Standard
  9
$CLAYER
  8
0
  9
$CELTYPE
  6
ByLayer
  9
$CECOLOR
 62
   256
  9
$CELTSCALE
 40
1.0
  9
$DISPSILH
 70
     0
  9
$DIMSCALE
 40
1.0
  9
$DIMASZ
 40
2.5
  9
$DIMEXO
 40
0.625
  9
$DIMDLI
 40
3.75
  9
$DIMRND
 40
0.0
  9
$DIMDLE
 40
0.0
  9
$DIMEXE
 40
1.25
  9
$DIMTP
 40
0.0
  9
$DIMTM
 40
0.0
  9
$DIMTXT
 40
2.5
  9
$DIMCEN
 40
2.5
  9
$DIMTSZ
 40
0.0
  9
$DIMTOL
 70
     0
  9
$DIMLIM
 70
     0
  9
$DIMTIH
 70
     0
  9
$DIMTOH
 70
     0
  9
$DIMSE1
 70
     0
  9
$DIMSE2
 70
     0
  9
$DIMTAD
 70
     1
  9
$DIMZIN
 70
     8
  9
$DIMBLK
  1

  9
$DIMASO
 70
     1
  9
$DIMSHO
 70
     1
  9
$DIMPOST
  1

  9
$DIMAPOST
  1

  9
$DIMALT
 70
     0
  9
$DIMALTD
 70
     3
  9
$DIMALTF
 40
0.03937007874016
  9
$DIMLFAC
 40
1.0
  9
$DIMTOFL
 70
     1
  9
$DIMTVP
 40
0.0
  9
$DIMTIX
 70
     0
  9
$DIMSOXD
 70
     0
  9
$DIMSAH
 70
     0
  9
$DIMBLK1
  1

  9
$DIMBLK2
  1

  9
$DIMSTYLE
  2
ISO-25
  9
$DIMCLRD
 70
     0
  9
$DIMCLRE
 70
     0
  9
$DIMCLRT
 70
     0
  9
$DIMTFAC
 40
1.0
  9
$DIMGAP
 40
0.625
  9
$DIMJUST
 70
     0
  9
$DIMSD1
 70
     0
  9
$DIMSD2
 70
     0
  9
$DIMTOLJ
 70
     0
  9
$DIMTZIN
 70
     8
  9
$DIMALTZ
 70
     0
  9
$DIMALTTZ
 70
     0
  9
$DIMUPT
 70
     0
  9
$DIMDEC
 70
     2
  9
$DIMTDEC
 70
     2
  9
$DIMALTU
 70
     2
  9
$DIMALTTD
 70
     3
  9
$DIMTXSTY
  7
Standard
  9
$DIMAUNIT
 70
     0
  9
$DIMADEC
 70
     0
  9
$DIMALTRND
 40
0.0
  9
$DIMAZIN
 70
     0
  9
$DIMDSEP
 70
    44
  9
$DIMATFIT
 70
     3
  9
$DIMFRAC
 70
     0
  9
$DIMLDRBLK
  1

  9
$DIMLUNIT
 70
     2
  9
$DIMLWD
 70
    -2
  9
$DIMLWE
 70
    -2
  9
$DIMTMOVE
 70
     0
  9
$DIMFXL
 40
1.0
  9
$DIMFXLON
 70
     0
  9
$DIMJOGANG
 40
0.7853981633974483
  9
$DIMTFILL
 70
     0
  9
$DIMTFILLCLR
 70
     0
  9
$DIMARCSYM
 70
     0
  9
$DIMLTYPE
  6

  9
$DIMLTEX1
  6

  9
$DIMLTEX2
  6

  9
$DIMTXTDIRECTION
 70
     0
  9
$LUNITS
 70
     2
  9
$LUPREC
 70
     4
  9
$SKETCHINC
 40
1.0
  9
$FILLETRAD
 40
10.0
  9
$AUNITS
 70
     0
  9
$AUPREC
 70
     0
  9
$MENU
  1
.
  9
$ELEVATION
 40
0.0
  9
$PELEVATION
 40
0.0
  9
$THICKNESS
 40
0.0
  9
$LIMCHECK
 70
     0
  9
$CHAMFERA
 40
0.0
  9
$CHAMFERB
 40
0.0
  9
$CHAMFERC
 40
0.0
  9
$CHAMFERD
 40
0.0
  9
$SKPOLY
 70
     0
  9
$TDCREATE
 40
2458169.002313183
  9
$TDUCREATE
 40
2458168.960646516
  9
$TDUPDATE
 40
2458169.002313183
  9
$TDUUPDATE
 40
2458168.960646516
  9
$TDINDWG
 40
0.0000000116
  9
$TDUSRTIMER
 40
0.0000000116
  9
$USRTIMER
 70
     1
  9
$ANGBASE
 50
0.0
  9
$ANGDIR
 70
     0
  9
$PDMODE
 70
     0
  9
$PDSIZE
 40
0.0
  9
$PLINEWID
 40
0.0
  9
$SPLFRAME
 70
     0
  9
$SPLINETYPE
 70
     6
  9
$SPLINESEGS
 70
     8
  9
$HANDSEED
  5
187
  9
$SURFTAB1
 70
     6
  9
$SURFTAB2
 70
     6
  9
$SURFTYPE
 70
     6
  9
$SURFU
 70
     6
  9
$SURFV
 70
     6
  9
$UCSBASE
  2

  9
$UCSNAME
  2

  9
$UCSORG
 10
0.0
 20
0.0
 30
0.0
  9
$UCSXDIR
 10
1.0
 20
0.0
 30
0.0
  9
$UCSYDIR
 10
0.0
 20
1.0
 30
0.0
  9
$UCSORTHOREF
  2

  9
$UCSORTHOVIEW
 70
     0
  9
$UCSORGTOP
 10
0.0
 20
0.0
 30
0.0
  9
$UCSORGBOTTOM
 10
0.0
 20
0.0
 30
0.0
  9
$UCSORGLEFT
 10
0.0
 20
0.0
 30
0.0
  9
$UCSORGRIGHT
 10
0.0
 20
0.0
 30
0.0
  9
$UCSORGFRONT
 10
0.0
 20
0.0
 30
0.0
  9
$UCSORGBACK
 10
0.0
 20
0.0
 30
0.0
  9
$PUCSBASE
  2

  9
$PUCSNAME
  2

  9
$PUCSORG
 10
0.0
 20
0.0
 30
0.0
  9
$PUCSXDIR
 10
1.0
 20
0.0
 30
0.0
  9
$PUCSYDIR
 10
0.0
 20
1.0
 30
0.0
  9
$PUCSORTHOREF
  2

  9
$PUCSORTHOVIEW
 70
     0
  9
$PUCSORGTOP
 10
0.0
 20
0.0
 30
0.0
  9
$PUCSORGBOTTOM
 10
0.0
 20
0.0
 30
0.0
  9
$PUCSORGLEFT
 10
0.0
 20
0.0
 30
0.0
  9
$PUCSORGRIGHT
 10
0.0
 20
0.0
 30
0.0
  9
$PUCSORGFRONT
 10
0.0
 20
0.0
 30
0.0
  9
$PUCSORGBACK
 10
0.0
 20
0.0
 30
0.0
  9
$USERI1
 70
     0
  9
$USERI2
 70
     0
  9
$USERI3
 70
     0
  9
$USERI4
 70
     0
  9
$USERI5
 70
     0
  9
$USERR1
 40
0.0
  9
$USERR2
 40
0.0
  9
$USERR3
 40
0.0
  9
$USERR4
 40
0.0
  9
$USERR5
 40
0.0
  9
$WORLDVIEW
 70
     1
  9
$SHADEDGE
 70
     3
  9
$SHADEDIF
 70
    70
  9
$TILEMODE
 70
     1
  9
$MAXACTVP
 70
    64
  9
$PINSBASE
 10
0.0
 20
0.0
 30
0.0
  9
$PLIMCHECK
 70
     0
  9
$PEXTMIN
 10
1.000000000000000E+20
 20
1.000000000000000E+20
 30
1.000000000000000E+20
  9
$PEXTMAX
 10
-1.000000000000000E+20
 20
-1.000000000000000E+20
 30
-1.000000000000000E+20
  9
$PLIMMIN
 10
0.0
 20
0.0
  9
$PLIMMAX
 10
420.0
 20
297.0
  9
$UNITMODE
 70
     0
  9
$VISRETAIN
 70
     1
  9
$PLINEGEN
 70
     0
  9
$PSLTSCALE
 70
     1
  9
$TREEDEPTH
 70
  3020
  9
$CMLSTYLE
  2
Standard
  9
$CMLJUST
 70
     0
  9
$CMLSCALE
 40
20.0
  9
$PROXYGRAPHICS
 70
     1
  9
$MEASUREMENT
 70
     1
  9
$CELWEIGHT
370
    -1
  9
$ENDCAPS
280
     0
  9
$JOINSTYLE
280
     0
  9
$LWDISPLAY
290
     0
  9
$INSUNITS
 70
     4
  9
$HYPERLINKBASE
  1

  9
$STYLESHEET
  1

  9
$XEDIT
290
     1
  9
$CEPSNTYPE
380
     0
  9
$PSTYLEMODE
290
     1
  9
$FINGERPRINTGUID
  2
{6EDB966D-62B9-4790-A766-9A612C656B79}
  9
$VERSIONGUID
  2
{FAEB1C32-E019-11D5-929B-00C0DF256EC4}
  9
$EXTNAMES
290
     1
  9
$PSVPSCALE
 40
0.0
  9
$OLESTARTUP
290
     0
  9
$SORTENTS
280
   127
  9
$INDEXCTL
280
     0
  9
$HIDETEXT
280
     1
  9
$XCLIPFRAME
280
     2
  9
$HALOGAP
280
     0
  9
$OBSCOLOR
 70
   257
  9
$OBSLTYPE
280
     0
  9
$INTERSECTIONDISPLAY
280
     0
  9
$INTERSECTIONCOLOR
 70
   257
  9
$DIMASSOC
280
     2
  9
$PROJECTNAME
  1

  9
$CAMERADISPLAY
290
     0
  9
$LENSLENGTH
 40
50.0
  9
$CAMERAHEIGHT
 40
0.0
  9
$STEPSPERSEC
 40
2.0
  9
$STEPSIZE
 40
6.0
  9
$3DDWFPREC
 40
2.0
  9
$PSOLWIDTH
 40
5.0
  9
$PSOLHEIGHT
 40
80.0
  9
$LOFTANG1
 40
1.570796326794897
  9
$LOFTANG2
 40
1.570796326794897
  9
$LOFTMAG1
 40
0.0
  9
$LOFTMAG2
 40
0.0
  9
$LOFTPARAM
 70
     7
  9
$LOFTNORMALS
280
     1
  9
$LATITUDE
 40
37.795
  9
$LONGITUDE
 40
-122.394
  9
$NORTHDIRECTION
 40
0.0
  9
$TIMEZONE
 70
 -8000
  9
$LIGHTGLYPHDISPLAY
280
     1
  9
$TILEMODELIGHTSYNCH
280
     1
  9
$CMATERIAL
347
44
  9
$SOLIDHIST
280
     0
  9
$SHOWHIST
280
     1
  9
$DWFFRAME
280
     2
  9
$DGNFRAME
280
     2
  9
$REALWORLDSCALE
290
     1
  9
$INTERFERECOLOR
 62
   256
  9
$CSHADOW
280
     0
  9
$SHADOWPLANELOCATION
 40
0.0
  0
ENDSEC
  0
SECTION
  2
CLASSES
  0
CLASS
  1
ACDBDICTIONARYWDFLT
  2
AcDbDictionaryWithDefault
  3
ObjectDBX Classes
 90
        0
 91
        4
280
     0
281
     0
  0
CLASS
  1
VISUALSTYLE
  2
AcDbVisualStyle
  3
ObjectDBX Classes
 90
     4095
 91
        4
280
     0
281
     0
  0
CLASS
  1
MATERIAL
  2
AcDbMaterial
  3
ObjectDBX Classes
 90
     1153
 91
        4
280
     0
281
     0
  0
CLASS
  1
SCALE
  2
AcDbScale
  3
ObjectDBX Classes
 90
     1153
 91
        4
280
     0
281
     0
  0
CLASS
  1
TABLESTYLE
  2
AcDbTableStyle
  3
ObjectDBX Classes
 90
     4095
 91
        4
280
     0
281
     0
  0
CLASS
  1
MLEADERSTYLE
  2
AcDbMLeaderStyle
  3
ACDB_MLEADERSTYLE_CLASS
 90
     4095
 91
        4
280
     0
281
     0
  0
CLASS
  1
SUN
  2
AcDbSun
  3
SCENEOE
 90
     1153
 91
        4
280
     0
281
     0
  0
CLASS
  1
DICTIONARYVAR
  2
AcDbDictionaryVar
  3
ObjectDBX Classes
 90
        0
 91
        4
280
     0
281
     0
  0
CLASS
  1
CELLSTYLEMAP
  2
AcDbCellStyleMap
  3
ObjectDBX Classes
 90
     1152
 91
        4
280
     0
281
     0
  0
ENDSEC
  0
SECTION
  2
TABLES
  0
TABLE
  2
VPORT
  5
8
330
0
100
AcDbSymbolTable
 70
     1
  0
VPORT
  5
29
330
8
100
AcDbSymbolTableRecord
100
AcDbViewportTableRecord
  2
*Active
 70
     0
 10
0.0
 20
0.0
 11
1.0
 21
1.0
 12
-1.362500000000011
 22
39.0
 13
0.0
 23
0.0
 14
10.0
 24
10.0
 15
10.0
 25
10.0
 16
0.0
 26
0.0
 36
1.0
 17
0.0
 27
0.0
 37
0.0
 40
79.56
 41
0.514423076923077
 42
50.0
 43
0.0
 44
0.0
 50
0.0
 51
0.0
 71
     0
 72
   100
 73
     1
 74
     3
 75
     0
 76
     0
 77
     0
 78
     0
281
     0
 65
     1
110
0.0
120
0.0
130
0.0
111
1.0
121
0.0
131
0.0
112
0.0
122
1.0
132
0.0
 79
     0
146
0.0
348
2F
 60
     3
 61
     5
292
     1
282
     1
141
0.0
142
0.0
 63
   250
361
6D
  0
ENDTAB
  0
TABLE
  2
LTYPE
  5
5
330
0
100
AcDbSymbolTable
 70
     3
  0
LTYPE
  5
14
330
5
100
AcDbSymbolTableRecord
100
AcDbLinetypeTableRecord
  2
ByBlock
 70
     0
  3

 72
    65
 73
     0
 40
0.0
  0
LTYPE
  5
15
330
5
100
AcDbSymbolTableRecord
100
AcDbLinetypeTableRecord
  2
ByLayer
 70
     0
  3

 72
    65
 73
     0
 40
0.0
  0
LTYPE
  5
16
330
5
100
AcDbSymbolTableRecord
100
AcDbLinetypeTableRecord
  2
Continuous
 70
     0
  3
Solid line
 72
    65
 73
     0
 40
0.0
  0
LTYPE
  5
A0
330
5
100
AcDbSymbolTableRecord
100
AcDbLinetypeTableRecord
  2
Dashed
 70
     0
  3

 72
    65
 73
     2
 40
2.0
 49
1.0
 74
     0
 49
-1.0
 74
     0
  0
LTYPE
  5
15D
330
5
100
AcDbSymbolTableRecord
100
AcDbLinetypeTableRecord
  2
Center
 70
     0
  3

 72
    65
 73
     4
 40
1.5
 49
0.45
 74
     0
 49
-0.5
 74
     0
 49
0.05
 74
     0
 49
-0.5
 74
     0
  0
ENDTAB
  0
TABLE
  2
LAYER
  5
2
330
0
100
AcDbSymbolTable
 70
     6
  0
LAYER
  5
10
330
2
100
AcDbSymbolTableRecord
100
AcDbLayerTableRecord
  2
0
 70
     0
 62
     7
  6
Continuous
370
    -3
390
F
347
46
348
0
  0
LAYER
  5
72
330
2
100
AcDbSymbolTableRecord
100
AcDbLayerTableRecord
  2
AM_6
 70
     0
 62
    -2
  6
Continuous
370
    35
390
F
347
46
348
0
  0
LAYER
  5
A1
330
2
100
AcDbSymbolTableRecord
100
AcDbLayerTableRecord
  2
AM_9
 70
     0
 62
     6
  6
Dashed
370
    25
390
F
347
46
348
0
  0
LAYER
  5
C3
330
2
100
AcDbSymbolTableRecord
100
AcDbLayerTableRecord
  2
AM_4
 70
     0
 62
     7
  6
Continuous
370
    50
390
F
347
46
348
0
  0
LAYER
  5
15E
330
2
100
AcDbSymbolTableRecord
100
AcDbLayerTableRecord
  2
AM_7
 70
     0
 62
     7
  6
Center
370
    25
390
F
347
46
348
0
  0
LAYER
  5
177
330
2
100
AcDbSymbolTableRecord
100
AcDbLayerTableRecord
  2
ConnectionPoints
 70
     0
 62
     7
  6
Continuous
370
    50
390
F
347
46
348
0
  0
ENDTAB
  0
TABLE
  2
STYLE
  5
3
330
0
100
AcDbSymbolTable
 70
     1
  0
STYLE
  5
11
330
3
100
AcDbSymbolTableRecord
100
AcDbTextStyleTableRecord
  2
Standard
 70
     0
 40
0.0
 41
1.0
 50
0.0
 71
     0
 42
2.5
  3
txt
  4

  0
ENDTAB
  0
TABLE
  2
VIEW
  5
6
330
0
100
AcDbSymbolTable
 70
     0
  0
ENDTAB
  0
TABLE
  2
UCS
  5
7
330
0
100
AcDbSymbolTable
 70
     0
  0
ENDTAB
  0
TABLE
  2
APPID
  5
9
330
0
100
AcDbSymbolTable
 70
     1
  0
APPID
  5
12
330
9
100
AcDbSymbolTableRecord
100
AcDbRegAppTableRecord
  2
ACAD
 70
     0
  0
ENDTAB
  0
TABLE
  2
DIMSTYLE
  5
A
330
0
100
AcDbSymbolTable
 70
     1
100
AcDbDimStyleTable
  0
DIMSTYLE
105
27
330
A
100
AcDbSymbolTableRecord
100
AcDbDimStyleTableRecord
  2
ISO-25
 70
     0
 41
2.5
 42
0.625
 43
3.75
 44
1.25
 73
     0
 74
     0
 77
     1
 78
     8
140
2.5
141
2.5
143
0.03937007874016
147
0.625
171
     3
172
     1
178
     0
271
     2
272
     2
274
     3
278
    44
283
     0
284
     8
340
11
  0
ENDTAB
  0
TABLE
  2
BLOCK_RECORD
  5
1
330
0
100
AcDbSymbolTable
 70
     5
  0
BLOCK_RECORD
  5
1F
330
1
100
AcDbSymbolTableRecord
100
AcDbBlockTableRecord
  2
*Model_Space
340
22
 70
     0
280
     1
281
     0
  0
BLOCK_RECORD
  5
1B
330
1
100
AcDbSymbolTableRecord
100
AcDbBlockTableRecord
  2
*Paper_Space
340
1E
 70
     0
280
     1
281
     0
  0
BLOCK_RECORD
  5
23
330
1
100
AcDbSymbolTableRecord
100
AcDbBlockTableRecord
  2
*Paper_Space0
340
26
 70
     0
280
     1
281
     0
  0
BLOCK_RECORD
  5
6E
330
1
100
AcDbSymbolTableRecord
100
AcDbBlockTableRecord
  2
1_126601_2
340
0
102
{BLKREFS
331
6F
102
}
 70
     0
280
     1
281
     0
  0
BLOCK_RECORD
  5
8E
330
1
100
AcDbSymbolTableRecord
100
AcDbBlockTableRecord
  2
2_405020c_M_0_in_126601_2
340
0
102
{BLKREFS
331
8F
102
}
 70
     0
280
     1
281
     0
  0
BLOCK_RECORD
  5
EA
330
1
100
AcDbSymbolTableRecord
100
AcDbBlockTableRecord
  2
3_126629_0_in_126601_2
340
0
102
{BLKREFS
331
EB
102
}
 70
     0
280
     1
281
     0
  0
BLOCK_RECORD
  5
12C
330
1
100
AcDbSymbolTableRecord
100
AcDbBlockTableRecord
  2
4_204_B__0_in_126601_2
340
0
102
{BLKREFS
331
12D
102
}
 70
     0
280
     1
281
     0
  0
ENDTAB
  0
ENDSEC
  0
SECTION
  2
BLOCKS
  0
BLOCK
  5
20
330
1F
100
AcDbEntity
  8
0
100
AcDbBlockBegin
  2
*Model_Space
 70
     0
 10
0.0
 20
0.0
 30
0.0
  3
*Model_Space
  1

  0
ENDBLK
  5
21
330
1F
100
AcDbEntity
  8
0
100
AcDbBlockEnd
  0
BLOCK
  5
1C
330
1B
100
AcDbEntity
 67
     1
  8
0
100
AcDbBlockBegin
  2
*Paper_Space
 70
     0
 10
0.0
 20
0.0
 30
0.0
  3
*Paper_Space
  1

  0
ENDBLK
  5
1D
330
1B
100
AcDbEntity
 67
     1
  8
0
100
AcDbBlockEnd
  0
BLOCK
  5
24
330
23
100
AcDbEntity
  8
0
100
AcDbBlockBegin
  2
*Paper_Space0
 70
     0
 10
0.0
 20
0.0
 30
0.0
  3
*Paper_Space0
  1

  0
ENDBLK
  5
25
330
23
100
AcDbEntity
  8
0
100
AcDbBlockEnd
  0
BLOCK
  5
70
330
6E
100
AcDbEntity
  8
0
100
AcDbBlockBegin
  2
1_126601_2
 70
     2
 10
0.0
 20
0.0
 30
0.0
  3
1_126601_2
  1

  0
ATTDEF
  5
73
330
6E
100
AcDbEntity
  8
AM_6
100
AcDbText
 10
23.7
 20
78.0
 30
0.0
 40
0.5
  1
D-Lok Normal Duty Pillow Block Metric Bore
100
AcDbAttributeDefinition
  3

  2
NN
 70
     8
280
     0
  0
ATTDEF
  5
74
330
6E
100
AcDbEntity
  8
AM_6
100
AcDbText
 10
23.7
 20
77.5
 30
0.0
 40
0.5
  1
D-LOK
100
AcDbAttributeDefinition
  3

  2
NT
 70
     8
280
     0
  0
ATTDEF
  5
75
330
6E
100
AcDbEntity
  8
AM_6
100
AcDbText
 10
23.7
 20
77.0
 30
0.0
 40
0.5
  1
126601
100
AcDbAttributeDefinition
  3

  2
NB
 70
     8
280
     0
  0
ATTDEF
  5
76
330
6E
100
AcDbEntity
  8
AM_6
100
AcDbText
 10
23.7
 20
76.5
 30
0.0
 40
0.5
  1
$PN.
100
AcDbAttributeDefinition
  3

  2
NBSYN
 70
     8
280
     0
  0
ATTDEF
  5
77
330
6E
100
AcDbEntity
  8
AM_6
100
AcDbText
 10
23.7
 20
76.0
 30
0.0
 40
0.5
  1
126601
100
AcDbAttributeDefinition
  3

  2
LINA
 70
     8
280
     0
  0
ATTDEF
  5
78
330
6E
100
AcDbEntity
  8
AM_6
100
AcDbText
 10
23.7
 20
75.5
 30
0.0
 40
0.5
  1
20
100
AcDbAttributeDefinition
  3

  2
SS
 70
     8
280
     0
  0
ATTDEF
  5
79
330
6E
100
AcDbEntity
  8
AM_6
100
AcDbText
 10
23.7
 20
75.0
 30
0.0
 40
0.5
  1
126601
100
AcDbAttributeDefinition
  3

  2
PN
 70
     8
280
     0
  0
ATTDEF
  5
7A
330
6E
100
AcDbEntity
  8
AM_6
100
AcDbText
 10
23.7
 20
74.5
 30
0.0
 40
0.5
  1
204
100
AcDbAttributeDefinition
  3

  2
RS
 70
     8
280
     0
  0
ATTDEF
  5
7B
330
6E
100
AcDbEntity
  8
AM_6
100
AcDbText
 10
23.7
 20
74.0
 30
0.0
 40
0.5
  1
P2B-DL-20M
100
AcDbAttributeDefinition
  3

  2
DESCRIPTION
 70
     8
280
     0
  0
ATTDEF
  5
7C
330
6E
100
AcDbEntity
  8
AM_6
100
AcDbText
 10
23.7
 20
73.5
 30
0.0
 40
0.5
  1
32.5
100
AcDbAttributeDefinition
  3

  2
A
 70
     8
280
     0
  0
ATTDEF
  5
7D
330
6E
100
AcDbEntity
  8
AM_6
100
AcDbText
 10
23.7
 20
73.0
 30
0.0
 40
0.5
  1
133.4
100
AcDbAttributeDefinition
  3

  2
B
 70
     8
280
     0
  0
ATTDEF
  5
7E
330
6E
100
AcDbEntity
  8
AM_6
100
AcDbText
 10
23.7
 20
72.5
 30
0.0
 40
0.5
  1
34.0
100
AcDbAttributeDefinition
  3

  2
C
 70
     8
280
     0
  0
ATTDEF
  5
7F
330
6E
100
AcDbEntity
  8
AM_6
100
AcDbText
 10
23.7
 20
72.0
 30
0.0
 40
0.5
  1
85.9
100
AcDbAttributeDefinition
  3

  2
DMIN
 70
     8
280
     0
  0
ATTDEF
  5
80
330
6E
100
AcDbEntity
  8
AM_6
100
AcDbText
 10
23.7
 20
71.5
 30
0.0
 40
0.5
  1
106.4
100
AcDbAttributeDefinition
  3

  2
DMAX
 70
     8
280
     0
  0
ATTDEF
  5
81
330
6E
100
AcDbEntity
  8
AM_6
100
AcDbText
 10
23.7
 20
71.0
 30
0.0
 40
0.5
  1
M10
100
AcDbAttributeDefinition
  3

  2
F
 70
     8
280
     0
  0
ATTDEF
  5
82
330
6E
100
AcDbEntity
  8
AM_6
100
AcDbText
 10
23.7
 20
70.5
 30
0.0
 40
0.5
  1
21.6
100
AcDbAttributeDefinition
  3

  2
G
 70
     8
280
     0
  0
ATTDEF
  5
83
330
6E
100
AcDbEntity
  8
AM_6
100
AcDbText
 10
23.7
 20
70.0
 30
0.0
 40
0.5
  1
13.5
100
AcDbAttributeDefinition
  3

  2
H
 70
     8
280
     0
  0
ATTDEF
  5
84
330
6E
100
AcDbEntity
  8
AM_6
100
AcDbText
 10
23.7
 20
69.5
 30
0.0
 40
0.5
  1
65.0
100
AcDbAttributeDefinition
  3

  2
J
 70
     8
280
     0
  0
ATTDEF
  5
85
330
6E
100
AcDbEntity
  8
AM_6
100
AcDbText
 10
23.7
 20
69.0
 30
0.0
 40
0.5
  1
43.4
100
AcDbAttributeDefinition
  3

  2
L
 70
     8
280
     0
  0
ATTDEF
  5
86
330
6E
100
AcDbEntity
  8
AM_6
100
AcDbText
 10
23.7
 20
68.5
 30
0.0
 40
0.5
  1
33.3
100
AcDbAttributeDefinition
  3

  2
M
 70
     8
280
     0
  0
ATTDEF
  5
87
330
6E
100
AcDbEntity
  8
AM_6
100
AcDbText
 10
23.7
 20
68.0
 30
0.0
 40
0.5
  1
12.7
100
AcDbAttributeDefinition
  3

  2
R
 70
     8
280
     0
  0
ATTDEF
  5
88
330
6E
100
AcDbEntity
  8
AM_6
100
AcDbText
 10
23.7
 20
67.5
 30
0.0
 40
0.5
  1
19.8
100
AcDbAttributeDefinition
  3

  2
S
 70
     8
280
     0
  0
ATTDEF
  5
89
330
6E
100
AcDbEntity
  8
AM_6
100
AcDbText
 10
23.7
 20
67.0
 30
0.0
 40
0.5
  1
57.2
100
AcDbAttributeDefinition
  3

  2
U
 70
     8
280
     0
  0
ATTDEF
  5
8A
330
6E
100
AcDbEntity
  8
AM_6
100
AcDbText
 10
23.7
 20
66.5
 30
0.0
 40
0.5
  1
114.3
100
AcDbAttributeDefinition
  3

  2
V
 70
     8
280
     0
  0
ATTDEF
  5
8B
330
6E
100
AcDbEntity
  8
AM_6
100
AcDbText
 10
23.7
 20
66.0
 30
0.0
 40
0.5
  1
12.7
100
AcDbAttributeDefinition
  3

  2
W
 70
     8
280
     0
  0
ATTDEF
  5
8C
330
6E
100
AcDbEntity
  8
AM_6
100
AcDbText
 10
23.7
 20
65.5
 30
0.0
 40
0.5
  1
3
100
AcDbAttributeDefinition
  3

  2
X
 70
     8
280
     0
  0
ATTDEF
  5
8D
330
6E
100
AcDbEntity
  8
AM_6
100
AcDbText
 10
23.7
 20
65.0
 30
0.0
 40
0.5
  1
baldor
100
AcDbAttributeDefinition
  3

  2
COMPANY
 70
     8
280
     0
  0
INSERT
  5
8F
330
6E
100
AcDbEntity
  8
0
100
AcDbBlockReference
  2
2_405020c_M_0_in_126601_2
 10
0.0
 20
0.0
 30
0.0
  0
INSERT
  5
EB
330
6E
100
AcDbEntity
  8
0
100
AcDbBlockReference
  2
3_126629_0_in_126601_2
 10
0.0
 20
0.0
 30
0.0
  0
INSERT
  5
12D
330
6E
100
AcDbEntity
  8
0
100
AcDbBlockReference
  2
4_204_B__0_in_126601_2
 10
0.0
 20
0.0
 30
0.0
  0
ENDBLK
  5
71
330
6E
100
AcDbEntity
  8
0
100
AcDbBlockEnd
  0
BLOCK
  5
90
330
8E
100
AcDbEntity
  8
0
100
AcDbBlockBegin
  2
2_405020c_M_0_in_126601_2
 70
     2
 10
0.0
 20
0.0
 30
0.0
  3
2_405020c_M_0_in_126601_2
  1

  0
ATTDEF
  5
92
330
8E
100
AcDbEntity
  8
AM_6
100
AcDbText
 10
9.041451884327381
 20
63.54848688148858
 30
0.0
 40
0.5
  1
405020C -Metric
100
AcDbAttributeDefinition
  3

  2
NN
 70
     8
280
     0
  0
ATTDEF
  5
93
330
8E
100
AcDbEntity
  8
AM_6
100
AcDbText
 10
9.041451884327381
 20
63.04848688148858
 30
0.0
 40
0.5
  1
Grease fitting
100
AcDbAttributeDefinition
  3

  2
NT
 70
     8
280
     0
  0
ATTDEF
  5
94
330
8E
100
AcDbEntity
  8
AM_6
100
AcDbText
 10
9.041451884327381
 20
62.54848688148858
 30
0.0
 40
0.5
  1
405020c-M
100
AcDbAttributeDefinition
  3

  2
NB
 70
     8
280
     0
  0
ATTDEF
  5
95
330
8E
100
AcDbEntity
  8
AM_6
100
AcDbText
 10
9.041451884327381
 20
62.04848688148858
 30
0.0
 40
0.5
  1
$MN.-M
100
AcDbAttributeDefinition
  3

  2
NBSYN
 70
     8
280
     0
  0
ATTDEF
  5
96
330
8E
100
AcDbEntity
  8
AM_6
100
AcDbText
 10
9.041451884327381
 20
61.54848688148858
 30
0.0
 40
0.5
  1
405020c
100
AcDbAttributeDefinition
  3

  2
LINA
 70
     8
280
     0
  0
ATTDEF
  5
97
330
8E
100
AcDbEntity
  8
AM_6
100
AcDbText
 10
9.041451884327381
 20
61.04848688148858
 30
0.0
 40
0.5
  1
405020c
100
AcDbAttributeDefinition
  3

  2
MN
 70
     8
280
     0
  0
ATTDEF
  5
98
330
8E
100
AcDbEntity
  8
AM_6
100
AcDbText
 10
9.041451884327381
 20
60.54848688148858
 30
0.0
 40
0.5
  1
5.842
100
AcDbAttributeDefinition
  3

  2
NDR
 70
     8
280
     0
  0
ATTDEF
  5
99
330
8E
100
AcDbEntity
  8
AM_6
100
AcDbText
 10
9.041451884327381
 20
60.04848688148858
 30
0.0
 40
0.5
  1
5.359
100
AcDbAttributeDefinition
  3

  2
KDR
 70
     8
280
     0
  0
ATTDEF
  5
9A
330
8E
100
AcDbEntity
  8
AM_6
100
AcDbText
 10
9.041451884327381
 20
59.54848688148858
 30
0.0
 40
0.5
  1
4.000
100
AcDbAttributeDefinition
  3

  2
BZE
 70
     8
280
     0
  0
ATTDEF
  5
9B
330
8E
100
AcDbEntity
  8
AM_6
100
AcDbText
 10
9.041451884327381
 20
59.04848688148858
 30
0.0
 40
0.5
  1
7
100
AcDbAttributeDefinition
  3

  2
WAF
 70
     8
280
     0
  0
ATTDEF
  5
9C
330
8E
100
AcDbEntity
  8
AM_6
100
AcDbText
 10
9.041451884327381
 20
58.54848688148858
 30
0.0
 40
0.5
  1
7.0000
100
AcDbAttributeDefinition
  3

  2
WAF1
 70
     8
280
     0
  0
ATTDEF
  5
9D
330
8E
100
AcDbEntity
  8
AM_6
100
AcDbText
 10
9.041451884327381
 20
58.04848688148858
 30
0.0
 40
0.5
  1
13.843
100
AcDbAttributeDefinition
  3

  2
BL
 70
     8
280
     0
  0
ATTDEF
  5
9E
330
8E
100
AcDbEntity
  8
AM_6
100
AcDbText
 10
9.041451884327381
 20
57.54848688148858
 30
0.0
 40
0.5
  1
5.080
100
AcDbAttributeDefinition
  3

  2
TL
 70
     8
280
     0
  0
ATTDEF
  5
9F
330
8E
100
AcDbEntity
  8
AM_6
100
AcDbText
 10
9.041451884327381
 20
57.04848688148858
 30
0.0
 40
0.5
  1
baldor
100
AcDbAttributeDefinition
  3

  2
COMPANY
 70
     8
280
     0
  0
ELLIPSE
  5
A2
330
8E
100
AcDbEntity
  8
AM_9
100
AcDbEllipse
 10
0.0000000000000012
 20
52.12318251518589
 30
0.0
 11
2.55437585025611
 21
0.0
 31
0.0
210
0.0
220
0.0
230
1.0
 40
0.7071067811865476
 41
0.0
 42
6.283185307179586
  0
LINE
  5
A3
330
8E
100
AcDbEntity
  8
AM_9
100
AcDbLine
 10
-2.020725942163689
 20
59.16237282541704
 30
0.0
 11
-2.020725942163689
 21
58.29274687751945
 31
0.0
  0
LINE
  5
A4
330
8E
100
AcDbEntity
  8
AM_9
100
AcDbLine
 10
2.020725942163692
 20
59.16237282541704
 30
0.0
 11
2.020725942163692
 21
58.29274687751945
 31
0.0
  0
LWPOLYLINE
  5
A5
330
8E
100
AcDbEntity
  8
AM_9
100
AcDbPolyline
 90
        3
 70
     0
 43
0.0
 10
-2.020725942163689
 20
58.29274687751945
 10
-1.014905835062986
 20
58.21747592921
 10
0.0000000000000012
 20
58.19015869776647
  0
LWPOLYLINE
  5
A6
330
8E
100
AcDbEntity
  8
AM_9
100
AcDbPolyline
 90
        3
 70
     0
 43
0.0
 10
1.102493272741451
 20
58.22228038330827
 10
1.546688894797464
 20
58.2520237975471
 10
2.020725942163692
 20
58.29274687751945
  0
LWPOLYLINE
  5
A7
330
8E
100
AcDbEntity
  8
AM_9
100
AcDbPolyline
 90
        3
 70
     0
 43
0.0
 10
0.0000000000000012
 20
58.19015869776647
 10
0.7733444473987326
 20
58.20615350981387
 10
1.102493272741451
 20
58.22228038330827
  0
LWPOLYLINE
  5
A8
330
8E
100
AcDbEntity
  8
AM_9
100
AcDbPolyline
 90
        3
 70
     0
 43
0.0
 10
2.020725942163692
 20
58.29274687751945
 10
2.523635995714044
 20
57.60153942035294
 10
3.031088913245537
 20
56.95272183069002
  0
LWPOLYLINE
  5
A9
330
8E
100
AcDbEntity
  8
AM_9
100
AcDbPolyline
 90
        3
 70
     0
 43
0.0
 10
-3.031088913245534
 20
56.95272183069002
 10
-2.525907427704612
 20
57.5985182767572
 10
-2.020725942163689
 20
58.29274687751945
  0
LWPOLYLINE
  5
AA
330
8E
100
AcDbEntity
  8
AM_9
100
AcDbPolyline
 90
        3
 70
     0
 43
0.0
 10
-2.020725942163689
 20
59.16237282541704
 10
-2.523635995714041
 20
58.62170726486944
 10
-2.68259612644421
 20
58.44131790082906
  0
LWPOLYLINE
  5
AB
330
8E
100
AcDbEntity
  8
AM_9
100
AcDbPolyline
 90
        3
 70
     0
 43
0.0
 10
0.0000000000000013
 20
59.26496100517002
 10
-1.010362971081844
 20
59.23788299264107
 10
-2.020725942163689
 20
59.16237282541704
  0
LWPOLYLINE
  5
AC
330
8E
100
AcDbEntity
  8
AM_9
100
AcDbPolyline
 90
        3
 70
     0
 43
0.0
 10
2.682631185199019
 20
58.44127755729959
 10
2.525907427704615
 20
58.61916455910284
 10
2.020725942163692
 20
59.16237282541704
  0
LWPOLYLINE
  5
AD
330
8E
100
AcDbEntity
  8
AM_9
100
AcDbPolyline
 90
        4
 70
     0
 43
0.0
 10
2.020725942163692
 20
59.16237282541704
 10
1.546688894797464
 20
59.20309590538939
 10
0.7756181668408997
 20
59.24887311733814
 10
0.0000000000000013
 20
59.26496100517002
  0
LWPOLYLINE
  5
AE
330
8E
100
AcDbEntity
  8
AM_9
100
AcDbPolyline
 90
        3
 70
     0
 43
0.0
 10
3.031088913245537
 20
56.95272183069002
 10
3.536270398786459
 20
56.36108140968074
 10
4.041451884327381
 20
55.81787314336653
  0
LWPOLYLINE
  5
AF
330
8E
100
AcDbEntity
  8
AM_9
100
AcDbPolyline
 90
        3
 70
     0
 43
0.0
 10
-4.041451884327379
 20
55.81787314336653
 10
-3.538541830777028
 20
56.35853870391414
 10
-3.031088913245534
 20
56.95272183069002
  0
LINE
  5
B0
330
8E
100
AcDbEntity
  8
AM_9
100
AcDbLine
 10
2.802418772605766
 20
52.23758508685698
 30
0.0
 11
2.953304239085671
 21
55.6498952886886
 31
0.0
  0
LINE
  5
B1
330
8E
100
AcDbEntity
  8
AM_9
100
AcDbLine
 10
-2.953304239085667
 20
55.6498952886886
 30
0.0
 11
-2.802418772605764
 21
52.23758508685698
 31
0.0
  0
ELLIPSE
  5
B2
330
8E
100
AcDbEntity
  8
AM_9
100
AcDbEllipse
 10
-0.0000000000000027
 20
56.79008727101709
 30
0.0
 11
-3.500000000000018
 21
4.286263797015758E-16
 31
0.0
210
0.0
220
0.0
230
1.0
 40
0.7071067811865476
 41
3.850326533439301
 42
5.574451427330079
  0
ELLIPSE
  5
B3
330
8E
100
AcDbEntity
  8
AM_9
100
AcDbEllipse
 10
0.0000000000000187
 20
57.50654418946971
 30
0.0
 11
-2.486776909068341
 21
3.045423381884092E-16
 31
0.0
210
0.0
220
0.0
230
1.0
 40
0.7071067811865406
 41
5.411721936373076
 42
5.984242208656128
  0
ELLIPSE
  5
B4
330
8E
100
AcDbEntity
  8
AM_9
100
AcDbEllipse
 10
0.0000000000000008
 20
57.50654418946965
 30
0.0
 11
-2.486776909068337
 21
3.045423381884088E-16
 31
0.0
210
0.0
220
0.0
230
1.0
 40
0.7071067811865587
 41
4.218140796429477
 42
5.053200446486249
  0
ELLIPSE
  5
B5
330
8E
100
AcDbEntity
  8
AM_9
100
AcDbEllipse
 10
0.0000000000000377
 20
57.50654418946971
 30
0.0
 11
-2.486776909068282
 21
3.045423381884021E-16
 31
0.0
210
0.0
220
0.0
230
1.0
 40
0.7071067811865429
 41
3.440535752113256
 42
4.041504101345311
  0
LINE
  5
B6
330
8E
100
AcDbEntity
  8
AM_9
100
AcDbLine
 10
2.047983070655055
 20
57.5850536334981
 30
0.0
 11
2.02700562580097
 21
57.55563590906385
 31
0.0
  0
LWPOLYLINE
  5
B7
330
8E
100
AcDbEntity
  8
AM_9
100
AcDbPolyline
 90
        4
 70
     0
 43
0.0
 10
2.193883690254872
 20
58.00654418946969
 10
2.192507573106404
 20
57.96600336713882
 10
2.174954408670527
 20
57.85585059605898
 10
2.154970298343276
 20
57.79003953167389
  0
LWPOLYLINE
  5
B8
330
8E
100
AcDbEntity
  8
AM_9
100
AcDbPolyline
 90
       16
 70
     0
 43
0.0
 10
-2.152723987050043
 20
57.78383300214607
 10
-2.169961826930637
 20
57.83704548171853
 10
-2.190276166995217
 20
57.94088392695087
 10
-2.192046879925705
 20
58.05338504112642
 10
-2.1734818936641
 20
58.16301540401432
 10
-2.137736818714865
 20
58.26698156141467
 10
-2.085076670691635
 20
58.37015415318737
 10
-2.014766259647631
 20
58.47373691441969
 10
-1.916682492218044
 20
58.58708656822851
 10
-1.797873037710753
 20
58.69721946699514
 10
-1.658676280109492
 20
58.80258772017946
 10
-1.499801170659368
 20
58.90139760199198
 10
-1.322491453084319
 20
58.99171556382197
 10
-1.12862595971656
 20
59.07160308216309
 10
-0.920324117203117
 20
59.13938876706023
 10
-0.8264769562992013
 20
59.16455796232712
  0
LWPOLYLINE
  5
B9
330
8E
100
AcDbEntity
  8
AM_9
100
AcDbPolyline
 90
        3
 70
     0
 43
0.0
 10
-2.02841275905028
 20
57.55754730865181
 10
-2.077618198048674
 20
57.63057787556222
 10
-2.082292413277457
 20
57.63827327454682
  0
LWPOLYLINE
  5
BA
330
8E
100
AcDbEntity
  8
AM_9
100
AcDbPolyline
 90
       14
 70
     0
 43
0.0
 10
0.9104767138374724
 20
59.14217905913425
 10
0.9290053979708401
 20
59.13689926902197
 10
1.136679568733246
 20
59.06862706094728
 10
1.329443721121807
 20
58.9885093828674
 10
1.505054525066522
 20
58.89842729155481
 10
1.661697758296106
 20
58.80050971282809
 10
1.798045492246319
 20
58.69707511808895
 10
1.913256648816717
 20
58.59061050364543
 10
2.007286485357207
 20
58.48340410307565
 10
2.080780408551901
 20
58.37732181694331
 10
2.134973387574559
 20
58.27336831531892
 10
2.17135929490983
 20
58.17099245445378
 10
2.190831506579046
 20
58.06693495612111
 10
2.193883690254872
 20
58.00654418946969
  0
ELLIPSE
  5
BB
330
8E
100
AcDbEntity
  8
AM_9
100
AcDbEllipse
 10
0.0000000000000244
 20
58.30538042819984
 30
0.0
 11
-2.2875759032182
 21
2.801472507682784E-16
 31
0.0
210
0.0
220
0.0
230
1.0
 40
0.7071067811865493
 41
2.656480407115994
 42
3.141592653589793
  0
ELLIPSE
  5
BC
330
8E
100
AcDbEntity
  8
AM_9
100
AcDbEllipse
 10
-0.0000000000014544
 20
59.85856708972981
 30
0.0
 11
-3.311838226939414
 21
4.055832083915199E-16
 31
0.0
210
0.0
220
0.0
230
1.0
 40
0.707106781186394
 41
2.656480407116435
 42
3.141592653589793
  0
ELLIPSE
  5
BD
330
8E
100
AcDbEntity
  8
AM_9
100
AcDbEllipse
 10
-0.0000000000023639
 20
61.69625261187331
 30
0.0
 11
-2.568122605607066
 21
3.145043128774654E-16
 31
0.0
210
0.0
220
0.0
230
1.0
 40
0.7071067811814262
 41
3.596941403391238
 42
3.628499265027197
  0
ELLIPSE
  5
BE
330
8E
100
AcDbEntity
  8
AM_9
100
AcDbEllipse
 10
-0.0000000000000011
 20
61.69625261184571
 30
0.0
 11
-2.568122605604367
 21
3.145043128771349E-16
 31
0.0
210
0.0
220
0.0
230
1.0
 40
0.7071067811865462
 41
3.648990379574602
 42
5.83155817863657
  0
ELLIPSE
  5
BF
330
8E
100
AcDbEntity
  8
AM_9
100
AcDbEllipse
 10
0.000000000000002
 20
60.43369195903618
 30
0.0
 11
-3.326035293353598
 21
4.073218475856612E-16
 31
0.0
210
0.0
220
0.0
230
1.0
 40
0.7071067811865481
 41
3.579974428543798
 42
5.844803532225582
  0
ELLIPSE
  5
C0
330
8E
100
AcDbEntity
  8
AM_9
100
AcDbEllipse
 10
0.0000000000000041
 20
55.71528496361357
 30
0.0
 11
-3.500000000000002
 21
5.215406460709322E-8
 31
0.0
210
0.0
220
0.0
230
1.0
 40
0.7071067811865507
 41
0.0
 42
6.283185307179586
  0
ELLIPSE
  5
C1
330
8E
100
AcDbEntity
  8
AM_9
100
AcDbEllipse
 10
-0.0000000000040328
 20
55.71528496362815
 30
0.0
 11
-2.954751686644483
 21
3.618527195324410E-16
 31
0.0
210
0.0
220
0.0
230
1.0
 40
0.707106781186625
 41
0.0
 42
6.283185307179586
  0
ELLIPSE
  5
C2
330
8E
100
AcDbEntity
  8
AM_9
100
AcDbEllipse
 10
0.0000000000014002
 20
52.29954373636672
 30
0.0
 11
-2.803788281156213
 21
4.177970147429481E-8
 31
0.0
210
0.0
220
0.0
230
1.0
 40
0.7071067811864045
 41
0.0
 42
6.283185307179586
  0
LINE
  5
C4
330
8E
100
AcDbEntity
  8
AM_4
100
AcDbLine
 10
-2.68259612644421
 20
58.44131790082906
 30
0.0
 11
-3.031088913245534
 21
58.02752413809356
 31
0.0
  0
LINE
  5
C5
330
8E
100
AcDbEntity
  8
AM_4
100
AcDbLine
 10
3.031088913245537
 20
58.02752413809356
 30
0.0
 11
2.682631185199019
 21
58.44127755729959
 31
0.0
  0
LWPOLYLINE
  5
C6
330
8E
100
AcDbEntity
  8
AM_4
100
AcDbPolyline
 90
        3
 70
     0
 43
0.0
 10
4.041451884327381
 20
56.68749909126413
 10
3.53854183077703
 20
57.37870654843064
 10
3.031088913245537
 20
58.02752413809356
  0
LWPOLYLINE
  5
C7
330
8E
100
AcDbEntity
  8
AM_4
100
AcDbPolyline
 90
        3
 70
     0
 43
0.0
 10
-3.031088913245534
 20
58.02752413809356
 10
-3.536270398786457
 20
57.38172769202638
 10
-4.041451884327379
 20
56.68749909126413
  0
LWPOLYLINE
  5
C8
330
8E
100
AcDbEntity
  8
AM_4
100
AcDbPolyline
 90
        3
 70
     0
 43
0.0
 10
3.031088913245537
 20
54.47784809653709
 10
2.525907427704615
 20
53.88620767552782
 10
2.020725942163692
 20
53.34299940921362
  0
LWPOLYLINE
  5
C9
330
8E
100
AcDbEntity
  8
AM_4
100
AcDbPolyline
 90
        3
 70
     0
 43
0.0
 10
4.041451884327381
 20
55.81787314336653
 10
3.538541830777031
 20
55.12666568620002
 10
3.031088913245537
 20
54.47784809653709
  0
LINE
  5
CA
330
8E
100
AcDbEntity
  8
AM_4
100
AcDbLine
 10
4.041451884327381
 20
56.68749909126413
 30
0.0
 11
4.041451884327381
 21
55.81787314336653
 31
0.0
  0
LWPOLYLINE
  5
CB
330
8E
100
AcDbEntity
  8
AM_4
100
AcDbPolyline
 90
        3
 70
     0
 43
0.0
 10
3.031088913245537
 20
55.55265040394065
 10
3.536270398786459
 20
56.14429082494993
 10
4.041451884327381
 20
56.68749909126413
  0
LINE
  5
CC
330
8E
100
AcDbEntity
  8
AM_4
100
AcDbLine
 10
-4.041451884327379
 20
56.68749909126413
 30
0.0
 11
-4.041451884327379
 21
55.81787314336653
 31
0.0
  0
LWPOLYLINE
  5
CD
330
8E
100
AcDbEntity
  8
AM_4
100
AcDbPolyline
 90
        3
 70
     0
 43
0.0
 10
-3.031088913245535
 20
54.47784809653709
 10
-3.536270398786457
 20
55.12364454260428
 10
-4.041451884327379
 20
55.81787314336653
  0
LWPOLYLINE
  5
CE
330
8E
100
AcDbEntity
  8
AM_4
100
AcDbPolyline
 90
        3
 70
     0
 43
0.0
 10
-2.020725942163689
 20
53.34299940921362
 10
-2.523635995714041
 20
53.88366496976123
 10
-3.031088913245535
 20
54.47784809653709
  0
LWPOLYLINE
  5
CF
330
8E
100
AcDbEntity
  8
AM_4
100
AcDbPolyline
 90
        3
 70
     0
 43
0.0
 10
-3.031088913245534
 20
55.55265040394065
 10
-2.525907427704612
 20
54.90685395787347
 10
-2.020725942163689
 20
54.21262535711121
  0
LWPOLYLINE
  5
D0
330
8E
100
AcDbEntity
  8
AM_4
100
AcDbPolyline
 90
        3
 70
     0
 43
0.0
 10
-4.041451884327379
 20
56.68749909126413
 10
-3.538541830777028
 20
56.14683353071652
 10
-3.031088913245534
 20
55.55265040394065
  0
LWPOLYLINE
  5
D1
330
8E
100
AcDbEntity
  8
AM_4
100
AcDbPolyline
 90
        3
 70
     0
 43
0.0
 10
2.020725942163692
 20
54.21262535711121
 10
2.523635995714043
 20
54.90383281427773
 10
3.031088913245537
 20
55.55265040394065
  0
LINE
  5
D2
330
8E
100
AcDbEntity
  8
AM_4
100
AcDbLine
 10
-2.020725942163689
 20
54.21262535711121
 30
0.0
 11
-2.020725942163689
 21
53.34299940921362
 31
0.0
  0
LWPOLYLINE
  5
D3
330
8E
100
AcDbEntity
  8
AM_4
100
AcDbPolyline
 90
        3
 70
     0
 43
0.0
 10
0.0000000000000015
 20
53.24041122946064
 10
-1.010362971081844
 20
53.26748924198959
 10
-2.020725942163689
 20
53.34299940921362
  0
LWPOLYLINE
  5
D4
330
8E
100
AcDbEntity
  8
AM_4
100
AcDbPolyline
 90
        4
 70
     0
 43
0.0
 10
2.020725942163692
 20
53.34299940921362
 10
1.546688894797464
 20
53.30227632924127
 10
0.7756181668408998
 20
53.25649911729253
 10
0.0000000000000015
 20
53.24041122946064
  0
LINE
  5
D5
330
8E
100
AcDbEntity
  8
AM_4
100
AcDbLine
 10
2.020725942163692
 20
54.21262535711121
 30
0.0
 11
2.020725942163692
 21
53.34299940921362
 31
0.0
  0
LWPOLYLINE
  5
D6
330
8E
100
AcDbEntity
  8
AM_4
100
AcDbPolyline
 90
        4
 70
     0
 43
0.0
 10
0.0000000000000016
 20
54.31521353686419
 10
0.7733444473987331
 20
54.29921872481679
 10
1.546688894797464
 20
54.25334843708356
 10
2.020725942163692
 20
54.21262535711121
  0
LWPOLYLINE
  5
D7
330
8E
100
AcDbEntity
  8
AM_4
100
AcDbPolyline
 90
        3
 70
     0
 43
0.0
 10
-2.020725942163689
 20
54.21262535711121
 10
-1.014905835062986
 20
54.28789630542067
 10
0.0000000000000016
 20
54.31521353686419
  0
ELLIPSE
  5
D8
330
8E
100
AcDbEntity
  8
AM_4
100
AcDbEllipse
 10
-0.0000000000000089
 20
56.7900872710171
 30
0.0
 11
-3.499999999999987
 21
4.286263797015720E-16
 31
0.0
210
0.0
220
0.0
230
1.0
 40
0.7071067811865496
 41
5.574451427330081
 42
10.13351184061888
  0
ELLIPSE
  5
D9
330
8E
100
AcDbEntity
  8
AM_4
100
AcDbEllipse
 10
0.0000000000000044
 20
57.50654418946969
 30
0.0
 11
-2.486776909068323
 21
3.045423381884070E-16
 31
0.0
210
0.0
220
0.0
230
1.0
 40
0.7071067811865486
 41
5.98424220865612
 42
9.723721059292846
  0
LINE
  5
DA
330
8E
100
AcDbEntity
  8
AM_4
100
AcDbLine
 10
2.023641373606686
 20
57.55109961046283
 30
0.0
 11
2.929726987111139
 21
58.76655696560189
 31
0.0
  0
LINE
  5
DB
330
8E
100
AcDbEntity
  8
AM_4
100
AcDbLine
 10
-2.929726987111136
 20
58.76655696560189
 30
0.0
 11
-2.023641373606683
 21
57.55109961046283
 31
0.0
  0
ELLIPSE
  5
DC
330
8E
100
AcDbEntity
  8
AM_4
100
AcDbEllipse
 10
0.0000000000000013
 20
58.3053804281998
 30
0.0
 11
-2.287575903218221
 21
2.801472507682809E-16
 31
0.0
210
0.0
220
0.0
230
1.0
 40
0.707106781186546
 41
0.4851122464737774
 42
2.656480407116016
  0
ELLIPSE
  5
DD
330
8E
100
AcDbEntity
  8
AM_4
100
AcDbEllipse
 10
-0.0000000000452416
 20
59.85856709010179
 30
0.0
 11
-3.311838226989193
 21
4.055832083976160E-16
 31
0.0
210
0.0
220
0.0
230
1.0
 40
0.7071067812365662
 41
-3.634465737691403
 42
-3.626704900168234
  0
LWPOLYLINE
  5
DE
330
8E
100
AcDbEntity
  8
AM_4
100
AcDbPolyline
 90
        7
 70
     0
 43
0.0
 10
3.405530439901162
 20
60.15740332846074
 10
3.398820101676873
 20
60.32924590918292
 10
3.3668893384059
 20
60.5686826435731
 10
3.309252969523168
 20
60.80349888376984
 10
3.226550382217577
 20
61.03225874214911
 10
3.119381917733201
 20
61.25364591705939
 10
3.00950220619068
 20
61.43504376821999
  0
LWPOLYLINE
  5
DF
330
8E
100
AcDbEntity
  8
AM_4
100
AcDbPolyline
 90
       14
 70
     0
 43
0.0
 10
-3.010842714379521
 20
61.43302607170481
 10
-3.019354450979399
 20
61.42011607235631
 10
-3.151030291277916
 20
61.1940187891131
 10
-3.255571866403806
 20
60.96014374886674
 10
-3.332577090823146
 20
60.72091008988296
 10
-3.382022258655514
 20
60.47859581626875
 10
-3.404152557324846
 20
60.23530662413307
 10
-3.399386795821381
 20
59.99296921445802
 10
-3.368251586143113
 20
59.75339309006141
 10
-3.311392465270294
 20
59.51841318103652
 10
-3.229448123406931
 20
59.28944803969544
 10
-3.123020034193481
 20
59.06781614455629
 10
-2.992686068625231
 20
58.8547987582057
 10
-2.926194213455538
 20
58.76182910627014
  0
LWPOLYLINE
  5
E0
330
8E
100
AcDbEntity
  8
AM_4
100
AcDbPolyline
 90
        8
 70
     0
 43
0.0
 10
2.915252607664362
 20
58.74732547822368
 10
3.014903674394748
 20
58.88791862371484
 10
3.147398879170817
 20
59.11373866135553
 10
3.252779261122754
 20
59.34741208688471
 10
3.330629414754788
 20
59.58651634071118
 10
3.380915713922137
 20
59.82876846659873
 10
3.403876625123998
 20
60.07205730872767
 10
3.405530439901162
 20
60.15740332846074
  0
ELLIPSE
  5
E1
330
8E
100
AcDbEntity
  8
AM_4
100
AcDbEllipse
 10
-0.0000000000000031
 20
59.85856708973063
 30
0.0
 11
-3.311838226937807
 21
4.055832083913230E-16
 31
0.0
210
0.0
220
0.0
230
1.0
 40
0.7071067811865486
 41
0.4868365853132754
 42
2.648719569591866
  0
ELLIPSE
  5
E2
330
8E
100
AcDbEntity
  8
AM_4
100
AcDbEllipse
 10
0.0000000000000018
 20
61.91166168715127
 30
0.0
 11
2.107870178878142
 21
0.0
 31
0.0
210
0.0
220
0.0
230
1.0
 40
0.7071067811865464
 41
0.0
 42
6.283185307179586
  0
LWPOLYLINE
  5
E3
330
8E
100
AcDbEntity
  8
AM_4
100
AcDbPolyline
 90
       23
 70
     0
 43
0.0
 10
2.303962418059321
 20
62.49852344355224
 10
2.202000163540796
 20
62.63265319112729
 10
2.050267357229661
 20
62.79616354595378
 10
1.876917362632645
 20
62.94737808444971
 10
1.683618988289199
 20
63.08456299293034
 10
1.472455812489334
 20
63.20610747975253
 10
1.245821907366359
 20
63.31063234222088
 10
1.006289706909379
 20
63.39704057017433
 10
0.7565536384919148
 20
63.46450040976312
 10
0.4992464501216862
 20
63.51244810287793
 10
0.2369530279502779
 20
63.54051538674865
 10
-0.0277624267691254
 20
63.54848688148858
 10
-0.2923549355292684
 20
63.53628022644886
 10
-0.554269733474982
 20
63.5039385785352
 10
-0.8109819182032988
 20
63.45162550457227
 10
-1.060001898748978
 20
63.37961671157537
 10
-1.298845338531822
 20
63.28830766780676
 10
-1.525015765008758
 20
63.17823702699171
 10
-1.735937023020321
 20
63.05016817521043
 10
-1.928988958490073
 20
62.90517515486177
 10
-2.101624944749648
 20
62.74469620518074
 10
-2.251465176446402
 20
62.57061370244525
 10
-2.308613320927111
 20
62.49177840905432
  0
ELLIPSE
  5
E4
330
8E
100
AcDbEntity
  8
AM_4
100
AcDbEllipse
 10
-0.0000000000432112
 20
61.69625261188038
 30
0.0
 11
-2.568122605652317
 21
3.145043128830070E-16
 31
0.0
210
0.0
220
0.0
230
1.0
 40
0.7071067811782411
 41
3.579974428523888
 42
3.596941403382524
  0
ELLIPSE
  5
E5
330
8E
100
AcDbEntity
  8
AM_4
100
AcDbEllipse
 10
0.0000000000000038
 20
60.43369195903617
 30
0.0
 11
-3.326035293353603
 21
4.073218475856618E-16
 31
0.0
210
0.0
220
0.0
230
1.0
 40
0.7071067811865493
 41
5.844803532225579
 42
9.863159735723386
  0
ELLIPSE
  5
E6
330
8E
100
AcDbEntity
  8
AM_4
100
AcDbEllipse
 10
-0.0000000000000013
 20
61.69625261184571
 30
0.0
 11
-2.568122605604362
 21
3.145043128771343E-16
 31
0.0
210
0.0
220
0.0
230
1.0
 40
0.7071067811865503
 41
5.844803532225579
 42
9.863159735723386
  0
LINE
  5
E7
330
8E
100
AcDbEntity
  8
AM_4
100
AcDbLine
 10
-2.325280275130742
 20
62.46707209768661
 30
0.0
 11
-3.011524545263589
 21
61.43199819609691
 31
0.0
  0
LINE
  5
E8
330
8E
100
AcDbEntity
  8
AM_4
100
AcDbLine
 10
3.011524545263592
 20
61.43199819609691
 30
0.0
 11
2.325280275130746
 21
62.46707209768661
 31
0.0
  0
ELLIPSE
  5
E9
330
8E
100
AcDbEntity
  8
AM_4
100
AcDbEllipse
 10
0.0000000000845723
 20
61.6962526119385
 30
0.0
 11
-2.568122605698172
 21
3.145043128886227E-16
 31
0.0
210
0.0
220
0.0
230
1.0
 40
0.7071067811661326
 41
-0.4516271284940085
 42
-0.43838177490486
  0
ENDBLK
  5
91
330
8E
100
AcDbEntity
  8
0
100
AcDbBlockEnd
  0
BLOCK
  5
EC
330
EA
100
AcDbEntity
  8
0
100
AcDbBlockBegin
  2
3_126629_0_in_126601_2
 70
     2
 10
0.0
 20
0.0
 30
0.0
  3
3_126629_0_in_126601_2
  1

  0
ATTDEF
  5
EE
330
EA
100
AcDbEntity
  8
AM_6
100
AcDbText
 10
17.7
 20
56.78530545755781
 30
0.0
 40
0.5
  1
D-Lok Insert Metric Bore
100
AcDbAttributeDefinition
  3

  2
NN
 70
     8
280
     0
  0
ATTDEF
  5
EF
330
EA
100
AcDbEntity
  8
AM_6
100
AcDbText
 10
17.7
 20
56.28530545755781
 30
0.0
 40
0.5
  1
D-LOK
100
AcDbAttributeDefinition
  3

  2
NT
 70
     8
280
     0
  0
ATTDEF
  5
F0
330
EA
100
AcDbEntity
  8
AM_6
100
AcDbText
 10
17.7
 20
55.78530545755781
 30
0.0
 40
0.5
  1
126629
100
AcDbAttributeDefinition
  3

  2
NB
 70
     8
280
     0
  0
ATTDEF
  5
F1
330
EA
100
AcDbEntity
  8
AM_6
100
AcDbText
 10
17.7
 20
55.28530545755781
 30
0.0
 40
0.5
  1
$PN.
100
AcDbAttributeDefinition
  3

  2
NBSYN
 70
     8
280
     0
  0
ATTDEF
  5
F2
330
EA
100
AcDbEntity
  8
AM_6
100
AcDbText
 10
17.7
 20
54.78530545755781
 30
0.0
 40
0.5
  1
126629
100
AcDbAttributeDefinition
  3

  2
LINA
 70
     8
280
     0
  0
ATTDEF
  5
F3
330
EA
100
AcDbEntity
  8
AM_6
100
AcDbText
 10
17.7
 20
54.28530545755781
 30
0.0
 40
0.5
  1
204
100
AcDbAttributeDefinition
  3

  2
SERIES
 70
     8
280
     0
  0
ATTDEF
  5
F4
330
EA
100
AcDbEntity
  8
AM_6
100
AcDbText
 10
17.7
 20
53.78530545755781
 30
0.0
 40
0.5
  1
20
100
AcDbAttributeDefinition
  3

  2
SS
 70
     8
280
     0
  0
ATTDEF
  5
F5
330
EA
100
AcDbEntity
  8
AM_6
100
AcDbText
 10
17.7
 20
53.28530545755781
 30
0.0
 40
0.5
  1
126629
100
AcDbAttributeDefinition
  3

  2
PN
 70
     8
280
     0
  0
ATTDEF
  5
F6
330
EA
100
AcDbEntity
  8
AM_6
100
AcDbText
 10
17.7
 20
52.78530545755781
 30
0.0
 40
0.5
  1
INS-DL-20M
100
AcDbAttributeDefinition
  3

  2
DESCRIPTION
 70
     8
280
     0
  0
ATTDEF
  5
F7
330
EA
100
AcDbEntity
  8
AM_6
100
AcDbText
 10
17.7
 20
52.28530545755781
 30
0.0
 40
0.5
  1
0.270
100
AcDbAttributeDefinition
  3

  2
WEIGHT
 70
     8
280
     0
  0
ATTDEF
  5
F8
330
EA
100
AcDbEntity
  8
AM_6
100
AcDbText
 10
17.7
 20
51.78530545755781
 30
0.0
 40
0.5
  1
32.5
100
AcDbAttributeDefinition
  3

  2
A
 70
     8
280
     0
  0
ATTDEF
  5
F9
330
EA
100
AcDbEntity
  8
AM_6
100
AcDbText
 10
17.7
 20
51.28530545755781
 30
0.0
 40
0.5
  1
14.7
100
AcDbAttributeDefinition
  3

  2
C
 70
     8
280
     0
  0
ATTDEF
  5
FA
330
EA
100
AcDbEntity
  8
AM_6
100
AcDbText
 10
17.7
 20
50.78530545755781
 30
0.0
 40
0.5
  1
47
100
AcDbAttributeDefinition
  3

  2
D
 70
     8
280
     0
  0
ATTDEF
  5
FB
330
EA
100
AcDbEntity
  8
AM_6
100
AcDbText
 10
17.7
 20
50.28530545755781
 30
0.0
 40
0.5
  1
3.8
100
AcDbAttributeDefinition
  3

  2
J
 70
     8
280
     0
  0
ATTDEF
  5
FC
330
EA
100
AcDbEntity
  8
AM_6
100
AcDbText
 10
17.7
 20
49.78530545755781
 30
0.0
 40
0.5
  1
43.4
100
AcDbAttributeDefinition
  3

  2
L
 70
     8
280
     0
  0
ATTDEF
  5
FD
330
EA
100
AcDbEntity
  8
AM_6
100
AcDbText
 10
17.7
 20
49.28530545755781
 30
0.0
 40
0.5
  1
M4x7
100
AcDbAttributeDefinition
  3

  2
N
 70
     8
280
     0
  0
ATTDEF
  5
FE
330
EA
100
AcDbEntity
  8
AM_6
100
AcDbText
 10
17.7
 20
48.78530545755781
 30
0.0
 40
0.5
  1
12.7
100
AcDbAttributeDefinition
  3

  2
W
 70
     8
280
     0
  0
ATTDEF
  5
FF
330
EA
100
AcDbEntity
  8
AM_6
100
AcDbText
 10
17.7
 20
48.28530545755781
 30
0.0
 40
0.5
  1
19.8
100
AcDbAttributeDefinition
  3

  2
Y
 70
     8
280
     0
  0
ATTDEF
  5
100
330
EA
100
AcDbEntity
  8
AM_6
100
AcDbText
 10
17.7
 20
47.78530545755781
 30
0.0
 40
0.5
  1
28.4
100
AcDbAttributeDefinition
  3

  2
Z
 70
     8
280
     0
  0
ATTDEF
  5
101
330
EA
100
AcDbEntity
  8
AM_6
100
AcDbText
 10
17.7
 20
47.28530545755781
 30
0.0
 40
0.5
  1
baldor
100
AcDbAttributeDefinition
  3

  2
COMPANY
 70
     8
280
     0
  0
LINE
  5
102
330
EA
100
AcDbEntity
  8
AM_9
100
AcDbLine
 10
-18.93200000000001
 20
23.3
 30
0.0
 11
11.832
 21
23.3
 31
0.0
  0
LINE
  5
103
330
EA
100
AcDbEntity
  8
AM_9
100
AcDbLine
 10
11.832
 20
43.29999999999999
 30
0.0
 11
-18.93200000000001
 21
43.29999999999999
 31
0.0
  0
LINE
  5
104
330
EA
100
AcDbEntity
  8
AM_9
100
AcDbLine
 10
11.832
 20
23.3
 30
0.0
 11
12.7
 21
22.432
 31
0.0
  0
LINE
  5
105
330
EA
100
AcDbEntity
  8
AM_9
100
AcDbLine
 10
12.7
 20
44.16799999999999
 30
0.0
 11
11.832
 21
43.29999999999999
 31
0.0
  0
LINE
  5
106
330
EA
100
AcDbEntity
  8
AM_9
100
AcDbLine
 10
-18.93200000000001
 20
43.29999999999999
 30
0.0
 11
-19.8
 21
44.16799999999999
 31
0.0
  0
LINE
  5
107
330
EA
100
AcDbEntity
  8
AM_9
100
AcDbLine
 10
-19.8
 20
22.432
 30
0.0
 11
-18.93200000000001
 21
23.3
 31
0.0
  0
LINE
  5
108
330
EA
100
AcDbEntity
  8
AM_9
100
AcDbLine
 10
-9.900000000000002
 20
19.09999999999999
 30
0.0
 11
-7.349999999999999
 21
19.09999999999999
 31
0.0
  0
LINE
  5
109
330
EA
100
AcDbEntity
  8
AM_9
100
AcDbLine
 10
-7.349999999999999
 20
47.5
 30
0.0
 11
-9.900000000000002
 21
47.5
 31
0.0
  0
LINE
  5
10A
330
EA
100
AcDbEntity
  8
AM_9
100
AcDbLine
 10
12.7
 20
46.63199999999996
 30
0.0
 11
11.832
 21
47.50000000000001
 31
0.0
  0
LINE
  5
10B
330
EA
100
AcDbEntity
  8
AM_9
100
AcDbLine
 10
11.832
 20
19.09999999999998
 30
0.0
 11
12.7
 21
19.96800000000003
 31
0.0
  0
LINE
  5
10C
330
EA
100
AcDbEntity
  8
AM_9
100
AcDbLine
 10
12.7
 20
46.63199999999996
 30
0.0
 11
12.7
 21
19.96800000000003
 31
0.0
  0
LINE
  5
10D
330
EA
100
AcDbEntity
  8
AM_9
100
AcDbLine
 10
7.35
 20
19.09999999999998
 30
0.0
 11
11.832
 21
19.09999999999998
 31
0.0
  0
LINE
  5
10E
330
EA
100
AcDbEntity
  8
AM_9
100
AcDbLine
 10
11.832
 20
47.50000000000001
 30
0.0
 11
7.35
 21
47.50000000000001
 31
0.0
  0
LINE
  5
10F
330
EA
100
AcDbEntity
  8
AM_9
100
AcDbLine
 10
11.832
 20
47.50000000000001
 30
0.0
 11
11.832
 21
19.09999999999998
 31
0.0
  0
LINE
  5
110
330
EA
100
AcDbEntity
  8
AM_9
100
AcDbLine
 10
-17.0
 20
11.60000000000001
 30
0.0
 11
-10.76800000000001
 21
11.60000000000001
 31
0.0
  0
LINE
  5
111
330
EA
100
AcDbEntity
  8
AM_9
100
AcDbLine
 10
-10.76800000000001
 20
54.99999999999999
 30
0.0
 11
-13.5752427184466
 21
54.99999999999999
 31
0.0
  0
LINE
  5
112
330
EA
100
AcDbEntity
  8
AM_9
100
AcDbLine
 10
-9.900000000000006
 20
54.13199999999998
 30
0.0
 11
-10.76800000000001
 21
54.99999999999999
 31
0.0
  0
LINE
  5
113
330
EA
100
AcDbEntity
  8
AM_9
100
AcDbLine
 10
-10.76800000000001
 20
11.60000000000001
 30
0.0
 11
-9.900000000000006
 21
12.468
 31
0.0
  0
LINE
  5
114
330
EA
100
AcDbEntity
  8
AM_9
100
AcDbLine
 10
-10.76800000000001
 20
54.99999999999999
 30
0.0
 11
-10.76800000000001
 21
11.60000000000001
 31
0.0
  0
LINE
  5
115
330
EA
100
AcDbEntity
  8
AM_9
100
AcDbLine
 10
-9.900000000000006
 20
54.13199999999998
 30
0.0
 11
-9.900000000000006
 21
12.468
 31
0.0
  0
LINE
  5
116
330
EA
100
AcDbEntity
  8
AM_9
100
AcDbLine
 10
-4.400000000000001
 20
11.27
 30
0.0
 11
-2.44
 21
11.27
 31
0.0
  0
LINE
  5
117
330
EA
100
AcDbEntity
  8
AM_9
100
AcDbLine
 10
-2.44
 20
55.33
 30
0.0
 11
-4.400000000000001
 21
55.33
 31
0.0
  0
LINE
  5
118
330
EA
100
AcDbEntity
  8
AM_9
100
AcDbLine
 10
7.35
 20
54.93354487917143
 30
0.0
 11
7.35
 21
11.66645512082856
 31
0.0
  0
ARC
  5
119
330
EA
100
AcDbEntity
  8
AM_9
100
AcDbCircle
 10
6.762000000000001
 20
11.66645512082856
 30
0.0
 40
0.5879999999999967
100
AcDbArc
 50
291.412467046884
 51
0.0
  0
ARC
  5
11A
330
EA
100
AcDbEntity
  8
AM_9
100
AcDbCircle
 10
6.762000000000027
 20
54.93354487917144
 30
0.0
 40
0.5879999999999725
100
AcDbArc
 50
0.0
 51
68.58753295311783
  0
LINE
  5
11B
330
EA
100
AcDbEntity
  8
AM_9
100
AcDbLine
 10
-7.350000000000002
 20
54.93354487917143
 30
0.0
 11
-7.350000000000002
 21
11.66645512082857
 31
0.0
  0
ARC
  5
11C
330
EA
100
AcDbEntity
  8
AM_9
100
AcDbCircle
 10
-6.761999999999992
 20
11.66645512082857
 30
0.0
 40
0.5880000000000098
100
AcDbArc
 50
180.0
 51
248.5875329531152
  0
ARC
  5
11D
330
EA
100
AcDbEntity
  8
AM_9
100
AcDbCircle
 10
-6.762000000000005
 20
54.93354487917144
 30
0.0
 40
0.5879999999999994
100
AcDbArc
 50
111.4124670468838
 51
180.0
  0
ARC
  5
11E
330
EA
100
AcDbEntity
  8
AM_9
100
AcDbCircle
 10
0.0000000000002069
 20
28.91000000000056
 30
0.0
 40
19.11000000000059
100
AcDbArc
 50
248.5875329531159
 51
256.6884480428103
  0
ARC
  5
11F
330
EA
100
AcDbEntity
  8
AM_9
100
AcDbCircle
 10
0.0000000000001119
 20
37.68999999999961
 30
0.0
 40
19.11000000000039
100
AcDbArc
 50
103.3115519571895
 51
111.412467046884
  0
LINE
  5
120
330
EA
100
AcDbEntity
  8
AM_9
100
AcDbLine
 10
-6.976666666666669
 20
55.48095900231974
 30
0.0
 11
-6.976666666666669
 21
11.11904099768026
 31
0.0
  0
LINE
  5
121
330
EA
100
AcDbEntity
  8
AM_9
100
AcDbLine
 10
-4.400000000000001
 20
56.28656151012868
 30
0.0
 11
-4.400000000000001
 21
10.31343848987131
 31
0.0
  0
ARC
  5
122
330
EA
100
AcDbEntity
  8
AM_9
100
AcDbCircle
 10
0.0000000000000003
 20
28.90999999999972
 30
0.0
 40
19.10999999999972
100
AcDbArc
 50
262.6643447152236
 51
291.4124670468844
  0
ARC
  5
123
330
EA
100
AcDbEntity
  8
AM_9
100
AcDbCircle
 10
0.0000000000000266
 20
37.69000000000045
 30
0.0
 40
19.10999999999955
100
AcDbArc
 50
68.5875329531155
 51
97.33565528477641
  0
LINE
  5
124
330
EA
100
AcDbEntity
  8
AM_9
100
AcDbLine
 10
-2.439999999999998
 20
56.64358805081507
 30
0.0
 11
-2.439999999999998
 21
9.95641194918492
 31
0.0
  0
LINE
  5
125
330
EA
100
AcDbEntity
  8
AM_9
100
AcDbLine
 10
6.976666666666667
 20
55.48095900231973
 30
0.0
 11
6.976666666666667
 21
11.11904099768026
 31
0.0
  0
LINE
  5
126
330
EA
100
AcDbEntity
  8
AM_4
100
AcDbLine
 10
-19.8
 20
12.468
 30
0.0
 11
-18.93200000000001
 21
11.60000000000001
 31
0.0
  0
LINE
  5
127
330
EA
100
AcDbEntity
  8
AM_4
100
AcDbLine
 10
-18.93200000000001
 20
54.99999999999999
 30
0.0
 11
-19.8
 21
54.13199999999998
 31
0.0
  0
LINE
  5
128
330
EA
100
AcDbEntity
  8
AM_4
100
AcDbLine
 10
-19.8
 20
54.13199999999998
 30
0.0
 11
-19.8
 21
12.468
 31
0.0
  0
LINE
  5
129
330
EA
100
AcDbEntity
  8
AM_4
100
AcDbLine
 10
-18.93200000000001
 20
11.60000000000001
 30
0.0
 11
-17.0
 21
11.60000000000001
 31
0.0
  0
LINE
  5
12A
330
EA
100
AcDbEntity
  8
AM_4
100
AcDbLine
 10
-13.5752427184466
 20
54.99999999999999
 30
0.0
 11
-18.93200000000001
 21
54.99999999999999
 31
0.0
  0
LINE
  5
12B
330
EA
100
AcDbEntity
  8
AM_4
100
AcDbLine
 10
-18.93200000000001
 20
54.99999999999999
 30
0.0
 11
-18.93200000000001
 21
11.60000000000001
 31
0.0
  0
ENDBLK
  5
ED
330
EA
100
AcDbEntity
  8
0
100
AcDbBlockEnd
  0
BLOCK
  5
12E
330
12C
100
AcDbEntity
  8
0
100
AcDbBlockBegin
  2
4_204_B__0_in_126601_2
 70
     2
 10
0.0
 20
0.0
 30
0.0
  3
4_204_B__0_in_126601_2
  1

  0
ATTDEF
  5
130
330
12C
100
AcDbEntity
  8
AM_6
100
AcDbText
 10
23.7
 20
78.0
 30
0.0
 40
0.5
  1
PILLOW BLOCKS - Body - Metric
100
AcDbAttributeDefinition
  3

  2
NN
 70
     8
280
     0
  0
ATTDEF
  5
131
330
12C
100
AcDbEntity
  8
AM_6
100
AcDbText
 10
23.7
 20
77.5
 30
0.0
 40
0.5
  1
D-LOK
100
AcDbAttributeDefinition
  3

  2
NT
 70
     8
280
     0
  0
ATTDEF
  5
132
330
12C
100
AcDbEntity
  8
AM_6
100
AcDbText
 10
23.7
 20
77.0
 30
0.0
 40
0.5
  1
204-B/
100
AcDbAttributeDefinition
  3

  2
NB
 70
     8
280
     0
  0
ATTDEF
  5
133
330
12C
100
AcDbEntity
  8
AM_6
100
AcDbText
 10
23.7
 20
76.5
 30
0.0
 40
0.5
  1
$PN.
100
AcDbAttributeDefinition
  3

  2
NBSYN
 70
     8
280
     0
  0
ATTDEF
  5
134
330
12C
100
AcDbEntity
  8
AM_6
100
AcDbText
 10
23.7
 20
76.0
 30
0.0
 40
0.5
  1
204-B/
100
AcDbAttributeDefinition
  3

  2
LINA
 70
     8
280
     0
  0
ATTDEF
  5
135
330
12C
100
AcDbEntity
  8
AM_6
100
AcDbText
 10
23.7
 20
75.5
 30
0.0
 40
0.5
  1
20
100
AcDbAttributeDefinition
  3

  2
SS
 70
     8
280
     0
  0
ATTDEF
  5
136
330
12C
100
AcDbEntity
  8
AM_6
100
AcDbText
 10
23.7
 20
75.0
 30
0.0
 40
0.5
  1
204-B/
100
AcDbAttributeDefinition
  3

  2
PN
 70
     8
280
     0
  0
ATTDEF
  5
137
330
12C
100
AcDbEntity
  8
AM_6
100
AcDbText
 10
23.7
 20
74.5
 30
0.0
 40
0.5
  1
204
100
AcDbAttributeDefinition
  3

  2
RS
 70
     8
280
     0
  0
ATTDEF
  5
138
330
12C
100
AcDbEntity
  8
AM_6
100
AcDbText
 10
23.7
 20
74.0
 30
0.0
 40
0.5
  1
47.000
100
AcDbAttributeDefinition
  3

  2
BOD
 70
     8
280
     0
  0
ATTDEF
  5
139
330
12C
100
AcDbEntity
  8
AM_6
100
AcDbText
 10
23.7
 20
73.5
 30
0.0
 40
0.5
  1
32.500
100
AcDbAttributeDefinition
  3

  2
A
 70
     8
280
     0
  0
ATTDEF
  5
13A
330
12C
100
AcDbEntity
  8
AM_6
100
AcDbText
 10
23.7
 20
73.0
 30
0.0
 40
0.5
  1
133.400
100
AcDbAttributeDefinition
  3

  2
B
 70
     8
280
     0
  0
ATTDEF
  5
13B
330
12C
100
AcDbEntity
  8
AM_6
100
AcDbText
 10
23.7
 20
72.5
 30
0.0
 40
0.5
  1
34.000
100
AcDbAttributeDefinition
  3

  2
C
 70
     8
280
     0
  0
ATTDEF
  5
13C
330
12C
100
AcDbEntity
  8
AM_6
100
AcDbText
 10
23.7
 20
72.0
 30
0.0
 40
0.5
  1
85.900
100
AcDbAttributeDefinition
  3

  2
DMIN
 70
     8
280
     0
  0
ATTDEF
  5
13D
330
12C
100
AcDbEntity
  8
AM_6
100
AcDbText
 10
23.7
 20
71.5
 30
0.0
 40
0.5
  1
106.400
100
AcDbAttributeDefinition
  3

  2
DMAX
 70
     8
280
     0
  0
ATTDEF
  5
13E
330
12C
100
AcDbEntity
  8
AM_6
100
AcDbText
 10
23.7
 20
71.0
 30
0.0
 40
0.5
  1
M10
100
AcDbAttributeDefinition
  3

  2
F
 70
     8
280
     0
  0
ATTDEF
  5
13F
330
12C
100
AcDbEntity
  8
AM_6
100
AcDbText
 10
23.7
 20
70.5
 30
0.0
 40
0.5
  1
10.000
100
AcDbAttributeDefinition
  3

  2
F1
 70
     8
280
     0
  0
ATTDEF
  5
140
330
12C
100
AcDbEntity
  8
AM_6
100
AcDbText
 10
23.7
 20
70.0
 30
0.0
 40
0.5
  1
21.600
100
AcDbAttributeDefinition
  3

  2
G
 70
     8
280
     0
  0
ATTDEF
  5
141
330
12C
100
AcDbEntity
  8
AM_6
100
AcDbText
 10
23.7
 20
69.5
 30
0.0
 40
0.5
  1
13.500
100
AcDbAttributeDefinition
  3

  2
H
 70
     8
280
     0
  0
ATTDEF
  5
142
330
12C
100
AcDbEntity
  8
AM_6
100
AcDbText
 10
23.7
 20
69.0
 30
0.0
 40
0.5
  1
65.000
100
AcDbAttributeDefinition
  3

  2
J
 70
     8
280
     0
  0
ATTDEF
  5
143
330
12C
100
AcDbEntity
  8
AM_6
100
AcDbText
 10
23.7
 20
68.5
 30
0.0
 40
0.5
  1
43.400
100
AcDbAttributeDefinition
  3

  2
L
 70
     8
280
     0
  0
ATTDEF
  5
144
330
12C
100
AcDbEntity
  8
AM_6
100
AcDbText
 10
23.7
 20
68.0
 30
0.0
 40
0.5
  1
33.300
100
AcDbAttributeDefinition
  3

  2
M
 70
     8
280
     0
  0
ATTDEF
  5
145
330
12C
100
AcDbEntity
  8
AM_6
100
AcDbText
 10
23.7
 20
67.5
 30
0.0
 40
0.5
  1
12.700
100
AcDbAttributeDefinition
  3

  2
R
 70
     8
280
     0
  0
ATTDEF
  5
146
330
12C
100
AcDbEntity
  8
AM_6
100
AcDbText
 10
23.7
 20
67.0
 30
0.0
 40
0.5
  1
19.800
100
AcDbAttributeDefinition
  3

  2
S
 70
     8
280
     0
  0
ATTDEF
  5
147
330
12C
100
AcDbEntity
  8
AM_6
100
AcDbText
 10
23.7
 20
66.5
 30
0.0
 40
0.5
  1
57.200
100
AcDbAttributeDefinition
  3

  2
U
 70
     8
280
     0
  0
ATTDEF
  5
148
330
12C
100
AcDbEntity
  8
AM_6
100
AcDbText
 10
23.7
 20
66.0
 30
0.0
 40
0.5
  1
114.300
100
AcDbAttributeDefinition
  3

  2
V
 70
     8
280
     0
  0
ATTDEF
  5
149
330
12C
100
AcDbEntity
  8
AM_6
100
AcDbText
 10
23.7
 20
65.5
 30
0.0
 40
0.5
  1
12.700
100
AcDbAttributeDefinition
  3

  2
W
 70
     8
280
     0
  0
ATTDEF
  5
14A
330
12C
100
AcDbEntity
  8
AM_6
100
AcDbText
 10
23.7
 20
65.0
 30
0.0
 40
0.5
  1
3.000
100
AcDbAttributeDefinition
  3

  2
X
 70
     8
280
     0
  0
ATTDEF
  5
14B
330
12C
100
AcDbEntity
  8
AM_6
100
AcDbText
 10
23.7
 20
64.5
 30
0.0
 40
0.5
  1
baldor
100
AcDbAttributeDefinition
  3

  2
COMPANY
 70
     8
280
     0
  0
LINE
  5
14C
330
12C
100
AcDbEntity
  8
AM_9
100
AcDbLine
 10
-14.5066678
 20
9.799999999999995
 30
0.0
 11
14.5066678
 21
9.799999999999995
 31
0.0
  0
LINE
  5
14D
330
12C
100
AcDbEntity
  8
AM_9
100
AcDbLine
 10
13.42669902912621
 20
56.8
 30
0.0
 11
-13.42669902912622
 21
56.8
 31
0.0
  0
LINE
  5
14E
330
12C
100
AcDbEntity
  8
AM_9
100
AcDbLine
 10
-14.57336780000002
 20
2.276662166666665
 30
0.0
 11
14.57336780000002
 21
2.276662166666665
 31
0.0
  0
LINE
  5
14F
330
12C
100
AcDbEntity
  8
AM_9
100
AcDbLine
 10
-14.5066678
 20
4.499995500000001
 30
0.0
 11
14.5066678
 21
4.499995500000001
 31
0.0
  0
LINE
  5
150
330
12C
100
AcDbEntity
  8
AM_9
100
AcDbLine
 10
16.1741678
 20
23.50714312941178
 30
0.0
 11
16.1741678
 21
0.0
 31
0.0
  0
LINE
  5
151
330
12C
100
AcDbEntity
  8
AM_9
100
AcDbLine
 10
14.5733678
 20
0.0
 30
0.0
 11
14.57336780000002
 21
2.276662166666665
 31
0.0
  0
LWPOLYLINE
  5
152
330
12C
100
AcDbEntity
  8
AM_9
100
AcDbPolyline
 90
        5
 70
     0
 43
0.0
 10
14.5066678
 20
3.639803045910874
 10
14.5218409886333
 20
3.286295951037702
 10
14.55124885861478
 20
2.88166508246031
 10
14.56724688893503
 20
2.585269672824919
 10
14.5733678
 20
2.27666216666667
  0
LINE
  5
153
330
12C
100
AcDbEntity
  8
AM_9
100
AcDbLine
 10
14.5066678
 20
43.71331960000004
 30
0.0
 11
14.5066678
 21
3.639803045910874
 31
0.0
  0
LINE
  5
154
330
12C
100
AcDbEntity
  8
AM_9
100
AcDbLine
 10
-14.5066678
 20
43.71331959999999
 30
0.0
 11
-14.5066678
 21
3.639803045910887
 31
0.0
  0
LWPOLYLINE
  5
155
330
12C
100
AcDbEntity
  8
AM_9
100
AcDbPolyline
 90
        5
 70
     0
 43
0.0
 10
-14.5733678
 20
2.27666216666667
 10
-14.56239017817399
 20
2.69353716666667
 10
-14.5347338999117
 20
3.11041216666667
 10
-14.51558580235109
 20
3.38277333332556
 10
-14.5066678
 20
3.639803045910884
  0
LINE
  5
156
330
12C
100
AcDbEntity
  8
AM_9
100
AcDbLine
 10
-14.57336780000002
 20
2.276662166666665
 30
0.0
 11
-14.5733678
 21
0.0
 31
0.0
  0
LINE
  5
157
330
12C
100
AcDbEntity
  8
AM_9
100
AcDbLine
 10
-16.1741678
 20
23.50714312941178
 30
0.0
 11
-16.1741678
 21
0.0
 31
0.0
  0
LINE
  5
158
330
12C
100
AcDbEntity
  8
AM_9
100
AcDbLine
 10
5.000000000000008
 20
0.0
 30
0.0
 11
5.000000000000008
 21
13.5
 31
0.0
  0
LINE
  5
159
330
12C
100
AcDbEntity
  8
AM_9
100
AcDbLine
 10
-4.999999999999993
 20
0.0
 30
0.0
 11
-4.999999999999994
 21
13.5
 31
0.0
  0
LINE
  5
15A
330
12C
100
AcDbEntity
  8
AM_9
100
AcDbLine
 10
-15.7
 20
12.15
 30
0.0
 11
-9.699999999999998
 21
12.15
 31
0.0
  0
LINE
  5
15B
330
12C
100
AcDbEntity
  8
AM_9
100
AcDbLine
 10
-9.699999999999998
 20
12.15
 30
0.0
 11
-9.699999999999998
 21
13.5
 31
0.0
  0
LINE
  5
15C
330
12C
100
AcDbEntity
  8
AM_9
100
AcDbLine
 10
-15.7
 20
13.5
 30
0.0
 11
-15.7
 21
12.15
 31
0.0
  0
LINE
  5
15F
330
12C
100
AcDbEntity
  8
AM_7
100
AcDbLine
 10
18.7
 20
33.3
 30
0.0
 11
-21.425
 21
33.3
 31
0.0
  0
LINE
  5
160
330
12C
100
AcDbEntity
  8
AM_7
100
AcDbLine
 10
-0.0000000000000026
 20
10.25
 30
0.0
 11
-0.0000000000000026
 21
78.0
 31
0.0
  0
LINE
  5
161
330
12C
100
AcDbEntity
  8
AM_7
100
AcDbLine
 10
-12.7
 20
13.5675
 30
0.0
 11
-12.7
 21
12.0825
 31
0.0
  0
LINE
  5
162
330
12C
100
AcDbEntity
  8
AM_4
100
AcDbLine
 10
17.00000000000001
 20
13.5
 30
0.0
 11
12.75
 21
64.99999999999999
 31
0.0
  0
LINE
  5
163
330
12C
100
AcDbEntity
  8
AM_4
100
AcDbLine
 10
12.75
 20
64.99999999999999
 30
0.0
 11
-12.75
 21
64.99999999999999
 31
0.0
  0
LINE
  5
164
330
12C
100
AcDbEntity
  8
AM_4
100
AcDbLine
 10
-12.75
 20
64.99999999999999
 30
0.0
 11
-17.0
 21
13.5
 31
0.0
  0
LINE
  5
165
330
12C
100
AcDbEntity
  8
AM_4
100
AcDbLine
 10
4.503033708430449
 20
42.86300937292097
 30
0.0
 11
14.57683903233177
 21
42.86300937292097
 31
0.0
  0
LWPOLYLINE
  5
166
330
12C
100
AcDbEntity
  8
AM_4
100
AcDbPolyline
 90
       13
 70
     0
 43
0.0
 10
13.05541665363461
 20
13.50000000000001
 10
12.70626971964852
 20
17.05477860592162
 10
12.26042040084049
 20
20.49985803958131
 10
11.72126187973781
 20
23.80901916629308
 10
11.0928974782389
 20
26.95707727175656
 10
10.38010942885596
 20
29.9200737329397
 10
9.588322479037993
 20
32.67545835766672
 10
8.723562605567139
 20
35.20226100519671
 10
7.792411153236803
 20
37.48125118165684
 10
6.801954746843836
 20
39.49508439571234
 10
5.759731357694816
 20
41.22843416061851
 10
4.67367293509286
 20
42.66810863803921
 10
4.503033708430454
 20
42.86300937292099
  0
LWPOLYLINE
  5
167
330
12C
100
AcDbEntity
  8
AM_4
100
AcDbPolyline
 90
       18
 70
     0
 43
0.0
 10
4.503033708430449
 20
42.86300937292096
 10
3.9969701301259
 20
43.37778004583129
 10
3.439770431679511
 20
43.8420804491499
 10
2.835078463525222
 20
44.24372579850686
 10
2.292921259405305
 20
44.52424601009314
 10
1.720465768058486
 20
44.74900571283851
 10
1.126554690884434
 20
44.91085149426752
 10
0.5125946503431296
 20
45.00452818369771
 10
-0.1114297598119728
 20
45.02784830445287
 10
-0.7313750566263426
 20
44.97986962003609
 10
-1.2848837893415
 20
44.87429541808209
 10
-1.824720372514152
 20
44.71338151970151
 10
-2.342747988170702
 20
44.50183144122039
 10
-2.864548460905183
 20
44.22613235966756
 10
-3.357119374545773
 20
43.90298434855686
 10
-3.816644162569184
 20
43.53940189005877
 10
-4.170951838792956
 20
43.21203469168823
 10
-4.503033708430449
 20
42.86300937292097
  0
LWPOLYLINE
  5
168
330
12C
100
AcDbEntity
  8
AM_4
100
AcDbPolyline
 90
       13
 70
     0
 43
0.0
 10
-4.503033708430453
 20
42.86300937292098
 10
-5.595116289782728
 20
41.46959564010483
 10
-6.644616657746173
 20
39.78067123532703
 10
-7.643547480814935
 20
37.80908989310839
 10
-8.584306292254542
 20
35.56985653793653
 10
-9.459733349464232
 20
33.08001308773041
 10
-10.26316612394134
 20
30.35850875455465
 10
-10.9884900071461
 20
27.42605582967398
 10
-11.63018484636482
 20
24.30497205051023
 10
-12.18336695640508
 20
21.01901074918475
 10
-12.643826287389
 20
17.5931800753183
 10
-13.00805846577484
 20
14.05355266891212
 10
-13.05541665363461
 20
13.5
  0
LINE
  5
169
330
12C
100
AcDbEntity
  8
AM_4
100
AcDbLine
 10
-14.57683903233176
 20
42.86300937292097
 30
0.0
 11
-4.503033708430445
 21
42.86300937292096
 31
0.0
  0
LINE
  5
16A
330
12C
100
AcDbEntity
  8
AM_4
100
AcDbLine
 10
17.00000000000001
 20
13.5
 30
0.0
 11
17.0
 21
0.0
 31
0.0
  0
LINE
  5
16B
330
12C
100
AcDbEntity
  8
AM_4
100
AcDbLine
 10
15.56133333333333
 20
9.045000000000002
 30
0.0
 11
15.56133333333333
 21
13.5
 31
0.0
  0
LINE
  5
16C
330
12C
100
AcDbEntity
  8
AM_4
100
AcDbLine
 10
12.89333333333333
 20
9.045000000000002
 30
0.0
 11
12.89333333333333
 21
13.5
 31
0.0
  0
LINE
  5
16D
330
12C
100
AcDbEntity
  8
AM_4
100
AcDbLine
 10
-0.0000000000000109
 20
9.045000000000002
 30
0.0
 11
17.00000000000001
 21
9.044999999999998
 31
0.0
  0
LINE
  5
16E
330
12C
100
AcDbEntity
  8
AM_4
100
AcDbLine
 10
-0.0000000000000109
 20
9.045000000000002
 30
0.0
 11
-0.0000000000000109
 21
11.27666666666668
 31
0.0
  0
LINE
  5
16F
330
12C
100
AcDbEntity
  8
AM_4
100
AcDbLine
 10
13.574
 20
0.0
 30
0.0
 11
13.574
 21
9.044999999999998
 31
0.0
  0
LWPOLYLINE
  5
170
330
12C
100
AcDbEntity
  8
AM_4
100
AcDbPolyline
 90
       15
 70
     0
 43
0.0
 10
6.313819634679222
 20
13.49999999999999
 10
5.714992109036744
 20
13.46969984819116
 10
5.102610038190977
 20
13.38654721001478
 10
4.463241001507048
 20
13.25685973458544
 10
3.816457441929694
 20
13.09015734424468
 10
3.170402383561665
 20
12.89463749271594
 10
2.518948323952971
 20
12.67214926472914
 10
1.611239223178718
 20
12.32160683495067
 10
1.000753809022081
 20
12.05281970423158
 10
0.6002112407808772
 20
11.85030941431704
 10
0.341733298963088
 20
11.69502165052705
 10
0.1150641120394894
 20
11.51160329438282
 10
0.0416008994723596
 20
11.41635076425967
 10
0.0054509315137011
 20
11.32694423232197
 10
0.0000000000000113
 20
11.27666666666667
  0
LINE
  5
171
330
12C
100
AcDbEntity
  8
AM_4
100
AcDbLine
 10
-13.57400000000002
 20
11.27666666666667
 30
0.0
 11
-0.0000000000000109
 21
11.27666666666668
 31
0.0
  0
LWPOLYLINE
  5
172
330
12C
100
AcDbEntity
  8
AM_4
100
AcDbPolyline
 90
       19
 70
     0
 43
0.0
 10
-15.79733333333332
 20
13.49999999999999
 10
-15.60355706529103
 20
13.49153954542397
 10
-15.41125555165385
 20
13.4662225708638
 10
-15.22189232305539
 20
13.42424175378269
 10
-15.03690854800593
 20
13.36591659354733
 10
-14.85771206472985
 20
13.29169097984481
 10
-14.68566666666667
 20
13.20212981441406
 10
-14.52208172317951
 20
13.09791471180252
 10
-14.3682022144636
 20
12.97983881186786
 10
-14.22519925649525
 20
12.84880074350476
 10
-14.09416118813215
 20
12.7057977855364
 10
-13.97608528819749
 20
12.55191827682049
 10
-13.87187018558594
 20
12.38833333333334
 10
-13.78230902015519
 20
12.21628793527016
 10
-13.70808340645268
 20
12.03709145199408
 10
-13.64975824621732
 20
11.85210767694461
 10
-13.60777742913621
 20
11.66274444834615
 10
-13.58246045457603
 20
11.47044293470897
 10
-13.57400000000002
 20
11.27666666666668
  0
LINE
  5
173
330
12C
100
AcDbEntity
  8
AM_4
100
AcDbLine
 10
-17.0
 20
13.5
 30
0.0
 11
17.00000000000001
 21
13.5
 31
0.0
  0
LINE
  5
174
330
12C
100
AcDbEntity
  8
AM_4
100
AcDbLine
 10
-17.0
 20
13.5
 30
0.0
 11
-17.0
 21
0.0
 31
0.0
  0
LINE
  5
175
330
12C
100
AcDbEntity
  8
AM_4
100
AcDbLine
 10
-17.0
 20
0.0
 30
0.0
 11
17.0
 21
0.0
 31
0.0
  0
LINE
  5
176
330
12C
100
AcDbEntity
  8
AM_4
100
AcDbLine
 10
-13.57400000000002
 20
11.27666666666667
 30
0.0
 11
-13.57400000000001
 21
0.0
 31
0.0
  0
ENDBLK
  5
12F
330
12C
100
AcDbEntity
  8
0
100
AcDbBlockEnd
  0
ENDSEC
  0
SECTION
  2
ENTITIES
  0
INSERT
  5
6F
330
1F
100
AcDbEntity
  8
0
100
AcDbBlockReference
  2
1_126601_2
 10
0.0
 20
0.0
 30
0.0
  0
POINT
  5
178
330
1F
100
AcDbEntity
  8
ConnectionPoints
100
AcDbPoint
 10
-19.8
 20
33.3
 30
0.0000000000000012
  0
POINT
  5
179
330
1F
100
AcDbEntity
  8
ConnectionPoints
100
AcDbPoint
 10
12.7
 20
33.3
 30
-0.0000000000000008
  0
POINT
  5
17A
330
1F
100
AcDbEntity
  8
ConnectionPoints
100
AcDbPoint
 10
-3.550000000000001
 20
33.3
 30
0.0000000000000002
  0
POINT
  5
17B
330
1F
100
AcDbEntity
  8
ConnectionPoints
100
AcDbPoint
 10
0.0
 20
33.3
 30
0.0
  0
POINT
  5
17C
330
1F
100
AcDbEntity
  8
ConnectionPoints
100
AcDbPoint
 10
0.0000000000000014
 20
55.71528496361356
 30
22.41528496361356
  0
POINT
  5
17D
330
1F
100
AcDbEntity
  8
ConnectionPoints
100
AcDbPoint
 10
12.7
 20
33.3
 30
-0.0000000000000008
  0
ENDSEC
  0
SECTION
  2
OBJECTS
  0
DICTIONARY
  5
C
330
0
100
AcDbDictionary
281
     1
  3
ACAD_DETAILVIEWSTYLE
350
185
  3
ACAD_GROUP
350
D
  3
ACAD_LAYOUT
350
1A
  3
ACAD_MATERIAL
350
43
  3
ACAD_MLEADERSTYLE
350
6B
  3
ACAD_MLINESTYLE
350
17
  3
ACAD_PLOTSETTINGS
350
19
  3
ACAD_PLOTSTYLENAME
350
E
  3
ACAD_SCALELIST
350
47
  3
ACAD_SECTIONVIEWSTYLE
350
186
  3
ACAD_TABLESTYLE
350
69
  3
ACAD_VISUALSTYLE
350
2A
  3
ACDB_RECOMPOSE_DATA
350
182
  3
AcDbVariableDictionary
350
17E
  0
SUN
  5
6D
330
29
100
AcDbSun
 90
        1
290
     0
 63
     7
421
 16777215
 40
1.0
291
     1
 91
  2455826
 92
 54000000
292
     0
 70
     2
 71
   256
280
     1
  0
DICTIONARY
  5
185
102
{ACAD_REACTORS
330
C
102
}
330
C
100
AcDbDictionary
281
     1
  0
DICTIONARY
  5
D
102
{ACAD_REACTORS
330
C
102
}
330
C
100
AcDbDictionary
281
     1
  0
DICTIONARY
  5
1A
102
{ACAD_REACTORS
330
C
102
}
330
C
100
AcDbDictionary
281
     1
  3
Layout1
350
1E
  3
Layout2
350
26
  3
Model
350
22
  0
DICTIONARY
  5
43
102
{ACAD_REACTORS
330
C
102
}
330
C
100
AcDbDictionary
281
     1
  3
ByBlock
350
45
  3
ByLayer
350
44
  3
Global
350
46
  0
DICTIONARY
  5
6B
102
{ACAD_REACTORS
330
C
102
}
330
C
100
AcDbDictionary
281
     1
  3
Standard
350
6C
  0
DICTIONARY
  5
17
102
{ACAD_REACTORS
330
C
102
}
330
C
100
AcDbDictionary
281
     1
  3
Standard
350
18
  0
DICTIONARY
  5
19
102
{ACAD_REACTORS
330
C
102
}
330
C
100
AcDbDictionary
281
     1
  0
ACDBDICTIONARYWDFLT
  5
E
102
{ACAD_REACTORS
330
C
102
}
330
C
100
AcDbDictionary
281
     1
  3
Normal
350
F
100
AcDbDictionaryWithDefault
340
F
  0
DICTIONARY
  5
47
102
{ACAD_REACTORS
330
C
102
}
330
C
100
AcDbDictionary
281
     1
  3
A0
350
48
  3
A1
350
49
  3
A2
350
4A
  3
A3
350
4B
  3
A4
350
4C
  3
A5
350
4D
  3
A6
350
4E
  3
A7
350
4F
  3
A8
350
50
  3
A9
350
51
  3
B0
350
52
  3
B1
350
53
  3
B2
350
54
  3
B3
350
55
  3
B4
350
56
  3
B5
350
57
  3
B6
350
58
  3
B7
350
59
  3
B8
350
5A
  3
B9
350
5B
  3
C0
350
5C
  3
C1
350
5D
  3
C2
350
5E
  3
C3
350
5F
  3
C4
350
60
  3
C5
350
61
  3
C6
350
62
  3
C7
350
63
  3
C8
350
64
  3
C9
350
65
  3
D0
350
66
  3
D1
350
67
  3
D2
350
68
  0
DICTIONARY
  5
186
102
{ACAD_REACTORS
330
C
102
}
330
C
100
AcDbDictionary
281
     1
  0
DICTIONARY
  5
69
102
{ACAD_REACTORS
330
C
102
}
330
C
100
AcDbDictionary
281
     1
  3
Standard
350
6A
  0
DICTIONARY
  5
2A
102
{ACAD_REACTORS
330
C
102
}
330
C
100
AcDbDictionary
281
     1
  3
2dWireframe
350
2F
  3
Basic
350
32
  3
Brighten
350
36
  3
ColorChange
350
3A
  3
Conceptual
350
34
  3
Dim
350
35
  3
EdgeColorOff
350
3D
  3
Facepattern
350
39
  3
Flat
350
2B
  3
FlatWithEdges
350
2C
  3
Gouraud
350
2D
  3
GouraudWithEdges
350
2E
  3
Hidden
350
31
  3
JitterOff
350
3B
  3
Linepattern
350
38
  3
OverhangOff
350
3C
  3
Realistic
350
33
  3
Shaded
350
42
  3
Shaded with edges
350
41
  3
Shades of Gray
350
3E
  3
Sketchy
350
3F
  3
Thicken
350
37
  3
Wireframe
350
30
  3
X-Ray
350
40
  0
XRECORD
  5
182
102
{ACAD_REACTORS
330
C
102
}
330
C
100
AcDbXrecord
280
     1
 90
        1
330
6A
  0
DICTIONARY
  5
17E
102
{ACAD_REACTORS
330
C
102
}
330
C
100
AcDbDictionary
281
     1
  3
CANNOSCALE
350
17F
  3
CMLEADERSTYLE
350
184
  3
CTABLESTYLE
350
183
  0
LAYOUT
  5
1E
102
{ACAD_REACTORS
330
1A
102
}
330
1A
100
AcDbPlotSettings
  1

  2
none_device
  4

  6

 40
0.0
 41
0.0
 42
0.0
 43
0.0
 44
0.0
 45
0.0
 46
0.0
 47
0.0
 48
0.0
 49
0.0
140
0.0
141
0.0
142
1.0
143
1.0
 70
   688
 72
     1
 73
     0
 74
     5
  7

 75
    16
 76
     0
 77
     2
 78
   300
147
1.0
148
0.0
149
0.0
100
AcDbLayout
  1
Layout1
 70
     1
 71
     1
 10
0.0
 20
0.0
 11
420.0
 21
297.0
 12
0.0
 22
0.0
 32
0.0
 14
1.000000000000000E+20
 24
1.000000000000000E+20
 34
1.000000000000000E+20
 15
-1.000000000000000E+20
 25
-1.000000000000000E+20
 35
-1.000000000000000E+20
146
0.0
 13
0.0
 23
0.0
 33
0.0
 16
1.0
 26
0.0
 36
0.0
 17
0.0
 27
1.0
 37
0.0
 76
     0
330
1B
  0
LAYOUT
  5
26
102
{ACAD_REACTORS
330
1A
102
}
330
1A
100
AcDbPlotSettings
  1

  2
none_device
  4

  6

 40
0.0
 41
0.0
 42
0.0
 43
0.0
 44
0.0
 45
0.0
 46
0.0
 47
0.0
 48
0.0
 49
0.0
140
0.0
141
0.0
142
1.0
143
1.0
 70
   688
 72
     1
 73
     0
 74
     5
  7

 75
    16
 76
     0
 77
     2
 78
   300
147
1.0
148
0.0
149
0.0
100
AcDbLayout
  1
Layout2
 70
     1
 71
     2
 10
0.0
 20
0.0
 11
0.0
 21
0.0
 12
0.0
 22
0.0
 32
0.0
 14
0.0
 24
0.0
 34
0.0
 15
0.0
 25
0.0
 35
0.0
146
0.0
 13
0.0
 23
0.0
 33
0.0
 16
1.0
 26
0.0
 36
0.0
 17
0.0
 27
1.0
 37
0.0
 76
     0
330
23
  0
LAYOUT
  5
22
102
{ACAD_REACTORS
330
1A
102
}
330
1A
100
AcDbPlotSettings
  1

  2
none_device
  4
Letter_(8.50_x_11.00_Inches)
  6

 40
6.35
 41
6.35
 42
6.35000508
 43
6.35000508
 44
215.9
 45
279.4
 46
0.0
 47
0.0
 48
0.0
 49
0.0
140
0.0
141
0.0
142
1.0
143
1.0
 70
  1712
 72
     1
 73
     0
 74
     0
  7

 75
     0
 76
     0
 77
     2
 78
   300
147
1.0
148
0.0
149
0.0
100
AcDbLayout
  1
Model
 70
     1
 71
     0
 10
0.0
 20
0.0
 11
420.0
 21
297.0
 12
0.0
 22
0.0
 32
0.0
 14
1.000000000000000E+20
 24
1.000000000000000E+20
 34
1.000000000000000E+20
 15
-1.000000000000000E+20
 25
-1.000000000000000E+20
 35
-1.000000000000000E+20
146
0.0
 13
0.0
 23
0.0
 33
0.0
 16
1.0
 26
0.0
 36
0.0
 17
0.0
 27
1.0
 37
0.0
 76
     0
330
1F
331
29
  0
MATERIAL
  5
45
102
{ACAD_REACTORS
330
43
102
}
330
43
100
AcDbMaterial
  1
ByBlock
 72
     1
 94
      127
  0
MATERIAL
  5
44
102
{ACAD_REACTORS
330
43
102
}
330
43
100
AcDbMaterial
  1
ByLayer
 72
     1
 94
      127
  0
MATERIAL
  5
46
102
{ACAD_REACTORS
330
43
102
}
330
43
100
AcDbMaterial
  1
Global
 72
     1
 94
      127
  0
MLEADERSTYLE
  5
6C
102
{ACAD_REACTORS
330
6B
102
}
330
6B
100
AcDbMLeaderStyle
179
     2
170
     2
171
     1
172
     0
 90
        2
 40
0.0
 41
0.0
173
     1
 91
-1056964608
340
14
 92
       -2
290
     1
 42
2.0
291
     1
 43
8.0
  3
Standard
341
0
 44
4.0
300

342
11
174
     1
178
     6
175
     1
176
     0
 93
-1056964608
 45
4.0
292
     0
297
     0
 46
4.0
343
0
 94
-1056964608
 47
1.0
 49
1.0
140
1.0
293
     1
141
0.0
294
     1
177
     0
142
1.0
295
     0
296
     0
143
3.75
271
     0
272
     9
273
     9
298
     0
  0
MLINESTYLE
  5
18
102
{ACAD_REACTORS
330
17
102
}
330
17
100
AcDbMlineStyle
  2
Standard
 70
     0
  3

 62
   256
 51
90.0
 52
90.0
 71
     2
 49
0.5
 62
   256
  6
BYLAYER
 49
-0.5
 62
   256
  6
BYLAYER
  0
ACDBPLACEHOLDER
  5
F
102
{ACAD_REACTORS
330
E
102
}
330
E
  0
SCALE
  5
48
102
{ACAD_REACTORS
330
47
102
}
330
47
100
AcDbScale
 70
     0
300
1:1
140
1.0
141
1.0
290
     1
  0
SCALE
  5
49
102
{ACAD_REACTORS
330
47
102
}
330
47
100
AcDbScale
 70
     0
300
1:2
140
1.0
141
2.0
290
     0
  0
SCALE
  5
4A
102
{ACAD_REACTORS
330
47
102
}
330
47
100
AcDbScale
 70
     0
300
1:4
140
1.0
141
4.0
290
     0
  0
SCALE
  5
4B
102
{ACAD_REACTORS
330
47
102
}
330
47
100
AcDbScale
 70
     0
300
1:5
140
1.0
141
5.0
290
     0
  0
SCALE
  5
4C
102
{ACAD_REACTORS
330
47
102
}
330
47
100
AcDbScale
 70
     0
300
1:8
140
1.0
141
8.0
290
     0
  0
SCALE
  5
4D
102
{ACAD_REACTORS
330
47
102
}
330
47
100
AcDbScale
 70
     0
300
1:10
140
1.0
141
10.0
290
     0
  0
SCALE
  5
4E
102
{ACAD_REACTORS
330
47
102
}
330
47
100
AcDbScale
 70
     0
300
1:16
140
1.0
141
16.0
290
     0
  0
SCALE
  5
4F
102
{ACAD_REACTORS
330
47
102
}
330
47
100
AcDbScale
 70
     0
300
1:20
140
1.0
141
20.0
290
     0
  0
SCALE
  5
50
102
{ACAD_REACTORS
330
47
102
}
330
47
100
AcDbScale
 70
     0
300
1:30
140
1.0
141
30.0
290
     0
  0
SCALE
  5
51
102
{ACAD_REACTORS
330
47
102
}
330
47
100
AcDbScale
 70
     0
300
1:40
140
1.0
141
40.0
290
     0
  0
SCALE
  5
52
102
{ACAD_REACTORS
330
47
102
}
330
47
100
AcDbScale
 70
     0
300
1:50
140
1.0
141
50.0
290
     0
  0
SCALE
  5
53
102
{ACAD_REACTORS
330
47
102
}
330
47
100
AcDbScale
 70
     0
300
1:100
140
1.0
141
100.0
290
     0
  0
SCALE
  5
54
102
{ACAD_REACTORS
330
47
102
}
330
47
100
AcDbScale
 70
     0
300
2:1
140
2.0
141
1.0
290
     0
  0
SCALE
  5
55
102
{ACAD_REACTORS
330
47
102
}
330
47
100
AcDbScale
 70
     0
300
4:1
140
4.0
141
1.0
290
     0
  0
SCALE
  5
56
102
{ACAD_REACTORS
330
47
102
}
330
47
100
AcDbScale
 70
     0
300
8:1
140
8.0
141
1.0
290
     0
  0
SCALE
  5
57
102
{ACAD_REACTORS
330
47
102
}
330
47
100
AcDbScale
 70
     0
300
10:1
140
10.0
141
1.0
290
     0
  0
SCALE
  5
58
102
{ACAD_REACTORS
330
47
102
}
330
47
100
AcDbScale
 70
     0
300
100:1
140
100.0
141
1.0
290
     0
  0
SCALE
  5
59
102
{ACAD_REACTORS
330
47
102
}
330
47
100
AcDbScale
 70
     0
300
1/128" = 1'-0"
140
0.0078125
141
12.0
290
     0
  0
SCALE
  5
5A
102
{ACAD_REACTORS
330
47
102
}
330
47
100
AcDbScale
 70
     0
300
1/64" = 1'-0"
140
0.015625
141
12.0
290
     0
  0
SCALE
  5
5B
102
{ACAD_REACTORS
330
47
102
}
330
47
100
AcDbScale
 70
     0
300
1/32" = 1'-0"
140
0.03125
141
12.0
290
     0
  0
SCALE
  5
5C
102
{ACAD_REACTORS
330
47
102
}
330
47
100
AcDbScale
 70
     0
300
1/16" = 1'-0"
140
0.0625
141
12.0
290
     0
  0
SCALE
  5
5D
102
{ACAD_REACTORS
330
47
102
}
330
47
100
AcDbScale
 70
     0
300
3/32" = 1'-0"
140
0.09375
141
12.0
290
     0
  0
SCALE
  5
5E
102
{ACAD_REACTORS
330
47
102
}
330
47
100
AcDbScale
 70
     0
300
1/8" = 1'-0"
140
0.125
141
12.0
290
     0
  0
SCALE
  5
5F
102
{ACAD_REACTORS
330
47
102
}
330
47
100
AcDbScale
 70
     0
300
3/16" = 1'-0"
140
0.1875
141
12.0
290
     0
  0
SCALE
  5
60
102
{ACAD_REACTORS
330
47
102
}
330
47
100
AcDbScale
 70
     0
300
1/4" = 1'-0"
140
0.25
141
12.0
290
     0
  0
SCALE
  5
61
102
{ACAD_REACTORS
330
47
102
}
330
47
100
AcDbScale
 70
     0
300
3/8" = 1'-0"
140
0.375
141
12.0
290
     0
  0
SCALE
  5
62
102
{ACAD_REACTORS
330
47
102
}
330
47
100
AcDbScale
 70
     0
300
1/2" = 1'-0"
140
0.5
141
12.0
290
     0
  0
SCALE
  5
63
102
{ACAD_REACTORS
330
47
102
}
330
47
100
AcDbScale
 70
     0
300
3/4" = 1'-0"
140
0.75
141
12.0
290
     0
  0
SCALE
  5
64
102
{ACAD_REACTORS
330
47
102
}
330
47
100
AcDbScale
 70
     0
300
1" = 1'-0"
140
1.0
141
12.0
290
     0
  0
SCALE
  5
65
102
{ACAD_REACTORS
330
47
102
}
330
47
100
AcDbScale
 70
     0
300
1-1/2" = 1'-0"
140
1.5
141
12.0
290
     0
  0
SCALE
  5
66
102
{ACAD_REACTORS
330
47
102
}
330
47
100
AcDbScale
 70
     0
300
3" = 1'-0"
140
3.0
141
12.0
290
     0
  0
SCALE
  5
67
102
{ACAD_REACTORS
330
47
102
}
330
47
100
AcDbScale
 70
     0
300
6" = 1'-0"
140
6.0
141
12.0
290
     0
  0
SCALE
  5
68
102
{ACAD_REACTORS
330
47
102
}
330
47
100
AcDbScale
 70
     0
300
1'-0" = 1'-0"
140
12.0
141
12.0
290
     0
  0
TABLESTYLE
  5
6A
102
{ACAD_REACTORS
330
69
102
}
102
{ACAD_XDICTIONARY
360
180
102
}
330
69
100
AcDbTableStyle
  3
Standard
 70
     0
 71
     0
 40
0.06
 41
0.06
280
     0
281
     0
  7
Standard
140
4.5
170
     2
 62
     0
 63
   257
283
     0
 90
        4
 91
        0
  1

274
    -2
284
     1
 64
     0
275
    -2
285
     1
 65
     0
276
    -2
286
     1
 66
     0
277
    -2
287
     1
 67
     0
278
    -2
288
     1
 68
     0
279
    -2
289
     1
 69
     0
  7
Standard
140
6.0
170
     5
 62
     0
 63
   257
283
     0
 90
        4
 91
        0
  1

274
    -2
284
     1
 64
     0
275
    -2
285
     1
 65
     0
276
    -2
286
     1
 66
     0
277
    -2
287
     1
 67
     0
278
    -2
288
     1
 68
     0
279
    -2
289
     1
 69
     0
  7
Standard
140
4.5
170
     5
 62
     0
 63
   257
283
     0
 90
        4
 91
        0
  1

274
    -2
284
     1
 64
     0
275
    -2
285
     1
 65
     0
276
    -2
286
     1
 66
     0
277
    -2
287
     1
 67
     0
278
    -2
288
     1
 68
     0
279
    -2
289
     1
 69
     0
  0
VISUALSTYLE
  5
2F
102
{ACAD_REACTORS
330
2A
102
}
330
2A
100
AcDbVisualStyle
  2
2dWireframe
 70
     4
177
     3
291
     0
 70
    58
 90
        0
176
     1
 90
        2
176
     1
 90
        0
176
     1
 90
        0
176
     1
 40
0.6
176
     1
 40
30.0
176
     1
 62
     7
420
 16777215
176
     1
 90
        1
176
     1
 90
        4
176
     1
 62
     7
176
     1
 62
   257
176
     1
 90
        1
176
     1
 90
        1
176
     1
 40
1.0
176
     1
 90
        0
176
     1
 62
   257
176
     1
 40
1.0
176
     1
 90
        1
176
     1
 90
        6
176
     1
 90
        2
176
     1
 62
     7
176
     1
 90
        5
176
     1
 90
        0
176
     1
 90
        0
176
     1
290
     0
176
     1
 90
        1
176
     1
 40
0.0
176
     1
 90
        0
176
     1
290
     1
176
     1
290
     1
176
     1
290
     0
176
     1
290
     0
176
     1
290
     0
176
     1
290
     0
176
     1
290
     0
176
     1
290
     0
176
     1
290
     0
176
     1
 90
       50
176
     1
 40
0.0
176
     1
 40
1.0
176
     1
 90
        0
176
     1
 62
    18
420
        0
176
     1
 90
       50
176
     1
 90
        3
176
     1
 62
     5
420
      255
176
     1
290
     0
176
     1
 90
       50
176
     1
 90
       50
176
     1
 90
       50
176
     1
290
     0
176
     1
 90
       50
176
     1
 62
   256
176
     0
 40
1.0
176
     0
 90
        2
176
     1
  1
strokes_ogs.tif
176
     1
290
     0
176
     1
 40
1.0
176
     1
 40
1.0
176
     1
  0
VISUALSTYLE
  5
32
102
{ACAD_REACTORS
330
2A
102
}
330
2A
100
AcDbVisualStyle
  2
Basic
 70
     7
177
     3
291
     1
 70
    58
 90
        1
176
     1
 90
        0
176
     1
 90
        1
176
     1
 90
        0
176
     1
 40
0.6
176
     1
 40
30.0
176
     1
 62
     7
420
 16777215
176
     1
 90
        0
176
     1
 90
        4
176
     1
 62
     7
176
     1
 62
   257
176
     1
 90
        1
176
     1
 90
        1
176
     1
 40
1.0
176
     1
 90
        8
176
     1
 62
     7
176
     1
 40
1.0
176
     1
 90
        1
176
     1
 90
        6
176
     1
 90
        2
176
     1
 62
     7
176
     1
 90
        5
176
     1
 90
        0
176
     1
 90
        0
176
     1
290
     0
176
     1
 90
        1
176
     1
 40
0.0
176
     1
 90
        0
176
     1
290
     0
176
     1
290
     1
176
     1
290
     1
176
     1
290
     0
176
     1
290
     0
176
     1
290
     0
176
     1
290
     0
176
     1
290
     0
176
     1
290
     0
176
     1
 90
       50
176
     1
 40
0.0
176
     1
 40
1.0
176
     1
 90
        0
176
     1
 62
    18
420
        0
176
     1
 90
       50
176
     1
 90
        3
176
     1
 62
     5
420
      255
176
     1
290
     0
176
     1
 90
       50
176
     1
 90
       50
176
     1
 90
       50
176
     1
290
     0
176
     1
 90
       50
176
     1
 62
   256
176
     0
 40
1.0
176
     0
 90
        2
176
     1
  1
strokes_ogs.tif
176
     1
290
     0
176
     1
 40
1.0
176
     1
 40
1.0
176
     1
  0
VISUALSTYLE
  5
36
102
{ACAD_REACTORS
330
2A
102
}
330
2A
100
AcDbVisualStyle
  2
Brighten
 70
    12
177
     3
291
     1
 70
    58
 90
        2
176
     1
 90
        2
176
     1
 90
        0
176
     1
 90
        0
176
     1
 40
0.6
176
     1
 40
30.0
176
     1
 62
     7
420
 16777215
176
     1
 90
        1
176
     1
 90
        4
176
     1
 62
     7
176
     1
 62
   257
176
     1
 90
        1
176
     1
 90
        1
176
     1
 40
1.0
176
     1
 90
        8
176
     1
 62
     7
176
     1
 40
1.0
176
     1
 90
        1
176
     1
 90
        6
176
     1
 90
        2
176
     1
 62
     7
176
     1
 90
        5
176
     1
 90
        0
176
     1
 90
        0
176
     1
290
     0
176
     1
 90
        1
176
     1
 40
50.0
176
     1
 90
        0
176
     1
290
     0
176
     1
290
     1
176
     1
290
     1
176
     1
290
     0
176
     1
290
     0
176
     1
290
     0
176
     1
290
     0
176
     1
290
     0
176
     1
290
     0
176
     1
 90
       50
176
     1
 40
0.0
176
     1
 40
1.0
176
     1
 90
        0
176
     1
 62
    18
420
        0
176
     1
 90
       50
176
     1
 90
        3
176
     1
 62
     5
420
      255
176
     1
290
     0
176
     1
 90
       50
176
     1
 90
       50
176
     1
 90
       50
176
     1
290
     0
176
     1
 90
       50
176
     1
 62
   256
176
     0
 40
1.0
176
     0
 90
        2
176
     1
  1
strokes_ogs.tif
176
     1
290
     0
176
     1
 40
1.0
176
     1
 40
1.0
176
     1
  0
VISUALSTYLE
  5
3A
102
{ACAD_REACTORS
330
2A
102
}
330
2A
100
AcDbVisualStyle
  2
ColorChange
 70
    16
177
     3
291
     1
 70
    58
 90
        2
176
     1
 90
        2
176
     1
 90
        3
176
     1
 90
        0
176
     1
 40
0.6
176
     1
 40
30.0
176
     1
 62
     8
420
  8421504
176
     1
 90
        1
176
     1
 90
        4
176
     1
 62
     7
176
     1
 62
   257
176
     1
 90
        1
176
     1
 90
        1
176
     1
 40
1.0
176
     1
 90
        8
176
     1
 62
     8
420
  8421504
176
     1
 40
1.0
176
     1
 90
        1
176
     1
 90
        6
176
     1
 90
        2
176
     1
 62
     7
176
     1
 90
        5
176
     1
 90
        0
176
     1
 90
        0
176
     1
290
     0
176
     1
 90
        1
176
     1
 40
0.0
176
     1
 90
        0
176
     1
290
     0
176
     1
290
     1
176
     1
290
     1
176
     1
290
     0
176
     1
290
     0
176
     1
290
     0
176
     1
290
     0
176
     1
290
     0
176
     1
290
     0
176
     1
 90
       50
176
     1
 40
0.0
176
     1
 40
1.0
176
     1
 90
        0
176
     1
 62
    18
420
        0
176
     1
 90
       50
176
     1
 90
        3
176
     1
 62
     5
420
      255
176
     1
290
     0
176
     1
 90
       50
176
     1
 90
       50
176
     1
 90
       50
176
     1
290
     0
176
     1
 90
       50
176
     1
 62
   256
176
     0
 40
1.0
176
     0
 90
        2
176
     1
  1
strokes_ogs.tif
176
     1
290
     0
176
     1
 40
1.0
176
     1
 40
1.0
176
     1
  0
VISUALSTYLE
  5
34
102
{ACAD_REACTORS
330
2A
102
}
330
2A
100
AcDbVisualStyle
  2
Conceptual
 70
     9
177
     3
291
     0
 70
    58
 90
        3
176
     1
 90
        2
176
     1
 90
        0
176
     1
 90
        0
176
     1
 40
0.6
176
     1
 40
30.0
176
     1
 62
     7
420
 16777215
176
     1
 90
        2
176
     1
 90
        2
176
     1
 62
     7
176
     1
 62
   257
176
     1
 90
        1
176
     1
 90
        1
176
     1
 40
179.0
176
     1
 90
        8
176
     1
 62
     7
176
     1
 40
1.0
176
     1
 90
        1
176
     1
 90
        6
176
     1
 90
        2
176
     1
 62
     7
176
     1
 90
        3
176
     1
 90
        0
176
     1
 90
        0
176
     1
290
     0
176
     1
 90
        1
176
     1
 40
0.0
176
     1
 90
        0
176
     1
290
     0
176
     1
290
     1
176
     1
290
     1
176
     1
290
     0
176
     1
290
     0
176
     1
290
     0
176
     1
290
     0
176
     1
290
     0
176
     1
290
     0
176
     1
 90
       50
176
     1
 40
0.0
176
     1
 40
1.0
176
     1
 90
        0
176
     1
 62
    18
420
        0
176
     1
 90
       50
176
     1
 90
        3
176
     1
 62
     5
420
      255
176
     1
290
     0
176
     1
 90
       50
176
     1
 90
       50
176
     1
 90
       50
176
     1
290
     0
176
     1
 90
       50
176
     1
 62
   256
176
     0
 40
1.0
176
     0
 90
        2
176
     1
  1
strokes_ogs.tif
176
     1
290
     0
176
     1
 40
1.0
176
     1
 40
1.0
176
     1
  0
VISUALSTYLE
  5
35
102
{ACAD_REACTORS
330
2A
102
}
330
2A
100
AcDbVisualStyle
  2
Dim
 70
    11
177
     3
291
     1
 70
    58
 90
        2
176
     1
 90
        2
176
     1
 90
        0
176
     1
 90
        0
176
     1
 40
0.6
176
     1
 40
30.0
176
     1
 62
     7
420
 16777215
176
     1
 90
        1
176
     1
 90
        4
176
     1
 62
     7
176
     1
 62
   257
176
     1
 90
        1
176
     1
 90
        1
176
     1
 40
1.0
176
     1
 90
        8
176
     1
 62
     7
176
     1
 40
1.0
176
     1
 90
        1
176
     1
 90
        6
176
     1
 90
        2
176
     1
 62
     7
176
     1
 90
        5
176
     1
 90
        0
176
     1
 90
        0
176
     1
290
     0
176
     1
 90
        1
176
     1
 40
-50.0
176
     1
 90
        0
176
     1
290
     0
176
     1
290
     1
176
     1
290
     1
176
     1
290
     0
176
     1
290
     0
176
     1
290
     0
176
     1
290
     0
176
     1
290
     0
176
     1
290
     0
176
     1
 90
       50
176
     1
 40
0.0
176
     1
 40
1.0
176
     1
 90
        0
176
     1
 62
    18
420
        0
176
     1
 90
       50
176
     1
 90
        3
176
     1
 62
     5
420
      255
176
     1
290
     0
176
     1
 90
       50
176
     1
 90
       50
176
     1
 90
       50
176
     1
290
     0
176
     1
 90
       50
176
     1
 62
   256
176
     0
 40
1.0
176
     0
 90
        2
176
     1
  1
strokes_ogs.tif
176
     1
290
     0
176
     1
 40
1.0
176
     1
 40
1.0
176
     1
  0
VISUALSTYLE
  5
3D
102
{ACAD_REACTORS
330
2A
102
}
330
2A
100
AcDbVisualStyle
  2
EdgeColorOff
 70
    22
177
     3
291
     1
 70
    58
 90
        2
176
     0
 90
        2
176
     0
 90
        0
176
     0
 90
        0
176
     0
 40
0.6
176
     0
 40
30.0
176
     0
 62
     7
420
 16777215
176
     0
 90
        1
176
     0
 90
        4
176
     0
 62
     7
176
     0
 62
   257
176
     0
 90
        1
176
     0
 90
        1
176
     0
 40
1.0
176
     0
 90
        8
176
     2
 62
     7
176
     0
 40
1.0
176
     0
 90
        1
176
     0
 90
        6
176
     0
 90
        2
176
     0
 62
     7
176
     0
 90
        5
176
     0
 90
        0
176
     0
 90
        0
176
     0
290
     0
176
     0
 90
        1
176
     0
 40
0.0
176
     0
 90
        0
176
     0
290
     0
176
     0
290
     1
176
     0
290
     1
176
     0
290
     0
176
     0
290
     0
176
     0
290
     0
176
     0
290
     0
176
     0
290
     0
176
     0
290
     0
176
     0
 90
       50
176
     0
 40
0.0
176
     0
 40
1.0
176
     0
 90
        0
176
     0
 62
    18
420
        0
176
     0
 90
       50
176
     0
 90
        3
176
     0
 62
     5
420
      255
176
     0
290
     0
176
     0
 90
       50
176
     0
 90
       50
176
     0
 90
       50
176
     0
290
     0
176
     0
 90
       50
176
     0
 62
   256
176
     0
 40
1.0
176
     0
 90
        2
176
     0
  1
strokes_ogs.tif
176
     0
290
     0
176
     0
 40
1.0
176
     0
 40
1.0
176
     0
  0
VISUALSTYLE
  5
39
102
{ACAD_REACTORS
330
2A
102
}
330
2A
100
AcDbVisualStyle
  2
Facepattern
 70
    15
177
     3
291
     1
 70
    58
 90
        2
176
     1
 90
        2
176
     1
 90
        0
176
     1
 90
        0
176
     1
 40
0.6
176
     1
 40
30.0
176
     1
 62
     7
420
 16777215
176
     1
 90
        1
176
     1
 90
        4
176
     1
 62
     7
176
     1
 62
   257
176
     1
 90
        1
176
     1
 90
        1
176
     1
 40
1.0
176
     1
 90
        8
176
     1
 62
     7
176
     1
 40
1.0
176
     1
 90
        1
176
     1
 90
        6
176
     1
 90
        2
176
     1
 62
     7
176
     1
 90
        5
176
     1
 90
        0
176
     1
 90
        0
176
     1
290
     0
176
     1
 90
        1
176
     1
 40
0.0
176
     1
 90
        0
176
     1
290
     0
176
     1
290
     1
176
     1
290
     1
176
     1
290
     0
176
     1
290
     0
176
     1
290
     0
176
     1
290
     0
176
     1
290
     0
176
     1
290
     0
176
     1
 90
       50
176
     1
 40
0.0
176
     1
 40
1.0
176
     1
 90
        0
176
     1
 62
    18
420
        0
176
     1
 90
       50
176
     1
 90
        3
176
     1
 62
     5
420
      255
176
     1
290
     0
176
     1
 90
       50
176
     1
 90
       50
176
     1
 90
       50
176
     1
290
     0
176
     1
 90
       50
176
     1
 62
   256
176
     0
 40
1.0
176
     0
 90
        2
176
     1
  1
strokes_ogs.tif
176
     1
290
     0
176
     1
 40
1.0
176
     1
 40
1.0
176
     1
  0
VISUALSTYLE
  5
2B
102
{ACAD_REACTORS
330
2A
102
}
330
2A
100
AcDbVisualStyle
  2
Flat
 70
     0
177
     3
291
     1
 70
    58
 90
        2
176
     1
 90
        1
176
     1
 90
        1
176
     1
 90
        2
176
     1
 40
0.6
176
     1
 40
30.0
176
     1
 62
     7
420
 16777215
176
     1
 90
        0
176
     1
 90
        0
176
     1
 62
     7
176
     1
 62
   257
176
     1
 90
        1
176
     1
 90
        1
176
     1
 40
1.0
176
     1
 90
        8
176
     1
 62
     7
176
     1
 40
1.0
176
     1
 90
        1
176
     1
 90
        6
176
     1
 90
        2
176
     1
 62
     7
176
     1
 90
        5
176
     1
 90
        0
176
     1
 90
        0
176
     1
290
     0
176
     1
 90
       13
176
     1
 40
0.0
176
     1
 90
        0
176
     1
290
     0
176
     1
290
     1
176
     1
290
     1
176
     1
290
     0
176
     1
290
     0
176
     1
290
     0
176
     1
290
     0
176
     1
290
     0
176
     1
290
     0
176
     1
 90
       50
176
     1
 40
0.0
176
     1
 40
1.0
176
     1
 90
        0
176
     1
 62
    18
420
        0
176
     1
 90
       50
176
     1
 90
        3
176
     1
 62
     5
420
      255
176
     1
290
     0
176
     1
 90
       50
176
     1
 90
       50
176
     1
 90
       50
176
     1
290
     0
176
     1
 90
       50
176
     1
 62
   256
176
     0
 40
1.0
176
     0
 90
        2
176
     1
  1
strokes_ogs.tif
176
     1
290
     0
176
     1
 40
1.0
176
     1
 40
1.0
176
     1
  0
VISUALSTYLE
  5
2C
102
{ACAD_REACTORS
330
2A
102
}
330
2A
100
AcDbVisualStyle
  2
FlatWithEdges
 70
     1
177
     3
291
     1
 70
    58
 90
        2
176
     1
 90
        1
176
     1
 90
        1
176
     1
 90
        2
176
     1
 40
0.6
176
     1
 40
30.0
176
     1
 62
     7
420
 16777215
176
     1
 90
        1
176
     1
 90
        0
176
     1
 62
     7
176
     1
 62
   257
176
     1
 90
        1
176
     1
 90
        1
176
     1
 40
1.0
176
     1
 90
        0
176
     1
 62
   257
176
     1
 40
1.0
176
     1
 90
        1
176
     1
 90
        6
176
     1
 90
        2
176
     1
 62
     7
176
     1
 90
        5
176
     1
 90
        0
176
     1
 90
        0
176
     1
290
     0
176
     1
 90
       13
176
     1
 40
0.0
176
     1
 90
        0
176
     1
290
     0
176
     1
290
     1
176
     1
290
     1
176
     1
290
     0
176
     1
290
     0
176
     1
290
     0
176
     1
290
     0
176
     1
290
     0
176
     1
290
     0
176
     1
 90
       50
176
     1
 40
0.0
176
     1
 40
1.0
176
     1
 90
        0
176
     1
 62
    18
420
        0
176
     1
 90
       50
176
     1
 90
        3
176
     1
 62
     5
420
      255
176
     1
290
     0
176
     1
 90
       50
176
     1
 90
       50
176
     1
 90
       50
176
     1
290
     0
176
     1
 90
       50
176
     1
 62
   256
176
     0
 40
1.0
176
     0
 90
        2
176
     1
  1
strokes_ogs.tif
176
     1
290
     0
176
     1
 40
1.0
176
     1
 40
1.0
176
     1
  0
VISUALSTYLE
  5
2D
102
{ACAD_REACTORS
330
2A
102
}
330
2A
100
AcDbVisualStyle
  2
Gouraud
 70
     2
177
     3
291
     1
 70
    58
 90
        2
176
     1
 90
        2
176
     1
 90
        1
176
     1
 90
        2
176
     1
 40
0.6
176
     1
 40
30.0
176
     1
 62
     7
420
 16777215
176
     1
 90
        0
176
     1
 90
        0
176
     1
 62
     7
176
     1
 62
   257
176
     1
 90
        1
176
     1
 90
        1
176
     1
 40
1.0
176
     1
 90
        0
176
     1
 62
     7
176
     1
 40
1.0
176
     1
 90
        1
176
     1
 90
        6
176
     1
 90
        2
176
     1
 62
     7
176
     1
 90
        5
176
     1
 90
        0
176
     1
 90
        0
176
     1
290
     0
176
     1
 90
       13
176
     1
 40
0.0
176
     1
 90
        0
176
     1
290
     0
176
     1
290
     1
176
     1
290
     1
176
     1
290
     0
176
     1
290
     0
176
     1
290
     0
176
     1
290
     0
176
     1
290
     0
176
     1
290
     0
176
     1
 90
       50
176
     1
 40
0.0
176
     1
 40
1.0
176
     1
 90
        0
176
     1
 62
    18
420
        0
176
     1
 90
       50
176
     1
 90
        3
176
     1
 62
     5
420
      255
176
     1
290
     0
176
     1
 90
       50
176
     1
 90
       50
176
     1
 90
       50
176
     1
290
     0
176
     1
 90
       50
176
     1
 62
   256
176
     0
 40
1.0
176
     0
 90
        2
176
     1
  1
strokes_ogs.tif
176
     1
290
     0
176
     1
 40
1.0
176
     1
 40
1.0
176
     1
  0
VISUALSTYLE
  5
2E
102
{ACAD_REACTORS
330
2A
102
}
330
2A
100
AcDbVisualStyle
  2
GouraudWithEdges
 70
     3
177
     3
291
     1
 70
    58
 90
        2
176
     1
 90
        2
176
     1
 90
        1
176
     1
 90
        2
176
     1
 40
0.6
176
     1
 40
30.0
176
     1
 62
     7
420
 16777215
176
     1
 90
        1
176
     1
 90
        0
176
     1
 62
     7
176
     1
 62
   257
176
     1
 90
        1
176
     1
 90
        1
176
     1
 40
1.0
176
     1
 90
        0
176
     1
 62
   257
176
     1
 40
1.0
176
     1
 90
        1
176
     1
 90
        6
176
     1
 90
        2
176
     1
 62
     7
176
     1
 90
        5
176
     1
 90
        0
176
     1
 90
        0
176
     1
290
     0
176
     1
 90
       13
176
     1
 40
0.0
176
     1
 90
        0
176
     1
290
     0
176
     1
290
     1
176
     1
290
     1
176
     1
290
     0
176
     1
290
     0
176
     1
290
     0
176
     1
290
     0
176
     1
290
     0
176
     1
290
     0
176
     1
 90
       50
176
     1
 40
0.0
176
     1
 40
1.0
176
     1
 90
        0
176
     1
 62
    18
420
        0
176
     1
 90
       50
176
     1
 90
        3
176
     1
 62
     5
420
      255
176
     1
290
     0
176
     1
 90
       50
176
     1
 90
       50
176
     1
 90
       50
176
     1
290
     0
176
     1
 90
       50
176
     1
 62
   256
176
     0
 40
1.0
176
     0
 90
        2
176
     1
  1
strokes_ogs.tif
176
     1
290
     0
176
     1
 40
1.0
176
     1
 40
1.0
176
     1
  0
VISUALSTYLE
  5
31
102
{ACAD_REACTORS
330
2A
102
}
330
2A
100
AcDbVisualStyle
  2
Hidden
 70
     6
177
     3
291
     0
 70
    58
 90
        1
176
     1
 90
        2
176
     1
 90
        2
176
     1
 90
        0
176
     1
 40
0.6
176
     1
 40
30.0
176
     1
 62
     7
420
 16777215
176
     1
 90
        2
176
     1
 90
        2
176
     1
 62
     7
176
     1
 62
   257
176
     1
 90
        2
176
     1
 90
        1
176
     1
 40
40.0
176
     1
 90
        0
176
     1
 62
   257
176
     1
 40
1.0
176
     1
 90
        1
176
     1
 90
        6
176
     1
 90
        2
176
     1
 62
     7
176
     1
 90
        3
176
     1
 90
        0
176
     1
 90
        0
176
     1
290
     0
176
     1
 90
        1
176
     1
 40
0.0
176
     1
 90
        0
176
     1
290
     0
176
     1
290
     1
176
     1
290
     1
176
     1
290
     0
176
     1
290
     0
176
     1
290
     0
176
     1
290
     0
176
     1
290
     0
176
     1
290
     0
176
     1
 90
       50
176
     1
 40
0.0
176
     1
 40
1.0
176
     1
 90
        0
176
     1
 62
    18
420
        0
176
     1
 90
       50
176
     1
 90
        3
176
     1
 62
     5
420
      255
176
     1
290
     0
176
     1
 90
       50
176
     1
 90
       50
176
     1
 90
       50
176
     1
290
     0
176
     1
 90
       50
176
     1
 62
   256
176
     0
 40
1.0
176
     0
 90
        2
176
     1
  1
strokes_ogs.tif
176
     1
290
     0
176
     1
 40
1.0
176
     1
 40
1.0
176
     1
  0
VISUALSTYLE
  5
3B
102
{ACAD_REACTORS
330
2A
102
}
330
2A
100
AcDbVisualStyle
  2
JitterOff
 70
    20
177
     3
291
     1
 70
    58
 90
        2
176
     0
 90
        2
176
     0
 90
        0
176
     0
 90
        0
176
     0
 40
0.6
176
     0
 40
30.0
176
     0
 62
     7
420
 16777215
176
     0
 90
        1
176
     0
 90
        4
176
     0
 62
     7
176
     0
 62
   257
176
     0
 90
        1
176
     0
 90
        1
176
     0
 40
1.0
176
     0
 90
       10
176
     2
 62
     7
176
     0
 40
1.0
176
     0
 90
        1
176
     0
 90
        6
176
     0
 90
        2
176
     0
 62
     7
176
     0
 90
        5
176
     0
 90
        0
176
     0
 90
        0
176
     0
290
     0
176
     0
 90
        1
176
     0
 40
0.0
176
     0
 90
        0
176
     0
290
     0
176
     0
290
     1
176
     0
290
     1
176
     0
290
     0
176
     0
290
     0
176
     0
290
     0
176
     0
290
     0
176
     0
290
     0
176
     0
290
     0
176
     0
 90
       50
176
     0
 40
0.0
176
     0
 40
1.0
176
     0
 90
        0
176
     0
 62
    18
420
        0
176
     0
 90
       50
176
     0
 90
        3
176
     0
 62
     5
420
      255
176
     0
290
     0
176
     0
 90
       50
176
     0
 90
       50
176
     0
 90
       50
176
     0
290
     0
176
     0
 90
       50
176
     0
 62
   256
176
     0
 40
1.0
176
     0
 90
        2
176
     0
  1
strokes_ogs.tif
176
     0
290
     0
176
     0
 40
1.0
176
     0
 40
1.0
176
     0
  0
VISUALSTYLE
  5
38
102
{ACAD_REACTORS
330
2A
102
}
330
2A
100
AcDbVisualStyle
  2
Linepattern
 70
    14
177
     3
291
     1
 70
    58
 90
        2
176
     1
 90
        2
176
     1
 90
        0
176
     1
 90
        0
176
     1
 40
0.6
176
     1
 40
30.0
176
     1
 62
     7
420
 16777215
176
     1
 90
        1
176
     1
 90
        4
176
     1
 62
     7
176
     1
 62
   257
176
     1
 90
        7
176
     1
 90
        7
176
     1
 40
1.0
176
     1
 90
        8
176
     1
 62
     7
176
     1
 40
1.0
176
     1
 90
        1
176
     1
 90
        6
176
     1
 90
        2
176
     1
 62
     7
176
     1
 90
        5
176
     1
 90
        0
176
     1
 90
        0
176
     1
290
     0
176
     1
 90
        1
176
     1
 40
0.0
176
     1
 90
        0
176
     1
290
     0
176
     1
290
     1
176
     1
290
     1
176
     1
290
     0
176
     1
290
     0
176
     1
290
     0
176
     1
290
     0
176
     1
290
     0
176
     1
290
     0
176
     1
 90
       50
176
     1
 40
0.0
176
     1
 40
1.0
176
     1
 90
        0
176
     1
 62
    18
420
        0
176
     1
 90
       50
176
     1
 90
        3
176
     1
 62
     5
420
      255
176
     1
290
     0
176
     1
 90
       50
176
     1
 90
       50
176
     1
 90
       50
176
     1
290
     0
176
     1
 90
       50
176
     1
 62
   256
176
     0
 40
1.0
176
     0
 90
        2
176
     1
  1
strokes_ogs.tif
176
     1
290
     0
176
     1
 40
1.0
176
     1
 40
1.0
176
     1
  0
VISUALSTYLE
  5
3C
102
{ACAD_REACTORS
330
2A
102
}
330
2A
100
AcDbVisualStyle
  2
OverhangOff
 70
    21
177
     3
291
     1
 70
    58
 90
        2
176
     0
 90
        2
176
     0
 90
        0
176
     0
 90
        0
176
     0
 40
0.6
176
     0
 40
30.0
176
     0
 62
     7
420
 16777215
176
     0
 90
        1
176
     0
 90
        4
176
     0
 62
     7
176
     0
 62
   257
176
     0
 90
        1
176
     0
 90
        1
176
     0
 40
1.0
176
     0
 90
        9
176
     2
 62
     7
176
     0
 40
1.0
176
     0
 90
        1
176
     0
 90
        6
176
     0
 90
        2
176
     0
 62
     7
176
     0
 90
        5
176
     0
 90
        0
176
     0
 90
        0
176
     0
290
     0
176
     0
 90
        1
176
     0
 40
0.0
176
     0
 90
        0
176
     0
290
     0
176
     0
290
     1
176
     0
290
     1
176
     0
290
     0
176
     0
290
     0
176
     0
290
     0
176
     0
290
     0
176
     0
290
     0
176
     0
290
     0
176
     0
 90
       50
176
     0
 40
0.0
176
     0
 40
1.0
176
     0
 90
        0
176
     0
 62
    18
420
        0
176
     0
 90
       50
176
     0
 90
        3
176
     0
 62
     5
420
      255
176
     0
290
     0
176
     0
 90
       50
176
     0
 90
       50
176
     0
 90
       50
176
     0
290
     0
176
     0
 90
       50
176
     0
 62
   256
176
     0
 40
1.0
176
     0
 90
        2
176
     0
  1
strokes_ogs.tif
176
     0
290
     0
176
     0
 40
1.0
176
     0
 40
1.0
176
     0
  0
VISUALSTYLE
  5
33
102
{ACAD_REACTORS
330
2A
102
}
330
2A
100
AcDbVisualStyle
  2
Realistic
 70
     8
177
     3
291
     0
 70
    58
 90
        2
176
     1
 90
        3
176
     1
 90
        0
176
     1
 90
        2
176
     1
 40
0.6
176
     1
 40
30.0
176
     1
 62
     7
420
 16777215
176
     1
 90
        0
176
     1
 90
        0
176
     1
 62
     7
176
     1
 62
   257
176
     1
 90
        1
176
     1
 90
        1
176
     1
 40
1.0
176
     1
 90
        8
176
     1
 62
   257
176
     1
 40
1.0
176
     1
 90
        1
176
     1
 90
        6
176
     1
 90
        2
176
     1
 62
     7
176
     1
 90
        3
176
     1
 90
        0
176
     1
 90
        0
176
     1
290
     0
176
     1
 90
       13
176
     1
 40
0.0
176
     1
 90
        0
176
     1
290
     0
176
     1
290
     1
176
     1
290
     1
176
     1
290
     0
176
     1
290
     0
176
     1
290
     0
176
     1
290
     0
176
     1
290
     0
176
     1
290
     0
176
     1
 90
       50
176
     1
 40
0.0
176
     1
 40
1.0
176
     1
 90
        0
176
     1
 62
    18
420
        0
176
     1
 90
       50
176
     1
 90
        3
176
     1
 62
     5
420
      255
176
     1
290
     0
176
     1
 90
       50
176
     1
 90
       50
176
     1
 90
       50
176
     1
290
     0
176
     1
 90
       50
176
     1
 62
   256
176
     0
 40
1.0
176
     0
 90
        2
176
     1
  1
strokes_ogs.tif
176
     1
290
     0
176
     1
 40
1.0
176
     1
 40
1.0
176
     1
  0
VISUALSTYLE
  5
42
102
{ACAD_REACTORS
330
2A
102
}
330
2A
100
AcDbVisualStyle
  2
Shaded
 70
    27
177
     3
291
     0
 70
    58
 90
        2
176
     1
 90
        2
176
     1
 90
        1
176
     1
 90
        2
176
     1
 40
0.6
176
     1
 40
30.0
176
     1
 62
     7
420
 16777215
176
     1
 90
        0
176
     1
 90
        4
176
     1
 62
     7
176
     1
 62
   257
176
     1
 90
        1
176
     1
 90
        1
176
     1
 40
1.0
176
     1
 90
        8
176
     1
 62
   257
176
     1
 40
1.0
176
     1
 90
        1
176
     1
 90
        6
176
     1
 90
        2
176
     1
 62
     8
420
  7895160
176
     1
 90
        3
176
     1
 90
        0
176
     1
 90
        0
176
     1
290
     0
176
     1
 90
        5
176
     1
 40
0.0
176
     1
 90
        0
176
     1
290
     0
176
     1
290
     1
176
     1
290
     1
176
     1
290
     0
176
     1
290
     0
176
     1
290
     0
176
     1
290
     0
176
     1
290
     0
176
     1
290
     0
176
     1
 90
       50
176
     1
 40
0.0
176
     1
 40
1.0
176
     1
 90
        0
176
     1
 62
    18
420
        0
176
     1
 90
       50
176
     1
 90
        3
176
     1
 62
     5
420
      255
176
     1
290
     0
176
     1
 90
       50
176
     1
 90
       50
176
     1
 90
       50
176
     1
290
     0
176
     1
 90
       50
176
     1
 62
   256
176
     0
 40
1.0
176
     0
 90
        2
176
     1
  1
strokes_ogs.tif
176
     1
290
     0
176
     1
 40
1.0
176
     1
 40
1.0
176
     1
  0
VISUALSTYLE
  5
41
102
{ACAD_REACTORS
330
2A
102
}
330
2A
100
AcDbVisualStyle
  2
Shaded with edges
 70
    26
177
     3
291
     0
 70
    58
 90
        2
176
     1
 90
        2
176
     1
 90
        1
176
     1
 90
        2
176
     1
 40
0.6
176
     1
 40
30.0
176
     1
 62
     7
420
 16777215
176
     1
 90
        1
176
     1
 90
       10
176
     1
 62
     7
176
     1
 62
   257
176
     1
 90
        2
176
     1
 90
        1
176
     1
 40
1.0
176
     1
 90
        8
176
     1
 62
   257
176
     1
 40
1.0
176
     1
 90
        1
176
     1
 90
        6
176
     1
 90
        2
176
     1
 62
     7
176
     1
 90
        3
176
     1
 90
        0
176
     1
 90
        0
176
     1
290
     0
176
     1
 90
        5
176
     1
 40
0.0
176
     1
 90
        0
176
     1
290
     0
176
     1
290
     1
176
     1
290
     1
176
     1
290
     0
176
     1
290
     0
176
     1
290
     0
176
     1
290
     0
176
     1
290
     0
176
     1
290
     0
176
     1
 90
       50
176
     1
 40
0.0
176
     1
 40
1.0
176
     1
 90
        0
176
     1
 62
    18
420
        0
176
     1
 90
       50
176
     1
 90
        3
176
     1
 62
     5
420
      255
176
     1
290
     0
176
     1
 90
       50
176
     1
 90
       50
176
     1
 90
       50
176
     1
290
     0
176
     1
 90
       50
176
     1
 62
   256
176
     0
 40
1.0
176
     0
 90
        2
176
     1
  1
strokes_ogs.tif
176
     1
290
     0
176
     1
 40
1.0
176
     1
 40
1.0
176
     1
  0
VISUALSTYLE
  5
3E
102
{ACAD_REACTORS
330
2A
102
}
330
2A
100
AcDbVisualStyle
  2
Shades of Gray
 70
    23
177
     3
291
     0
 70
    58
 90
        2
176
     1
 90
        2
176
     1
 90
        3
176
     1
 90
        0
176
     1
 40
0.6
176
     1
 40
30.0
176
     1
 62
     7
420
 16777215
176
     1
 90
        2
176
     1
 90
        2
176
     1
 62
     7
176
     1
 62
     7
176
     1
 90
        1
176
     1
 90
        1
176
     1
 40
40.0
176
     1
 90
        8
176
     1
 62
     7
176
     1
 40
1.0
176
     1
 90
        1
176
     1
 90
        6
176
     1
 90
        2
176
     1
 62
     7
176
     1
 90
        3
176
     1
 90
        0
176
     1
 90
        0
176
     1
290
     0
176
     1
 90
        1
176
     1
 40
0.0
176
     1
 90
        0
176
     1
290
     0
176
     1
290
     1
176
     1
290
     1
176
     1
290
     0
176
     1
290
     0
176
     1
290
     0
176
     1
290
     0
176
     1
290
     0
176
     1
290
     0
176
     1
 90
       50
176
     1
 40
0.0
176
     1
 40
1.0
176
     1
 90
        0
176
     1
 62
    18
420
        0
176
     1
 90
       50
176
     1
 90
        3
176
     1
 62
     5
420
      255
176
     1
290
     0
176
     1
 90
       50
176
     1
 90
       50
176
     1
 90
       50
176
     1
290
     0
176
     1
 90
       50
176
     1
 62
   256
176
     0
 40
1.0
176
     0
 90
        2
176
     1
  1
strokes_ogs.tif
176
     1
290
     0
176
     1
 40
1.0
176
     1
 40
1.0
176
     1
  0
VISUALSTYLE
  5
3F
102
{ACAD_REACTORS
330
2A
102
}
330
2A
100
AcDbVisualStyle
  2
Sketchy
 70
    24
177
     3
291
     0
 70
    58
 90
        1
176
     1
 90
        2
176
     1
 90
        2
176
     1
 90
        0
176
     1
 40
0.6
176
     1
 40
30.0
176
     1
 62
     7
420
 16777215
176
     1
 90
        2
176
     1
 90
        2
176
     1
 62
     7
176
     1
 62
     7
176
     1
 90
        1
176
     1
 90
        1
176
     1
 40
40.0
176
     1
 90
       11
176
     1
 62
     7
176
     1
 40
1.0
176
     1
 90
        1
176
     1
 90
        6
176
     1
 90
        2
176
     1
 62
     7
176
     1
 90
        6
176
     1
 90
        0
176
     1
 90
        0
176
     1
290
     0
176
     1
 90
        1
176
     1
 40
0.0
176
     1
 90
        0
176
     1
290
     0
176
     1
290
     1
176
     1
290
     1
176
     1
290
     0
176
     1
290
     0
176
     1
290
     0
176
     1
290
     0
176
     1
290
     0
176
     1
290
     0
176
     1
 90
       50
176
     1
 40
0.0
176
     1
 40
1.0
176
     1
 90
        0
176
     1
 62
    18
420
        0
176
     1
 90
       50
176
     1
 90
        3
176
     1
 62
     5
420
      255
176
     1
290
     0
176
     1
 90
       50
176
     1
 90
       50
176
     1
 90
       50
176
     1
290
     0
176
     1
 90
       50
176
     1
 62
   256
176
     0
 40
1.0
176
     0
 90
        2
176
     1
  1
strokes_ogs.tif
176
     1
290
     0
176
     1
 40
1.0
176
     1
 40
1.0
176
     1
  0
VISUALSTYLE
  5
37
102
{ACAD_REACTORS
330
2A
102
}
330
2A
100
AcDbVisualStyle
  2
Thicken
 70
    13
177
     3
291
     1
 70
    58
 90
        2
176
     1
 90
        2
176
     1
 90
        0
176
     1
 90
        0
176
     1
 40
0.6
176
     1
 40
30.0
176
     1
 62
     7
420
 16777215
176
     1
 90
        1
176
     1
 90
        4
176
     1
 62
     7
176
     1
 62
   257
176
     1
 90
        1
176
     1
 90
        1
176
     1
 40
1.0
176
     1
 90
       12
176
     1
 62
     7
176
     1
 40
1.0
176
     1
 90
        1
176
     1
 90
        6
176
     1
 90
        2
176
     1
 62
     7
176
     1
 90
        5
176
     1
 90
        0
176
     1
 90
        0
176
     1
290
     0
176
     1
 90
        1
176
     1
 40
0.0
176
     1
 90
        0
176
     1
290
     0
176
     1
290
     1
176
     1
290
     1
176
     1
290
     0
176
     1
290
     0
176
     1
290
     0
176
     1
290
     0
176
     1
290
     0
176
     1
290
     0
176
     1
 90
       50
176
     1
 40
0.0
176
     1
 40
1.0
176
     1
 90
        0
176
     1
 62
    18
420
        0
176
     1
 90
       50
176
     1
 90
        3
176
     1
 62
     5
420
      255
176
     1
290
     0
176
     1
 90
       50
176
     1
 90
       50
176
     1
 90
       50
176
     1
290
     0
176
     1
 90
       50
176
     1
 62
   256
176
     0
 40
1.0
176
     0
 90
        2
176
     1
  1
strokes_ogs.tif
176
     1
290
     0
176
     1
 40
1.0
176
     1
 40
1.0
176
     1
  0
VISUALSTYLE
  5
30
102
{ACAD_REACTORS
330
2A
102
}
330
2A
100
AcDbVisualStyle
  2
Wireframe
 70
     5
177
     3
291
     0
 70
    58
 90
        0
176
     1
 90
        2
176
     1
 90
        0
176
     1
 90
        0
176
     1
 40
0.6
176
     1
 40
30.0
176
     1
 62
     7
420
 16777215
176
     1
 90
        1
176
     1
 90
        4
176
     1
 62
     7
176
     1
 62
   257
176
     1
 90
        1
176
     1
 90
        1
176
     1
 40
1.0
176
     1
 90
        0
176
     1
 62
   257
176
     1
 40
1.0
176
     1
 90
        1
176
     1
 90
        6
176
     1
 90
        2
176
     1
 62
     7
176
     1
 90
        3
176
     1
 90
        0
176
     1
 90
        0
176
     1
290
     0
176
     1
 90
        1
176
     1
 40
0.0
176
     1
 90
        0
176
     1
290
     0
176
     1
290
     1
176
     1
290
     1
176
     1
290
     0
176
     1
290
     0
176
     1
290
     0
176
     1
290
     0
176
     1
290
     0
176
     1
290
     0
176
     1
 90
       50
176
     1
 40
0.0
176
     1
 40
1.0
176
     1
 90
        0
176
     1
 62
    18
420
        0
176
     1
 90
       50
176
     1
 90
        3
176
     1
 62
     5
420
      255
176
     1
290
     0
176
     1
 90
       50
176
     1
 90
       50
176
     1
 90
       50
176
     1
290
     0
176
     1
 90
       50
176
     1
 62
   256
176
     0
 40
1.0
176
     0
 90
        2
176
     1
  1
strokes_ogs.tif
176
     1
290
     0
176
     1
 40
1.0
176
     1
 40
1.0
176
     1
  0
VISUALSTYLE
  5
40
102
{ACAD_REACTORS
330
2A
102
}
330
2A
100
AcDbVisualStyle
  2
X-Ray
 70
    25
177
     3
291
     0
 70
    58
 90
        2
176
     1
 90
        2
176
     1
 90
        1
176
     1
 90
        1
176
     1
 40
0.5
176
     1
 40
30.0
176
     1
 62
     7
420
 16777215
176
     1
 90
        1
176
     1
 90
        0
176
     1
 62
     7
176
     1
 62
   257
176
     1
 90
        1
176
     1
 90
        1
176
     1
 40
1.0
176
     1
 90
        8
176
     1
 62
     7
176
     1
 40
1.0
176
     1
 90
        1
176
     1
 90
        6
176
     1
 90
        2
176
     1
 62
     7
176
     1
 90
        3
176
     1
 90
        0
176
     1
 90
        0
176
     1
290
     0
176
     1
 90
       13
176
     1
 40
0.0
176
     1
 90
        0
176
     1
290
     0
176
     1
290
     1
176
     1
290
     1
176
     1
290
     0
176
     1
290
     0
176
     1
290
     0
176
     1
290
     0
176
     1
290
     0
176
     1
290
     0
176
     1
 90
       50
176
     1
 40
0.0
176
     1
 40
1.0
176
     1
 90
        0
176
     1
 62
    18
420
        0
176
     1
 90
       50
176
     1
 90
        3
176
     1
 62
     5
420
      255
176
     1
290
     0
176
     1
 90
       50
176
     1
 90
       50
176
     1
 90
       50
176
     1
290
     0
176
     1
 90
       50
176
     1
 62
   256
176
     0
 40
1.0
176
     0
 90
        2
176
     1
  1
strokes_ogs.tif
176
     1
290
     0
176
     1
 40
1.0
176
     1
 40
1.0
176
     1
  0
DICTIONARYVAR
  5
17F
102
{ACAD_REACTORS
330
17E
102
}
330
17E
100
DictionaryVariables
280
     0
  1
1:1
  0
DICTIONARYVAR
  5
184
102
{ACAD_REACTORS
330
17E
102
}
330
17E
100
DictionaryVariables
280
     0
  1
Standard
  0
DICTIONARYVAR
  5
183
102
{ACAD_REACTORS
330
17E
102
}
330
17E
100
DictionaryVariables
280
     0
  1
Standard
  0
DICTIONARY
  5
180
330
6A
100
AcDbDictionary
280
     1
281
     1
  3
ACAD_ROUNDTRIP_2008_TABLESTYLE_CELLSTYLEMAP
360
181
  0
CELLSTYLEMAP
  5
181
102
{ACAD_REACTORS
330
180
102
}
330
180
100
AcDbCellStyleMap
 90
        3
300
CELLSTYLE
  1
TABLEFORMAT_BEGIN
 90
        5
170
     1
 91
        0
 92
    32768
 62
   257
 93
        1
300
CONTENTFORMAT
  1
CONTENTFORMAT_BEGIN
 90
        0
 91
        0
 92
        4
 93
        0
300

 40
0.0
140
1.0
 94
        5
 62
     0
340
11
144
6.0
309
CONTENTFORMAT_END
171
     1
301
MARGIN
  1
CELLMARGIN_BEGIN
 40
1.5
 40
1.5
 40
1.5
 40
1.5
 40
1.5
 40
1.5
309
CELLMARGIN_END
 94
        6
 95
        1
302
GRIDFORMAT
  1
GRIDFORMAT_BEGIN
 90
        0
 91
        1
 62
     0
 92
       -2
340
14
 93
        0
 40
0.045
309
GRIDFORMAT_END
 95
        2
302
GRIDFORMAT
  1
GRIDFORMAT_BEGIN
 90
        0
 91
        1
 62
     0
 92
       -2
340
14
 93
        0
 40
0.045
309
GRIDFORMAT_END
 95
        4
302
GRIDFORMAT
  1
GRIDFORMAT_BEGIN
 90
        0
 91
        1
 62
     0
 92
       -2
340
14
 93
        0
 40
0.045
309
GRIDFORMAT_END
 95
        8
302
GRIDFORMAT
  1
GRIDFORMAT_BEGIN
 90
        0
 91
        1
 62
     0
 92
       -2
340
14
 93
        0
 40
0.045
309
GRIDFORMAT_END
 95
       16
302
GRIDFORMAT
  1
GRIDFORMAT_BEGIN
 90
        0
 91
        1
 62
     0
 92
       -2
340
14
 93
        0
 40
0.045
309
GRIDFORMAT_END
 95
       32
302
GRIDFORMAT
  1
GRIDFORMAT_BEGIN
 90
        0
 91
        1
 62
     0
 92
       -2
340
14
 93
        0
 40
0.045
309
GRIDFORMAT_END
309
TABLEFORMAT_END
  1
CELLSTYLE_BEGIN
 90
        1
 91
        1
300
_TITLE
309
CELLSTYLE_END
300
CELLSTYLE
  1
TABLEFORMAT_BEGIN
 90
        5
170
     1
 91
        0
 92
        0
 62
   257
 93
        1
300
CONTENTFORMAT
  1
CONTENTFORMAT_BEGIN
 90
        0
 91
        0
 92
        4
 93
        0
300

 40
0.0
140
1.0
 94
        5
 62
     0
340
11
144
4.5
309
CONTENTFORMAT_END
171
     1
301
MARGIN
  1
CELLMARGIN_BEGIN
 40
1.5
 40
1.5
 40
1.5
 40
1.5
 40
1.5
 40
1.5
309
CELLMARGIN_END
 94
        6
 95
        1
302
GRIDFORMAT
  1
GRIDFORMAT_BEGIN
 90
        0
 91
        1
 62
     0
 92
       -2
340
14
 93
        0
 40
0.045
309
GRIDFORMAT_END
 95
        2
302
GRIDFORMAT
  1
GRIDFORMAT_BEGIN
 90
        0
 91
        1
 62
     0
 92
       -2
340
14
 93
        0
 40
0.045
309
GRIDFORMAT_END
 95
        4
302
GRIDFORMAT
  1
GRIDFORMAT_BEGIN
 90
        0
 91
        1
 62
     0
 92
       -2
340
14
 93
        0
 40
0.045
309
GRIDFORMAT_END
 95
        8
302
GRIDFORMAT
  1
GRIDFORMAT_BEGIN
 90
        0
 91
        1
 62
     0
 92
       -2
340
14
 93
        0
 40
0.045
309
GRIDFORMAT_END
 95
       16
302
GRIDFORMAT
  1
GRIDFORMAT_BEGIN
 90
        0
 91
        1
 62
     0
 92
       -2
340
14
 93
        0
 40
0.045
309
GRIDFORMAT_END
 95
       32
302
GRIDFORMAT
  1
GRIDFORMAT_BEGIN
 90
        0
 91
        1
 62
     0
 92
       -2
340
14
 93
        0
 40
0.045
309
GRIDFORMAT_END
309
TABLEFORMAT_END
  1
CELLSTYLE_BEGIN
 90
        2
 91
        1
300
_HEADER
309
CELLSTYLE_END
300
CELLSTYLE
  1
TABLEFORMAT_BEGIN
 90
        5
170
     1
 91
        0
 92
        0
 62
   257
 93
        1
300
CONTENTFORMAT
  1
CONTENTFORMAT_BEGIN
 90
        0
 91
        0
 92
        4
 93
        0
300

 40
0.0
140
1.0
 94
        2
 62
     0
340
11
144
4.5
309
CONTENTFORMAT_END
171
     1
301
MARGIN
  1
CELLMARGIN_BEGIN
 40
1.5
 40
1.5
 40
1.5
 40
1.5
 40
1.5
 40
1.5
309
CELLMARGIN_END
 94
        6
 95
        1
302
GRIDFORMAT
  1
GRIDFORMAT_BEGIN
 90
        0
 91
        1
 62
     0
 92
       -2
340
14
 93
        0
 40
0.045
309
GRIDFORMAT_END
 95
        2
302
GRIDFORMAT
  1
GRIDFORMAT_BEGIN
 90
        0
 91
        1
 62
     0
 92
       -2
340
14
 93
        0
 40
0.045
309
GRIDFORMAT_END
 95
        4
302
GRIDFORMAT
  1
GRIDFORMAT_BEGIN
 90
        0
 91
        1
 62
     0
 92
       -2
340
14
 93
        0
 40
0.045
309
GRIDFORMAT_END
 95
        8
302
GRIDFORMAT
  1
GRIDFORMAT_BEGIN
 90
        0
 91
        1
 62
     0
 92
       -2
340
14
 93
        0
 40
0.045
309
GRIDFORMAT_END
 95
       16
302
GRIDFORMAT
  1
GRIDFORMAT_BEGIN
 90
        0
 91
        1
 62
     0
 92
       -2
340
14
 93
        0
 40
0.045
309
GRIDFORMAT_END
 95
       32
302
GRIDFORMAT
  1
GRIDFORMAT_BEGIN
 90
        0
 91
        1
 62
     0
 92
       -2
340
14
 93
        0
 40
0.045
309
GRIDFORMAT_END
309
TABLEFORMAT_END
  1
CELLSTYLE_BEGIN
 90
        3
 91
        2
300
_DATA
309
CELLSTYLE_END
  0
ENDSEC
  0
EOF