0
SECTION
  2
HEADER
  9
$ACADVER
  1
AC1027
  9
$ACADMAINTVER
 70
     8
  9
$DWGCODEPAGE
  3
ANSI_1252
  9
$REQUIREDVERSIONS
160
                 0
  9
$COMMENTS
  1
File was created by Cadenas
  9
$CUSTOMPROPERTYTAG
  1
NN
  9
$CUSTOMPROPERTY
  1
D-Lok High Backing Height Two-Bolt Pillow Block Expansion Inch Bore
  9
$CUSTOMPROPERTYTAG
  1
NT
  9
$CUSTOMPROPERTY
  1
DLH-E Expansion Normal Duty Pillow Blocks
  9
$CUSTOMPROPERTYTAG
  1
NB
  9
$CUSTOMPROPERTY
  1
126452
  9
$CUSTOMPROPERTYTAG
  1
NBSYN
  9
$CUSTOMPROPERTY
  1
$PN.
  9
$CUSTOMPROPERTYTAG
  1
LINA
  9
$CUSTOMPROPERTY
  1
126452
  9
$CUSTOMPROPERTYTAG
  1
SERIES
  9
$CUSTOMPROPERTY
  1
210
  9
$CUSTOMPROPERTYTAG
  1
SS
  9
$CUSTOMPROPERTY
  1
1-15/16
  9
$CUSTOMPROPERTYTAG
  1
PN
  9
$CUSTOMPROPERTY
  1
126452
  9
$CUSTOMPROPERTYTAG
  1
DESCRIPTION
  9
$CUSTOMPROPERTY
  1
P2B-DLH-115-E
  9
$CUSTOMPROPERTYTAG
  1
WEIGHT
  9
$CUSTOMPROPERTY
  1
10.8
  9
$CUSTOMPROPERTYTAG
  1
A
  9
$CUSTOMPROPERTY
  1
2.01
  9
$CUSTOMPROPERTYTAG
  1
B
  9
$CUSTOMPROPERTY
  1
8.88
  9
$CUSTOMPROPERTYTAG
  1
C
  9
$CUSTOMPROPERTY
  1
2.30
  9
$CUSTOMPROPERTYTAG
  1
DMIN
  9
$CUSTOMPROPERTY
  1
6.38
  9
$CUSTOMPROPERTYTAG
  1
DMAX
  9
$CUSTOMPROPERTY
  1
7.44
  9
$CUSTOMPROPERTYTAG
  1
F
  9
$CUSTOMPROPERTY
  1
5/8
  9
$CUSTOMPROPERTYTAG
  1
G
  9
$CUSTOMPROPERTY
  1
1.21
  9
$CUSTOMPROPERTYTAG
  1
H
  9
$CUSTOMPROPERTY
  1
0.88
  9
$CUSTOMPROPERTYTAG
  1
J
  9
$CUSTOMPROPERTY
  1
4.96
  9
$CUSTOMPROPERTYTAG
  1
L
  9
$CUSTOMPROPERTY
  1
3.24
  9
$CUSTOMPROPERTYTAG
  1
M
  9
$CUSTOMPROPERTY
  1
2.50
  9
$CUSTOMPROPERTYTAG
  1
R
  9
$CUSTOMPROPERTY
  1
0.75
  9
$CUSTOMPROPERTYTAG
  1
S
  9
$CUSTOMPROPERTY
  1
1.26
  9
$CUSTOMPROPERTYTAG
  1
T
  9
$CUSTOMPROPERTY
  1
0.22
  9
$CUSTOMPROPERTYTAG
  1
U
  9
$CUSTOMPROPERTY
  1
3.94
  9
$CUSTOMPROPERTYTAG
  1
V
  9
$CUSTOMPROPERTY
  1
7.88
  9
$CUSTOMPROPERTYTAG
  1
W
  9
$CUSTOMPROPERTY
  1
0.81
  9
$CUSTOMPROPERTYTAG
  1
X
  9
$CUSTOMPROPERTY
  1
0.12
  9
$CUSTOMPROPERTYTAG
  1
COMPANY
  9
$CUSTOMPROPERTY
  1
baldor
  9
$INSBASE
 10
0.0
 20
0.0
 30
0.0
  9
$EXTMIN
 10
1.000000000000000E+20
 20
1.000000000000000E+20
 30
1.000000000000000E+20
  9
$EXTMAX
 10
-1.000000000000000E+20
 20
-1.000000000000000E+20
 30
-1.000000000000000E+20
  9
$LIMMIN
 10
0.0
 20
0.0
  9
$LIMMAX
 10
12.0
 20
9.0
  9
$ORTHOMODE
 70
     0
  9
$REGENMODE
 70
     1
  9
$FILLMODE
 70
     1
  9
$QTEXTMODE
 70
     0
  9
$MIRRTEXT
 70
     1
  9
$LTSCALE
 40
1.0
  9
$ATTMODE
 70
     1
  9
$TEXTSIZE
 40
0.2
  9
$TRACEWID
 40
0.05
  9
$TEXTSTYLE
  7
Standard
  9
$CLAYER
  8
0
  9
$CELTYPE
  6
ByLayer
  9
$CECOLOR
 62
   256
  9
$CELTSCALE
 40
1.0
  9
$DISPSILH
 70
     0
  9
$DIMSCALE
 40
1.0
  9
$DIMASZ
 40
0.18
  9
$DIMEXO
 40
0.0625
  9
$DIMDLI
 40
0.38
  9
$DIMRND
 40
0.0
  9
$DIMDLE
 40
0.0
  9
$DIMEXE
 40
0.18
  9
$DIMTP
 40
0.0
  9
$DIMTM
 40
0.0
  9
$DIMTXT
 40
0.18
  9
$DIMCEN
 40
0.09
  9
$DIMTSZ
 40
0.0
  9
$DIMTOL
 70
     0
  9
$DIMLIM
 70
     0
  9
$DIMTIH
 70
     1
  9
$DIMTOH
 70
     1
  9
$DIMSE1
 70
     0
  9
$DIMSE2
 70
     0
  9
$DIMTAD
 70
     0
  9
$DIMZIN
 70
     0
  9
$DIMBLK
  1

  9
$DIMASO
 70
     1
  9
$DIMSHO
 70
     1
  9
$DIMPOST
  1

  9
$DIMAPOST
  1

  9
$DIMALT
 70
     0
  9
$DIMALTD
 70
     2
  9
$DIMALTF
 40
25.4
  9
$DIMLFAC
 40
1.0
  9
$DIMTOFL
 70
     0
  9
$DIMTVP
 40
0.0
  9
$DIMTIX
 70
     0
  9
$DIMSOXD
 70
     0
  9
$DIMSAH
 70
     0
  9
$DIMBLK1
  1

  9
$DIMBLK2
  1

  9
$DIMSTYLE
  2
Standard
  9
$DIMCLRD
 70
     0
  9
$DIMCLRE
 70
     0
  9
$DIMCLRT
 70
     0
  9
$DIMTFAC
 40
1.0
  9
$DIMGAP
 40
0.09
  9
$DIMJUST
 70
     0
  9
$DIMSD1
 70
     0
  9
$DIMSD2
 70
     0
  9
$DIMTOLJ
 70
     1
  9
$DIMTZIN
 70
     0
  9
$DIMALTZ
 70
     0
  9
$DIMALTTZ
 70
     0
  9
$DIMUPT
 70
     0
  9
$DIMDEC
 70
     4
  9
$DIMTDEC
 70
     4
  9
$DIMALTU
 70
     2
  9
$DIMALTTD
 70
     2
  9
$DIMTXSTY
  7
Standard
  9
$DIMAUNIT
 70
     0
  9
$DIMADEC
 70
     0
  9
$DIMALTRND
 40
0.0
  9
$DIMAZIN
 70
     0
  9
$DIMDSEP
 70
    46
  9
$DIMATFIT
 70
     3
  9
$DIMFRAC
 70
     0
  9
$DIMLDRBLK
  1

  9
$DIMLUNIT
 70
     2
  9
$DIMLWD
 70
    -2
  9
$DIMLWE
 70
    -2
  9
$DIMTMOVE
 70
     0
  9
$DIMFXL
 40
1.0
  9
$DIMFXLON
 70
     0
  9
$DIMJOGANG
 40
0.7853981633974483
  9
$DIMTFILL
 70
     0
  9
$DIMTFILLCLR
 70
     0
  9
$DIMARCSYM
 70
     0
  9
$DIMLTYPE
  6

  9
$DIMLTEX1
  6

  9
$DIMLTEX2
  6

  9
$DIMTXTDIRECTION
 70
     0
  9
$LUNITS
 70
     2
  9
$LUPREC
 70
     4
  9
$SKETCHINC
 40
0.1
  9
$FILLETRAD
 40
0.5
  9
$AUNITS
 70
     0
  9
$AUPREC
 70
     0
  9
$MENU
  1
.
  9
$ELEVATION
 40
0.0
  9
$PELEVATION
 40
0.0
  9
$THICKNESS
 40
0.0
  9
$LIMCHECK
 70
     0
  9
$CHAMFERA
 40
0.0
  9
$CHAMFERB
 40
0.0
  9
$CHAMFERC
 40
0.0
  9
$CHAMFERD
 40
0.0
  9
$SKPOLY
 70
     0
  9
$TDCREATE
 40
2458168.991677187
  9
$TDUCREATE
 40
2458168.950010521
  9
$TDUPDATE
 40
2458168.991677373
  9
$TDUUPDATE
 40
2458168.950010706
  9
$TDINDWG
 40
0.0000000116
  9
$TDUSRTIMER
 40
0.0000000116
  9
$USRTIMER
 70
     1
  9
$ANGBASE
 50
0.0
  9
$ANGDIR
 70
     0
  9
$PDMODE
 70
     0
  9
$PDSIZE
 40
0.0
  9
$PLINEWID
 40
0.0
  9
$SPLFRAME
 70
     0
  9
$SPLINETYPE
 70
     6
  9
$SPLINESEGS
 70
     8
  9
$HANDSEED
  5
1D3
  9
$SURFTAB1
 70
     6
  9
$SURFTAB2
 70
     6
  9
$SURFTYPE
 70
     6
  9
$SURFU
 70
     6
  9
$SURFV
 70
     6
  9
$UCSBASE
  2

  9
$UCSNAME
  2

  9
$UCSORG
 10
0.0
 20
0.0
 30
0.0
  9
$UCSXDIR
 10
1.0
 20
0.0
 30
0.0
  9
$UCSYDIR
 10
0.0
 20
1.0
 30
0.0
  9
$UCSORTHOREF
  2

  9
$UCSORTHOVIEW
 70
     0
  9
$UCSORGTOP
 10
0.0
 20
0.0
 30
0.0
  9
$UCSORGBOTTOM
 10
0.0
 20
0.0
 30
0.0
  9
$UCSORGLEFT
 10
0.0
 20
0.0
 30
0.0
  9
$UCSORGRIGHT
 10
0.0
 20
0.0
 30
0.0
  9
$UCSORGFRONT
 10
0.0
 20
0.0
 30
0.0
  9
$UCSORGBACK
 10
0.0
 20
0.0
 30
0.0
  9
$PUCSBASE
  2

  9
$PUCSNAME
  2

  9
$PUCSORG
 10
0.0
 20
0.0
 30
0.0
  9
$PUCSXDIR
 10
1.0
 20
0.0
 30
0.0
  9
$PUCSYDIR
 10
0.0
 20
1.0
 30
0.0
  9
$PUCSORTHOREF
  2

  9
$PUCSORTHOVIEW
 70
     0
  9
$PUCSORGTOP
 10
0.0
 20
0.0
 30
0.0
  9
$PUCSORGBOTTOM
 10
0.0
 20
0.0
 30
0.0
  9
$PUCSORGLEFT
 10
0.0
 20
0.0
 30
0.0
  9
$PUCSORGRIGHT
 10
0.0
 20
0.0
 30
0.0
  9
$PUCSORGFRONT
 10
0.0
 20
0.0
 30
0.0
  9
$PUCSORGBACK
 10
0.0
 20
0.0
 30
0.0
  9
$USERI1
 70
     0
  9
$USERI2
 70
     0
  9
$USERI3
 70
     0
  9
$USERI4
 70
     0
  9
$USERI5
 70
     0
  9
$USERR1
 40
0.0
  9
$USERR2
 40
0.0
  9
$USERR3
 40
0.0
  9
$USERR4
 40
0.0
  9
$USERR5
 40
0.0
  9
$WORLDVIEW
 70
     1
  9
$SHADEDGE
 70
     3
  9
$SHADEDIF
 70
    70
  9
$TILEMODE
 70
     1
  9
$MAXACTVP
 70
    64
  9
$PINSBASE
 10
0.0
 20
0.0
 30
0.0
  9
$PLIMCHECK
 70
     0
  9
$PEXTMIN
 10
1.000000000000000E+20
 20
1.000000000000000E+20
 30
1.000000000000000E+20
  9
$PEXTMAX
 10
-1.000000000000000E+20
 20
-1.000000000000000E+20
 30
-1.000000000000000E+20
  9
$PLIMMIN
 10
0.0
 20
0.0
  9
$PLIMMAX
 10
12.0
 20
9.0
  9
$UNITMODE
 70
     0
  9
$VISRETAIN
 70
     1
  9
$PLINEGEN
 70
     0
  9
$PSLTSCALE
 70
     1
  9
$TREEDEPTH
 70
  3020
  9
$CMLSTYLE
  2
Standard
  9
$CMLJUST
 70
     0
  9
$CMLSCALE
 40
1.0
  9
$PROXYGRAPHICS
 70
     1
  9
$MEASUREMENT
 70
     0
  9
$CELWEIGHT
370
    -1
  9
$ENDCAPS
280
     0
  9
$JOINSTYLE
280
     0
  9
$LWDISPLAY
290
     0
  9
$INSUNITS
 70
     1
  9
$HYPERLINKBASE
  1

  9
$STYLESHEET
  1

  9
$XEDIT
290
     1
  9
$CEPSNTYPE
380
     0
  9
$PSTYLEMODE
290
     1
  9
$FINGERPRINTGUID
  2
{109F7D61-50C1-4316-9F01-48BCE8DC3E45}
  9
$VERSIONGUID
  2
{FAEB1C32-E019-11D5-929B-00C0DF256EC4}
  9
$EXTNAMES
290
     1
  9
$PSVPSCALE
 40
0.0
  9
$OLESTARTUP
290
     0
  9
$SORTENTS
280
   127
  9
$INDEXCTL
280
     0
  9
$HIDETEXT
280
     1
  9
$XCLIPFRAME
280
     2
  9
$HALOGAP
280
     0
  9
$OBSCOLOR
 70
   257
  9
$OBSLTYPE
280
     0
  9
$INTERSECTIONDISPLAY
280
     0
  9
$INTERSECTIONCOLOR
 70
   257
  9
$DIMASSOC
280
     2
  9
$PROJECTNAME
  1

  9
$CAMERADISPLAY
290
     0
  9
$LENSLENGTH
 40
50.0
  9
$CAMERAHEIGHT
 40
0.0
  9
$STEPSPERSEC
 40
2.0
  9
$STEPSIZE
 40
6.0
  9
$3DDWFPREC
 40
2.0
  9
$PSOLWIDTH
 40
0.25
  9
$PSOLHEIGHT
 40
4.0
  9
$LOFTANG1
 40
1.570796326794897
  9
$LOFTANG2
 40
1.570796326794897
  9
$LOFTMAG1
 40
0.0
  9
$LOFTMAG2
 40
0.0
  9
$LOFTPARAM
 70
     7
  9
$LOFTNORMALS
280
     1
  9
$LATITUDE
 40
37.795
  9
$LONGITUDE
 40
-122.394
  9
$NORTHDIRECTION
 40
0.0
  9
$TIMEZONE
 70
 -8000
  9
$LIGHTGLYPHDISPLAY
280
     1
  9
$TILEMODELIGHTSYNCH
280
     1
  9
$CMATERIAL
347
44
  9
$SOLIDHIST
280
     0
  9
$SHOWHIST
280
     1
  9
$DWFFRAME
280
     2
  9
$DGNFRAME
280
     2
  9
$REALWORLDSCALE
290
     1
  9
$INTERFERECOLOR
 62
   256
  9
$CSHADOW
280
     0
  9
$SHADOWPLANELOCATION
 40
0.0
  0
ENDSEC
  0
SECTION
  2
CLASSES
  0
CLASS
  1
ACDBDICTIONARYWDFLT
  2
AcDbDictionaryWithDefault
  3
ObjectDBX Classes
 90
        0
 91
        4
280
     0
281
     0
  0
CLASS
  1
VISUALSTYLE
  2
AcDbVisualStyle
  3
ObjectDBX Classes
 90
     4095
 91
        4
280
     0
281
     0
  0
CLASS
  1
MATERIAL
  2
AcDbMaterial
  3
ObjectDBX Classes
 90
     1153
 91
        4
280
     0
281
     0
  0
CLASS
  1
SCALE
  2
AcDbScale
  3
ObjectDBX Classes
 90
     1153
 91
        4
280
     0
281
     0
  0
CLASS
  1
TABLESTYLE
  2
AcDbTableStyle
  3
ObjectDBX Classes
 90
     4095
 91
        4
280
     0
281
     0
  0
CLASS
  1
MLEADERSTYLE
  2
AcDbMLeaderStyle
  3
ACDB_MLEADERSTYLE_CLASS
 90
     4095
 91
        4
280
     0
281
     0
  0
CLASS
  1
SUN
  2
AcDbSun
  3
SCENEOE
 90
     1153
 91
        4
280
     0
281
     0
  0
CLASS
  1
DICTIONARYVAR
  2
AcDbDictionaryVar
  3
ObjectDBX Classes
 90
        0
 91
        4
280
     0
281
     0
  0
CLASS
  1
CELLSTYLEMAP
  2
AcDbCellStyleMap
  3
ObjectDBX Classes
 90
     1152
 91
        4
280
     0
281
     0
  0
ENDSEC
  0
SECTION
  2
TABLES
  0
TABLE
  2
VPORT
  5
8
330
0
100
AcDbSymbolTable
 70
     1
  0
VPORT
  5
29
330
8
100
AcDbSymbolTableRecord
100
AcDbViewportTableRecord
  2
*Active
 70
     0
 10
0.0
 20
0.0
 11
1.0
 21
1.0
 12
0.0
 22
-0.0477499999999997
 13
0.0
 23
0.0
 14
0.5
 24
0.5
 15
0.5
 25
0.5
 16
0.0
 26
0.0
 36
1.0
 17
0.0
 27
0.0
 37
0.0
 40
2.678010000000001
 41
3.382212911826318
 42
50.0
 43
0.0
 44
0.0
 50
0.0
 51
0.0
 71
     0
 72
   100
 73
     1
 74
     3
 75
     0
 76
     0
 77
     0
 78
     0
281
     0
 65
     1
110
0.0
120
0.0
130
0.0
111
1.0
121
0.0
131
0.0
112
0.0
122
1.0
132
0.0
 79
     0
146
0.0
348
2F
 60
     3
 61
     5
292
     1
282
     1
141
0.0
142
0.0
 63
   250
361
6D
  0
ENDTAB
  0
TABLE
  2
LTYPE
  5
5
330
0
100
AcDbSymbolTable
 70
     3
  0
LTYPE
  5
14
330
5
100
AcDbSymbolTableRecord
100
AcDbLinetypeTableRecord
  2
ByBlock
 70
     0
  3

 72
    65
 73
     0
 40
0.0
  0
LTYPE
  5
15
330
5
100
AcDbSymbolTableRecord
100
AcDbLinetypeTableRecord
  2
ByLayer
 70
     0
  3

 72
    65
 73
     0
 40
0.0
  0
LTYPE
  5
16
330
5
100
AcDbSymbolTableRecord
100
AcDbLinetypeTableRecord
  2
Continuous
 70
     0
  3
Solid line
 72
    65
 73
     0
 40
0.0
  0
LTYPE
  5
A2
330
5
100
AcDbSymbolTableRecord
100
AcDbLinetypeTableRecord
  2
Dashed
 70
     0
  3

 72
    65
 73
     2
 40
2.0
 49
1.0
 74
     0
 49
-1.0
 74
     0
  0
LTYPE
  5
16D
330
5
100
AcDbSymbolTableRecord
100
AcDbLinetypeTableRecord
  2
Center
 70
     0
  3

 72
    65
 73
     4
 40
1.5
 49
0.45
 74
     0
 49
-0.5
 74
     0
 49
0.05
 74
     0
 49
-0.5
 74
     0
  0
ENDTAB
  0
TABLE
  2
LAYER
  5
2
330
0
100
AcDbSymbolTable
 70
     6
  0
LAYER
  5
10
330
2
100
AcDbSymbolTableRecord
100
AcDbLayerTableRecord
  2
0
 70
     0
 62
     7
  6
Continuous
370
    -3
390
F
347
46
348
0
  0
LAYER
  5
72
330
2
100
AcDbSymbolTableRecord
100
AcDbLayerTableRecord
  2
AM_6
 70
     0
 62
    -2
  6
Continuous
370
    35
390
F
347
46
348
0
  0
LAYER
  5
A3
330
2
100
AcDbSymbolTableRecord
100
AcDbLayerTableRecord
  2
AM_9
 70
     0
 62
     6
  6
Dashed
370
    25
390
F
347
46
348
0
  0
LAYER
  5
C4
330
2
100
AcDbSymbolTableRecord
100
AcDbLayerTableRecord
  2
AM_4
 70
     0
 62
     7
  6
Continuous
370
    50
390
F
347
46
348
0
  0
LAYER
  5
16E
330
2
100
AcDbSymbolTableRecord
100
AcDbLayerTableRecord
  2
AM_7
 70
     0
 62
     7
  6
Center
370
    25
390
F
347
46
348
0
  0
LAYER
  5
1C4
330
2
100
AcDbSymbolTableRecord
100
AcDbLayerTableRecord
  2
ConnectionPoints
 70
     0
 62
     7
  6
Continuous
370
    50
390
F
347
46
348
0
  0
ENDTAB
  0
TABLE
  2
STYLE
  5
3
330
0
100
AcDbSymbolTable
 70
     1
  0
STYLE
  5
11
330
3
100
AcDbSymbolTableRecord
100
AcDbTextStyleTableRecord
  2
Standard
 70
     0
 40
0.0
 41
1.0
 50
0.0
 71
     0
 42
0.2
  3
txt
  4

  0
ENDTAB
  0
TABLE
  2
VIEW
  5
6
330
0
100
AcDbSymbolTable
 70
     0
  0
ENDTAB
  0
TABLE
  2
UCS
  5
7
330
0
100
AcDbSymbolTable
 70
     0
  0
ENDTAB
  0
TABLE
  2
APPID
  5
9
330
0
100
AcDbSymbolTable
 70
     1
  0
APPID
  5
12
330
9
100
AcDbSymbolTableRecord
100
AcDbRegAppTableRecord
  2
ACAD
 70
     0
  0
ENDTAB
  0
TABLE
  2
DIMSTYLE
  5
A
330
0
100
AcDbSymbolTable
 70
     1
100
AcDbDimStyleTable
  0
DIMSTYLE
105
27
330
A
100
AcDbSymbolTableRecord
100
AcDbDimStyleTableRecord
  2
Standard
 70
     0
178
     0
340
11
  0
ENDTAB
  0
TABLE
  2
BLOCK_RECORD
  5
1
330
0
100
AcDbSymbolTable
 70
     5
  0
BLOCK_RECORD
  5
1F
330
1
100
AcDbSymbolTableRecord
100
AcDbBlockTableRecord
  2
*Model_Space
340
22
 70
     0
280
     1
281
     0
  0
BLOCK_RECORD
  5
1B
330
1
100
AcDbSymbolTableRecord
100
AcDbBlockTableRecord
  2
*Paper_Space
340
1E
 70
     0
280
     1
281
     0
  0
BLOCK_RECORD
  5
23
330
1
100
AcDbSymbolTableRecord
100
AcDbBlockTableRecord
  2
*Paper_Space0
340
26
 70
     0
280
     1
281
     0
  0
BLOCK_RECORD
  5
6E
330
1
100
AcDbSymbolTableRecord
100
AcDbBlockTableRecord
  2
1_126452_4
340
0
102
{BLKREFS
331
6F
102
}
 70
     0
280
     1
281
     0
  0
BLOCK_RECORD
  5
90
330
1
100
AcDbSymbolTableRecord
100
AcDbBlockTableRecord
  2
2_405020c_Inch_0_in_126452_4
340
0
102
{BLKREFS
331
91
102
}
 70
     0
280
     1
281
     0
  0
BLOCK_RECORD
  5
E9
330
1
100
AcDbSymbolTableRecord
100
AcDbBlockTableRecord
  2
3_128659_0_in_126452_4
340
0
102
{BLKREFS
331
EA
102
}
 70
     0
280
     1
281
     0
  0
BLOCK_RECORD
  5
12B
330
1
100
AcDbSymbolTableRecord
100
AcDbBlockTableRecord
  2
4_126452h_0_in_126452_4
340
0
102
{BLKREFS
331
12C
102
}
 70
     0
280
     1
281
     0
  0
ENDTAB
  0
ENDSEC
  0
SECTION
  2
BLOCKS
  0
BLOCK
  5
20
330
1F
100
AcDbEntity
  8
0
100
AcDbBlockBegin
  2
*Model_Space
 70
     0
 10
0.0
 20
0.0
 30
0.0
  3
*Model_Space
  1

  0
ENDBLK
  5
21
330
1F
100
AcDbEntity
  8
0
100
AcDbBlockEnd
  0
BLOCK
  5
1C
330
1B
100
AcDbEntity
 67
     1
  8
0
100
AcDbBlockBegin
  2
*Paper_Space
 70
     0
 10
0.0
 20
0.0
 30
0.0
  3
*Paper_Space
  1

  0
ENDBLK
  5
1D
330
1B
100
AcDbEntity
 67
     1
  8
0
100
AcDbBlockEnd
  0
BLOCK
  5
24
330
23
100
AcDbEntity
  8
0
100
AcDbBlockBegin
  2
*Paper_Space0
 70
     0
 10
0.0
 20
0.0
 30
0.0
  3
*Paper_Space0
  1

  0
ENDBLK
  5
25
330
23
100
AcDbEntity
  8
0
100
AcDbBlockEnd
  0
BLOCK
  5
70
330
6E
100
AcDbEntity
  8
0
100
AcDbBlockBegin
  2
1_126452_4
 70
     2
 10
0.0
 20
0.0
 30
0.0
  3
1_126452_4
  1

  0
ATTDEF
  5
73
330
6E
100
AcDbEntity
  8
AM_6
100
AcDbText
 10
9.440000000000001
 20
1.265
 30
0.0
 40
0.5
  1
D-Lok High Backing Height Two-Bolt Pillow Block Expansion Inch Bore
100
AcDbAttributeDefinition
  3

  2
NN
 70
     8
280
     0
  0
ATTDEF
  5
74
330
6E
100
AcDbEntity
  8
AM_6
100
AcDbText
 10
9.440000000000001
 20
0.7650000000000001
 30
0.0
 40
0.5
  1
DLH-E Expansion Normal Duty Pillow Blocks
100
AcDbAttributeDefinition
  3

  2
NT
 70
     8
280
     0
  0
ATTDEF
  5
75
330
6E
100
AcDbEntity
  8
AM_6
100
AcDbText
 10
9.440000000000001
 20
0.2650000000000001
 30
0.0
 40
0.5
  1
126452
100
AcDbAttributeDefinition
  3

  2
NB
 70
     8
280
     0
  0
ATTDEF
  5
76
330
6E
100
AcDbEntity
  8
AM_6
100
AcDbText
 10
9.440000000000001
 20
-0.2349999999999999
 30
0.0
 40
0.5
  1
$PN.
100
AcDbAttributeDefinition
  3

  2
NBSYN
 70
     8
280
     0
  0
ATTDEF
  5
77
330
6E
100
AcDbEntity
  8
AM_6
100
AcDbText
 10
9.440000000000001
 20
-0.7349999999999999
 30
0.0
 40
0.5
  1
126452
100
AcDbAttributeDefinition
  3

  2
LINA
 70
     8
280
     0
  0
ATTDEF
  5
78
330
6E
100
AcDbEntity
  8
AM_6
100
AcDbText
 10
9.440000000000001
 20
-1.235
 30
0.0
 40
0.5
  1
210
100
AcDbAttributeDefinition
  3

  2
SERIES
 70
     8
280
     0
  0
ATTDEF
  5
79
330
6E
100
AcDbEntity
  8
AM_6
100
AcDbText
 10
9.440000000000001
 20
-1.735
 30
0.0
 40
0.5
  1
1-15/16
100
AcDbAttributeDefinition
  3

  2
SS
 70
     8
280
     0
  0
ATTDEF
  5
7A
330
6E
100
AcDbEntity
  8
AM_6
100
AcDbText
 10
9.440000000000001
 20
-2.235
 30
0.0
 40
0.5
  1
126452
100
AcDbAttributeDefinition
  3

  2
PN
 70
     8
280
     0
  0
ATTDEF
  5
7B
330
6E
100
AcDbEntity
  8
AM_6
100
AcDbText
 10
9.440000000000001
 20
-2.735
 30
0.0
 40
0.5
  1
P2B-DLH-115-E
100
AcDbAttributeDefinition
  3

  2
DESCRIPTION
 70
     8
280
     0
  0
ATTDEF
  5
7C
330
6E
100
AcDbEntity
  8
AM_6
100
AcDbText
 10
9.440000000000001
 20
-3.235
 30
0.0
 40
0.5
  1
10.8
100
AcDbAttributeDefinition
  3

  2
WEIGHT
 70
     8
280
     0
  0
ATTDEF
  5
7D
330
6E
100
AcDbEntity
  8
AM_6
100
AcDbText
 10
9.440000000000001
 20
-3.735
 30
0.0
 40
0.5
  1
2.01
100
AcDbAttributeDefinition
  3

  2
A
 70
     8
280
     0
  0
ATTDEF
  5
7E
330
6E
100
AcDbEntity
  8
AM_6
100
AcDbText
 10
9.440000000000001
 20
-4.234999999999999
 30
0.0
 40
0.5
  1
8.88
100
AcDbAttributeDefinition
  3

  2
B
 70
     8
280
     0
  0
ATTDEF
  5
7F
330
6E
100
AcDbEntity
  8
AM_6
100
AcDbText
 10
9.440000000000001
 20
-4.734999999999999
 30
0.0
 40
0.5
  1
2.30
100
AcDbAttributeDefinition
  3

  2
C
 70
     8
280
     0
  0
ATTDEF
  5
80
330
6E
100
AcDbEntity
  8
AM_6
100
AcDbText
 10
9.440000000000001
 20
-5.234999999999999
 30
0.0
 40
0.5
  1
6.38
100
AcDbAttributeDefinition
  3

  2
DMIN
 70
     8
280
     0
  0
ATTDEF
  5
81
330
6E
100
AcDbEntity
  8
AM_6
100
AcDbText
 10
9.440000000000001
 20
-5.734999999999999
 30
0.0
 40
0.5
  1
7.44
100
AcDbAttributeDefinition
  3

  2
DMAX
 70
     8
280
     0
  0
ATTDEF
  5
82
330
6E
100
AcDbEntity
  8
AM_6
100
AcDbText
 10
9.440000000000001
 20
-6.234999999999999
 30
0.0
 40
0.5
  1
5/8
100
AcDbAttributeDefinition
  3

  2
F
 70
     8
280
     0
  0
ATTDEF
  5
83
330
6E
100
AcDbEntity
  8
AM_6
100
AcDbText
 10
9.440000000000001
 20
-6.734999999999999
 30
0.0
 40
0.5
  1
1.21
100
AcDbAttributeDefinition
  3

  2
G
 70
     8
280
     0
  0
ATTDEF
  5
84
330
6E
100
AcDbEntity
  8
AM_6
100
AcDbText
 10
9.440000000000001
 20
-7.234999999999999
 30
0.0
 40
0.5
  1
0.88
100
AcDbAttributeDefinition
  3

  2
H
 70
     8
280
     0
  0
ATTDEF
  5
85
330
6E
100
AcDbEntity
  8
AM_6
100
AcDbText
 10
9.440000000000001
 20
-7.734999999999999
 30
0.0
 40
0.5
  1
4.96
100
AcDbAttributeDefinition
  3

  2
J
 70
     8
280
     0
  0
ATTDEF
  5
86
330
6E
100
AcDbEntity
  8
AM_6
100
AcDbText
 10
9.440000000000001
 20
-8.235
 30
0.0
 40
0.5
  1
3.24
100
AcDbAttributeDefinition
  3

  2
L
 70
     8
280
     0
  0
ATTDEF
  5
87
330
6E
100
AcDbEntity
  8
AM_6
100
AcDbText
 10
9.440000000000001
 20
-8.735
 30
0.0
 40
0.5
  1
2.50
100
AcDbAttributeDefinition
  3

  2
M
 70
     8
280
     0
  0
ATTDEF
  5
88
330
6E
100
AcDbEntity
  8
AM_6
100
AcDbText
 10
9.440000000000001
 20
-9.235
 30
0.0
 40
0.5
  1
0.75
100
AcDbAttributeDefinition
  3

  2
R
 70
     8
280
     0
  0
ATTDEF
  5
89
330
6E
100
AcDbEntity
  8
AM_6
100
AcDbText
 10
9.440000000000001
 20
-9.735
 30
0.0
 40
0.5
  1
1.26
100
AcDbAttributeDefinition
  3

  2
S
 70
     8
280
     0
  0
ATTDEF
  5
8A
330
6E
100
AcDbEntity
  8
AM_6
100
AcDbText
 10
9.440000000000001
 20
-10.235
 30
0.0
 40
0.5
  1
0.22
100
AcDbAttributeDefinition
  3

  2
T
 70
     8
280
     0
  0
ATTDEF
  5
8B
330
6E
100
AcDbEntity
  8
AM_6
100
AcDbText
 10
9.440000000000001
 20
-10.735
 30
0.0
 40
0.5
  1
3.94
100
AcDbAttributeDefinition
  3

  2
U
 70
     8
280
     0
  0
ATTDEF
  5
8C
330
6E
100
AcDbEntity
  8
AM_6
100
AcDbText
 10
9.440000000000001
 20
-11.235
 30
0.0
 40
0.5
  1
7.88
100
AcDbAttributeDefinition
  3

  2
V
 70
     8
280
     0
  0
ATTDEF
  5
8D
330
6E
100
AcDbEntity
  8
AM_6
100
AcDbText
 10
9.440000000000001
 20
-11.735
 30
0.0
 40
0.5
  1
0.81
100
AcDbAttributeDefinition
  3

  2
W
 70
     8
280
     0
  0
ATTDEF
  5
8E
330
6E
100
AcDbEntity
  8
AM_6
100
AcDbText
 10
9.440000000000001
 20
-12.235
 30
0.0
 40
0.5
  1
0.12
100
AcDbAttributeDefinition
  3

  2
X
 70
     8
280
     0
  0
ATTDEF
  5
8F
330
6E
100
AcDbEntity
  8
AM_6
100
AcDbText
 10
9.440000000000001
 20
-12.735
 30
0.0
 40
0.5
  1
baldor
100
AcDbAttributeDefinition
  3

  2
COMPANY
 70
     8
280
     0
  0
INSERT
  5
91
330
6E
100
AcDbEntity
  8
0
100
AcDbBlockReference
  2
2_405020c_Inch_0_in_126452_4
 10
0.0
 20
0.0
 30
0.0
  0
INSERT
  5
EA
330
6E
100
AcDbEntity
  8
0
100
AcDbBlockReference
  2
3_128659_0_in_126452_4
 10
0.0
 20
0.0
 30
0.0
  0
INSERT
  5
12C
330
6E
100
AcDbEntity
  8
0
100
AcDbBlockReference
  2
4_126452h_0_in_126452_4
 10
0.0
 20
0.0
 30
0.0
  0
ENDBLK
  5
71
330
6E
100
AcDbEntity
  8
0
100
AcDbBlockEnd
  0
BLOCK
  5
92
330
90
100
AcDbEntity
  8
0
100
AcDbBlockBegin
  2
2_405020c_Inch_0_in_126452_4
 70
     2
 10
0.0
 20
0.0
 30
0.0
  3
2_405020c_Inch_0_in_126452_4
  1

  0
ATTDEF
  5
94
330
90
100
AcDbEntity
  8
AM_6
100
AcDbText
 10
7.076435027163736
 20
0.162408630723042
 30
0.0
 40
0.5
  1
405020C -Inch
100
AcDbAttributeDefinition
  3

  2
NN
 70
     8
280
     0
  0
ATTDEF
  5
95
330
90
100
AcDbEntity
  8
AM_6
100
AcDbText
 10
7.076435027163736
 20
-0.337591369276958
 30
0.0
 40
0.5
  1
Grease fitting
100
AcDbAttributeDefinition
  3

  2
NT
 70
     8
280
     0
  0
ATTDEF
  5
96
330
90
100
AcDbEntity
  8
AM_6
100
AcDbText
 10
7.076435027163736
 20
-0.837591369276958
 30
0.0
 40
0.5
  1
405020c-Inch
100
AcDbAttributeDefinition
  3

  2
NB
 70
     8
280
     0
  0
ATTDEF
  5
97
330
90
100
AcDbEntity
  8
AM_6
100
AcDbText
 10
7.076435027163736
 20
-1.337591369276958
 30
0.0
 40
0.5
  1
$MN.-Inch
100
AcDbAttributeDefinition
  3

  2
NBSYN
 70
     8
280
     0
  0
ATTDEF
  5
98
330
90
100
AcDbEntity
  8
AM_6
100
AcDbText
 10
7.076435027163736
 20
-1.837591369276958
 30
0.0
 40
0.5
  1
405020c
100
AcDbAttributeDefinition
  3

  2
LINA
 70
     8
280
     0
  0
ATTDEF
  5
99
330
90
100
AcDbEntity
  8
AM_6
100
AcDbText
 10
7.076435027163736
 20
-2.337591369276958
 30
0.0
 40
0.5
  1
405020c
100
AcDbAttributeDefinition
  3

  2
MN
 70
     8
280
     0
  0
ATTDEF
  5
9A
330
90
100
AcDbEntity
  8
AM_6
100
AcDbText
 10
7.076435027163736
 20
-2.837591369276958
 30
0.0
 40
0.5
  1
0.230
100
AcDbAttributeDefinition
  3

  2
NDR
 70
     8
280
     0
  0
ATTDEF
  5
9B
330
90
100
AcDbEntity
  8
AM_6
100
AcDbText
 10
7.076435027163736
 20
-3.337591369276958
 30
0.0
 40
0.5
  1
0.210
100
AcDbAttributeDefinition
  3

  2
KDR
 70
     8
280
     0
  0
ATTDEF
  5
9C
330
90
100
AcDbEntity
  8
AM_6
100
AcDbText
 10
7.076435027163736
 20
-3.837591369276958
 30
0.0
 40
0.5
  1
0.157
100
AcDbAttributeDefinition
  3

  2
BZE
 70
     8
280
     0
  0
ATTDEF
  5
9D
330
90
100
AcDbEntity
  8
AM_6
100
AcDbText
 10
7.076435027163736
 20
-4.337591369276958
 30
0.0
 40
0.5
  1
9/32
100
AcDbAttributeDefinition
  3

  2
WAF
 70
     8
280
     0
  0
ATTDEF
  5
9E
330
90
100
AcDbEntity
  8
AM_6
100
AcDbText
 10
7.076435027163736
 20
-4.837591369276958
 30
0.0
 40
0.5
  1
0.2813
100
AcDbAttributeDefinition
  3

  2
WAF1
 70
     8
280
     0
  0
ATTDEF
  5
9F
330
90
100
AcDbEntity
  8
AM_6
100
AcDbText
 10
7.076435027163736
 20
-5.337591369276958
 30
0.0
 40
0.5
  1
0.545
100
AcDbAttributeDefinition
  3

  2
BL
 70
     8
280
     0
  0
ATTDEF
  5
A0
330
90
100
AcDbEntity
  8
AM_6
100
AcDbText
 10
7.076435027163736
 20
-5.837591369276958
 30
0.0
 40
0.5
  1
0.200
100
AcDbAttributeDefinition
  3

  2
TL
 70
     8
280
     0
  0
ATTDEF
  5
A1
330
90
100
AcDbEntity
  8
AM_6
100
AcDbText
 10
7.076435027163736
 20
-6.337591369276958
 30
0.0
 40
0.5
  1
baldor
100
AcDbAttributeDefinition
  3

  2
COMPANY
 70
     8
280
     0
  0
ELLIPSE
  5
A4
330
90
100
AcDbEntity
  8
AM_9
100
AcDbEllipse
 10
1.626635565132598
 20
0.0000000000000003
 30
0.0
 11
-1.838598171376523E-17
 21
-0.1000886227036577
 31
0.0
210
0.0
220
0.0
230
1.0
 40
0.7071067811865474
 41
0.0
 42
6.283185307179586
  0
LINE
  5
A5
330
90
100
AcDbEntity
  8
AM_9
100
AcDbLine
 10
1.910529362942254
 20
-0.0812043153615206
 30
0.0
 11
1.87163406942444
 21
-0.0812043153615206
 31
0.0
  0
LINE
  5
A6
330
90
100
AcDbEntity
  8
AM_9
100
AcDbLine
 10
1.910529362942254
 20
0.0812043153615211
 30
0.0
 11
1.87163406942444
 21
0.0812043153615211
 31
0.0
  0
LWPOLYLINE
  5
A7
330
90
100
AcDbEntity
  8
AM_9
100
AcDbPolyline
 90
        3
 70
     0
 43
0.0
 10
1.867511490143795
 20
0.0000000000000003
 10
1.868599639418708
 20
-0.0406021576807602
 10
1.87163406942444
 20
-0.0812043153615206
  0
LWPOLYLINE
  5
A8
330
90
100
AcDbEntity
  8
AM_9
100
AcDbPolyline
 90
        4
 70
     0
 43
0.0
 10
1.87163406942444
 20
0.0812043153615211
 10
1.870008848767853
 20
0.0623017518439034
 10
1.868161032586827
 20
0.0312428256208207
 10
1.867511490143795
 20
0.0000000000000003
  0
LWPOLYLINE
  5
A9
330
90
100
AcDbEntity
  8
AM_9
100
AcDbPolyline
 90
        3
 70
     0
 43
0.0
 10
1.817784205756851
 20
0.1218064730422816
 10
1.843735997225237
 20
0.1015053942019013
 10
1.87163406942444
 20
0.0812043153615211
  0
LWPOLYLINE
  5
AA
330
90
100
AcDbEntity
  8
AM_9
100
AcDbPolyline
 90
        3
 70
     0
 43
0.0
 10
1.87163406942444
 20
-0.0812043153615206
 10
1.843857404038591
 20
-0.1014141150849083
 10
1.817784205756851
 20
-0.1218064730422811
  0
LWPOLYLINE
  5
AB
330
90
100
AcDbEntity
  8
AM_9
100
AcDbPolyline
 90
        3
 70
     0
 43
0.0
 10
1.910529362942254
 20
0.0812043153615211
 10
1.888802331201962
 20
0.1014141150849088
 10
1.876889370288436
 20
0.1118189926816821
  0
LWPOLYLINE
  5
AC
330
90
100
AcDbEntity
  8
AM_9
100
AcDbPolyline
 90
        4
 70
     0
 43
0.0
 10
1.914651942222898
 20
0.0000000000000003
 10
1.914006172287816
 20
0.0311508759219518
 10
1.91215458359884
 20
0.0623017518439034
 10
1.910529362942254
 20
0.0812043153615211
  0
LWPOLYLINE
  5
AD
330
90
100
AcDbEntity
  8
AM_9
100
AcDbPolyline
 90
        3
 70
     0
 43
0.0
 10
1.876888220317449
 20
-0.1118199743330276
 10
1.888700150754513
 20
-0.1015053942019008
 10
1.910529362942254
 20
-0.0812043153615206
  0
LINE
  5
AE
330
90
100
AcDbEntity
  8
AM_9
100
AcDbLine
 10
1.914648819623754
 20
-0.0021532129284583
 30
0.0
 11
1.914651942222898
 21
0.0000000000000003
 31
0.0
  0
LWPOLYLINE
  5
AF
330
90
100
AcDbEntity
  8
AM_9
100
AcDbPolyline
 90
        3
 70
     0
 43
0.0
 10
1.910529362942254
 20
-0.0812043153615206
 10
1.913554179765032
 20
-0.0407847159147452
 10
1.914645109393585
 20
-0.0031852554070133
  0
LWPOLYLINE
  5
B0
330
90
100
AcDbEntity
  8
AM_9
100
AcDbPolyline
 90
        3
 70
     0
 43
0.0
 10
1.772179500650552
 20
0.162408630723042
 10
1.793906532390844
 20
0.1421988309996543
 10
1.817784205756851
 20
0.1218064730422816
  0
LWPOLYLINE
  5
B1
330
90
100
AcDbEntity
  8
AM_9
100
AcDbPolyline
 90
        3
 70
     0
 43
0.0
 10
1.817784205756851
 20
-0.1218064730422811
 10
1.794008712838293
 20
-0.1421075518826612
 10
1.772179500650552
 20
-0.1624086307230415
  0
LINE
  5
B2
330
90
100
AcDbEntity
  8
AM_9
100
AcDbLine
 10
1.631498307594883
 20
-0.1103623268442184
 30
0.0
 11
1.765431720309526
 21
-0.1162845918961609
 31
0.0
  0
LINE
  5
B3
330
90
100
AcDbEntity
  8
AM_9
100
AcDbLine
 10
1.765431720309526
 20
0.1162845918961614
 30
0.0
 11
1.631498307594883
 21
0.1103623268442189
 31
0.0
  0
ELLIPSE
  5
B4
330
90
100
AcDbEntity
  8
AM_9
100
AcDbEllipse
 10
1.815197373449004
 20
0.0000000000000021
 30
0.0
 11
8.612328615003975E-18
 21
0.1406500000000035
 31
0.0
210
0.0
220
0.0
230
1.0
 40
0.7071067811865758
 41
3.798906696793644
 42
5.62587126397572
  0
ELLIPSE
  5
B5
330
90
100
AcDbEntity
  8
AM_9
100
AcDbEllipse
 10
1.837344346334539
 20
0.0000000000000006
 30
0.0
 11
6.694498085252738E-18
 21
0.1093294505797706
 31
0.0
210
0.0
220
0.0
230
1.0
 40
0.7071067811865662
 41
5.426477751485983
 42
5.928986666165851
  0
ELLIPSE
  5
B6
330
90
100
AcDbEntity
  8
AM_9
100
AcDbEllipse
 10
1.837344346334537
 20
0.0000000000000028
 30
0.0
 11
6.694498085252989E-18
 21
0.1093294505797747
 31
0.0
210
0.0
220
0.0
230
1.0
 40
0.7071067811865681
 41
3.495791294603549
 42
3.974544108358099
  0
ELLIPSE
  5
B7
330
90
100
AcDbEntity
  8
AM_9
100
AcDbEllipse
 10
1.837344346334442
 20
0.0000000000000759
 30
0.0
 11
6.694498085262644E-18
 21
0.1093294505799323
 31
0.0
210
0.0
220
0.0
230
1.0
 40
0.7071067811865477
 41
4.177766403497252
 42
5.205069061887409
  0
LWPOLYLINE
  5
B8
330
90
100
AcDbEntity
  8
AM_9
100
AcDbPolyline
 90
       11
 70
     0
 43
0.0
 10
1.862344346334542
 20
0.094684789639099
 10
1.864170749528803
 20
0.0946102152763928
 10
1.869229287504136
 20
0.0936373505153445
 10
1.874137525713862
 20
0.0916630517006103
 10
1.87918840880986
 20
0.0886146825663371
 10
1.884369720974255
 20
0.0844013110659334
 10
1.890026356379685
 20
0.0784311525147124
 10
1.895446450206169
 20
0.071118194317015
 10
1.900470483863267
 20
0.0625213411591103
 10
1.90493604788438
 20
0.0527477397400826
 10
1.907957375952714
 20
0.044329990497566
  0
LWPOLYLINE
  5
B9
330
90
100
AcDbEntity
  8
AM_9
100
AcDbPolyline
 90
       14
 70
     0
 43
0.0
 10
1.907730062635469
 20
-0.0450350204051873
 10
1.904353269215379
 20
-0.054174539655588
 10
1.899824180468048
 20
-0.063748147513864
 10
1.894798041304473
 20
-0.0720882625090042
 10
1.889468793021459
 20
-0.0790891929170009
 10
1.884050140215425
 20
-0.0846943343023061
 10
1.878735109109955
 20
-0.0889302642615116
 10
1.873663333074139
 20
-0.0918966008884169
 10
1.868859271427262
 20
-0.0937458162057414
 10
1.864114875233763
 20
-0.0946147040469498
 10
1.8587395589796
 20
-0.0943951061959022
 10
1.853820701422773
 20
-0.0930881558457093
 10
1.848872169260122
 20
-0.0907634681287827
 10
1.844463910819731
 20
-0.0878616775857408
  0
LWPOLYLINE
  5
BA
330
90
100
AcDbEntity
  8
AM_9
100
AcDbPolyline
 90
        3
 70
     0
 43
0.0
 10
1.855818942462835
 20
0.0937428239070952
 10
1.857722769587025
 20
0.0942097413856423
 10
1.862344346334542
 20
0.094684789639099
  0
LINE
  5
BB
330
90
100
AcDbEntity
  8
AM_9
100
AcDbLine
 10
1.844753806306671
 20
0.0880767408964577
 30
0.0
 11
1.84775153342684
 21
0.0901001074254068
 31
0.0
  0
ELLIPSE
  5
BC
330
90
100
AcDbEntity
  8
AM_9
100
AcDbEllipse
 10
1.877286158271048
 20
0.0000000000000003
 30
0.0
 11
6.084620899749646E-18
 21
0.09936940028726644
 31
0.0
210
0.0
220
0.0
230
1.0
 40
0.7071067811865482
 41
2.656480407116019
 42
6.283185307179586
  0
ELLIPSE
  5
BD
330
90
100
AcDbEntity
  8
AM_9
100
AcDbEllipse
 10
1.925617486975524
 20
0.0
 30
0.0
 11
8.036249332247539E-18
 21
0.131241911346891
 31
0.0
210
0.0
220
0.0
230
1.0
 40
0.7071067811865496
 41
2.654984555955169
 42
6.283185307179586
  0
ELLIPSE
  5
BE
330
90
100
AcDbEntity
  8
AM_9
100
AcDbEllipse
 10
2.001238307113989
 20
0.0000000000000003
 30
0.0
 11
6.357083428130968E-18
 21
0.1038190510530386
 31
0.0
210
0.0
220
0.0
230
1.0
 40
0.7071067811865497
 41
3.579974428543792
 42
5.729316246468922
  0
ELLIPSE
  5
BF
330
90
100
AcDbEntity
  8
AM_9
100
AcDbEllipse
 10
2.001238307113343
 20
-0.0000000000005248
 30
0.0
 11
6.357083428167539E-18
 21
0.1038190510536358
 31
0.0
210
0.0
220
0.0
230
1.0
 40
0.7071067811885987
 41
-0.531501995331225
 42
-0.4682959742277069
  0
ELLIPSE
  5
C0
330
90
100
AcDbEntity
  8
AM_9
100
AcDbEllipse
 10
1.954373730440802
 20
0.0000000000000004
 30
0.0
 11
8.079715312105978E-18
 21
0.1319517646676804
 31
0.0
210
0.0
220
0.0
230
1.0
 40
0.7071067811865469
 41
3.588483889103202
 42
5.844803532225577
  0
ELLIPSE
  5
C1
330
90
100
AcDbEntity
  8
AM_9
100
AcDbEllipse
 10
1.76805692136991
 20
0.0000000000000013
 30
0.0
 11
8.612328615003898E-18
 21
0.1406500000000022
 31
0.0
210
0.0
220
0.0
230
1.0
 40
0.7071067811865568
 41
0.0
 42
6.283185307179586
  0
ELLIPSE
  5
C2
330
90
100
AcDbEntity
  8
AM_9
100
AcDbEllipse
 10
1.768056921369907
 20
0.0000000000000002
 30
0.0
 11
7.124004163867268E-18
 21
0.1163438171532768
 31
0.0
210
0.0
220
0.0
230
1.0
 40
0.7071067811865472
 41
0.0
 42
6.283185307179586
  0
ELLIPSE
  5
C3
330
90
100
AcDbEntity
  8
AM_9
100
AcDbEllipse
 10
1.633938307211383
 20
0.0000000000000004
 30
0.0
 11
6.761045944280081E-18
 21
0.1104162595939888
 31
0.0
210
0.0
220
0.0
230
1.0
 40
0.7071067811865492
 41
0.0
 42
6.283185307179586
  0
LINE
  5
C5
330
90
100
AcDbEntity
  8
AM_4
100
AcDbLine
 10
1.876889370288436
 20
0.1118189926816821
 30
0.0
 11
1.864924657835954
 21
0.1218064730422816
 31
0.0
  0
LINE
  5
C6
330
90
100
AcDbEntity
  8
AM_4
100
AcDbLine
 10
1.864924657835954
 20
-0.121806473042281
 30
0.0
 11
1.876888220317449
 21
-0.1118199743330276
 31
0.0
  0
LWPOLYLINE
  5
C7
330
90
100
AcDbEntity
  8
AM_4
100
AcDbPolyline
 90
        3
 70
     0
 43
0.0
 10
1.811074794168366
 20
-0.1624086307230415
 10
1.838851459554214
 20
-0.1421988309996538
 10
1.864924657835954
 20
-0.121806473042281
  0
LWPOLYLINE
  5
C8
330
90
100
AcDbEntity
  8
AM_4
100
AcDbPolyline
 90
        3
 70
     0
 43
0.0
 10
1.864924657835954
 20
0.1218064730422816
 10
1.838972866367569
 20
0.1421075518826618
 10
1.811074794168366
 20
0.162408630723042
  0
LINE
  5
C9
330
90
100
AcDbEntity
  8
AM_4
100
AcDbLine
 10
1.811074794168366
 20
0.162408630723042
 30
0.0
 11
1.772179500650552
 21
0.162408630723042
 31
0.0
  0
LWPOLYLINE
  5
CA
330
90
100
AcDbEntity
  8
AM_4
100
AcDbPolyline
 90
        3
 70
     0
 43
0.0
 10
1.718329636982963
 20
0.1218064730422815
 10
1.744281428451349
 20
0.1421075518826617
 10
1.772179500650552
 20
0.162408630723042
  0
LWPOLYLINE
  5
CB
330
90
100
AcDbEntity
  8
AM_4
100
AcDbPolyline
 90
        3
 70
     0
 43
0.0
 10
1.672724931876664
 20
0.0812043153615211
 10
1.694451963616956
 20
0.1014141150849088
 10
1.718329636982963
 20
0.1218064730422815
  0
LWPOLYLINE
  5
CC
330
90
100
AcDbEntity
  8
AM_4
100
AcDbPolyline
 90
        3
 70
     0
 43
0.0
 10
1.811074794168366
 20
0.162408630723042
 10
1.789347762428074
 20
0.1421988309996543
 10
1.765470089062066
 20
0.1218064730422815
  0
LWPOLYLINE
  5
CD
330
90
100
AcDbEntity
  8
AM_4
100
AcDbPolyline
 90
        3
 70
     0
 43
0.0
 10
1.718329636982963
 20
-0.121806473042281
 10
1.694554144064405
 20
-0.1015053942019008
 10
1.672724931876664
 20
-0.0812043153615206
  0
LWPOLYLINE
  5
CE
330
90
100
AcDbEntity
  8
AM_4
100
AcDbPolyline
 90
        3
 70
     0
 43
0.0
 10
1.772179500650552
 20
-0.1624086307230415
 10
1.744402835264703
 20
-0.1421988309996537
 10
1.718329636982963
 20
-0.121806473042281
  0
LINE
  5
CF
330
90
100
AcDbEntity
  8
AM_4
100
AcDbLine
 10
1.811074794168366
 20
-0.1624086307230415
 30
0.0
 11
1.772179500650552
 21
-0.1624086307230415
 31
0.0
  0
LWPOLYLINE
  5
D0
330
90
100
AcDbEntity
  8
AM_4
100
AcDbPolyline
 90
        3
 70
     0
 43
0.0
 10
1.765470089062066
 20
-0.121806473042281
 10
1.789245581980625
 20
-0.1421075518826612
 10
1.811074794168366
 20
-0.1624086307230415
  0
LWPOLYLINE
  5
D1
330
90
100
AcDbEntity
  8
AM_4
100
AcDbPolyline
 90
        3
 70
     0
 43
0.0
 10
1.711620225394478
 20
-0.0812043153615206
 10
1.739396890780326
 20
-0.1014141150849083
 10
1.765470089062066
 20
-0.121806473042281
  0
LWPOLYLINE
  5
D2
330
90
100
AcDbEntity
  8
AM_4
100
AcDbPolyline
 90
        3
 70
     0
 43
0.0
 10
1.765470089062066
 20
0.1218064730422815
 10
1.739518297593681
 20
0.1015053942019013
 10
1.711620225394478
 20
0.0812043153615211
  0
LINE
  5
D3
330
90
100
AcDbEntity
  8
AM_4
100
AcDbLine
 10
1.711620225394478
 20
0.0812043153615211
 30
0.0
 11
1.672724931876664
 21
0.0812043153615211
 31
0.0
  0
LWPOLYLINE
  5
D4
330
90
100
AcDbEntity
  8
AM_4
100
AcDbPolyline
 90
        4
 70
     0
 43
0.0
 10
1.668602352596019
 20
0.0000000000000003
 10
1.669248122531101
 20
0.0311508759219518
 10
1.671099711220077
 20
0.0623017518439034
 10
1.672724931876664
 20
0.0812043153615211
  0
LWPOLYLINE
  5
D5
330
90
100
AcDbEntity
  8
AM_4
100
AcDbPolyline
 90
        3
 70
     0
 43
0.0
 10
1.672724931876664
 20
-0.0812043153615206
 10
1.669700115053885
 20
-0.0407847159147452
 10
1.668602352596019
 20
0.0000000000000003
  0
LINE
  5
D6
330
90
100
AcDbEntity
  8
AM_4
100
AcDbLine
 10
1.711620225394478
 20
-0.0812043153615206
 30
0.0
 11
1.672724931876664
 21
-0.0812043153615206
 31
0.0
  0
LWPOLYLINE
  5
D7
330
90
100
AcDbEntity
  8
AM_4
100
AcDbPolyline
 90
        3
 70
     0
 43
0.0
 10
1.715742804675122
 20
0.0000000000000003
 10
1.714654655400209
 20
-0.0406021576807602
 10
1.711620225394478
 20
-0.0812043153615206
  0
LWPOLYLINE
  5
D8
330
90
100
AcDbEntity
  8
AM_4
100
AcDbPolyline
 90
        4
 70
     0
 43
0.0
 10
1.711620225394478
 20
0.0812043153615211
 10
1.713245446051065
 20
0.0623017518439034
 10
1.71509326223209
 20
0.0312428256208207
 10
1.715742804675122
 20
0.0000000000000003
  0
ELLIPSE
  5
D9
330
90
100
AcDbEntity
  8
AM_4
100
AcDbEllipse
 10
1.815197373449011
 20
-0.000000000000001
 30
0.0
 11
8.612328615003891E-18
 21
0.1406500000000021
 31
0.0
210
0.0
220
0.0
230
1.0
 40
0.7071067811865417
 41
5.625871263975768
 42
10.08209200397321
  0
ELLIPSE
  5
DA
330
90
100
AcDbEntity
  8
AM_4
100
AcDbEllipse
 10
1.837344346334528
 20
-0.0000000000000025
 30
0.0
 11
6.694498085252952E-18
 21
0.1093294505797741
 31
0.0
210
0.0
220
0.0
230
1.0
 40
0.7071067811865701
 41
5.928986666165727
 42
9.77897660178326
  0
LINE
  5
DB
330
90
100
AcDbEntity
  8
AM_4
100
AcDbLine
 10
1.844521154757387
 20
-0.087904418563292
 30
0.0
 11
1.882343182471429
 21
-0.1160995625890068
 31
0.0
  0
LINE
  5
DC
330
90
100
AcDbEntity
  8
AM_4
100
AcDbLine
 10
1.882343182471429
 20
0.1160995625890073
 30
0.0
 11
1.844521154757387
 21
0.0879044185632926
 31
0.0
  0
ELLIPSE
  5
DD
330
90
100
AcDbEntity
  8
AM_4
100
AcDbEllipse
 10
1.877286158271048
 20
0.0000000000000003
 30
0.0
 11
6.084620899749654E-18
 21
0.09936940028726657
 31
0.0
210
0.0
220
0.0
230
1.0
 40
0.7071067811865407
 41
0.4851122464737792
 42
2.656480407116014
  0
LWPOLYLINE
  5
DE
330
90
100
AcDbEntity
  8
AM_4
100
AcDbPolyline
 90
        7
 70
     0
 43
0.0
 10
1.94055929891203
 20
0.1359265219950583
 10
1.93076410676153
 20
0.1354093750194352
 10
1.918287794668191
 20
0.1332286637846474
 10
1.906222144013058
 20
0.1294104812719174
 10
1.894675645297816
 20
0.1240231425547451
 10
1.883744519347577
 20
0.1171266934748745
 10
1.882056950493877
 20
0.1158854461454458
  0
LWPOLYLINE
  5
DF
330
90
100
AcDbEntity
  8
AM_4
100
AcDbPolyline
 90
       12
 70
     0
 43
0.0
 10
1.882163526855908
 20
-0.1159653438381201
 10
1.88391429044294
 20
-0.1172487746106073
 10
1.895744207056458
 20
-0.1245989095963628
 10
1.908131340106801
 20
-0.13013253023364
 10
1.920851586323644
 20
-0.1338192257734626
 10
1.933699230793406
 20
-0.1356731429244709
 10
1.946491296052658
 20
-0.1357371129161349
 10
1.95906835856111
 20
-0.1340697019025827
 10
1.971271473542049
 20
-0.1307427120278466
 10
1.982986666345848
 20
-0.1258266135115363
 10
1.994115097730911
 20
-0.119383937244529
 10
1.994879852414112
 20
-0.1188703579580233
  0
LWPOLYLINE
  5
E0
330
90
100
AcDbEntity
  8
AM_4
100
AcDbPolyline
 90
        6
 70
     0
 43
0.0
 10
1.99467328859323
 20
0.1190100356046037
 10
1.989048075230268
 20
0.1225492028036579
 10
1.976806335393162
 20
0.1286419493240895
 10
1.964164804853557
 20
0.1328915382893275
 10
1.95133550700353
 20
0.1353003175401926
 10
1.94055929891203
 20
0.1359265219950583
  0
ELLIPSE
  5
E1
330
90
100
AcDbEntity
  8
AM_4
100
AcDbEllipse
 10
1.925617486975524
 20
0.0000000000000001
 30
0.0
 11
8.036249332247504E-18
 21
0.1312419113468904
 31
0.0
210
0.0
220
0.0
230
1.0
 40
0.7071067811865493
 41
0.4877902661948816
 42
2.654984555955172
  0
ELLIPSE
  5
E2
330
90
100
AcDbEntity
  8
AM_4
100
AcDbEllipse
 10
2.012008760879266
 20
0.0000000000000003
 30
0.0
 11
-1.484390032546748E-17
 21
-0.08080642971672804
 31
0.0
210
0.0
220
0.0
230
1.0
 40
0.7071067811865489
 41
0.0
 42
6.283185307179586
  0
LWPOLYLINE
  5
E3
330
90
100
AcDbEntity
  8
AM_4
100
AcDbPolyline
 90
       18
 70
     0
 43
0.0
 10
2.032518933224138
 20
-0.0939225471547723
 10
2.039060178244256
 20
-0.0890593350620291
 10
2.047441694115315
 20
-0.0811120657001694
 10
2.054992744122431
 20
-0.0717896680832574
 10
2.061575613916444
 20
-0.0612259703205975
 10
2.067062302538185
 20
-0.0496014682718182
 10
2.07135014981602
 20
-0.0371288100679356
 10
2.074366725876107
 20
-0.024037424653414
 10
2.076069144334631
 20
-0.0105513379952826
 10
2.076435027163736
 20
0.003114845203738
 10
2.075455854640101
 20
0.0167507372722868
 10
2.073134939092557
 20
0.0301455339530932
 10
2.069486029800703
 20
0.04309241362793
 10
2.064533078830111
 20
0.0553850341020914
 10
2.058314256614031
 20
0.0668118470275047
 10
2.050899754176478
 20
0.0771422914465058
 10
2.04240167399107
 20
0.086146047764155
 10
2.034686953499691
 20
0.0924254480799529
  0
ELLIPSE
  5
E4
330
90
100
AcDbEntity
  8
AM_4
100
AcDbEllipse
 10
1.954373730440795
 20
-0.0000000000000013
 30
0.0
 11
8.079715312106052E-18
 21
0.1319517646676816
 31
0.0
210
0.0
220
0.0
230
1.0
 40
0.7071067811865639
 41
5.844803532225527
 42
9.86315973572345
  0
ELLIPSE
  5
E5
330
90
100
AcDbEntity
  8
AM_4
100
AcDbEllipse
 10
2.001238307113979
 20
-0.0000000000000021
 30
0.0
 11
6.357083428131151E-18
 21
0.1038190510530416
 31
0.0
210
0.0
220
0.0
230
1.0
 40
0.7071067811865678
 41
5.844803532225487
 42
9.863159735723498
  0
LINE
  5
E6
330
90
100
AcDbEntity
  8
AM_4
100
AcDbLine
 10
2.032399493647121
 20
0.0940018950300907
 30
0.0
 11
1.993978923423013
 21
0.1194743720494003
 31
0.0
  0
LINE
  5
E7
330
90
100
AcDbEntity
  8
AM_4
100
AcDbLine
 10
1.993978923423013
 20
-0.1194743720493997
 30
0.0
 11
2.032399493647121
 21
-0.0940018950300901
 31
0.0
  0
ELLIPSE
  5
E8
330
90
100
AcDbEntity
  8
AM_4
100
AcDbEllipse
 10
2.001238307113981
 20
-0.0000000000000235
 30
0.0
 11
6.357083428132565E-18
 21
0.1038190510530647
 31
0.0
210
0.0
220
0.0
230
1.0
 40
0.707106781186419
 41
-0.4682959742233654
 42
-0.4383817749540659
  0
ENDBLK
  5
93
330
90
100
AcDbEntity
  8
0
100
AcDbBlockEnd
  0
BLOCK
  5
EB
330
E9
100
AcDbEntity
  8
0
100
AcDbBlockBegin
  2
3_128659_0_in_126452_4
 70
     2
 10
0.0
 20
0.0
 30
0.0
  3
3_128659_0_in_126452_4
  1

  0
ATTDEF
  5
ED
330
E9
100
AcDbEntity
  8
AM_6
100
AcDbText
 10
6.770932289100984
 20
0.7499999999999998
 30
0.0
 40
0.5
  1
D-Lok Insert Inch Bore
100
AcDbAttributeDefinition
  3

  2
NN
 70
     8
280
     0
  0
ATTDEF
  5
EE
330
E9
100
AcDbEntity
  8
AM_6
100
AcDbText
 10
6.770932289100984
 20
0.2499999999999998
 30
0.0
 40
0.5
  1
D-LOK
100
AcDbAttributeDefinition
  3

  2
NT
 70
     8
280
     0
  0
ATTDEF
  5
EF
330
E9
100
AcDbEntity
  8
AM_6
100
AcDbText
 10
6.770932289100984
 20
-0.2500000000000002
 30
0.0
 40
0.5
  1
128659
100
AcDbAttributeDefinition
  3

  2
NB
 70
     8
280
     0
  0
ATTDEF
  5
F0
330
E9
100
AcDbEntity
  8
AM_6
100
AcDbText
 10
6.770932289100984
 20
-0.7500000000000002
 30
0.0
 40
0.5
  1
$PN.
100
AcDbAttributeDefinition
  3

  2
NBSYN
 70
     8
280
     0
  0
ATTDEF
  5
F1
330
E9
100
AcDbEntity
  8
AM_6
100
AcDbText
 10
6.770932289100984
 20
-1.25
 30
0.0
 40
0.5
  1
128659
100
AcDbAttributeDefinition
  3

  2
LINA
 70
     8
280
     0
  0
ATTDEF
  5
F2
330
E9
100
AcDbEntity
  8
AM_6
100
AcDbText
 10
6.770932289100984
 20
-1.75
 30
0.0
 40
0.5
  1
210
100
AcDbAttributeDefinition
  3

  2
SERIES
 70
     8
280
     0
  0
ATTDEF
  5
F3
330
E9
100
AcDbEntity
  8
AM_6
100
AcDbText
 10
6.770932289100984
 20
-2.25
 30
0.0
 40
0.5
  1
1-15/16
100
AcDbAttributeDefinition
  3

  2
SS
 70
     8
280
     0
  0
ATTDEF
  5
F4
330
E9
100
AcDbEntity
  8
AM_6
100
AcDbText
 10
6.770932289100984
 20
-2.75
 30
0.0
 40
0.5
  1
128659
100
AcDbAttributeDefinition
  3

  2
PN
 70
     8
280
     0
  0
ATTDEF
  5
F5
330
E9
100
AcDbEntity
  8
AM_6
100
AcDbText
 10
6.770932289100984
 20
-3.25
 30
0.0
 40
0.5
  1
INS-DL-115
100
AcDbAttributeDefinition
  3

  2
DESCRIPTION
 70
     8
280
     0
  0
ATTDEF
  5
F6
330
E9
100
AcDbEntity
  8
AM_6
100
AcDbText
 10
6.770932289100984
 20
-3.75
 30
0.0
 40
0.5
  1
3.0
100
AcDbAttributeDefinition
  3

  2
WEIGHT
 70
     8
280
     0
  0
ATTDEF
  5
F7
330
E9
100
AcDbEntity
  8
AM_6
100
AcDbText
 10
6.770932289100984
 20
-4.25
 30
0.0
 40
0.5
  1
2.01
100
AcDbAttributeDefinition
  3

  2
A
 70
     8
280
     0
  0
ATTDEF
  5
F8
330
E9
100
AcDbEntity
  8
AM_6
100
AcDbText
 10
6.770932289100984
 20
-4.75
 30
0.0
 40
0.5
  1
0.87
100
AcDbAttributeDefinition
  3

  2
C
 70
     8
280
     0
  0
ATTDEF
  5
F9
330
E9
100
AcDbEntity
  8
AM_6
100
AcDbText
 10
6.770932289100984
 20
-5.25
 30
0.0
 40
0.5
  1
3.5433
100
AcDbAttributeDefinition
  3

  2
D
 70
     8
280
     0
  0
ATTDEF
  5
FA
330
E9
100
AcDbEntity
  8
AM_6
100
AcDbText
 10
6.770932289100984
 20
-5.75
 30
0.0
 40
0.5
  1
0.25
100
AcDbAttributeDefinition
  3

  2
J
 70
     8
280
     0
  0
ATTDEF
  5
FB
330
E9
100
AcDbEntity
  8
AM_6
100
AcDbText
 10
6.770932289100984
 20
-6.25
 30
0.0
 40
0.5
  1
3.24
100
AcDbAttributeDefinition
  3

  2
L
 70
     8
280
     0
  0
ATTDEF
  5
FC
330
E9
100
AcDbEntity
  8
AM_6
100
AcDbText
 10
6.770932289100984
 20
-6.75
 30
0.0
 40
0.5
  1
1/4-28
100
AcDbAttributeDefinition
  3

  2
N
 70
     8
280
     0
  0
ATTDEF
  5
FD
330
E9
100
AcDbEntity
  8
AM_6
100
AcDbText
 10
6.770932289100984
 20
-7.25
 30
0.0
 40
0.5
  1
0.75
100
AcDbAttributeDefinition
  3

  2
W
 70
     8
280
     0
  0
ATTDEF
  5
FE
330
E9
100
AcDbEntity
  8
AM_6
100
AcDbText
 10
6.770932289100984
 20
-7.75
 30
0.0
 40
0.5
  1
1.26
100
AcDbAttributeDefinition
  3

  2
Y
 70
     8
280
     0
  0
ATTDEF
  5
FF
330
E9
100
AcDbEntity
  8
AM_6
100
AcDbText
 10
6.770932289100984
 20
-8.25
 30
0.0
 40
0.5
  1
2.43
100
AcDbAttributeDefinition
  3

  2
Z
 70
     8
280
     0
  0
ATTDEF
  5
100
330
E9
100
AcDbEntity
  8
AM_6
100
AcDbText
 10
6.770932289100984
 20
-8.75
 30
0.0
 40
0.5
  1
baldor
100
AcDbAttributeDefinition
  3

  2
COMPANY
 70
     8
280
     0
  0
LINE
  5
101
330
E9
100
AcDbEntity
  8
AM_9
100
AcDbLine
 10
0.96875
 20
-1.1952
 30
0.0
 11
0.96875
 21
0.6851999999999999
 31
0.0
  0
LINE
  5
102
330
E9
100
AcDbEntity
  8
AM_9
100
AcDbLine
 10
-0.96875
 20
0.6851999999999999
 30
0.0
 11
-0.96875
 21
-1.1952
 31
0.0
  0
LINE
  5
103
330
E9
100
AcDbEntity
  8
AM_9
100
AcDbLine
 10
0.96875
 20
0.6851999999999999
 30
0.0
 11
1.03355
 21
0.7499999999999998
 31
0.0
  0
LINE
  5
104
330
E9
100
AcDbEntity
  8
AM_9
100
AcDbLine
 10
-1.03355
 20
0.7499999999999998
 30
0.0
 11
-0.96875
 21
0.6851999999999999
 31
0.0
  0
LINE
  5
105
330
E9
100
AcDbEntity
  8
AM_9
100
AcDbLine
 10
-0.96875
 20
-1.1952
 30
0.0
 11
-1.03355
 21
-1.26
 31
0.0
  0
LINE
  5
106
330
E9
100
AcDbEntity
  8
AM_9
100
AcDbLine
 10
1.03355
 20
-1.26
 30
0.0
 11
0.96875
 21
-1.1952
 31
0.0
  0
LINE
  5
107
330
E9
100
AcDbEntity
  8
AM_9
100
AcDbLine
 10
1.215
 20
-0.63
 30
0.0
 11
1.215
 21
-0.4350000000000001
 31
0.0
  0
LINE
  5
108
330
E9
100
AcDbEntity
  8
AM_9
100
AcDbLine
 10
-1.215
 20
-0.4350000000000001
 30
0.0
 11
-1.215
 21
-0.63
 31
0.0
  0
LINE
  5
109
330
E9
100
AcDbEntity
  8
AM_9
100
AcDbLine
 10
-1.1502
 20
0.7499999999999998
 30
0.0
 11
1.1502
 21
0.7499999999999998
 31
0.0
  0
LINE
  5
10A
330
E9
100
AcDbEntity
  8
AM_9
100
AcDbLine
 10
-1.1502
 20
0.7499999999999998
 30
0.0
 11
-1.215
 21
0.6851999999999998
 31
0.0
  0
LINE
  5
10B
330
E9
100
AcDbEntity
  8
AM_9
100
AcDbLine
 10
1.215
 20
0.6851999999999998
 30
0.0
 11
1.1502
 21
0.7499999999999998
 31
0.0
  0
LINE
  5
10C
330
E9
100
AcDbEntity
  8
AM_9
100
AcDbLine
 10
-1.215
 20
0.6851999999999998
 30
0.0
 11
1.215
 21
0.6851999999999998
 31
0.0
  0
LINE
  5
10D
330
E9
100
AcDbEntity
  8
AM_9
100
AcDbLine
 10
1.215
 20
0.4349999999999999
 30
0.0
 11
1.215
 21
0.6851999999999998
 31
0.0
  0
LINE
  5
10E
330
E9
100
AcDbEntity
  8
AM_9
100
AcDbLine
 10
-1.215
 20
0.6851999999999998
 30
0.0
 11
-1.215
 21
0.4349999999999999
 31
0.0
  0
LINE
  5
10F
330
E9
100
AcDbEntity
  8
AM_9
100
AcDbLine
 10
1.62
 20
-0.9304117952959868
 30
0.0
 11
1.62
 21
-0.6948000000000001
 31
0.0
  0
LINE
  5
110
330
E9
100
AcDbEntity
  8
AM_9
100
AcDbLine
 10
-1.62
 20
-0.6948000000000001
 30
0.0
 11
-1.62
 21
-0.9304117952959868
 31
0.0
  0
LINE
  5
111
330
E9
100
AcDbEntity
  8
AM_9
100
AcDbLine
 10
-1.62
 20
-0.6948000000000001
 30
0.0
 11
1.62
 21
-0.6948000000000001
 31
0.0
  0
LINE
  5
112
330
E9
100
AcDbEntity
  8
AM_9
100
AcDbLine
 10
-1.5552
 20
-0.63
 30
0.0
 11
1.5552
 21
-0.63
 31
0.0
  0
LINE
  5
113
330
E9
100
AcDbEntity
  8
AM_9
100
AcDbLine
 10
-1.5552
 20
-0.63
 30
0.0
 11
-1.62
 21
-0.6948000000000001
 31
0.0
  0
LINE
  5
114
330
E9
100
AcDbEntity
  8
AM_9
100
AcDbLine
 10
1.62
 20
-0.6948000000000001
 30
0.0
 11
1.5552
 21
-0.63
 31
0.0
  0
LINE
  5
115
330
E9
100
AcDbEntity
  8
AM_9
100
AcDbLine
 10
1.688316666666667
 20
-0.3000000000000002
 30
0.0
 11
1.688316666666667
 21
-0.2000000000000001
 31
0.0
  0
LINE
  5
116
330
E9
100
AcDbEntity
  8
AM_9
100
AcDbLine
 10
-1.688316666666667
 20
-0.2000000000000001
 30
0.0
 11
-1.688316666666667
 21
-0.3000000000000002
 31
0.0
  0
LINE
  5
117
330
E9
100
AcDbEntity
  8
AM_9
100
AcDbLine
 10
-1.67805057209251
 20
0.4349999999999999
 30
0.0
 11
1.678050572089568
 21
0.4349999999999999
 31
0.0
  0
ARC
  5
118
330
E9
100
AcDbEntity
  8
AM_9
100
AcDbCircle
 10
1.67805057209251
 20
0.3849999999999997
 30
0.0
 40
0.0500000000000002
100
AcDbArc
 50
12.92189495844629
 51
90.0
  0
ARC
  5
119
330
E9
100
AcDbEntity
  8
AM_9
100
AcDbCircle
 10
-1.67805057209251
 20
0.3849999999999997
 30
0.0
 40
0.0500000000000002
100
AcDbArc
 50
90.0
 51
167.0781050415538
  0
LINE
  5
11A
330
E9
100
AcDbEntity
  8
AM_9
100
AcDbLine
 10
-1.678050572092514
 20
-0.4350000000000001
 30
0.0
 11
1.678049671860283
 21
-0.4350000000000001
 31
0.0
  0
ARC
  5
11B
330
E9
100
AcDbEntity
  8
AM_9
100
AcDbCircle
 10
1.678050572092514
 20
-0.3849999999999992
 30
0.0
 40
0.0500000000000009
100
AcDbArc
 50
270.0
 51
347.0781236960814
  0
ARC
  5
11C
330
E9
100
AcDbEntity
  8
AM_9
100
AcDbCircle
 10
-1.678050572092514
 20
-0.3849999999999992
 30
0.0
 40
0.0500000000000009
100
AcDbArc
 50
192.9218763039185
 51
270.0
  0
LINE
  5
11D
330
E9
100
AcDbEntity
  8
AM_9
100
AcDbLine
 10
-1.726784366253863
 20
-0.3961811138371494
 30
0.0
 11
1.726784366253893
 21
-0.3961811138371494
 31
0.0
  0
LINE
  5
11E
330
E9
100
AcDbEntity
  8
AM_9
100
AcDbLine
 10
-1.746065211411074
 20
-0.3
 30
0.0
 11
1.746065211411104
 21
-0.3
 31
0.0
  0
ARC
  5
11F
330
E9
100
AcDbEntity
  8
AM_9
100
AcDbCircle
 10
0.0000000000397653
 20
-0.0000000000074475
 30
0.0
 40
1.771649999959605
100
AcDbArc
 50
347.0781002291872
 51
350.1688747033955
  0
ARC
  5
120
330
E9
100
AcDbEntity
  8
AM_9
100
AcDbCircle
 10
-0.0000000000740148
 20
-0.0000000000148313
 30
0.0
 40
1.771649999924572
100
AcDbArc
 50
189.7490796090201
 51
192.9218997708278
  0
LINE
  5
121
330
E9
100
AcDbEntity
  8
AM_9
100
AcDbLine
 10
-1.760324891177762
 20
-0.2000000000000001
 30
0.0
 11
1.760324891177771
 21
-0.2000000000000001
 31
0.0
  0
LINE
  5
122
330
E9
100
AcDbEntity
  8
AM_9
100
AcDbLine
 10
-1.726784362613476
 20
0.3961811297040406
 30
0.0
 11
1.726784362613486
 21
0.3961811297040406
 31
0.0
  0
ARC
  5
123
330
E9
100
AcDbEntity
  8
AM_9
100
AcDbCircle
 10
-0.0000000000462748
 20
-0.0000000000026031
 30
0.0
 40
1.771650000045694
100
AcDbArc
 50
353.5181126600741
 51
12.92190029698086
  0
ARC
  5
124
330
E9
100
AcDbEntity
  8
AM_9
100
AcDbCircle
 10
-0.0000000000006324
 20
0.0000000000000359
 30
0.0
 40
1.771649999999385
100
AcDbArc
 50
167.078099702763
 51
186.4818873401819
  0
LINE
  5
125
330
E9
100
AcDbEntity
  8
AM_4
100
AcDbLine
 10
1.62
 20
-1.1952
 30
0.0
 11
1.62
 21
-0.9304117952959868
 31
0.0
  0
LINE
  5
126
330
E9
100
AcDbEntity
  8
AM_4
100
AcDbLine
 10
-1.62
 20
-0.9304117952959868
 30
0.0
 11
-1.62
 21
-1.1952
 31
0.0
  0
LINE
  5
127
330
E9
100
AcDbEntity
  8
AM_4
100
AcDbLine
 10
-1.5552
 20
-1.26
 30
0.0
 11
1.5552
 21
-1.26
 31
0.0
  0
LINE
  5
128
330
E9
100
AcDbEntity
  8
AM_4
100
AcDbLine
 10
-1.62
 20
-1.1952
 30
0.0
 11
1.62
 21
-1.1952
 31
0.0
  0
LINE
  5
129
330
E9
100
AcDbEntity
  8
AM_4
100
AcDbLine
 10
1.5552
 20
-1.26
 30
0.0
 11
1.62
 21
-1.1952
 31
0.0
  0
LINE
  5
12A
330
E9
100
AcDbEntity
  8
AM_4
100
AcDbLine
 10
-1.62
 20
-1.1952
 30
0.0
 11
-1.5552
 21
-1.26
 31
0.0
  0
ENDBLK
  5
EC
330
E9
100
AcDbEntity
  8
0
100
AcDbBlockEnd
  0
BLOCK
  5
12D
330
12B
100
AcDbEntity
  8
0
100
AcDbBlockBegin
  2
4_126452h_0_in_126452_4
 70
     2
 10
0.0
 20
0.0
 30
0.0
  3
4_126452h_0_in_126452_4
  1

  0
ATTDEF
  5
12F
330
12B
100
AcDbEntity
  8
AM_6
100
AcDbText
 10
9.440000000000001
 20
1.265
 30
0.0
 40
0.5
  1
P2B-DLH-E - Inch - Housing
100
AcDbAttributeDefinition
  3

  2
NN
 70
     8
280
     0
  0
ATTDEF
  5
130
330
12B
100
AcDbEntity
  8
AM_6
100
AcDbText
 10
9.440000000000001
 20
0.7650000000000001
 30
0.0
 40
0.5
  1
DLH-E Expansion Normal Duty Pillow Blocks
100
AcDbAttributeDefinition
  3

  2
NT
 70
     8
280
     0
  0
ATTDEF
  5
131
330
12B
100
AcDbEntity
  8
AM_6
100
AcDbText
 10
9.440000000000001
 20
0.2650000000000001
 30
0.0
 40
0.5
  1
126452h
100
AcDbAttributeDefinition
  3

  2
NB
 70
     8
280
     0
  0
ATTDEF
  5
132
330
12B
100
AcDbEntity
  8
AM_6
100
AcDbText
 10
9.440000000000001
 20
-0.2349999999999999
 30
0.0
 40
0.5
  1
$PN.h
100
AcDbAttributeDefinition
  3

  2
NBSYN
 70
     8
280
     0
  0
ATTDEF
  5
133
330
12B
100
AcDbEntity
  8
AM_6
100
AcDbText
 10
9.440000000000001
 20
-0.7349999999999999
 30
0.0
 40
0.5
  1
126452
100
AcDbAttributeDefinition
  3

  2
LINA
 70
     8
280
     0
  0
ATTDEF
  5
134
330
12B
100
AcDbEntity
  8
AM_6
100
AcDbText
 10
9.440000000000001
 20
-1.235
 30
0.0
 40
0.5
  1
210
100
AcDbAttributeDefinition
  3

  2
SERIES
 70
     8
280
     0
  0
ATTDEF
  5
135
330
12B
100
AcDbEntity
  8
AM_6
100
AcDbText
 10
9.440000000000001
 20
-1.735
 30
0.0
 40
0.5
  1
1-15/16
100
AcDbAttributeDefinition
  3

  2
SS
 70
     8
280
     0
  0
ATTDEF
  5
136
330
12B
100
AcDbEntity
  8
AM_6
100
AcDbText
 10
9.440000000000001
 20
-2.235
 30
0.0
 40
0.5
  1
1.93750
100
AcDbAttributeDefinition
  3

  2
SS1
 70
     8
280
     0
  0
ATTDEF
  5
137
330
12B
100
AcDbEntity
  8
AM_6
100
AcDbText
 10
9.440000000000001
 20
-2.735
 30
0.0
 40
0.5
  1
126452
100
AcDbAttributeDefinition
  3

  2
PN
 70
     8
280
     0
  0
ATTDEF
  5
138
330
12B
100
AcDbEntity
  8
AM_6
100
AcDbText
 10
9.440000000000001
 20
-3.235
 30
0.0
 40
0.5
  1
P2B-DLH-115-E
100
AcDbAttributeDefinition
  3

  2
DESCRIPTION
 70
     8
280
     0
  0
ATTDEF
  5
139
330
12B
100
AcDbEntity
  8
AM_6
100
AcDbText
 10
9.440000000000001
 20
-3.735
 30
0.0
 40
0.5
  1
10.8
100
AcDbAttributeDefinition
  3

  2
WEIGHT
 70
     8
280
     0
  0
ATTDEF
  5
13A
330
12B
100
AcDbEntity
  8
AM_6
100
AcDbText
 10
9.440000000000001
 20
-4.234999999999999
 30
0.0
 40
0.5
  1
3.543300
100
AcDbAttributeDefinition
  3

  2
BOD
 70
     8
280
     0
  0
ATTDEF
  5
13B
330
12B
100
AcDbEntity
  8
AM_6
100
AcDbText
 10
9.440000000000001
 20
-4.734999999999999
 30
0.0
 40
0.5
  1
2.01
100
AcDbAttributeDefinition
  3

  2
A
 70
     8
280
     0
  0
ATTDEF
  5
13C
330
12B
100
AcDbEntity
  8
AM_6
100
AcDbText
 10
9.440000000000001
 20
-5.234999999999999
 30
0.0
 40
0.5
  1
2.010000
100
AcDbAttributeDefinition
  3

  2
A1
 70
     8
280
     0
  0
ATTDEF
  5
13D
330
12B
100
AcDbEntity
  8
AM_6
100
AcDbText
 10
9.440000000000001
 20
-5.734999999999999
 30
0.0
 40
0.5
  1
8.88
100
AcDbAttributeDefinition
  3

  2
B
 70
     8
280
     0
  0
ATTDEF
  5
13E
330
12B
100
AcDbEntity
  8
AM_6
100
AcDbText
 10
9.440000000000001
 20
-6.234999999999999
 30
0.0
 40
0.5
  1
8.880000
100
AcDbAttributeDefinition
  3

  2
B1
 70
     8
280
     0
  0
ATTDEF
  5
13F
330
12B
100
AcDbEntity
  8
AM_6
100
AcDbText
 10
9.440000000000001
 20
-6.734999999999999
 30
0.0
 40
0.5
  1
2.30
100
AcDbAttributeDefinition
  3

  2
C
 70
     8
280
     0
  0
ATTDEF
  5
140
330
12B
100
AcDbEntity
  8
AM_6
100
AcDbText
 10
9.440000000000001
 20
-7.234999999999999
 30
0.0
 40
0.5
  1
2.300000
100
AcDbAttributeDefinition
  3

  2
C1
 70
     8
280
     0
  0
ATTDEF
  5
141
330
12B
100
AcDbEntity
  8
AM_6
100
AcDbText
 10
9.440000000000001
 20
-7.734999999999999
 30
0.0
 40
0.5
  1
6.38
100
AcDbAttributeDefinition
  3

  2
DMIN
 70
     8
280
     0
  0
ATTDEF
  5
142
330
12B
100
AcDbEntity
  8
AM_6
100
AcDbText
 10
9.440000000000001
 20
-8.235
 30
0.0
 40
0.5
  1
6.380000
100
AcDbAttributeDefinition
  3

  2
DMIN1
 70
     8
280
     0
  0
ATTDEF
  5
143
330
12B
100
AcDbEntity
  8
AM_6
100
AcDbText
 10
9.440000000000001
 20
-8.735
 30
0.0
 40
0.5
  1
7.44
100
AcDbAttributeDefinition
  3

  2
DMAX
 70
     8
280
     0
  0
ATTDEF
  5
144
330
12B
100
AcDbEntity
  8
AM_6
100
AcDbText
 10
9.440000000000001
 20
-9.235
 30
0.0
 40
0.5
  1
7.440000
100
AcDbAttributeDefinition
  3

  2
DMAX1
 70
     8
280
     0
  0
ATTDEF
  5
145
330
12B
100
AcDbEntity
  8
AM_6
100
AcDbText
 10
9.440000000000001
 20
-9.735
 30
0.0
 40
0.5
  1
5/8
100
AcDbAttributeDefinition
  3

  2
F
 70
     8
280
     0
  0
ATTDEF
  5
146
330
12B
100
AcDbEntity
  8
AM_6
100
AcDbText
 10
9.440000000000001
 20
-10.235
 30
0.0
 40
0.5
  1
0.625000
100
AcDbAttributeDefinition
  3

  2
F1
 70
     8
280
     0
  0
ATTDEF
  5
147
330
12B
100
AcDbEntity
  8
AM_6
100
AcDbText
 10
9.440000000000001
 20
-10.735
 30
0.0
 40
0.5
  1
1.21
100
AcDbAttributeDefinition
  3

  2
G
 70
     8
280
     0
  0
ATTDEF
  5
148
330
12B
100
AcDbEntity
  8
AM_6
100
AcDbText
 10
9.440000000000001
 20
-11.235
 30
0.0
 40
0.5
  1
1.210000
100
AcDbAttributeDefinition
  3

  2
G1
 70
     8
280
     0
  0
ATTDEF
  5
149
330
12B
100
AcDbEntity
  8
AM_6
100
AcDbText
 10
9.440000000000001
 20
-11.735
 30
0.0
 40
0.5
  1
0.88
100
AcDbAttributeDefinition
  3

  2
H
 70
     8
280
     0
  0
ATTDEF
  5
14A
330
12B
100
AcDbEntity
  8
AM_6
100
AcDbText
 10
9.440000000000001
 20
-12.235
 30
0.0
 40
0.5
  1
0.880000
100
AcDbAttributeDefinition
  3

  2
H1
 70
     8
280
     0
  0
ATTDEF
  5
14B
330
12B
100
AcDbEntity
  8
AM_6
100
AcDbText
 10
9.440000000000001
 20
-12.735
 30
0.0
 40
0.5
  1
4.96
100
AcDbAttributeDefinition
  3

  2
J
 70
     8
280
     0
  0
ATTDEF
  5
14C
330
12B
100
AcDbEntity
  8
AM_6
100
AcDbText
 10
9.440000000000001
 20
-13.235
 30
0.0
 40
0.5
  1
4.960000
100
AcDbAttributeDefinition
  3

  2
J1
 70
     8
280
     0
  0
ATTDEF
  5
14D
330
12B
100
AcDbEntity
  8
AM_6
100
AcDbText
 10
9.440000000000001
 20
-13.735
 30
0.0
 40
0.5
  1
3.24
100
AcDbAttributeDefinition
  3

  2
L
 70
     8
280
     0
  0
ATTDEF
  5
14E
330
12B
100
AcDbEntity
  8
AM_6
100
AcDbText
 10
9.440000000000001
 20
-14.235
 30
0.0
 40
0.5
  1
3.240000
100
AcDbAttributeDefinition
  3

  2
L1
 70
     8
280
     0
  0
ATTDEF
  5
14F
330
12B
100
AcDbEntity
  8
AM_6
100
AcDbText
 10
9.440000000000001
 20
-14.735
 30
0.0
 40
0.5
  1
2.50
100
AcDbAttributeDefinition
  3

  2
M
 70
     8
280
     0
  0
ATTDEF
  5
150
330
12B
100
AcDbEntity
  8
AM_6
100
AcDbText
 10
9.440000000000001
 20
-15.235
 30
0.0
 40
0.5
  1
2.500000
100
AcDbAttributeDefinition
  3

  2
M1
 70
     8
280
     0
  0
ATTDEF
  5
151
330
12B
100
AcDbEntity
  8
AM_6
100
AcDbText
 10
9.440000000000001
 20
-15.735
 30
0.0
 40
0.5
  1
0.75
100
AcDbAttributeDefinition
  3

  2
R
 70
     8
280
     0
  0
ATTDEF
  5
152
330
12B
100
AcDbEntity
  8
AM_6
100
AcDbText
 10
9.440000000000001
 20
-16.235
 30
0.0
 40
0.5
  1
0.750000
100
AcDbAttributeDefinition
  3

  2
R1
 70
     8
280
     0
  0
ATTDEF
  5
153
330
12B
100
AcDbEntity
  8
AM_6
100
AcDbText
 10
9.440000000000001
 20
-16.735
 30
0.0
 40
0.5
  1
1.26
100
AcDbAttributeDefinition
  3

  2
S
 70
     8
280
     0
  0
ATTDEF
  5
154
330
12B
100
AcDbEntity
  8
AM_6
100
AcDbText
 10
9.440000000000001
 20
-17.235
 30
0.0
 40
0.5
  1
1.260000
100
AcDbAttributeDefinition
  3

  2
S1
 70
     8
280
     0
  0
ATTDEF
  5
155
330
12B
100
AcDbEntity
  8
AM_6
100
AcDbText
 10
9.440000000000001
 20
-17.735
 30
0.0
 40
0.5
  1
0.22
100
AcDbAttributeDefinition
  3

  2
T
 70
     8
280
     0
  0
ATTDEF
  5
156
330
12B
100
AcDbEntity
  8
AM_6
100
AcDbText
 10
9.440000000000001
 20
-18.235
 30
0.0
 40
0.5
  1
0.220000
100
AcDbAttributeDefinition
  3

  2
T1
 70
     8
280
     0
  0
ATTDEF
  5
157
330
12B
100
AcDbEntity
  8
AM_6
100
AcDbText
 10
9.440000000000001
 20
-18.735
 30
0.0
 40
0.5
  1
3.94
100
AcDbAttributeDefinition
  3

  2
U
 70
     8
280
     0
  0
ATTDEF
  5
158
330
12B
100
AcDbEntity
  8
AM_6
100
AcDbText
 10
9.440000000000001
 20
-19.235
 30
0.0
 40
0.5
  1
3.940000
100
AcDbAttributeDefinition
  3

  2
U1
 70
     8
280
     0
  0
ATTDEF
  5
159
330
12B
100
AcDbEntity
  8
AM_6
100
AcDbText
 10
9.440000000000001
 20
-19.735
 30
0.0
 40
0.5
  1
7.88
100
AcDbAttributeDefinition
  3

  2
V
 70
     8
280
     0
  0
ATTDEF
  5
15A
330
12B
100
AcDbEntity
  8
AM_6
100
AcDbText
 10
9.440000000000001
 20
-20.235
 30
0.0
 40
0.5
  1
7.880000
100
AcDbAttributeDefinition
  3

  2
V1
 70
     8
280
     0
  0
ATTDEF
  5
15B
330
12B
100
AcDbEntity
  8
AM_6
100
AcDbText
 10
9.440000000000001
 20
-20.735
 30
0.0
 40
0.5
  1
0.81
100
AcDbAttributeDefinition
  3

  2
W
 70
     8
280
     0
  0
ATTDEF
  5
15C
330
12B
100
AcDbEntity
  8
AM_6
100
AcDbText
 10
9.440000000000001
 20
-21.235
 30
0.0
 40
0.5
  1
0.810000
100
AcDbAttributeDefinition
  3

  2
W1
 70
     8
280
     0
  0
ATTDEF
  5
15D
330
12B
100
AcDbEntity
  8
AM_6
100
AcDbText
 10
9.440000000000001
 20
-21.735
 30
0.0
 40
0.5
  1
0.12
100
AcDbAttributeDefinition
  3

  2
X
 70
     8
280
     0
  0
ATTDEF
  5
15E
330
12B
100
AcDbEntity
  8
AM_6
100
AcDbText
 10
9.440000000000001
 20
-22.235
 30
0.0
 40
0.5
  1
0.120000
100
AcDbAttributeDefinition
  3

  2
X1
 70
     8
280
     0
  0
ATTDEF
  5
15F
330
12B
100
AcDbEntity
  8
AM_6
100
AcDbText
 10
9.440000000000001
 20
-22.735
 30
0.0
 40
0.5
  1
4450
100
AcDbAttributeDefinition
  3

  2
CAPS
 70
     8
280
     0
  0
ATTDEF
  5
160
330
12B
100
AcDbEntity
  8
AM_6
100
AcDbText
 10
9.440000000000001
 20
-23.235
 30
0.0
 40
0.5
  1
7891
100
AcDbAttributeDefinition
  3

  2
CAPD
 70
     8
280
     0
  0
ATTDEF
  5
161
330
12B
100
AcDbEntity
  8
AM_6
100
AcDbText
 10
9.440000000000001
 20
-23.735
 30
0.0
 40
0.5
  1
baldor
100
AcDbAttributeDefinition
  3

  2
COMPANY
 70
     8
280
     0
  0
LINE
  5
162
330
12B
100
AcDbEntity
  8
AM_9
100
AcDbLine
 10
-1.7258249
 20
-0.98133341
 30
0.0
 11
-1.7258249
 21
0.98133341
 31
0.0
  0
LINE
  5
163
330
12B
100
AcDbEntity
  8
AM_9
100
AcDbLine
 10
-1.78488
 20
-1.15
 30
0.0
 11
-1.78488
 21
1.15
 31
0.0
  0
LINE
  5
164
330
12B
100
AcDbEntity
  8
AM_9
100
AcDbLine
 10
1.725824899999999
 20
-0.9813334099999997
 30
0.0
 11
1.725824899999999
 21
0.98133341
 31
0.0
  0
LINE
  5
165
330
12B
100
AcDbEntity
  8
AM_9
100
AcDbLine
 10
1.78488
 20
-1.15
 30
0.0
 11
1.78488
 21
1.15
 31
0.0
  0
LINE
  5
166
330
12B
100
AcDbEntity
  8
AM_9
100
AcDbLine
 10
-1.620000000000001
 20
-0.9813334099999997
 30
0.0
 11
1.620000000000001
 21
-0.9813334099999996
 31
0.0
  0
LINE
  5
167
330
12B
100
AcDbEntity
  8
AM_9
100
AcDbLine
 10
1.77165
 20
-0.9977938132352939
 30
0.0
 11
1.77165
 21
0.9977938132352943
 31
0.0
  0
LINE
  5
168
330
12B
100
AcDbEntity
  8
AM_9
100
AcDbLine
 10
-1.77165
 20
0.9977938132352943
 30
0.0
 11
-1.77165
 21
-0.9977938132352939
 31
0.0
  0
ELLIPSE
  5
169
330
12B
100
AcDbEntity
  8
AM_9
100
AcDbEllipse
 10
1.76800265522677
 20
0.0000000000000009
 30
0.0
 11
-5.556834851131031E-17
 21
-0.3024999999999954
 31
0.0
210
0.0
220
0.0
230
1.0
 40
0.7071067811865382
 41
1.110703649080648
 42
2.030695248074676
  0
LWPOLYLINE
  5
16A
330
12B
100
AcDbEntity
  8
AM_9
100
AcDbPolyline
 90
        3
 70
     0
 43
0.0
 10
1.751186287682524
 20
0.3020437755677381
 10
1.739723565788988
 20
0.3024998081547424
 10
1.73948342841837
 20
0.3024999999981574
  0
LWPOLYLINE
  5
16B
330
12B
100
AcDbEntity
  8
AM_9
100
AcDbPolyline
 90
       29
 70
     0
 43
0.0
 10
1.756774764223899
 20
-0.3014999132619138
 10
1.763308685697982
 20
-0.3005912002118983
 10
1.786324460186459
 20
-0.2949247134224414
 10
1.808524472854141
 20
-0.2855851655126169
 10
1.829523711338029
 20
-0.2727506046875972
 10
1.84919308457062
 20
-0.2564506440726811
 10
1.867363309074299
 20
-0.2369153469233408
 10
1.883751366292317
 20
-0.2145071701343574
 10
1.898324901029765
 20
-0.1892208275988606
 10
1.910914483865327
 20
-0.1614666486916322
 10
1.921336081170106
 20
-0.1317613612936236
 10
1.929512503592788
 20
-0.1003450477950394
 10
1.935426572546833
 20
-0.067548482113793
 10
1.938993439590336
 20
-0.0339942734587487
 10
1.94016795634738
 20
-0.0002207704384234
 10
1.939003459047322
 20
0.033662292387923
 10
1.935516450822666
 20
0.0670138983098625
 10
1.929718857560376
 20
0.0994022662394732
 10
1.921657741378215
 20
0.1306474795234385
 10
1.911446702787806
 20
0.1601720016065412
 10
1.899041119390159
 20
0.1878138450531054
 10
1.884578751187834
 20
0.2131906861261234
 10
1.868272920139489
 20
0.2358345444241366
 10
1.850089180453704
 20
0.2555957012216817
 10
1.830254763154506
 20
0.2721952798880282
 10
1.809094561903825
 20
0.285317433738341
 10
1.786807463921087
 20
0.2947627333405088
 10
1.763542344671282
 20
0.3005277041727827
 10
1.751186287682524
 20
0.3020437755677381
  0
LWPOLYLINE
  5
16C
330
12B
100
AcDbEntity
  8
AM_9
100
AcDbPolyline
 90
        3
 70
     0
 43
0.0
 10
1.739483818817815
 20
-0.3024999999957249
 10
1.739531322918788
 20
-0.3024754187193553
 10
1.756774764223899
 20
-0.3014999132619138
  0
LINE
  5
16F
330
12B
100
AcDbEntity
  8
AM_7
100
AcDbLine
 10
-4.003
 20
-0.8100000000000003
 30
0.0
 11
-3.877
 21
-0.8100000000000003
 31
0.0
  0
LINE
  5
170
330
12B
100
AcDbEntity
  8
AM_7
100
AcDbLine
 10
-3.94
 20
-0.8730000000000002
 30
0.0
 11
-3.94
 21
-0.7470000000000003
 31
0.0
  0
LINE
  5
171
330
12B
100
AcDbEntity
  8
AM_7
100
AcDbLine
 10
3.877
 20
-0.8099999999999998
 30
0.0
 11
4.003
 21
-0.8099999999999998
 31
0.0
  0
LINE
  5
172
330
12B
100
AcDbEntity
  8
AM_7
100
AcDbLine
 10
3.94
 20
-0.8729999999999998
 30
0.0
 11
3.94
 21
-0.7469999999999999
 31
0.0
  0
LINE
  5
173
330
12B
100
AcDbEntity
  8
AM_7
100
AcDbLine
 10
0.0
 20
1.265
 30
0.0
 11
0.0
 21
-1.3605
 31
0.0
  0
LINE
  5
174
330
12B
100
AcDbEntity
  8
AM_7
100
AcDbLine
 10
2.861875
 20
0.0000000000000002
 30
0.0
 11
4.048125000000001
 21
0.0000000000000004
 31
0.0
  0
LINE
  5
175
330
12B
100
AcDbEntity
  8
AM_7
100
AcDbLine
 10
3.720000000000001
 20
-0.3281249999999996
 30
0.0
 11
3.720000000000001
 21
0.3281250000000004
 31
0.0
  0
LINE
  5
176
330
12B
100
AcDbEntity
  8
AM_7
100
AcDbLine
 10
-4.048125000000001
 20
0.0000000000000004
 30
0.0
 11
-2.861875
 21
0.0000000000000003
 31
0.0
  0
LINE
  5
177
330
12B
100
AcDbEntity
  8
AM_7
100
AcDbLine
 10
-3.19
 20
-0.3281249999999997
 30
0.0
 11
-3.19
 21
0.3281250000000003
 31
0.0
  0
LINE
  5
178
330
12B
100
AcDbEntity
  8
AM_7
100
AcDbLine
 10
-3.720000000000001
 20
-0.3281249999999996
 30
0.0
 11
-3.720000000000001
 21
0.3281250000000004
 31
0.0
  0
LINE
  5
179
330
12B
100
AcDbEntity
  8
AM_7
100
AcDbLine
 10
3.19
 20
-0.3281249999999998
 30
0.0
 11
3.19
 21
0.3281250000000002
 31
0.0
  0
LINE
  5
17A
330
12B
100
AcDbEntity
  8
AM_4
100
AcDbLine
 10
4.2068
 20
1.15
 30
0.0
 11
1.781744427147218
 21
1.15
 31
0.0
  0
LINE
  5
17B
330
12B
100
AcDbEntity
  8
AM_4
100
AcDbLine
 10
4.44
 20
-0.9167999999999996
 30
0.0
 11
4.44
 21
0.9168000000000001
 31
0.0
  0
LINE
  5
17C
330
12B
100
AcDbEntity
  8
AM_4
100
AcDbLine
 10
4.44
 20
0.9168000000000001
 30
0.0
 11
4.2068
 21
1.15
 31
0.0
  0
LINE
  5
17D
330
12B
100
AcDbEntity
  8
AM_4
100
AcDbLine
 10
-1.781744427147218
 20
1.15
 30
0.0
 11
-4.206800000000001
 21
1.15
 31
0.0
  0
LINE
  5
17E
330
12B
100
AcDbEntity
  8
AM_4
100
AcDbLine
 10
-4.44
 20
0.9168000000000008
 30
0.0
 11
-4.44
 21
-0.9168000000000001
 31
0.0
  0
LINE
  5
17F
330
12B
100
AcDbEntity
  8
AM_4
100
AcDbLine
 10
-4.206800000000001
 20
1.15
 30
0.0
 11
-4.44
 21
0.9168000000000008
 31
0.0
  0
LINE
  5
180
330
12B
100
AcDbEntity
  8
AM_4
100
AcDbLine
 10
4.206800000000001
 20
-1.15
 30
0.0
 11
4.44
 21
-0.9167999999999996
 31
0.0
  0
LWPOLYLINE
  5
181
330
12B
100
AcDbEntity
  8
AM_4
100
AcDbPolyline
 90
        9
 70
     0
 43
0.0
 10
4.44
 20
0.0000000000000003
 10
4.439999272285537
 20
0.0010236739209344
 10
4.438665049141902
 20
0.0438240475294846
 10
4.434758176382251
 20
0.086722253745615
 10
4.428167888326861
 20
0.1299932380651891
 10
4.418837242116608
 20
0.1732815888398178
 10
4.402451911380855
 20
0.2294763357137652
 10
4.392334159135553
 20
0.2576175041791382
 10
4.3809449
 20
0.2855728263753214
  0
LINE
  5
182
330
12B
100
AcDbEntity
  8
AM_4
100
AcDbLine
 10
-4.44
 20
-0.9168000000000002
 30
0.0
 11
-4.2068
 21
-1.15
 31
0.0
  0
LWPOLYLINE
  5
183
330
12B
100
AcDbEntity
  8
AM_4
100
AcDbPolyline
 90
        9
 70
     0
 43
0.0
 10
-4.380944900000002
 20
0.2855728263753178
 10
-4.392128029351273
 20
0.2581515139889824
 10
-4.402140875520623
 20
0.2303992750508512
 10
-4.41883724211661
 20
0.1732815888398133
 10
-4.428028259672461
 20
0.1307490196154869
 10
-4.434596352663621
 20
0.0880457424288692
 10
-4.43861978781166
 20
0.0445593052052562
 10
-4.439999272285537
 20
0.0010236739209733
 10
-4.44
 20
0.0000000000000034
  0
LINE
  5
184
330
12B
100
AcDbEntity
  8
AM_4
100
AcDbLine
 10
-1.781744427147216
 20
-1.15
 30
0.0
 11
-4.2068
 21
-1.15
 31
0.0
  0
CIRCLE
  5
185
330
12B
100
AcDbEntity
  8
AM_4
100
AcDbCircle
 10
-3.94
 20
-0.8100000000000003
 30
0.0
 40
0.06
  0
LINE
  5
186
330
12B
100
AcDbEntity
  8
AM_4
100
AcDbLine
 10
-3.19
 20
0.3125000000000002
 30
0.0
 11
-3.720000000000001
 21
0.3125000000000003
 31
0.0
  0
ARC
  5
187
330
12B
100
AcDbEntity
  8
AM_4
100
AcDbCircle
 10
-3.19
 20
0.0000000000000003
 30
0.0
 40
0.3125000000000001
100
AcDbArc
 50
270.0
 51
90.0
  0
LINE
  5
188
330
12B
100
AcDbEntity
  8
AM_4
100
AcDbLine
 10
-3.720000000000001
 20
-0.3124999999999997
 30
0.0
 11
-3.19
 21
-0.3124999999999998
 31
0.0
  0
ARC
  5
189
330
12B
100
AcDbEntity
  8
AM_4
100
AcDbCircle
 10
-3.720000000000001
 20
0.0000000000000004
 30
0.0
 40
0.3124999999999999
100
AcDbArc
 50
90.0
 51
270.0
  0
LINE
  5
18A
330
12B
100
AcDbEntity
  8
AM_4
100
AcDbLine
 10
-3.72
 20
0.72
 30
0.0
 11
-3.013540199999999
 21
0.7200000000000001
 31
0.0
  0
ARC
  5
18B
330
12B
100
AcDbEntity
  8
AM_4
100
AcDbCircle
 10
-3.720000000000002
 20
0.0000000000000017
 30
0.0
 40
0.7199999999999983
100
AcDbArc
 50
90.0
 51
156.6323952332303
  0
LINE
  5
18C
330
12B
100
AcDbEntity
  8
AM_4
100
AcDbLine
 10
-4.380944900000002
 20
-0.9758550999999978
 30
0.0
 11
-4.380944900000002
 21
0.2855728263753182
 31
0.0
  0
ARC
  5
18D
330
12B
100
AcDbEntity
  8
AM_4
100
AcDbCircle
 10
-3.013540200000001
 20
0.7987402000000009
 30
0.0
 40
0.0787402000000008
100
AcDbArc
 50
270.0
 51
0.0
  0
CIRCLE
  5
18E
330
12B
100
AcDbEntity
  8
AM_4
100
AcDbCircle
 10
3.94
 20
-0.8099999999999998
 30
0.0
 40
0.06
  0
LINE
  5
18F
330
12B
100
AcDbEntity
  8
AM_4
100
AcDbLine
 10
3.720000000000001
 20
0.3125000000000002
 30
0.0
 11
3.19
 21
0.3125000000000003
 31
0.0
  0
ARC
  5
190
330
12B
100
AcDbEntity
  8
AM_4
100
AcDbCircle
 10
3.720000000000001
 20
0.0000000000000004
 30
0.0
 40
0.3125000000000001
100
AcDbArc
 50
270.0
 51
90.0
  0
LINE
  5
191
330
12B
100
AcDbEntity
  8
AM_4
100
AcDbLine
 10
3.19
 20
-0.3124999999999997
 30
0.0
 11
3.72
 21
-0.3124999999999997
 31
0.0
  0
ARC
  5
192
330
12B
100
AcDbEntity
  8
AM_4
100
AcDbCircle
 10
3.19
 20
0.0000000000000003
 30
0.0
 40
0.3125
100
AcDbArc
 50
90.0
 51
270.0
  0
ARC
  5
193
330
12B
100
AcDbEntity
  8
AM_4
100
AcDbCircle
 10
3.0135402
 20
0.7987402000000006
 30
0.0
 40
0.0787401999999999
100
AcDbArc
 50
180.0
 51
270.0
  0
LINE
  5
194
330
12B
100
AcDbEntity
  8
AM_4
100
AcDbLine
 10
4.206800000000001
 20
-1.15
 30
0.0
 11
1.781744427147219
 21
-1.15
 31
0.0
  0
LINE
  5
195
330
12B
100
AcDbEntity
  8
AM_4
100
AcDbLine
 10
4.3809449
 20
-0.9758550999999995
 30
0.0
 11
4.3809449
 21
0.2855728263753217
 31
0.0
  0
ARC
  5
196
330
12B
100
AcDbEntity
  8
AM_4
100
AcDbCircle
 10
3.72
 20
0.0000000000000006
 30
0.0
 40
0.72
100
AcDbArc
 50
23.36760476677002
 51
90.0
  0
LINE
  5
197
330
12B
100
AcDbEntity
  8
AM_4
100
AcDbLine
 10
3.0135402
 20
0.7200000000000005
 30
0.0
 11
3.72
 21
0.7200000000000002
 31
0.0
  0
LWPOLYLINE
  5
198
330
12B
100
AcDbEntity
  8
AM_4
100
AcDbPolyline
 90
       29
 70
     0
 43
0.0
 10
-2.9348
 20
-0.6946027353818872
 10
-2.875232495730223
 20
-0.6697174167182575
 10
-2.818060562229755
 20
-0.6397351441269691
 10
-2.763719312433891
 20
-0.6048841008062332
 10
-2.712622316065722
 20
-0.5654295242393558
 10
-2.665158452120819
 20
-0.5216716875773356
 10
-2.621688949263268
 20
-0.4739436143788746
 10
-2.582544636657418
 20
-0.4226085441000118
 10
-2.548023426158182
 20
-0.3680571676225322
 10
-2.518388045021936
 20
-0.310704653860451
 10
-2.493864036393459
 20
-0.2509874900738924
 10
-2.474638042786415
 20
-0.1893601599374814
 10
-2.460856385621126
 20
-0.1262916846451555
 10
-2.452623951630212
 20
-0.0622620533756758
 10
-2.450003394607223
 20
0.0022414297148484
 10
-2.45301465857344
 20
0.0667278541718304
 10
-2.46163482599183
 20
0.1307064393671848
 10
-2.475798292183338
 20
0.193690269636249
 10
-2.495397264618113
 20
0.255199999999999
 10
-2.520282583281742
 20
0.3147675042697758
 10
-2.550264855873031
 20
0.3719394377702441
 10
-2.585115899193766
 20
0.4262806875661081
 10
-2.624570475760643
 20
0.4773776839342773
 10
-2.668328312422664
 20
0.5248415478791801
 10
-2.716056385621124
 20
0.5683110507367313
 10
-2.767391455899987
 20
0.6074553633425812
 10
-2.821942832377467
 20
0.6419765738418174
 10
-2.879295346139548
 20
0.6716119549780636
 10
-2.9348
 20
0.6946027353818869
  0
LINE
  5
199
330
12B
100
AcDbEntity
  8
AM_4
100
AcDbLine
 10
-2.934800000000001
 20
-1.15
 30
0.0
 11
-2.9348
 21
-0.6946027353818872
 31
0.0
  0
LINE
  5
19A
330
12B
100
AcDbEntity
  8
AM_4
100
AcDbLine
 10
-2.9348
 20
0.694602735381887
 30
0.0
 11
-2.934800000000001
 21
1.15
 31
0.0
  0
LWPOLYLINE
  5
19B
330
12B
100
AcDbEntity
  8
AM_4
100
AcDbPolyline
 90
       29
 70
     0
 43
0.0
 10
2.9348
 20
0.6946027353818875
 10
2.875232495730223
 20
0.6697174167182577
 10
2.818060562229755
 20
0.6397351441269695
 10
2.763719312433891
 20
0.6048841008062336
 10
2.712622316065722
 20
0.5654295242393562
 10
2.665158452120819
 20
0.5216716875773362
 10
2.621688949263268
 20
0.4739436143788752
 10
2.582544636657418
 20
0.4226085441000124
 10
2.548023426158182
 20
0.3680571676225327
 10
2.518388045021936
 20
0.3107046538604515
 10
2.493864036393459
 20
0.250987490073893
 10
2.474638042786415
 20
0.1893601599374821
 10
2.460856385621126
 20
0.1262916846451561
 10
2.452623951630212
 20
0.0622620533756765
 10
2.450003394607223
 20
-0.0022414297148478
 10
2.45301465857344
 20
-0.0667278541718297
 10
2.46163482599183
 20
-0.1307064393671842
 10
2.475798292183338
 20
-0.1936902696362484
 10
2.495397264618113
 20
-0.2551999999999984
 10
2.520282583281742
 20
-0.3147675042697753
 10
2.550264855873031
 20
-0.3719394377702436
 10
2.585115899193766
 20
-0.4262806875661075
 10
2.624570475760643
 20
-0.4773776839342768
 10
2.668328312422664
 20
-0.5248415478791797
 10
2.716056385621124
 20
-0.5683110507367312
 10
2.767391455899987
 20
-0.607455363342581
 10
2.821942832377467
 20
-0.6419765738418173
 10
2.879295346139548
 20
-0.6716119549780634
 10
2.9348
 20
-0.6946027353818867
  0
LINE
  5
19C
330
12B
100
AcDbEntity
  8
AM_4
100
AcDbLine
 10
2.9348
 20
0.6946027353818872
 30
0.0
 11
2.934800000000001
 21
1.15
 31
0.0
  0
LINE
  5
19D
330
12B
100
AcDbEntity
  8
AM_4
100
AcDbLine
 10
2.9348
 20
-1.15
 30
0.0
 11
2.9348
 21
-0.694602735381887
 31
0.0
  0
LINE
  5
19E
330
12B
100
AcDbEntity
  8
AM_4
100
AcDbLine
 10
1.731000000000001
 20
0.9813334100000002
 30
0.0
 11
-1.731
 21
0.98133341
 31
0.0
  0
LWPOLYLINE
  5
19F
330
12B
100
AcDbEntity
  8
AM_4
100
AcDbPolyline
 90
        5
 70
     0
 43
0.0
 10
-1.770270790041527
 20
1.004360584748925
 10
-1.765551108608018
 20
0.9975025082804944
 10
-1.757472912976807
 20
0.9899440588307031
 10
-1.745967688756265
 20
0.9838955932171405
 10
-1.731
 20
0.98133341
  0
LWPOLYLINE
  5
1A0
330
12B
100
AcDbEntity
  8
AM_4
100
AcDbPolyline
 90
        7
 70
     0
 43
0.0
 10
1.731000000000001
 20
0.98133341
 10
1.740025884202747
 20
0.9822478861360531
 10
1.747933729295018
 20
0.9846410988124071
 10
1.756056950341401
 20
0.9889549504331776
 10
1.762488169946962
 20
0.9941853905681397
 10
1.767231803638062
 20
0.9996452777099171
 10
1.770270790041527
 20
1.004360584748924
  0
LINE
  5
1A1
330
12B
100
AcDbEntity
  8
AM_4
100
AcDbLine
 10
1.620000000000001
 20
-0.9813334099999996
 30
0.0
 11
1.731
 21
-0.9813334099999996
 31
0.0
  0
LINE
  5
1A2
330
12B
100
AcDbEntity
  8
AM_4
100
AcDbLine
 10
-1.731000000000001
 20
-0.98133341
 30
0.0
 11
-1.620000000000001
 21
-0.9813334099999997
 31
0.0
  0
LWPOLYLINE
  5
1A3
330
12B
100
AcDbEntity
  8
AM_4
100
AcDbPolyline
 90
        5
 70
     0
 43
0.0
 10
1.770270790041527
 20
-1.004360584748924
 10
1.765551108608018
 20
-0.997502508280494
 10
1.757472912976807
 20
-0.9899440588307031
 10
1.745967688756265
 20
-0.98389559321714
 10
1.731
 20
-0.9813334099999996
  0
LWPOLYLINE
  5
1A4
330
12B
100
AcDbEntity
  8
AM_4
100
AcDbPolyline
 90
        7
 70
     0
 43
0.0
 10
-1.731000000000001
 20
-0.98133341
 10
-1.740025884202747
 20
-0.9822478861360531
 10
-1.747933729295018
 20
-0.9846410988124071
 10
-1.756056950341401
 20
-0.9889549504331776
 10
-1.762488169946962
 20
-0.9941853905681397
 10
-1.767231803638062
 20
-0.999645277709917
 10
-1.770270790041527
 20
-1.004360584748924
  0
LWPOLYLINE
  5
1A5
330
12B
100
AcDbEntity
  8
AM_4
100
AcDbPolyline
 90
       37
 70
     0
 43
0.0
 10
1.77165
 20
0.9977938132352943
 10
1.764908336874241
 20
0.9832863583720176
 10
1.744734655624078
 20
0.9688893140000913
 10
1.711282490145028
 20
0.9547122503203586
 10
1.664806431615355
 20
0.9408630633477675
 10
1.605660190903481
 20
0.9274471537575472
 10
1.534293906614701
 20
0.9145666247224268
 10
1.451250719264593
 20
0.9023195048458398
 10
1.357162637651738
 20
0.89079900210506
 10
1.252745728889148
 20
0.8800927944822148
 10
1.138794668701159
 20
0.8702823626818986
 10
1.016176693461333
 20
0.8614423700138129
 10
0.8858250000000019
 20
0.853640094159895
 10
0.7487316434129123
 20
0.8469349151505361
 10
0.6059399869229235
 20
0.8413778634466955
 10
0.4585367612558836
 20
0.8370112315672791
 10
0.3076437939636201
 20
0.8338682522175331
 10
0.1544094716388918
 20
0.8319728453680925
 10
0.0000000000000034
 20
0.8313394362095591
 10
-0.154409471638885
 20
0.8319728453680925
 10
-0.3076437939636135
 20
0.8338682522175331
 10
-0.4585367612558771
 20
0.8370112315672787
 10
-0.6059399869229171
 20
0.8413778634466954
 10
-0.7487316434129063
 20
0.8469349151505359
 10
-0.8858249999999962
 20
0.8536400941598945
 10
-1.016176693461327
 20
0.8614423700138125
 10
-1.138794668701154
 20
0.8702823626818982
 10
-1.252745728889143
 20
0.8800927944822143
 10
-1.357162637651734
 20
0.8907990021050596
 10
-1.451250719264589
 20
0.9023195048458392
 10
-1.534293906614698
 20
0.9145666247224262
 10
-1.605660190903478
 20
0.9274471537575466
 10
-1.664806431615352
 20
0.9408630633477669
 10
-1.711282490145026
 20
0.9547122503203581
 10
-1.744734655624077
 20
0.9688893140000907
 10
-1.76490833687424
 20
0.983286358372017
 10
-1.77165
 20
0.9977938132352936
  0
LINE
  5
1A6
330
12B
100
AcDbEntity
  8
AM_4
100
AcDbLine
 10
-1.77165
 20
0.9977938132352943
 30
0.0
 11
-1.770270790041527
 21
1.004360584748925
 31
0.0
  0
LWPOLYLINE
  5
1A7
330
12B
100
AcDbEntity
  8
AM_4
100
AcDbPolyline
 90
       37
 70
     0
 43
0.0
 10
-1.77165
 20
-0.9977938132352939
 10
-1.764908336874241
 20
-0.9832863583720172
 10
-1.744734655624079
 20
-0.9688893140000908
 10
-1.711282490145028
 20
-0.9547122503203582
 10
-1.664806431615355
 20
-0.9408630633477671
 10
-1.605660190903482
 20
-0.9274471537575467
 10
-1.534293906614702
 20
-0.9145666247224262
 10
-1.451250719264593
 20
-0.9023195048458392
 10
-1.357162637651739
 20
-0.8907990021050595
 10
-1.252745728889149
 20
-0.8800927944822142
 10
-1.138794668701159
 20
-0.8702823626818981
 10
-1.016176693461333
 20
-0.8614423700138123
 10
-0.8858250000000023
 20
-0.8536400941598944
 10
-0.7487316434129128
 20
-0.8469349151505355
 10
-0.6059399869229238
 20
-0.841377863446695
 10
-0.4585367612558838
 20
-0.8370112315672783
 10
-0.3076437939636203
 20
-0.8338682522175326
 10
-0.154409471638892
 20
-0.8319728453680918
 10
-0.0000000000000036
 20
-0.8313394362095584
 10
0.1544094716388849
 20
-0.8319728453680918
 10
0.3076437939636133
 20
-0.8338682522175325
 10
0.4585367612558769
 20
-0.8370112315672782
 10
0.6059399869229171
 20
-0.8413778634466947
 10
0.7487316434129062
 20
-0.8469349151505353
 10
0.885824999999996
 20
-0.853640094159894
 10
1.016176693461327
 20
-0.8614423700138119
 10
1.138794668701154
 20
-0.8702823626818976
 10
1.252745728889143
 20
-0.8800927944822138
 10
1.357162637651735
 20
-0.890799002105059
 10
1.451250719264589
 20
-0.9023195048458387
 10
1.534293906614698
 20
-0.9145666247224257
 10
1.605660190903479
 20
-0.927447153757546
 10
1.664806431615353
 20
-0.9408630633477664
 10
1.711282490145026
 20
-0.9547122503203576
 10
1.744734655624077
 20
-0.9688893140000902
 10
1.764908336874241
 20
-0.9832863583720165
 10
1.77165
 20
-0.9977938132352933
  0
LINE
  5
1A8
330
12B
100
AcDbEntity
  8
AM_4
100
AcDbLine
 10
1.77165
 20
-0.9977938132352939
 30
0.0
 11
1.770270790041528
 21
-1.004360584748924
 31
0.0
  0
LINE
  5
1A9
330
12B
100
AcDbEntity
  8
AM_4
100
AcDbLine
 10
1.739478183045122
 20
-0.3024999999999992
 30
0.0
 11
1.768002655226764
 21
-0.3024999999999992
 31
0.0
  0
LINE
  5
1AA
330
12B
100
AcDbEntity
  8
AM_4
100
AcDbLine
 10
1.768002655226764
 20
0.3024999999999998
 30
0.0
 11
1.739481013203961
 21
0.3024999999999998
 31
0.0
  0
ELLIPSE
  5
1AB
330
12B
100
AcDbEntity
  8
AM_4
100
AcDbEllipse
 10
1.768002655226762
 20
-0.0000000000000014
 30
0.0
 11
-5.556834851131133E-17
 21
-0.302500000000001
 31
0.0
210
0.0
220
0.0
230
1.0
 40
0.7071067811865502
 41
2.030695248074673
 42
7.39388895626025
  0
LWPOLYLINE
  5
1AC
330
12B
100
AcDbEntity
  8
AM_4
100
AcDbPolyline
 90
       15
 70
     0
 43
0.0
 10
1.73948342841837
 20
0.3024999999981574
 10
1.715722966121065
 20
0.3006296668133066
 10
1.69162819689615
 20
0.2950155501043928
 10
1.667909428711139
 20
0.2857656405728726
 10
1.644828954458098
 20
0.272925824188064
 10
1.622625422599514
 20
0.2566663072951867
 10
1.601752701575538
 20
0.2372907979821389
 10
1.582353175062075
 20
0.2147858258082916
 10
1.564779058561311
 20
0.1895158314609508
 10
1.549411596220044
 20
0.1619490249378732
 10
1.536444401780649
 20
0.132209682866514
 10
1.526068545108579
 20
0.1006920338243422
 10
1.518523763888658
 20
0.0679910582873392
 10
1.513929465534855
 20
0.0342174784921719
 10
1.512381425780098
 20
0.0000000000000003
  0
LWPOLYLINE
  5
1AD
330
12B
100
AcDbEntity
  8
AM_4
100
AcDbPolyline
 90
        7
 70
     0
 43
0.0
 10
1.770270790041527
 20
1.004360584748924
 10
1.772036410734265
 20
1.007866872857138
 10
1.773489719562854
 20
1.01151370246341
 10
1.774619655969575
 20
1.015273318992419
 10
1.775417620456099
 20
1.019117109492261
 10
1.775877540030859
 20
1.023015820396288
 10
1.776
 20
1.02633341
  0
LINE
  5
1AE
330
12B
100
AcDbEntity
  8
AM_4
100
AcDbLine
 10
1.770270790041528
 20
1.004360584748924
 30
0.0
 11
1.77165
 21
0.9977938132352943
 31
0.0
  0
LWPOLYLINE
  5
1AF
330
12B
100
AcDbEntity
  8
AM_4
100
AcDbPolyline
 90
        7
 70
     0
 43
0.0
 10
-1.776
 20
1.02633341
 10
-1.775828761414128
 20
1.022411401576355
 10
-1.775316348885549
 20
1.018519242004988
 10
-1.774466662183008
 20
1.014686552970387
 10
-1.773286167935366
 20
1.010942503550345
 10
-1.771783850416649
 20
1.007315588221668
 10
-1.770270790041527
 20
1.004360584748925
  0
LINE
  5
1B0
330
12B
100
AcDbEntity
  8
AM_4
100
AcDbLine
 10
-1.776
 20
1.02633341
 30
0.0
 11
-1.776
 21
1.128
 31
0.0
  0
LWPOLYLINE
  5
1B1
330
12B
100
AcDbEntity
  8
AM_4
100
AcDbPolyline
 90
        7
 70
     0
 43
0.0
 10
-1.776
 20
1.128
 10
-1.776171238585871
 20
1.131922008423645
 10
-1.776683651114451
 20
1.135814167995012
 10
-1.777533337816992
 20
1.139646857029613
 10
-1.778713832064634
 20
1.143390906449655
 10
-1.780216149583351
 20
1.147017821778331
 10
-1.781744427147219
 20
1.15
  0
LINE
  5
1B2
330
12B
100
AcDbEntity
  8
AM_4
100
AcDbLine
 10
-2.934800000000001
 20
1.15
 30
0.0
 11
-2.388043144947543
 21
0.9423010161034656
 31
0.0
  0
LINE
  5
1B3
330
12B
100
AcDbEntity
  8
AM_4
100
AcDbLine
 10
2.388043144947543
 20
0.942301016103465
 30
0.0
 11
2.934800000000001
 21
1.15
 31
0.0
  0
LWPOLYLINE
  5
1B4
330
12B
100
AcDbEntity
  8
AM_4
100
AcDbPolyline
 90
        7
 70
     0
 43
0.0
 10
1.781744427147219
 20
1.15
 10
1.779976380113057
 20
1.146494934749049
 10
1.778520547596973
 20
1.142849111877112
 10
1.777388009363472
 20
1.13909027829765
 10
1.776587384712354
 20
1.13524704100385
 10
1.776124766880645
 20
1.131348649352129
 10
1.776
 20
1.128
  0
LINE
  5
1B5
330
12B
100
AcDbEntity
  8
AM_4
100
AcDbLine
 10
1.776
 20
1.128
 30
0.0
 11
1.776
 21
1.02633341
 31
0.0
  0
LWPOLYLINE
  5
1B6
330
12B
100
AcDbEntity
  8
AM_4
100
AcDbPolyline
 90
        7
 70
     0
 43
0.0
 10
-1.770270790041527
 20
-1.004360584748924
 10
-1.772036410734265
 20
-1.007866872857138
 10
-1.773489719562854
 20
-1.011513702463409
 10
-1.774619655969575
 20
-1.015273318992418
 10
-1.775417620456099
 20
-1.01911710949226
 10
-1.775877540030859
 20
-1.023015820396288
 10
-1.776
 20
-1.02633341
  0
LINE
  5
1B7
330
12B
100
AcDbEntity
  8
AM_4
100
AcDbLine
 10
-1.770270790041528
 20
-1.004360584748924
 30
0.0
 11
-1.77165
 21
-0.9977938132352939
 31
0.0
  0
LWPOLYLINE
  5
1B8
330
12B
100
AcDbEntity
  8
AM_4
100
AcDbPolyline
 90
        7
 70
     0
 43
0.0
 10
1.776
 20
-1.02633341
 10
1.775828761414128
 20
-1.022411401576355
 10
1.775316348885549
 20
-1.018519242004988
 10
1.774466662183008
 20
-1.014686552970386
 10
1.773286167935366
 20
-1.010942503550345
 10
1.771783850416649
 20
-1.007315588221668
 10
1.770270790041527
 20
-1.004360584748924
  0
LINE
  5
1B9
330
12B
100
AcDbEntity
  8
AM_4
100
AcDbLine
 10
1.776
 20
-1.02633341
 30
0.0
 11
1.776
 21
-1.128
 31
0.0
  0
LWPOLYLINE
  5
1BA
330
12B
100
AcDbEntity
  8
AM_4
100
AcDbPolyline
 90
        7
 70
     0
 43
0.0
 10
1.776
 20
-1.128
 10
1.776171238585871
 20
-1.131922008423644
 10
1.776683651114451
 20
-1.135814167995012
 10
1.777533337816992
 20
-1.139646857029613
 10
1.778713832064634
 20
-1.143390906449655
 10
1.78021614958335
 20
-1.147017821778331
 10
1.781744427147219
 20
-1.15
  0
LINE
  5
1BB
330
12B
100
AcDbEntity
  8
AM_4
100
AcDbLine
 10
2.9348
 20
-1.15
 30
0.0
 11
2.388043144947543
 21
-0.9423010161034652
 31
0.0
  0
LINE
  5
1BC
330
12B
100
AcDbEntity
  8
AM_4
100
AcDbLine
 10
-2.388043144947543
 20
-0.9423010161034652
 30
0.0
 11
-2.934800000000001
 21
-1.15
 31
0.0
  0
LWPOLYLINE
  5
1BD
330
12B
100
AcDbEntity
  8
AM_4
100
AcDbPolyline
 90
        7
 70
     0
 43
0.0
 10
-1.781744427147219
 20
-1.15
 10
-1.779976380113057
 20
-1.146494934749049
 10
-1.778520547596973
 20
-1.142849111877112
 10
-1.777388009363472
 20
-1.13909027829765
 10
-1.776587384712354
 20
-1.135247041003851
 10
-1.776124766880645
 20
-1.131348649352129
 10
-1.776
 20
-1.128
  0
LINE
  5
1BE
330
12B
100
AcDbEntity
  8
AM_4
100
AcDbLine
 10
-1.776
 20
-1.128
 30
0.0
 11
-1.776
 21
-1.02633341
 31
0.0
  0
LWPOLYLINE
  5
1BF
330
12B
100
AcDbEntity
  8
AM_4
100
AcDbPolyline
 90
       15
 70
     0
 43
0.0
 10
1.512381425780098
 20
0.0000000000000003
 10
1.513904327373698
 20
-0.0337639034576494
 10
1.518402866941495
 20
-0.0672071393100366
 10
1.525771796663984
 20
-0.0996994809408339
 10
1.535949953721571
 20
-0.1309108152561954
 10
1.548758758405357
 20
-0.1605777917549261
 10
1.563912001892427
 20
-0.1881527879077305
 10
1.581335344931378
 20
-0.2134655008618144
 10
1.60071480252475
 20
-0.2361781589047121
 10
1.621636705084956
 20
-0.2558685575528195
 10
1.643945053937462
 20
-0.2723546515146635
 10
1.667303945066536
 20
-0.2854543246645636
 10
1.691233097566407
 20
-0.2949153535984689
 10
1.715350915152326
 20
-0.3005710781475953
 10
1.739483818817815
 20
-0.3024999999957249
  0
LWPOLYLINE
  5
1C0
330
12B
100
AcDbEntity
  8
AM_4
100
AcDbPolyline
 90
       32
 70
     0
 43
0.0
 10
2.388043144947544
 20
-0.942301016103465
 10
2.327478670380957
 20
-0.9229572888476779
 10
2.249200677762725
 20
-0.9041831127300098
 10
2.153804909882219
 20
-0.886121370566873
 10
2.042017386134546
 20
-0.8689095231221076
 10
1.914688877074581
 20
-0.8526785629475654
 10
1.772788429539324
 20
-0.8375520174506969
 10
1.617395991616353
 20
-0.8236450087763906
 10
1.449694193586781
 20
-0.8110633776579398
 10
1.270959347394726
 20
-0.7999028779051526
 10
1.082551733142761
 20
-0.7902484476600413
 10
0.8859052465389707
 20
-0.7821735629662758
 10
0.6825164860848062
 20
-0.7757396785721243
 10
0.4739333630568145
 20
-0.7709957602227118
 10
0.2617433209671717
 20
-0.7679779120011337
 10
0.0475612541600303
 20
-0.7667091015545828
 10
-0.1669827825095394
 20
-0.767198985296686
 10
-0.3802559793772505
 20
-0.7694438349163659
 10
-0.590635198637063
 20
-0.7734265657525397
 10
-0.7965193273999637
 20
-0.7791168668187051
 10
-0.9963414631298312
 20
-0.7864714314878513
 10
-1.188580838717856
 20
-0.7954342870820382
 10
-1.371774396438506
 20
-0.805937220858274
 10
-1.544527922702232
 20
-0.8179002991486769
 10
-1.705526658862736
 20
-0.8312324757039525
 10
-1.853545307324141
 20
-0.845832284610327
 10
-1.987457356795553
 20
-0.8615886125064173
 10
-2.106243655722188
 20
-0.878381544223003
 10
-2.209000168644086
 20
-0.8960832754098716
 10
-2.294944856451832
 20
-0.9145590852040937
 10
-2.363423628176389
 20
-0.9336683615371361
 10
-2.388043144947543
 20
-0.942301016103465
  0
LINE
  5
1C1
330
12B
100
AcDbEntity
  8
AM_4
100
AcDbLine
 10
2.388043144947543
 20
-0.9423010161034652
 30
0.0
 11
2.388043144947543
 21
0.942301016103465
 31
0.0
  0
LWPOLYLINE
  5
1C2
330
12B
100
AcDbEntity
  8
AM_4
100
AcDbPolyline
 90
       32
 70
     0
 43
0.0
 10
-2.388043144947543
 20
0.9423010161034654
 10
-2.327478670380956
 20
0.9229572888476785
 10
-2.249200677762725
 20
0.9041831127300102
 10
-2.153804909882218
 20
0.8861213705668736
 10
-2.042017386134546
 20
0.868909523122108
 10
-1.91468887707458
 20
0.8526785629475659
 10
-1.772788429539324
 20
0.8375520174506973
 10
-1.617395991616353
 20
0.8236450087763911
 10
-1.449694193586781
 20
0.8110633776579405
 10
-1.270959347394726
 20
0.799902877905153
 10
-1.082551733142761
 20
0.7902484476600419
 10
-0.885905246538971
 20
0.7821735629662763
 10
-0.6825164860848066
 20
0.7757396785721248
 10
-0.4739333630568149
 20
0.7709957602227123
 10
-0.2617433209671721
 20
0.7679779120011343
 10
-0.0475612541600308
 20
0.7667091015545833
 10
0.1669827825095388
 20
0.7671989852966865
 10
0.38025597937725
 20
0.7694438349163665
 10
0.5906351986370624
 20
0.7734265657525402
 10
0.7965193273999631
 20
0.7791168668187056
 10
0.9963414631298304
 20
0.7864714314878518
 10
1.188580838717856
 20
0.7954342870820388
 10
1.371774396438506
 20
0.8059372208582746
 10
1.544527922702231
 20
0.8179002991486773
 10
1.705526658862735
 20
0.8312324757039531
 10
1.853545307324141
 20
0.8458322846103274
 10
1.987457356795553
 20
0.8615886125064177
 10
2.106243655722188
 20
0.8783815442230035
 10
2.209000168644085
 20
0.8960832754098722
 10
2.294944856451832
 20
0.9145590852040941
 10
2.363423628176389
 20
0.9336683615371364
 10
2.388043144947543
 20
0.9423010161034652
  0
LINE
  5
1C3
330
12B
100
AcDbEntity
  8
AM_4
100
AcDbLine
 10
-2.388043144947543
 20
-0.9423010161034652
 30
0.0
 11
-2.388043144947543
 21
0.9423010161034656
 31
0.0
  0
ENDBLK
  5
12E
330
12B
100
AcDbEntity
  8
0
100
AcDbBlockEnd
  0
ENDSEC
  0
SECTION
  2
ENTITIES
  0
INSERT
  5
6F
330
1F
100
AcDbEntity
  8
0
100
AcDbBlockReference
  2
1_126452_4
 10
0.0
 20
0.0
 30
0.0
  0
POINT
  5
1C5
330
1F
100
AcDbEntity
  8
ConnectionPoints
100
AcDbPoint
 10
0.0
 20
-1.26
 30
2.5
  0
POINT
  5
1C6
330
1F
100
AcDbEntity
  8
ConnectionPoints
100
AcDbPoint
 10
0.0
 20
0.7499999999999999
 30
2.5
  0
POINT
  5
1C7
330
1F
100
AcDbEntity
  8
ConnectionPoints
100
AcDbPoint
 10
0.0
 20
-0.0000000000000001
 30
2.5
  0
POINT
  5
1C8
330
1F
100
AcDbEntity
  8
ConnectionPoints
100
AcDbPoint
 10
0.0
 20
-1.26
 30
2.5
  0
POINT
  5
1C9
330
1F
100
AcDbEntity
  8
ConnectionPoints
100
AcDbPoint
 10
1.768056921369907
 20
0.0000000000000003
 30
4.268056921369907
  0
ENDSEC
  0
SECTION
  2
OBJECTS
  0
DICTIONARY
  5
C
330
0
100
AcDbDictionary
281
     1
  3
ACAD_DETAILVIEWSTYLE
350
1D1
  3
ACAD_GROUP
350
D
  3
ACAD_LAYOUT
350
1A
  3
ACAD_MATERIAL
350
43
  3
ACAD_MLEADERSTYLE
350
6B
  3
ACAD_MLINESTYLE
350
17
  3
ACAD_PLOTSETTINGS
350
19
  3
ACAD_PLOTSTYLENAME
350
E
  3
ACAD_SCALELIST
350
47
  3
ACAD_SECTIONVIEWSTYLE
350
1D2
  3
ACAD_TABLESTYLE
350
69
  3
ACAD_VISUALSTYLE
350
2A
  3
ACDB_RECOMPOSE_DATA
350
1CE
  3
AcDbVariableDictionary
350
1CA
  0
SUN
  5
6D
330
29
100
AcDbSun
 90
        1
290
     0
 63
     7
421
 16777215
 40
1.0
291
     1
 91
  2455826
 92
 54000000
292
     0
 70
     2
 71
   256
280
     1
  0
DICTIONARY
  5
1D1
102
{ACAD_REACTORS
330
C
102
}
330
C
100
AcDbDictionary
281
     1
  0
DICTIONARY
  5
D
102
{ACAD_REACTORS
330
C
102
}
330
C
100
AcDbDictionary
281
     1
  0
DICTIONARY
  5
1A
102
{ACAD_REACTORS
330
C
102
}
330
C
100
AcDbDictionary
281
     1
  3
Layout1
350
1E
  3
Layout2
350
26
  3
Model
350
22
  0
DICTIONARY
  5
43
102
{ACAD_REACTORS
330
C
102
}
330
C
100
AcDbDictionary
281
     1
  3
ByBlock
350
45
  3
ByLayer
350
44
  3
Global
350
46
  0
DICTIONARY
  5
6B
102
{ACAD_REACTORS
330
C
102
}
330
C
100
AcDbDictionary
281
     1
  3
Standard
350
6C
  0
DICTIONARY
  5
17
102
{ACAD_REACTORS
330
C
102
}
330
C
100
AcDbDictionary
281
     1
  3
Standard
350
18
  0
DICTIONARY
  5
19
102
{ACAD_REACTORS
330
C
102
}
330
C
100
AcDbDictionary
281
     1
  0
ACDBDICTIONARYWDFLT
  5
E
102
{ACAD_REACTORS
330
C
102
}
330
C
100
AcDbDictionary
281
     1
  3
Normal
350
F
100
AcDbDictionaryWithDefault
340
F
  0
DICTIONARY
  5
47
102
{ACAD_REACTORS
330
C
102
}
330
C
100
AcDbDictionary
281
     1
  3
A0
350
48
  3
A1
350
49
  3
A2
350
4A
  3
A3
350
4B
  3
A4
350
4C
  3
A5
350
4D
  3
A6
350
4E
  3
A7
350
4F
  3
A8
350
50
  3
A9
350
51
  3
B0
350
52
  3
B1
350
53
  3
B2
350
54
  3
B3
350
55
  3
B4
350
56
  3
B5
350
57
  3
B6
350
58
  3
B7
350
59
  3
B8
350
5A
  3
B9
350
5B
  3
C0
350
5C
  3
C1
350
5D
  3
C2
350
5E
  3
C3
350
5F
  3
C4
350
60
  3
C5
350
61
  3
C6
350
62
  3
C7
350
63
  3
C8
350
64
  3
C9
350
65
  3
D0
350
66
  3
D1
350
67
  3
D2
350
68
  0
DICTIONARY
  5
1D2
102
{ACAD_REACTORS
330
C
102
}
330
C
100
AcDbDictionary
281
     1
  0
DICTIONARY
  5
69
102
{ACAD_REACTORS
330
C
102
}
330
C
100
AcDbDictionary
281
     1
  3
Standard
350
6A
  0
DICTIONARY
  5
2A
102
{ACAD_REACTORS
330
C
102
}
330
C
100
AcDbDictionary
281
     1
  3
2dWireframe
350
2F
  3
Basic
350
32
  3
Brighten
350
36
  3
ColorChange
350
3A
  3
Conceptual
350
34
  3
Dim
350
35
  3
EdgeColorOff
350
3D
  3
Facepattern
350
39
  3
Flat
350
2B
  3
FlatWithEdges
350
2C
  3
Gouraud
350
2D
  3
GouraudWithEdges
350
2E
  3
Hidden
350
31
  3
JitterOff
350
3B
  3
Linepattern
350
38
  3
OverhangOff
350
3C
  3
Realistic
350
33
  3
Shaded
350
42
  3
Shaded with edges
350
41
  3
Shades of Gray
350
3E
  3
Sketchy
350
3F
  3
Thicken
350
37
  3
Wireframe
350
30
  3
X-Ray
350
40
  0
XRECORD
  5
1CE
102
{ACAD_REACTORS
330
C
102
}
330
C
100
AcDbXrecord
280
     1
 90
        1
330
6A
  0
DICTIONARY
  5
1CA
102
{ACAD_REACTORS
330
C
102
}
330
C
100
AcDbDictionary
281
     1
  3
CANNOSCALE
350
1CB
  3
CMLEADERSTYLE
350
1D0
  3
CTABLESTYLE
350
1CF
  0
LAYOUT
  5
1E
102
{ACAD_REACTORS
330
1A
102
}
330
1A
100
AcDbPlotSettings
  1

  2
none_device
  4

  6

 40
0.0
 41
0.0
 42
0.0
 43
0.0
 44
0.0
 45
0.0
 46
0.0
 47
0.0
 48
0.0
 49
0.0
140
0.0
141
0.0
142
1.0
143
1.0
 70
   688
 72
     0
 73
     0
 74
     5
  7

 75
    16
 76
     0
 77
     2
 78
   300
147
1.0
148
0.0
149
0.0
100
AcDbLayout
  1
Layout1
 70
     1
 71
     1
 10
0.0
 20
0.0
 11
12.0
 21
9.0
 12
0.0
 22
0.0
 32
0.0
 14
1.000000000000000E+20
 24
1.000000000000000E+20
 34
1.000000000000000E+20
 15
-1.000000000000000E+20
 25
-1.000000000000000E+20
 35
-1.000000000000000E+20
146
0.0
 13
0.0
 23
0.0
 33
0.0
 16
1.0
 26
0.0
 36
0.0
 17
0.0
 27
1.0
 37
0.0
 76
     0
330
1B
  0
LAYOUT
  5
26
102
{ACAD_REACTORS
330
1A
102
}
330
1A
100
AcDbPlotSettings
  1

  2
none_device
  4

  6

 40
0.0
 41
0.0
 42
0.0
 43
0.0
 44
0.0
 45
0.0
 46
0.0
 47
0.0
 48
0.0
 49
0.0
140
0.0
141
0.0
142
1.0
143
1.0
 70
   688
 72
     0
 73
     0
 74
     5
  7

 75
    16
 76
     0
 77
     2
 78
   300
147
1.0
148
0.0
149
0.0
100
AcDbLayout
  1
Layout2
 70
     1
 71
     2
 10
0.0
 20
0.0
 11
0.0
 21
0.0
 12
0.0
 22
0.0
 32
0.0
 14
0.0
 24
0.0
 34
0.0
 15
0.0
 25
0.0
 35
0.0
146
0.0
 13
0.0
 23
0.0
 33
0.0
 16
1.0
 26
0.0
 36
0.0
 17
0.0
 27
1.0
 37
0.0
 76
     0
330
23
  0
LAYOUT
  5
22
102
{ACAD_REACTORS
330
1A
102
}
330
1A
100
AcDbPlotSettings
  1

  2
none_device
  4
Letter_(8.50_x_11.00_Inches)
  6

 40
6.35
 41
6.35
 42
6.35000508
 43
6.35000508
 44
215.9
 45
279.4
 46
0.0
 47
0.0
 48
0.0
 49
0.0
140
0.0
141
0.0
142
1.0
143
1.0
 70
  1712
 72
     0
 73
     0
 74
     0
  7

 75
     0
 76
     0
 77
     2
 78
   300
147
1.0
148
0.0
149
0.0
100
AcDbLayout
  1
Model
 70
     1
 71
     0
 10
0.0
 20
0.0
 11
12.0
 21
9.0
 12
0.0
 22
0.0
 32
0.0
 14
1.000000000000000E+20
 24
1.000000000000000E+20
 34
1.000000000000000E+20
 15
-1.000000000000000E+20
 25
-1.000000000000000E+20
 35
-1.000000000000000E+20
146
0.0
 13
0.0
 23
0.0
 33
0.0
 16
1.0
 26
0.0
 36
0.0
 17
0.0
 27
1.0
 37
0.0
 76
     0
330
1F
331
29
  0
MATERIAL
  5
45
102
{ACAD_REACTORS
330
43
102
}
330
43
100
AcDbMaterial
  1
ByBlock
 72
     1
 94
      127
  0
MATERIAL
  5
44
102
{ACAD_REACTORS
330
43
102
}
330
43
100
AcDbMaterial
  1
ByLayer
 72
     1
 94
      127
  0
MATERIAL
  5
46
102
{ACAD_REACTORS
330
43
102
}
330
43
100
AcDbMaterial
  1
Global
 72
     1
 94
      127
  0
MLEADERSTYLE
  5
6C
102
{ACAD_REACTORS
330
6B
102
}
330
6B
100
AcDbMLeaderStyle
179
     2
170
     2
171
     1
172
     0
 90
        2
 40
0.0
 41
0.0
173
     1
 91
-1056964608
340
14
 92
       -2
290
     1
 42
0.09
291
     1
 43
0.36
  3
Standard
341
0
 44
0.18
300

342
11
174
     1
178
     6
175
     1
176
     0
 93
-1056964608
 45
0.18
292
     0
297
     0
 46
0.18
343
0
 94
-1056964608
 47
1.0
 49
1.0
140
1.0
293
     1
141
0.0
294
     1
177
     0
142
1.0
295
     0
296
     0
143
0.125
271
     0
272
     9
273
     9
298
     0
  0
MLINESTYLE
  5
18
102
{ACAD_REACTORS
330
17
102
}
330
17
100
AcDbMlineStyle
  2
Standard
 70
     0
  3

 62
   256
 51
90.0
 52
90.0
 71
     2
 49
0.5
 62
   256
  6
BYLAYER
 49
-0.5
 62
   256
  6
BYLAYER
  0
ACDBPLACEHOLDER
  5
F
102
{ACAD_REACTORS
330
E
102
}
330
E
  0
SCALE
  5
48
102
{ACAD_REACTORS
330
47
102
}
330
47
100
AcDbScale
 70
     0
300
1:1
140
1.0
141
1.0
290
     1
  0
SCALE
  5
49
102
{ACAD_REACTORS
330
47
102
}
330
47
100
AcDbScale
 70
     0
300
1:2
140
1.0
141
2.0
290
     0
  0
SCALE
  5
4A
102
{ACAD_REACTORS
330
47
102
}
330
47
100
AcDbScale
 70
     0
300
1:4
140
1.0
141
4.0
290
     0
  0
SCALE
  5
4B
102
{ACAD_REACTORS
330
47
102
}
330
47
100
AcDbScale
 70
     0
300
1:5
140
1.0
141
5.0
290
     0
  0
SCALE
  5
4C
102
{ACAD_REACTORS
330
47
102
}
330
47
100
AcDbScale
 70
     0
300
1:8
140
1.0
141
8.0
290
     0
  0
SCALE
  5
4D
102
{ACAD_REACTORS
330
47
102
}
330
47
100
AcDbScale
 70
     0
300
1:10
140
1.0
141
10.0
290
     0
  0
SCALE
  5
4E
102
{ACAD_REACTORS
330
47
102
}
330
47
100
AcDbScale
 70
     0
300
1:16
140
1.0
141
16.0
290
     0
  0
SCALE
  5
4F
102
{ACAD_REACTORS
330
47
102
}
330
47
100
AcDbScale
 70
     0
300
1:20
140
1.0
141
20.0
290
     0
  0
SCALE
  5
50
102
{ACAD_REACTORS
330
47
102
}
330
47
100
AcDbScale
 70
     0
300
1:30
140
1.0
141
30.0
290
     0
  0
SCALE
  5
51
102
{ACAD_REACTORS
330
47
102
}
330
47
100
AcDbScale
 70
     0
300
1:40
140
1.0
141
40.0
290
     0
  0
SCALE
  5
52
102
{ACAD_REACTORS
330
47
102
}
330
47
100
AcDbScale
 70
     0
300
1:50
140
1.0
141
50.0
290
     0
  0
SCALE
  5
53
102
{ACAD_REACTORS
330
47
102
}
330
47
100
AcDbScale
 70
     0
300
1:100
140
1.0
141
100.0
290
     0
  0
SCALE
  5
54
102
{ACAD_REACTORS
330
47
102
}
330
47
100
AcDbScale
 70
     0
300
2:1
140
2.0
141
1.0
290
     0
  0
SCALE
  5
55
102
{ACAD_REACTORS
330
47
102
}
330
47
100
AcDbScale
 70
     0
300
4:1
140
4.0
141
1.0
290
     0
  0
SCALE
  5
56
102
{ACAD_REACTORS
330
47
102
}
330
47
100
AcDbScale
 70
     0
300
8:1
140
8.0
141
1.0
290
     0
  0
SCALE
  5
57
102
{ACAD_REACTORS
330
47
102
}
330
47
100
AcDbScale
 70
     0
300
10:1
140
10.0
141
1.0
290
     0
  0
SCALE
  5
58
102
{ACAD_REACTORS
330
47
102
}
330
47
100
AcDbScale
 70
     0
300
100:1
140
100.0
141
1.0
290
     0
  0
SCALE
  5
59
102
{ACAD_REACTORS
330
47
102
}
330
47
100
AcDbScale
 70
     0
300
1/128" = 1'-0"
140
0.0078125
141
12.0
290
     0
  0
SCALE
  5
5A
102
{ACAD_REACTORS
330
47
102
}
330
47
100
AcDbScale
 70
     0
300
1/64" = 1'-0"
140
0.015625
141
12.0
290
     0
  0
SCALE
  5
5B
102
{ACAD_REACTORS
330
47
102
}
330
47
100
AcDbScale
 70
     0
300
1/32" = 1'-0"
140
0.03125
141
12.0
290
     0
  0
SCALE
  5
5C
102
{ACAD_REACTORS
330
47
102
}
330
47
100
AcDbScale
 70
     0
300
1/16" = 1'-0"
140
0.0625
141
12.0
290
     0
  0
SCALE
  5
5D
102
{ACAD_REACTORS
330
47
102
}
330
47
100
AcDbScale
 70
     0
300
3/32" = 1'-0"
140
0.09375
141
12.0
290
     0
  0
SCALE
  5
5E
102
{ACAD_REACTORS
330
47
102
}
330
47
100
AcDbScale
 70
     0
300
1/8" = 1'-0"
140
0.125
141
12.0
290
     0
  0
SCALE
  5
5F
102
{ACAD_REACTORS
330
47
102
}
330
47
100
AcDbScale
 70
     0
300
3/16" = 1'-0"
140
0.1875
141
12.0
290
     0
  0
SCALE
  5
60
102
{ACAD_REACTORS
330
47
102
}
330
47
100
AcDbScale
 70
     0
300
1/4" = 1'-0"
140
0.25
141
12.0
290
     0
  0
SCALE
  5
61
102
{ACAD_REACTORS
330
47
102
}
330
47
100
AcDbScale
 70
     0
300
3/8" = 1'-0"
140
0.375
141
12.0
290
     0
  0
SCALE
  5
62
102
{ACAD_REACTORS
330
47
102
}
330
47
100
AcDbScale
 70
     0
300
1/2" = 1'-0"
140
0.5
141
12.0
290
     0
  0
SCALE
  5
63
102
{ACAD_REACTORS
330
47
102
}
330
47
100
AcDbScale
 70
     0
300
3/4" = 1'-0"
140
0.75
141
12.0
290
     0
  0
SCALE
  5
64
102
{ACAD_REACTORS
330
47
102
}
330
47
100
AcDbScale
 70
     0
300
1" = 1'-0"
140
1.0
141
12.0
290
     0
  0
SCALE
  5
65
102
{ACAD_REACTORS
330
47
102
}
330
47
100
AcDbScale
 70
     0
300
1-1/2" = 1'-0"
140
1.5
141
12.0
290
     0
  0
SCALE
  5
66
102
{ACAD_REACTORS
330
47
102
}
330
47
100
AcDbScale
 70
     0
300
3" = 1'-0"
140
3.0
141
12.0
290
     0
  0
SCALE
  5
67
102
{ACAD_REACTORS
330
47
102
}
330
47
100
AcDbScale
 70
     0
300
6" = 1'-0"
140
6.0
141
12.0
290
     0
  0
SCALE
  5
68
102
{ACAD_REACTORS
330
47
102
}
330
47
100
AcDbScale
 70
     0
300
1'-0" = 1'-0"
140
12.0
141
12.0
290
     0
  0
TABLESTYLE
  5
6A
102
{ACAD_REACTORS
330
69
102
}
102
{ACAD_XDICTIONARY
360
1CC
102
}
330
69
100
AcDbTableStyle
  3
Standard
 70
     0
 71
     0
 40
0.06
 41
0.06
280
     0
281
     0
  7
Standard
140
0.18
170
     2
 62
     0
 63
   257
283
     0
 90
        4
 91
        0
  1

274
    -2
284
     1
 64
     0
275
    -2
285
     1
 65
     0
276
    -2
286
     1
 66
     0
277
    -2
287
     1
 67
     0
278
    -2
288
     1
 68
     0
279
    -2
289
     1
 69
     0
  7
Standard
140
0.25
170
     5
 62
     0
 63
   257
283
     0
 90
        4
 91
        0
  1

274
    -2
284
     1
 64
     0
275
    -2
285
     1
 65
     0
276
    -2
286
     1
 66
     0
277
    -2
287
     1
 67
     0
278
    -2
288
     1
 68
     0
279
    -2
289
     1
 69
     0
  7
Standard
140
0.18
170
     5
 62
     0
 63
   257
283
     0
 90
        4
 91
        0
  1

274
    -2
284
     1
 64
     0
275
    -2
285
     1
 65
     0
276
    -2
286
     1
 66
     0
277
    -2
287
     1
 67
     0
278
    -2
288
     1
 68
     0
279
    -2
289
     1
 69
     0
  0
VISUALSTYLE
  5
2F
102
{ACAD_REACTORS
330
2A
102
}
330
2A
100
AcDbVisualStyle
  2
2dWireframe
 70
     4
177
     3
291
     0
 70
    58
 90
        0
176
     1
 90
        2
176
     1
 90
        0
176
     1
 90
        0
176
     1
 40
0.6
176
     1
 40
30.0
176
     1
 62
     7
420
 16777215
176
     1
 90
        1
176
     1
 90
        4
176
     1
 62
     7
176
     1
 62
   257
176
     1
 90
        1
176
     1
 90
        1
176
     1
 40
1.0
176
     1
 90
        0
176
     1
 62
   257
176
     1
 40
1.0
176
     1
 90
        1
176
     1
 90
        6
176
     1
 90
        2
176
     1
 62
     7
176
     1
 90
        5
176
     1
 90
        0
176
     1
 90
        0
176
     1
290
     0
176
     1
 90
        1
176
     1
 40
0.0
176
     1
 90
        0
176
     1
290
     1
176
     1
290
     1
176
     1
290
     0
176
     1
290
     0
176
     1
290
     0
176
     1
290
     0
176
     1
290
     0
176
     1
290
     0
176
     1
290
     0
176
     1
 90
       50
176
     1
 40
0.0
176
     1
 40
1.0
176
     1
 90
        0
176
     1
 62
    18
420
        0
176
     1
 90
       50
176
     1
 90
        3
176
     1
 62
     5
420
      255
176
     1
290
     0
176
     1
 90
       50
176
     1
 90
       50
176
     1
 90
       50
176
     1
290
     0
176
     1
 90
       50
176
     1
 62
   256
176
     0
 40
1.0
176
     0
 90
        2
176
     1
  1
strokes_ogs.tif
176
     1
290
     0
176
     1
 40
1.0
176
     1
 40
1.0
176
     1
  0
VISUALSTYLE
  5
32
102
{ACAD_REACTORS
330
2A
102
}
330
2A
100
AcDbVisualStyle
  2
Basic
 70
     7
177
     3
291
     1
 70
    58
 90
        1
176
     1
 90
        0
176
     1
 90
        1
176
     1
 90
        0
176
     1
 40
0.6
176
     1
 40
30.0
176
     1
 62
     7
420
 16777215
176
     1
 90
        0
176
     1
 90
        4
176
     1
 62
     7
176
     1
 62
   257
176
     1
 90
        1
176
     1
 90
        1
176
     1
 40
1.0
176
     1
 90
        8
176
     1
 62
     7
176
     1
 40
1.0
176
     1
 90
        1
176
     1
 90
        6
176
     1
 90
        2
176
     1
 62
     7
176
     1
 90
        5
176
     1
 90
        0
176
     1
 90
        0
176
     1
290
     0
176
     1
 90
        1
176
     1
 40
0.0
176
     1
 90
        0
176
     1
290
     0
176
     1
290
     1
176
     1
290
     1
176
     1
290
     0
176
     1
290
     0
176
     1
290
     0
176
     1
290
     0
176
     1
290
     0
176
     1
290
     0
176
     1
 90
       50
176
     1
 40
0.0
176
     1
 40
1.0
176
     1
 90
        0
176
     1
 62
    18
420
        0
176
     1
 90
       50
176
     1
 90
        3
176
     1
 62
     5
420
      255
176
     1
290
     0
176
     1
 90
       50
176
     1
 90
       50
176
     1
 90
       50
176
     1
290
     0
176
     1
 90
       50
176
     1
 62
   256
176
     0
 40
1.0
176
     0
 90
        2
176
     1
  1
strokes_ogs.tif
176
     1
290
     0
176
     1
 40
1.0
176
     1
 40
1.0
176
     1
  0
VISUALSTYLE
  5
36
102
{ACAD_REACTORS
330
2A
102
}
330
2A
100
AcDbVisualStyle
  2
Brighten
 70
    12
177
     3
291
     1
 70
    58
 90
        2
176
     1
 90
        2
176
     1
 90
        0
176
     1
 90
        0
176
     1
 40
0.6
176
     1
 40
30.0
176
     1
 62
     7
420
 16777215
176
     1
 90
        1
176
     1
 90
        4
176
     1
 62
     7
176
     1
 62
   257
176
     1
 90
        1
176
     1
 90
        1
176
     1
 40
1.0
176
     1
 90
        8
176
     1
 62
     7
176
     1
 40
1.0
176
     1
 90
        1
176
     1
 90
        6
176
     1
 90
        2
176
     1
 62
     7
176
     1
 90
        5
176
     1
 90
        0
176
     1
 90
        0
176
     1
290
     0
176
     1
 90
        1
176
     1
 40
50.0
176
     1
 90
        0
176
     1
290
     0
176
     1
290
     1
176
     1
290
     1
176
     1
290
     0
176
     1
290
     0
176
     1
290
     0
176
     1
290
     0
176
     1
290
     0
176
     1
290
     0
176
     1
 90
       50
176
     1
 40
0.0
176
     1
 40
1.0
176
     1
 90
        0
176
     1
 62
    18
420
        0
176
     1
 90
       50
176
     1
 90
        3
176
     1
 62
     5
420
      255
176
     1
290
     0
176
     1
 90
       50
176
     1
 90
       50
176
     1
 90
       50
176
     1
290
     0
176
     1
 90
       50
176
     1
 62
   256
176
     0
 40
1.0
176
     0
 90
        2
176
     1
  1
strokes_ogs.tif
176
     1
290
     0
176
     1
 40
1.0
176
     1
 40
1.0
176
     1
  0
VISUALSTYLE
  5
3A
102
{ACAD_REACTORS
330
2A
102
}
330
2A
100
AcDbVisualStyle
  2
ColorChange
 70
    16
177
     3
291
     1
 70
    58
 90
        2
176
     1
 90
        2
176
     1
 90
        3
176
     1
 90
        0
176
     1
 40
0.6
176
     1
 40
30.0
176
     1
 62
     8
420
  8421504
176
     1
 90
        1
176
     1
 90
        4
176
     1
 62
     7
176
     1
 62
   257
176
     1
 90
        1
176
     1
 90
        1
176
     1
 40
1.0
176
     1
 90
        8
176
     1
 62
     8
420
  8421504
176
     1
 40
1.0
176
     1
 90
        1
176
     1
 90
        6
176
     1
 90
        2
176
     1
 62
     7
176
     1
 90
        5
176
     1
 90
        0
176
     1
 90
        0
176
     1
290
     0
176
     1
 90
        1
176
     1
 40
0.0
176
     1
 90
        0
176
     1
290
     0
176
     1
290
     1
176
     1
290
     1
176
     1
290
     0
176
     1
290
     0
176
     1
290
     0
176
     1
290
     0
176
     1
290
     0
176
     1
290
     0
176
     1
 90
       50
176
     1
 40
0.0
176
     1
 40
1.0
176
     1
 90
        0
176
     1
 62
    18
420
        0
176
     1
 90
       50
176
     1
 90
        3
176
     1
 62
     5
420
      255
176
     1
290
     0
176
     1
 90
       50
176
     1
 90
       50
176
     1
 90
       50
176
     1
290
     0
176
     1
 90
       50
176
     1
 62
   256
176
     0
 40
1.0
176
     0
 90
        2
176
     1
  1
strokes_ogs.tif
176
     1
290
     0
176
     1
 40
1.0
176
     1
 40
1.0
176
     1
  0
VISUALSTYLE
  5
34
102
{ACAD_REACTORS
330
2A
102
}
330
2A
100
AcDbVisualStyle
  2
Conceptual
 70
     9
177
     3
291
     0
 70
    58
 90
        3
176
     1
 90
        2
176
     1
 90
        0
176
     1
 90
        0
176
     1
 40
0.6
176
     1
 40
30.0
176
     1
 62
     7
420
 16777215
176
     1
 90
        2
176
     1
 90
        2
176
     1
 62
     7
176
     1
 62
   257
176
     1
 90
        1
176
     1
 90
        1
176
     1
 40
179.0
176
     1
 90
        8
176
     1
 62
     7
176
     1
 40
1.0
176
     1
 90
        1
176
     1
 90
        6
176
     1
 90
        2
176
     1
 62
     7
176
     1
 90
        3
176
     1
 90
        0
176
     1
 90
        0
176
     1
290
     0
176
     1
 90
        1
176
     1
 40
0.0
176
     1
 90
        0
176
     1
290
     0
176
     1
290
     1
176
     1
290
     1
176
     1
290
     0
176
     1
290
     0
176
     1
290
     0
176
     1
290
     0
176
     1
290
     0
176
     1
290
     0
176
     1
 90
       50
176
     1
 40
0.0
176
     1
 40
1.0
176
     1
 90
        0
176
     1
 62
    18
420
        0
176
     1
 90
       50
176
     1
 90
        3
176
     1
 62
     5
420
      255
176
     1
290
     0
176
     1
 90
       50
176
     1
 90
       50
176
     1
 90
       50
176
     1
290
     0
176
     1
 90
       50
176
     1
 62
   256
176
     0
 40
1.0
176
     0
 90
        2
176
     1
  1
strokes_ogs.tif
176
     1
290
     0
176
     1
 40
1.0
176
     1
 40
1.0
176
     1
  0
VISUALSTYLE
  5
35
102
{ACAD_REACTORS
330
2A
102
}
330
2A
100
AcDbVisualStyle
  2
Dim
 70
    11
177
     3
291
     1
 70
    58
 90
        2
176
     1
 90
        2
176
     1
 90
        0
176
     1
 90
        0
176
     1
 40
0.6
176
     1
 40
30.0
176
     1
 62
     7
420
 16777215
176
     1
 90
        1
176
     1
 90
        4
176
     1
 62
     7
176
     1
 62
   257
176
     1
 90
        1
176
     1
 90
        1
176
     1
 40
1.0
176
     1
 90
        8
176
     1
 62
     7
176
     1
 40
1.0
176
     1
 90
        1
176
     1
 90
        6
176
     1
 90
        2
176
     1
 62
     7
176
     1
 90
        5
176
     1
 90
        0
176
     1
 90
        0
176
     1
290
     0
176
     1
 90
        1
176
     1
 40
-50.0
176
     1
 90
        0
176
     1
290
     0
176
     1
290
     1
176
     1
290
     1
176
     1
290
     0
176
     1
290
     0
176
     1
290
     0
176
     1
290
     0
176
     1
290
     0
176
     1
290
     0
176
     1
 90
       50
176
     1
 40
0.0
176
     1
 40
1.0
176
     1
 90
        0
176
     1
 62
    18
420
        0
176
     1
 90
       50
176
     1
 90
        3
176
     1
 62
     5
420
      255
176
     1
290
     0
176
     1
 90
       50
176
     1
 90
       50
176
     1
 90
       50
176
     1
290
     0
176
     1
 90
       50
176
     1
 62
   256
176
     0
 40
1.0
176
     0
 90
        2
176
     1
  1
strokes_ogs.tif
176
     1
290
     0
176
     1
 40
1.0
176
     1
 40
1.0
176
     1
  0
VISUALSTYLE
  5
3D
102
{ACAD_REACTORS
330
2A
102
}
330
2A
100
AcDbVisualStyle
  2
EdgeColorOff
 70
    22
177
     3
291
     1
 70
    58
 90
        2
176
     0
 90
        2
176
     0
 90
        0
176
     0
 90
        0
176
     0
 40
0.6
176
     0
 40
30.0
176
     0
 62
     7
420
 16777215
176
     0
 90
        1
176
     0
 90
        4
176
     0
 62
     7
176
     0
 62
   257
176
     0
 90
        1
176
     0
 90
        1
176
     0
 40
1.0
176
     0
 90
        8
176
     2
 62
     7
176
     0
 40
1.0
176
     0
 90
        1
176
     0
 90
        6
176
     0
 90
        2
176
     0
 62
     7
176
     0
 90
        5
176
     0
 90
        0
176
     0
 90
        0
176
     0
290
     0
176
     0
 90
        1
176
     0
 40
0.0
176
     0
 90
        0
176
     0
290
     0
176
     0
290
     1
176
     0
290
     1
176
     0
290
     0
176
     0
290
     0
176
     0
290
     0
176
     0
290
     0
176
     0
290
     0
176
     0
290
     0
176
     0
 90
       50
176
     0
 40
0.0
176
     0
 40
1.0
176
     0
 90
        0
176
     0
 62
    18
420
        0
176
     0
 90
       50
176
     0
 90
        3
176
     0
 62
     5
420
      255
176
     0
290
     0
176
     0
 90
       50
176
     0
 90
       50
176
     0
 90
       50
176
     0
290
     0
176
     0
 90
       50
176
     0
 62
   256
176
     0
 40
1.0
176
     0
 90
        2
176
     0
  1
strokes_ogs.tif
176
     0
290
     0
176
     0
 40
1.0
176
     0
 40
1.0
176
     0
  0
VISUALSTYLE
  5
39
102
{ACAD_REACTORS
330
2A
102
}
330
2A
100
AcDbVisualStyle
  2
Facepattern
 70
    15
177
     3
291
     1
 70
    58
 90
        2
176
     1
 90
        2
176
     1
 90
        0
176
     1
 90
        0
176
     1
 40
0.6
176
     1
 40
30.0
176
     1
 62
     7
420
 16777215
176
     1
 90
        1
176
     1
 90
        4
176
     1
 62
     7
176
     1
 62
   257
176
     1
 90
        1
176
     1
 90
        1
176
     1
 40
1.0
176
     1
 90
        8
176
     1
 62
     7
176
     1
 40
1.0
176
     1
 90
        1
176
     1
 90
        6
176
     1
 90
        2
176
     1
 62
     7
176
     1
 90
        5
176
     1
 90
        0
176
     1
 90
        0
176
     1
290
     0
176
     1
 90
        1
176
     1
 40
0.0
176
     1
 90
        0
176
     1
290
     0
176
     1
290
     1
176
     1
290
     1
176
     1
290
     0
176
     1
290
     0
176
     1
290
     0
176
     1
290
     0
176
     1
290
     0
176
     1
290
     0
176
     1
 90
       50
176
     1
 40
0.0
176
     1
 40
1.0
176
     1
 90
        0
176
     1
 62
    18
420
        0
176
     1
 90
       50
176
     1
 90
        3
176
     1
 62
     5
420
      255
176
     1
290
     0
176
     1
 90
       50
176
     1
 90
       50
176
     1
 90
       50
176
     1
290
     0
176
     1
 90
       50
176
     1
 62
   256
176
     0
 40
1.0
176
     0
 90
        2
176
     1
  1
strokes_ogs.tif
176
     1
290
     0
176
     1
 40
1.0
176
     1
 40
1.0
176
     1
  0
VISUALSTYLE
  5
2B
102
{ACAD_REACTORS
330
2A
102
}
330
2A
100
AcDbVisualStyle
  2
Flat
 70
     0
177
     3
291
     1
 70
    58
 90
        2
176
     1
 90
        1
176
     1
 90
        1
176
     1
 90
        2
176
     1
 40
0.6
176
     1
 40
30.0
176
     1
 62
     7
420
 16777215
176
     1
 90
        0
176
     1
 90
        0
176
     1
 62
     7
176
     1
 62
   257
176
     1
 90
        1
176
     1
 90
        1
176
     1
 40
1.0
176
     1
 90
        8
176
     1
 62
     7
176
     1
 40
1.0
176
     1
 90
        1
176
     1
 90
        6
176
     1
 90
        2
176
     1
 62
     7
176
     1
 90
        5
176
     1
 90
        0
176
     1
 90
        0
176
     1
290
     0
176
     1
 90
       13
176
     1
 40
0.0
176
     1
 90
        0
176
     1
290
     0
176
     1
290
     1
176
     1
290
     1
176
     1
290
     0
176
     1
290
     0
176
     1
290
     0
176
     1
290
     0
176
     1
290
     0
176
     1
290
     0
176
     1
 90
       50
176
     1
 40
0.0
176
     1
 40
1.0
176
     1
 90
        0
176
     1
 62
    18
420
        0
176
     1
 90
       50
176
     1
 90
        3
176
     1
 62
     5
420
      255
176
     1
290
     0
176
     1
 90
       50
176
     1
 90
       50
176
     1
 90
       50
176
     1
290
     0
176
     1
 90
       50
176
     1
 62
   256
176
     0
 40
1.0
176
     0
 90
        2
176
     1
  1
strokes_ogs.tif
176
     1
290
     0
176
     1
 40
1.0
176
     1
 40
1.0
176
     1
  0
VISUALSTYLE
  5
2C
102
{ACAD_REACTORS
330
2A
102
}
330
2A
100
AcDbVisualStyle
  2
FlatWithEdges
 70
     1
177
     3
291
     1
 70
    58
 90
        2
176
     1
 90
        1
176
     1
 90
        1
176
     1
 90
        2
176
     1
 40
0.6
176
     1
 40
30.0
176
     1
 62
     7
420
 16777215
176
     1
 90
        1
176
     1
 90
        0
176
     1
 62
     7
176
     1
 62
   257
176
     1
 90
        1
176
     1
 90
        1
176
     1
 40
1.0
176
     1
 90
        0
176
     1
 62
   257
176
     1
 40
1.0
176
     1
 90
        1
176
     1
 90
        6
176
     1
 90
        2
176
     1
 62
     7
176
     1
 90
        5
176
     1
 90
        0
176
     1
 90
        0
176
     1
290
     0
176
     1
 90
       13
176
     1
 40
0.0
176
     1
 90
        0
176
     1
290
     0
176
     1
290
     1
176
     1
290
     1
176
     1
290
     0
176
     1
290
     0
176
     1
290
     0
176
     1
290
     0
176
     1
290
     0
176
     1
290
     0
176
     1
 90
       50
176
     1
 40
0.0
176
     1
 40
1.0
176
     1
 90
        0
176
     1
 62
    18
420
        0
176
     1
 90
       50
176
     1
 90
        3
176
     1
 62
     5
420
      255
176
     1
290
     0
176
     1
 90
       50
176
     1
 90
       50
176
     1
 90
       50
176
     1
290
     0
176
     1
 90
       50
176
     1
 62
   256
176
     0
 40
1.0
176
     0
 90
        2
176
     1
  1
strokes_ogs.tif
176
     1
290
     0
176
     1
 40
1.0
176
     1
 40
1.0
176
     1
  0
VISUALSTYLE
  5
2D
102
{ACAD_REACTORS
330
2A
102
}
330
2A
100
AcDbVisualStyle
  2
Gouraud
 70
     2
177
     3
291
     1
 70
    58
 90
        2
176
     1
 90
        2
176
     1
 90
        1
176
     1
 90
        2
176
     1
 40
0.6
176
     1
 40
30.0
176
     1
 62
     7
420
 16777215
176
     1
 90
        0
176
     1
 90
        0
176
     1
 62
     7
176
     1
 62
   257
176
     1
 90
        1
176
     1
 90
        1
176
     1
 40
1.0
176
     1
 90
        0
176
     1
 62
     7
176
     1
 40
1.0
176
     1
 90
        1
176
     1
 90
        6
176
     1
 90
        2
176
     1
 62
     7
176
     1
 90
        5
176
     1
 90
        0
176
     1
 90
        0
176
     1
290
     0
176
     1
 90
       13
176
     1
 40
0.0
176
     1
 90
        0
176
     1
290
     0
176
     1
290
     1
176
     1
290
     1
176
     1
290
     0
176
     1
290
     0
176
     1
290
     0
176
     1
290
     0
176
     1
290
     0
176
     1
290
     0
176
     1
 90
       50
176
     1
 40
0.0
176
     1
 40
1.0
176
     1
 90
        0
176
     1
 62
    18
420
        0
176
     1
 90
       50
176
     1
 90
        3
176
     1
 62
     5
420
      255
176
     1
290
     0
176
     1
 90
       50
176
     1
 90
       50
176
     1
 90
       50
176
     1
290
     0
176
     1
 90
       50
176
     1
 62
   256
176
     0
 40
1.0
176
     0
 90
        2
176
     1
  1
strokes_ogs.tif
176
     1
290
     0
176
     1
 40
1.0
176
     1
 40
1.0
176
     1
  0
VISUALSTYLE
  5
2E
102
{ACAD_REACTORS
330
2A
102
}
330
2A
100
AcDbVisualStyle
  2
GouraudWithEdges
 70
     3
177
     3
291
     1
 70
    58
 90
        2
176
     1
 90
        2
176
     1
 90
        1
176
     1
 90
        2
176
     1
 40
0.6
176
     1
 40
30.0
176
     1
 62
     7
420
 16777215
176
     1
 90
        1
176
     1
 90
        0
176
     1
 62
     7
176
     1
 62
   257
176
     1
 90
        1
176
     1
 90
        1
176
     1
 40
1.0
176
     1
 90
        0
176
     1
 62
   257
176
     1
 40
1.0
176
     1
 90
        1
176
     1
 90
        6
176
     1
 90
        2
176
     1
 62
     7
176
     1
 90
        5
176
     1
 90
        0
176
     1
 90
        0
176
     1
290
     0
176
     1
 90
       13
176
     1
 40
0.0
176
     1
 90
        0
176
     1
290
     0
176
     1
290
     1
176
     1
290
     1
176
     1
290
     0
176
     1
290
     0
176
     1
290
     0
176
     1
290
     0
176
     1
290
     0
176
     1
290
     0
176
     1
 90
       50
176
     1
 40
0.0
176
     1
 40
1.0
176
     1
 90
        0
176
     1
 62
    18
420
        0
176
     1
 90
       50
176
     1
 90
        3
176
     1
 62
     5
420
      255
176
     1
290
     0
176
     1
 90
       50
176
     1
 90
       50
176
     1
 90
       50
176
     1
290
     0
176
     1
 90
       50
176
     1
 62
   256
176
     0
 40
1.0
176
     0
 90
        2
176
     1
  1
strokes_ogs.tif
176
     1
290
     0
176
     1
 40
1.0
176
     1
 40
1.0
176
     1
  0
VISUALSTYLE
  5
31
102
{ACAD_REACTORS
330
2A
102
}
330
2A
100
AcDbVisualStyle
  2
Hidden
 70
     6
177
     3
291
     0
 70
    58
 90
        1
176
     1
 90
        2
176
     1
 90
        2
176
     1
 90
        0
176
     1
 40
0.6
176
     1
 40
30.0
176
     1
 62
     7
420
 16777215
176
     1
 90
        2
176
     1
 90
        2
176
     1
 62
     7
176
     1
 62
   257
176
     1
 90
        2
176
     1
 90
        1
176
     1
 40
40.0
176
     1
 90
        0
176
     1
 62
   257
176
     1
 40
1.0
176
     1
 90
        1
176
     1
 90
        6
176
     1
 90
        2
176
     1
 62
     7
176
     1
 90
        3
176
     1
 90
        0
176
     1
 90
        0
176
     1
290
     0
176
     1
 90
        1
176
     1
 40
0.0
176
     1
 90
        0
176
     1
290
     0
176
     1
290
     1
176
     1
290
     1
176
     1
290
     0
176
     1
290
     0
176
     1
290
     0
176
     1
290
     0
176
     1
290
     0
176
     1
290
     0
176
     1
 90
       50
176
     1
 40
0.0
176
     1
 40
1.0
176
     1
 90
        0
176
     1
 62
    18
420
        0
176
     1
 90
       50
176
     1
 90
        3
176
     1
 62
     5
420
      255
176
     1
290
     0
176
     1
 90
       50
176
     1
 90
       50
176
     1
 90
       50
176
     1
290
     0
176
     1
 90
       50
176
     1
 62
   256
176
     0
 40
1.0
176
     0
 90
        2
176
     1
  1
strokes_ogs.tif
176
     1
290
     0
176
     1
 40
1.0
176
     1
 40
1.0
176
     1
  0
VISUALSTYLE
  5
3B
102
{ACAD_REACTORS
330
2A
102
}
330
2A
100
AcDbVisualStyle
  2
JitterOff
 70
    20
177
     3
291
     1
 70
    58
 90
        2
176
     0
 90
        2
176
     0
 90
        0
176
     0
 90
        0
176
     0
 40
0.6
176
     0
 40
30.0
176
     0
 62
     7
420
 16777215
176
     0
 90
        1
176
     0
 90
        4
176
     0
 62
     7
176
     0
 62
   257
176
     0
 90
        1
176
     0
 90
        1
176
     0
 40
1.0
176
     0
 90
       10
176
     2
 62
     7
176
     0
 40
1.0
176
     0
 90
        1
176
     0
 90
        6
176
     0
 90
        2
176
     0
 62
     7
176
     0
 90
        5
176
     0
 90
        0
176
     0
 90
        0
176
     0
290
     0
176
     0
 90
        1
176
     0
 40
0.0
176
     0
 90
        0
176
     0
290
     0
176
     0
290
     1
176
     0
290
     1
176
     0
290
     0
176
     0
290
     0
176
     0
290
     0
176
     0
290
     0
176
     0
290
     0
176
     0
290
     0
176
     0
 90
       50
176
     0
 40
0.0
176
     0
 40
1.0
176
     0
 90
        0
176
     0
 62
    18
420
        0
176
     0
 90
       50
176
     0
 90
        3
176
     0
 62
     5
420
      255
176
     0
290
     0
176
     0
 90
       50
176
     0
 90
       50
176
     0
 90
       50
176
     0
290
     0
176
     0
 90
       50
176
     0
 62
   256
176
     0
 40
1.0
176
     0
 90
        2
176
     0
  1
strokes_ogs.tif
176
     0
290
     0
176
     0
 40
1.0
176
     0
 40
1.0
176
     0
  0
VISUALSTYLE
  5
38
102
{ACAD_REACTORS
330
2A
102
}
330
2A
100
AcDbVisualStyle
  2
Linepattern
 70
    14
177
     3
291
     1
 70
    58
 90
        2
176
     1
 90
        2
176
     1
 90
        0
176
     1
 90
        0
176
     1
 40
0.6
176
     1
 40
30.0
176
     1
 62
     7
420
 16777215
176
     1
 90
        1
176
     1
 90
        4
176
     1
 62
     7
176
     1
 62
   257
176
     1
 90
        7
176
     1
 90
        7
176
     1
 40
1.0
176
     1
 90
        8
176
     1
 62
     7
176
     1
 40
1.0
176
     1
 90
        1
176
     1
 90
        6
176
     1
 90
        2
176
     1
 62
     7
176
     1
 90
        5
176
     1
 90
        0
176
     1
 90
        0
176
     1
290
     0
176
     1
 90
        1
176
     1
 40
0.0
176
     1
 90
        0
176
     1
290
     0
176
     1
290
     1
176
     1
290
     1
176
     1
290
     0
176
     1
290
     0
176
     1
290
     0
176
     1
290
     0
176
     1
290
     0
176
     1
290
     0
176
     1
 90
       50
176
     1
 40
0.0
176
     1
 40
1.0
176
     1
 90
        0
176
     1
 62
    18
420
        0
176
     1
 90
       50
176
     1
 90
        3
176
     1
 62
     5
420
      255
176
     1
290
     0
176
     1
 90
       50
176
     1
 90
       50
176
     1
 90
       50
176
     1
290
     0
176
     1
 90
       50
176
     1
 62
   256
176
     0
 40
1.0
176
     0
 90
        2
176
     1
  1
strokes_ogs.tif
176
     1
290
     0
176
     1
 40
1.0
176
     1
 40
1.0
176
     1
  0
VISUALSTYLE
  5
3C
102
{ACAD_REACTORS
330
2A
102
}
330
2A
100
AcDbVisualStyle
  2
OverhangOff
 70
    21
177
     3
291
     1
 70
    58
 90
        2
176
     0
 90
        2
176
     0
 90
        0
176
     0
 90
        0
176
     0
 40
0.6
176
     0
 40
30.0
176
     0
 62
     7
420
 16777215
176
     0
 90
        1
176
     0
 90
        4
176
     0
 62
     7
176
     0
 62
   257
176
     0
 90
        1
176
     0
 90
        1
176
     0
 40
1.0
176
     0
 90
        9
176
     2
 62
     7
176
     0
 40
1.0
176
     0
 90
        1
176
     0
 90
        6
176
     0
 90
        2
176
     0
 62
     7
176
     0
 90
        5
176
     0
 90
        0
176
     0
 90
        0
176
     0
290
     0
176
     0
 90
        1
176
     0
 40
0.0
176
     0
 90
        0
176
     0
290
     0
176
     0
290
     1
176
     0
290
     1
176
     0
290
     0
176
     0
290
     0
176
     0
290
     0
176
     0
290
     0
176
     0
290
     0
176
     0
290
     0
176
     0
 90
       50
176
     0
 40
0.0
176
     0
 40
1.0
176
     0
 90
        0
176
     0
 62
    18
420
        0
176
     0
 90
       50
176
     0
 90
        3
176
     0
 62
     5
420
      255
176
     0
290
     0
176
     0
 90
       50
176
     0
 90
       50
176
     0
 90
       50
176
     0
290
     0
176
     0
 90
       50
176
     0
 62
   256
176
     0
 40
1.0
176
     0
 90
        2
176
     0
  1
strokes_ogs.tif
176
     0
290
     0
176
     0
 40
1.0
176
     0
 40
1.0
176
     0
  0
VISUALSTYLE
  5
33
102
{ACAD_REACTORS
330
2A
102
}
330
2A
100
AcDbVisualStyle
  2
Realistic
 70
     8
177
     3
291
     0
 70
    58
 90
        2
176
     1
 90
        3
176
     1
 90
        0
176
     1
 90
        2
176
     1
 40
0.6
176
     1
 40
30.0
176
     1
 62
     7
420
 16777215
176
     1
 90
        0
176
     1
 90
        0
176
     1
 62
     7
176
     1
 62
   257
176
     1
 90
        1
176
     1
 90
        1
176
     1
 40
1.0
176
     1
 90
        8
176
     1
 62
   257
176
     1
 40
1.0
176
     1
 90
        1
176
     1
 90
        6
176
     1
 90
        2
176
     1
 62
     7
176
     1
 90
        3
176
     1
 90
        0
176
     1
 90
        0
176
     1
290
     0
176
     1
 90
       13
176
     1
 40
0.0
176
     1
 90
        0
176
     1
290
     0
176
     1
290
     1
176
     1
290
     1
176
     1
290
     0
176
     1
290
     0
176
     1
290
     0
176
     1
290
     0
176
     1
290
     0
176
     1
290
     0
176
     1
 90
       50
176
     1
 40
0.0
176
     1
 40
1.0
176
     1
 90
        0
176
     1
 62
    18
420
        0
176
     1
 90
       50
176
     1
 90
        3
176
     1
 62
     5
420
      255
176
     1
290
     0
176
     1
 90
       50
176
     1
 90
       50
176
     1
 90
       50
176
     1
290
     0
176
     1
 90
       50
176
     1
 62
   256
176
     0
 40
1.0
176
     0
 90
        2
176
     1
  1
strokes_ogs.tif
176
     1
290
     0
176
     1
 40
1.0
176
     1
 40
1.0
176
     1
  0
VISUALSTYLE
  5
42
102
{ACAD_REACTORS
330
2A
102
}
330
2A
100
AcDbVisualStyle
  2
Shaded
 70
    27
177
     3
291
     0
 70
    58
 90
        2
176
     1
 90
        2
176
     1
 90
        1
176
     1
 90
        2
176
     1
 40
0.6
176
     1
 40
30.0
176
     1
 62
     7
420
 16777215
176
     1
 90
        0
176
     1
 90
        4
176
     1
 62
     7
176
     1
 62
   257
176
     1
 90
        1
176
     1
 90
        1
176
     1
 40
1.0
176
     1
 90
        8
176
     1
 62
   257
176
     1
 40
1.0
176
     1
 90
        1
176
     1
 90
        6
176
     1
 90
        2
176
     1
 62
     8
420
  7895160
176
     1
 90
        3
176
     1
 90
        0
176
     1
 90
        0
176
     1
290
     0
176
     1
 90
        5
176
     1
 40
0.0
176
     1
 90
        0
176
     1
290
     0
176
     1
290
     1
176
     1
290
     1
176
     1
290
     0
176
     1
290
     0
176
     1
290
     0
176
     1
290
     0
176
     1
290
     0
176
     1
290
     0
176
     1
 90
       50
176
     1
 40
0.0
176
     1
 40
1.0
176
     1
 90
        0
176
     1
 62
    18
420
        0
176
     1
 90
       50
176
     1
 90
        3
176
     1
 62
     5
420
      255
176
     1
290
     0
176
     1
 90
       50
176
     1
 90
       50
176
     1
 90
       50
176
     1
290
     0
176
     1
 90
       50
176
     1
 62
   256
176
     0
 40
1.0
176
     0
 90
        2
176
     1
  1
strokes_ogs.tif
176
     1
290
     0
176
     1
 40
1.0
176
     1
 40
1.0
176
     1
  0
VISUALSTYLE
  5
41
102
{ACAD_REACTORS
330
2A
102
}
330
2A
100
AcDbVisualStyle
  2
Shaded with edges
 70
    26
177
     3
291
     0
 70
    58
 90
        2
176
     1
 90
        2
176
     1
 90
        1
176
     1
 90
        2
176
     1
 40
0.6
176
     1
 40
30.0
176
     1
 62
     7
420
 16777215
176
     1
 90
        1
176
     1
 90
       10
176
     1
 62
     7
176
     1
 62
   257
176
     1
 90
        2
176
     1
 90
        1
176
     1
 40
1.0
176
     1
 90
        8
176
     1
 62
   257
176
     1
 40
1.0
176
     1
 90
        1
176
     1
 90
        6
176
     1
 90
        2
176
     1
 62
     7
176
     1
 90
        3
176
     1
 90
        0
176
     1
 90
        0
176
     1
290
     0
176
     1
 90
        5
176
     1
 40
0.0
176
     1
 90
        0
176
     1
290
     0
176
     1
290
     1
176
     1
290
     1
176
     1
290
     0
176
     1
290
     0
176
     1
290
     0
176
     1
290
     0
176
     1
290
     0
176
     1
290
     0
176
     1
 90
       50
176
     1
 40
0.0
176
     1
 40
1.0
176
     1
 90
        0
176
     1
 62
    18
420
        0
176
     1
 90
       50
176
     1
 90
        3
176
     1
 62
     5
420
      255
176
     1
290
     0
176
     1
 90
       50
176
     1
 90
       50
176
     1
 90
       50
176
     1
290
     0
176
     1
 90
       50
176
     1
 62
   256
176
     0
 40
1.0
176
     0
 90
        2
176
     1
  1
strokes_ogs.tif
176
     1
290
     0
176
     1
 40
1.0
176
     1
 40
1.0
176
     1
  0
VISUALSTYLE
  5
3E
102
{ACAD_REACTORS
330
2A
102
}
330
2A
100
AcDbVisualStyle
  2
Shades of Gray
 70
    23
177
     3
291
     0
 70
    58
 90
        2
176
     1
 90
        2
176
     1
 90
        3
176
     1
 90
        0
176
     1
 40
0.6
176
     1
 40
30.0
176
     1
 62
     7
420
 16777215
176
     1
 90
        2
176
     1
 90
        2
176
     1
 62
     7
176
     1
 62
     7
176
     1
 90
        1
176
     1
 90
        1
176
     1
 40
40.0
176
     1
 90
        8
176
     1
 62
     7
176
     1
 40
1.0
176
     1
 90
        1
176
     1
 90
        6
176
     1
 90
        2
176
     1
 62
     7
176
     1
 90
        3
176
     1
 90
        0
176
     1
 90
        0
176
     1
290
     0
176
     1
 90
        1
176
     1
 40
0.0
176
     1
 90
        0
176
     1
290
     0
176
     1
290
     1
176
     1
290
     1
176
     1
290
     0
176
     1
290
     0
176
     1
290
     0
176
     1
290
     0
176
     1
290
     0
176
     1
290
     0
176
     1
 90
       50
176
     1
 40
0.0
176
     1
 40
1.0
176
     1
 90
        0
176
     1
 62
    18
420
        0
176
     1
 90
       50
176
     1
 90
        3
176
     1
 62
     5
420
      255
176
     1
290
     0
176
     1
 90
       50
176
     1
 90
       50
176
     1
 90
       50
176
     1
290
     0
176
     1
 90
       50
176
     1
 62
   256
176
     0
 40
1.0
176
     0
 90
        2
176
     1
  1
strokes_ogs.tif
176
     1
290
     0
176
     1
 40
1.0
176
     1
 40
1.0
176
     1
  0
VISUALSTYLE
  5
3F
102
{ACAD_REACTORS
330
2A
102
}
330
2A
100
AcDbVisualStyle
  2
Sketchy
 70
    24
177
     3
291
     0
 70
    58
 90
        1
176
     1
 90
        2
176
     1
 90
        2
176
     1
 90
        0
176
     1
 40
0.6
176
     1
 40
30.0
176
     1
 62
     7
420
 16777215
176
     1
 90
        2
176
     1
 90
        2
176
     1
 62
     7
176
     1
 62
     7
176
     1
 90
        1
176
     1
 90
        1
176
     1
 40
40.0
176
     1
 90
       11
176
     1
 62
     7
176
     1
 40
1.0
176
     1
 90
        1
176
     1
 90
        6
176
     1
 90
        2
176
     1
 62
     7
176
     1
 90
        6
176
     1
 90
        0
176
     1
 90
        0
176
     1
290
     0
176
     1
 90
        1
176
     1
 40
0.0
176
     1
 90
        0
176
     1
290
     0
176
     1
290
     1
176
     1
290
     1
176
     1
290
     0
176
     1
290
     0
176
     1
290
     0
176
     1
290
     0
176
     1
290
     0
176
     1
290
     0
176
     1
 90
       50
176
     1
 40
0.0
176
     1
 40
1.0
176
     1
 90
        0
176
     1
 62
    18
420
        0
176
     1
 90
       50
176
     1
 90
        3
176
     1
 62
     5
420
      255
176
     1
290
     0
176
     1
 90
       50
176
     1
 90
       50
176
     1
 90
       50
176
     1
290
     0
176
     1
 90
       50
176
     1
 62
   256
176
     0
 40
1.0
176
     0
 90
        2
176
     1
  1
strokes_ogs.tif
176
     1
290
     0
176
     1
 40
1.0
176
     1
 40
1.0
176
     1
  0
VISUALSTYLE
  5
37
102
{ACAD_REACTORS
330
2A
102
}
330
2A
100
AcDbVisualStyle
  2
Thicken
 70
    13
177
     3
291
     1
 70
    58
 90
        2
176
     1
 90
        2
176
     1
 90
        0
176
     1
 90
        0
176
     1
 40
0.6
176
     1
 40
30.0
176
     1
 62
     7
420
 16777215
176
     1
 90
        1
176
     1
 90
        4
176
     1
 62
     7
176
     1
 62
   257
176
     1
 90
        1
176
     1
 90
        1
176
     1
 40
1.0
176
     1
 90
       12
176
     1
 62
     7
176
     1
 40
1.0
176
     1
 90
        1
176
     1
 90
        6
176
     1
 90
        2
176
     1
 62
     7
176
     1
 90
        5
176
     1
 90
        0
176
     1
 90
        0
176
     1
290
     0
176
     1
 90
        1
176
     1
 40
0.0
176
     1
 90
        0
176
     1
290
     0
176
     1
290
     1
176
     1
290
     1
176
     1
290
     0
176
     1
290
     0
176
     1
290
     0
176
     1
290
     0
176
     1
290
     0
176
     1
290
     0
176
     1
 90
       50
176
     1
 40
0.0
176
     1
 40
1.0
176
     1
 90
        0
176
     1
 62
    18
420
        0
176
     1
 90
       50
176
     1
 90
        3
176
     1
 62
     5
420
      255
176
     1
290
     0
176
     1
 90
       50
176
     1
 90
       50
176
     1
 90
       50
176
     1
290
     0
176
     1
 90
       50
176
     1
 62
   256
176
     0
 40
1.0
176
     0
 90
        2
176
     1
  1
strokes_ogs.tif
176
     1
290
     0
176
     1
 40
1.0
176
     1
 40
1.0
176
     1
  0
VISUALSTYLE
  5
30
102
{ACAD_REACTORS
330
2A
102
}
330
2A
100
AcDbVisualStyle
  2
Wireframe
 70
     5
177
     3
291
     0
 70
    58
 90
        0
176
     1
 90
        2
176
     1
 90
        0
176
     1
 90
        0
176
     1
 40
0.6
176
     1
 40
30.0
176
     1
 62
     7
420
 16777215
176
     1
 90
        1
176
     1
 90
        4
176
     1
 62
     7
176
     1
 62
   257
176
     1
 90
        1
176
     1
 90
        1
176
     1
 40
1.0
176
     1
 90
        0
176
     1
 62
   257
176
     1
 40
1.0
176
     1
 90
        1
176
     1
 90
        6
176
     1
 90
        2
176
     1
 62
     7
176
     1
 90
        3
176
     1
 90
        0
176
     1
 90
        0
176
     1
290
     0
176
     1
 90
        1
176
     1
 40
0.0
176
     1
 90
        0
176
     1
290
     0
176
     1
290
     1
176
     1
290
     1
176
     1
290
     0
176
     1
290
     0
176
     1
290
     0
176
     1
290
     0
176
     1
290
     0
176
     1
290
     0
176
     1
 90
       50
176
     1
 40
0.0
176
     1
 40
1.0
176
     1
 90
        0
176
     1
 62
    18
420
        0
176
     1
 90
       50
176
     1
 90
        3
176
     1
 62
     5
420
      255
176
     1
290
     0
176
     1
 90
       50
176
     1
 90
       50
176
     1
 90
       50
176
     1
290
     0
176
     1
 90
       50
176
     1
 62
   256
176
     0
 40
1.0
176
     0
 90
        2
176
     1
  1
strokes_ogs.tif
176
     1
290
     0
176
     1
 40
1.0
176
     1
 40
1.0
176
     1
  0
VISUALSTYLE
  5
40
102
{ACAD_REACTORS
330
2A
102
}
330
2A
100
AcDbVisualStyle
  2
X-Ray
 70
    25
177
     3
291
     0
 70
    58
 90
        2
176
     1
 90
        2
176
     1
 90
        1
176
     1
 90
        1
176
     1
 40
0.5
176
     1
 40
30.0
176
     1
 62
     7
420
 16777215
176
     1
 90
        1
176
     1
 90
        0
176
     1
 62
     7
176
     1
 62
   257
176
     1
 90
        1
176
     1
 90
        1
176
     1
 40
1.0
176
     1
 90
        8
176
     1
 62
     7
176
     1
 40
1.0
176
     1
 90
        1
176
     1
 90
        6
176
     1
 90
        2
176
     1
 62
     7
176
     1
 90
        3
176
     1
 90
        0
176
     1
 90
        0
176
     1
290
     0
176
     1
 90
       13
176
     1
 40
0.0
176
     1
 90
        0
176
     1
290
     0
176
     1
290
     1
176
     1
290
     1
176
     1
290
     0
176
     1
290
     0
176
     1
290
     0
176
     1
290
     0
176
     1
290
     0
176
     1
290
     0
176
     1
 90
       50
176
     1
 40
0.0
176
     1
 40
1.0
176
     1
 90
        0
176
     1
 62
    18
420
        0
176
     1
 90
       50
176
     1
 90
        3
176
     1
 62
     5
420
      255
176
     1
290
     0
176
     1
 90
       50
176
     1
 90
       50
176
     1
 90
       50
176
     1
290
     0
176
     1
 90
       50
176
     1
 62
   256
176
     0
 40
1.0
176
     0
 90
        2
176
     1
  1
strokes_ogs.tif
176
     1
290
     0
176
     1
 40
1.0
176
     1
 40
1.0
176
     1
  0
DICTIONARYVAR
  5
1CB
102
{ACAD_REACTORS
330
1CA
102
}
330
1CA
100
DictionaryVariables
280
     0
  1
1:1
  0
DICTIONARYVAR
  5
1D0
102
{ACAD_REACTORS
330
1CA
102
}
330
1CA
100
DictionaryVariables
280
     0
  1
Standard
  0
DICTIONARYVAR
  5
1CF
102
{ACAD_REACTORS
330
1CA
102
}
330
1CA
100
DictionaryVariables
280
     0
  1
Standard
  0
DICTIONARY
  5
1CC
330
6A
100
AcDbDictionary
280
     1
281
     1
  3
ACAD_ROUNDTRIP_2008_TABLESTYLE_CELLSTYLEMAP
360
1CD
  0
CELLSTYLEMAP
  5
1CD
102
{ACAD_REACTORS
330
1CC
102
}
330
1CC
100
AcDbCellStyleMap
 90
        3
300
CELLSTYLE
  1
TABLEFORMAT_BEGIN
 90
        5
170
     1
 91
        0
 92
    32768
 62
   257
 93
        1
300
CONTENTFORMAT
  1
CONTENTFORMAT_BEGIN
 90
        0
 91
        0
 92
        4
 93
        0
300

 40
0.0
140
1.0
 94
        5
 62
     0
340
11
144
0.25
309
CONTENTFORMAT_END
171
     1
301
MARGIN
  1
CELLMARGIN_BEGIN
 40
0.06
 40
0.06
 40
0.06
 40
0.06
 40
0.06
 40
0.06
309
CELLMARGIN_END
 94
        6
 95
        1
302
GRIDFORMAT
  1
GRIDFORMAT_BEGIN
 90
        0
 91
        1
 62
     0
 92
       -2
340
14
 93
        0
 40
0.045
309
GRIDFORMAT_END
 95
        2
302
GRIDFORMAT
  1
GRIDFORMAT_BEGIN
 90
        0
 91
        1
 62
     0
 92
       -2
340
14
 93
        0
 40
0.045
309
GRIDFORMAT_END
 95
        4
302
GRIDFORMAT
  1
GRIDFORMAT_BEGIN
 90
        0
 91
        1
 62
     0
 92
       -2
340
14
 93
        0
 40
0.045
309
GRIDFORMAT_END
 95
        8
302
GRIDFORMAT
  1
GRIDFORMAT_BEGIN
 90
        0
 91
        1
 62
     0
 92
       -2
340
14
 93
        0
 40
0.045
309
GRIDFORMAT_END
 95
       16
302
GRIDFORMAT
  1
GRIDFORMAT_BEGIN
 90
        0
 91
        1
 62
     0
 92
       -2
340
14
 93
        0
 40
0.045
309
GRIDFORMAT_END
 95
       32
302
GRIDFORMAT
  1
GRIDFORMAT_BEGIN
 90
        0
 91
        1
 62
     0
 92
       -2
340
14
 93
        0
 40
0.045
309
GRIDFORMAT_END
309
TABLEFORMAT_END
  1
CELLSTYLE_BEGIN
 90
        1
 91
        1
300
_TITLE
309
CELLSTYLE_END
300
CELLSTYLE
  1
TABLEFORMAT_BEGIN
 90
        5
170
     1
 91
        0
 92
        0
 62
   257
 93
        1
300
CONTENTFORMAT
  1
CONTENTFORMAT_BEGIN
 90
        0
 91
        0
 92
        4
 93
        0
300

 40
0.0
140
1.0
 94
        5
 62
     0
340
11
144
0.18
309
CONTENTFORMAT_END
171
     1
301
MARGIN
  1
CELLMARGIN_BEGIN
 40
0.06
 40
0.06
 40
0.06
 40
0.06
 40
0.06
 40
0.06
309
CELLMARGIN_END
 94
        6
 95
        1
302
GRIDFORMAT
  1
GRIDFORMAT_BEGIN
 90
        0
 91
        1
 62
     0
 92
       -2
340
14
 93
        0
 40
0.045
309
GRIDFORMAT_END
 95
        2
302
GRIDFORMAT
  1
GRIDFORMAT_BEGIN
 90
        0
 91
        1
 62
     0
 92
       -2
340
14
 93
        0
 40
0.045
309
GRIDFORMAT_END
 95
        4
302
GRIDFORMAT
  1
GRIDFORMAT_BEGIN
 90
        0
 91
        1
 62
     0
 92
       -2
340
14
 93
        0
 40
0.045
309
GRIDFORMAT_END
 95
        8
302
GRIDFORMAT
  1
GRIDFORMAT_BEGIN
 90
        0
 91
        1
 62
     0
 92
       -2
340
14
 93
        0
 40
0.045
309
GRIDFORMAT_END
 95
       16
302
GRIDFORMAT
  1
GRIDFORMAT_BEGIN
 90
        0
 91
        1
 62
     0
 92
       -2
340
14
 93
        0
 40
0.045
309
GRIDFORMAT_END
 95
       32
302
GRIDFORMAT
  1
GRIDFORMAT_BEGIN
 90
        0
 91
        1
 62
     0
 92
       -2
340
14
 93
        0
 40
0.045
309
GRIDFORMAT_END
309
TABLEFORMAT_END
  1
CELLSTYLE_BEGIN
 90
        2
 91
        1
300
_HEADER
309
CELLSTYLE_END
300
CELLSTYLE
  1
TABLEFORMAT_BEGIN
 90
        5
170
     1
 91
        0
 92
        0
 62
   257
 93
        1
300
CONTENTFORMAT
  1
CONTENTFORMAT_BEGIN
 90
        0
 91
        0
 92
        4
 93
        0
300

 40
0.0
140
1.0
 94
        2
 62
     0
340
11
144
0.18
309
CONTENTFORMAT_END
171
     1
301
MARGIN
  1
CELLMARGIN_BEGIN
 40
0.06
 40
0.06
 40
0.06
 40
0.06
 40
0.06
 40
0.06
309
CELLMARGIN_END
 94
        6
 95
        1
302
GRIDFORMAT
  1
GRIDFORMAT_BEGIN
 90
        0
 91
        1
 62
     0
 92
       -2
340
14
 93
        0
 40
0.045
309
GRIDFORMAT_END
 95
        2
302
GRIDFORMAT
  1
GRIDFORMAT_BEGIN
 90
        0
 91
        1
 62
     0
 92
       -2
340
14
 93
        0
 40
0.045
309
GRIDFORMAT_END
 95
        4
302
GRIDFORMAT
  1
GRIDFORMAT_BEGIN
 90
        0
 91
        1
 62
     0
 92
       -2
340
14
 93
        0
 40
0.045
309
GRIDFORMAT_END
 95
        8
302
GRIDFORMAT
  1
GRIDFORMAT_BEGIN
 90
        0
 91
        1
 62
     0
 92
       -2
340
14
 93
        0
 40
0.045
309
GRIDFORMAT_END
 95
       16
302
GRIDFORMAT
  1
GRIDFORMAT_BEGIN
 90
        0
 91
        1
 62
     0
 92
       -2
340
14
 93
        0
 40
0.045
309
GRIDFORMAT_END
 95
       32
302
GRIDFORMAT
  1
GRIDFORMAT_BEGIN
 90
        0
 91
        1
 62
     0
 92
       -2
340
14
 93
        0
 40
0.045
309
GRIDFORMAT_END
309
TABLEFORMAT_END
  1
CELLSTYLE_BEGIN
 90
        3
 91
        2
300
_DATA
309
CELLSTYLE_END
  0
ENDSEC
  0
EOF