0
SECTION
  2
HEADER
  9
$ACADVER
  1
AC1027
  9
$ACADMAINTVER
 70
     8
  9
$DWGCODEPAGE
  3
ANSI_1252
  9
$REQUIREDVERSIONS
160
                 0
  9
$COMMENTS
  1
File was created by Cadenas
  9
$CUSTOMPROPERTYTAG
  1
NN
  9
$CUSTOMPROPERTY
  1
Eccentric Collar High Backing Height Two-Bolt Pillow Block Expansion Inch Bore
  9
$CUSTOMPROPERTYTAG
  1
NT
  9
$CUSTOMPROPERTY
  1
Eccentric Collar Pillow Block Bearings -(Normal Duty) -Expansion
  9
$CUSTOMPROPERTYTAG
  1
NB
  9
$CUSTOMPROPERTY
  1
126419
  9
$CUSTOMPROPERTYTAG
  1
NBSYN
  9
$CUSTOMPROPERTY
  1
$PN.
  9
$CUSTOMPROPERTYTAG
  1
LINA
  9
$CUSTOMPROPERTY
  1
126419
  9
$CUSTOMPROPERTYTAG
  1
SERIES
  9
$CUSTOMPROPERTY
  1
212
  9
$CUSTOMPROPERTYTAG
  1
SS
  9
$CUSTOMPROPERTY
  1
2-7/16
  9
$CUSTOMPROPERTYTAG
  1
PN
  9
$CUSTOMPROPERTY
  1
126419
  9
$CUSTOMPROPERTYTAG
  1
DESCRIPTION
  9
$CUSTOMPROPERTY
  1
P2B-SXRH-207-E
  9
$CUSTOMPROPERTYTAG
  1
A
  9
$CUSTOMPROPERTY
  1
2.74
  9
$CUSTOMPROPERTYTAG
  1
B
  9
$CUSTOMPROPERTY
  1
10.75
  9
$CUSTOMPROPERTYTAG
  1
C
  9
$CUSTOMPROPERTY
  1
2.69
  9
$CUSTOMPROPERTYTAG
  1
DMIN
  9
$CUSTOMPROPERTY
  1
7.50
  9
$CUSTOMPROPERTYTAG
  1
DMAX
  9
$CUSTOMPROPERTY
  1
8.50
  9
$CUSTOMPROPERTYTAG
  1
F
  9
$CUSTOMPROPERTY
  1
3/4
  9
$CUSTOMPROPERTYTAG
  1
G
  9
$CUSTOMPROPERTY
  1
1.32
  9
$CUSTOMPROPERTYTAG
  1
H
  9
$CUSTOMPROPERTY
  1
0.94
  9
$CUSTOMPROPERTYTAG
  1
J
  9
$CUSTOMPROPERTY
  1
6.09
  9
$CUSTOMPROPERTYTAG
  1
L
  9
$CUSTOMPROPERTY
  1
3.31
  9
$CUSTOMPROPERTYTAG
  1
M
  9
$CUSTOMPROPERTY
  1
3.00
  9
$CUSTOMPROPERTYTAG
  1
R
  9
$CUSTOMPROPERTY
  1
0.90
  9
$CUSTOMPROPERTYTAG
  1
S
  9
$CUSTOMPROPERTY
  1
1.84
  9
$CUSTOMPROPERTYTAG
  1
T
  9
$CUSTOMPROPERTY
  1
0.22
  9
$CUSTOMPROPERTYTAG
  1
U
  9
$CUSTOMPROPERTY
  1
4.88
  9
$CUSTOMPROPERTYTAG
  1
V
  9
$CUSTOMPROPERTY
  1
9.76
  9
$CUSTOMPROPERTYTAG
  1
W
  9
$CUSTOMPROPERTY
  1
0.94
  9
$CUSTOMPROPERTYTAG
  1
X
  9
$CUSTOMPROPERTY
  1
0.12
  9
$CUSTOMPROPERTYTAG
  1
COMPANY
  9
$CUSTOMPROPERTY
  1
baldor
  9
$INSBASE
 10
0.0
 20
0.0
 30
0.0
  9
$EXTMIN
 10
1.000000000000000E+20
 20
1.000000000000000E+20
 30
1.000000000000000E+20
  9
$EXTMAX
 10
-1.000000000000000E+20
 20
-1.000000000000000E+20
 30
-1.000000000000000E+20
  9
$LIMMIN
 10
0.0
 20
0.0
  9
$LIMMAX
 10
12.0
 20
9.0
  9
$ORTHOMODE
 70
     0
  9
$REGENMODE
 70
     1
  9
$FILLMODE
 70
     1
  9
$QTEXTMODE
 70
     0
  9
$MIRRTEXT
 70
     1
  9
$LTSCALE
 40
1.0
  9
$ATTMODE
 70
     1
  9
$TEXTSIZE
 40
0.2
  9
$TRACEWID
 40
0.05
  9
$TEXTSTYLE
  7
Standard
  9
$CLAYER
  8
0
  9
$CELTYPE
  6
ByLayer
  9
$CECOLOR
 62
   256
  9
$CELTSCALE
 40
1.0
  9
$DISPSILH
 70
     0
  9
$DIMSCALE
 40
1.0
  9
$DIMASZ
 40
0.18
  9
$DIMEXO
 40
0.0625
  9
$DIMDLI
 40
0.38
  9
$DIMRND
 40
0.0
  9
$DIMDLE
 40
0.0
  9
$DIMEXE
 40
0.18
  9
$DIMTP
 40
0.0
  9
$DIMTM
 40
0.0
  9
$DIMTXT
 40
0.18
  9
$DIMCEN
 40
0.09
  9
$DIMTSZ
 40
0.0
  9
$DIMTOL
 70
     0
  9
$DIMLIM
 70
     0
  9
$DIMTIH
 70
     1
  9
$DIMTOH
 70
     1
  9
$DIMSE1
 70
     0
  9
$DIMSE2
 70
     0
  9
$DIMTAD
 70
     0
  9
$DIMZIN
 70
     0
  9
$DIMBLK
  1

  9
$DIMASO
 70
     1
  9
$DIMSHO
 70
     1
  9
$DIMPOST
  1

  9
$DIMAPOST
  1

  9
$DIMALT
 70
     0
  9
$DIMALTD
 70
     2
  9
$DIMALTF
 40
25.4
  9
$DIMLFAC
 40
1.0
  9
$DIMTOFL
 70
     0
  9
$DIMTVP
 40
0.0
  9
$DIMTIX
 70
     0
  9
$DIMSOXD
 70
     0
  9
$DIMSAH
 70
     0
  9
$DIMBLK1
  1

  9
$DIMBLK2
  1

  9
$DIMSTYLE
  2
Standard
  9
$DIMCLRD
 70
     0
  9
$DIMCLRE
 70
     0
  9
$DIMCLRT
 70
     0
  9
$DIMTFAC
 40
1.0
  9
$DIMGAP
 40
0.09
  9
$DIMJUST
 70
     0
  9
$DIMSD1
 70
     0
  9
$DIMSD2
 70
     0
  9
$DIMTOLJ
 70
     1
  9
$DIMTZIN
 70
     0
  9
$DIMALTZ
 70
     0
  9
$DIMALTTZ
 70
     0
  9
$DIMUPT
 70
     0
  9
$DIMDEC
 70
     4
  9
$DIMTDEC
 70
     4
  9
$DIMALTU
 70
     2
  9
$DIMALTTD
 70
     2
  9
$DIMTXSTY
  7
Standard
  9
$DIMAUNIT
 70
     0
  9
$DIMADEC
 70
     0
  9
$DIMALTRND
 40
0.0
  9
$DIMAZIN
 70
     0
  9
$DIMDSEP
 70
    46
  9
$DIMATFIT
 70
     3
  9
$DIMFRAC
 70
     0
  9
$DIMLDRBLK
  1

  9
$DIMLUNIT
 70
     2
  9
$DIMLWD
 70
    -2
  9
$DIMLWE
 70
    -2
  9
$DIMTMOVE
 70
     0
  9
$DIMFXL
 40
1.0
  9
$DIMFXLON
 70
     0
  9
$DIMJOGANG
 40
0.7853981633974483
  9
$DIMTFILL
 70
     0
  9
$DIMTFILLCLR
 70
     0
  9
$DIMARCSYM
 70
     0
  9
$DIMLTYPE
  6

  9
$DIMLTEX1
  6

  9
$DIMLTEX2
  6

  9
$DIMTXTDIRECTION
 70
     0
  9
$LUNITS
 70
     2
  9
$LUPREC
 70
     4
  9
$SKETCHINC
 40
0.1
  9
$FILLETRAD
 40
0.5
  9
$AUNITS
 70
     0
  9
$AUPREC
 70
     0
  9
$MENU
  1
.
  9
$ELEVATION
 40
0.0
  9
$PELEVATION
 40
0.0
  9
$THICKNESS
 40
0.0
  9
$LIMCHECK
 70
     0
  9
$CHAMFERA
 40
0.0
  9
$CHAMFERB
 40
0.0
  9
$CHAMFERC
 40
0.0
  9
$CHAMFERD
 40
0.0
  9
$SKPOLY
 70
     0
  9
$TDCREATE
 40
2458168.991556134
  9
$TDUCREATE
 40
2458168.949889468
  9
$TDUPDATE
 40
2458168.991556134
  9
$TDUUPDATE
 40
2458168.949889468
  9
$TDINDWG
 40
0.0000000116
  9
$TDUSRTIMER
 40
0.0000000116
  9
$USRTIMER
 70
     1
  9
$ANGBASE
 50
0.0
  9
$ANGDIR
 70
     0
  9
$PDMODE
 70
     0
  9
$PDSIZE
 40
0.0
  9
$PLINEWID
 40
0.0
  9
$SPLFRAME
 70
     0
  9
$SPLINETYPE
 70
     6
  9
$SPLINESEGS
 70
     8
  9
$HANDSEED
  5
174
  9
$SURFTAB1
 70
     6
  9
$SURFTAB2
 70
     6
  9
$SURFTYPE
 70
     6
  9
$SURFU
 70
     6
  9
$SURFV
 70
     6
  9
$UCSBASE
  2

  9
$UCSNAME
  2

  9
$UCSORG
 10
0.0
 20
0.0
 30
0.0
  9
$UCSXDIR
 10
1.0
 20
0.0
 30
0.0
  9
$UCSYDIR
 10
0.0
 20
1.0
 30
0.0
  9
$UCSORTHOREF
  2

  9
$UCSORTHOVIEW
 70
     0
  9
$UCSORGTOP
 10
0.0
 20
0.0
 30
0.0
  9
$UCSORGBOTTOM
 10
0.0
 20
0.0
 30
0.0
  9
$UCSORGLEFT
 10
0.0
 20
0.0
 30
0.0
  9
$UCSORGRIGHT
 10
0.0
 20
0.0
 30
0.0
  9
$UCSORGFRONT
 10
0.0
 20
0.0
 30
0.0
  9
$UCSORGBACK
 10
0.0
 20
0.0
 30
0.0
  9
$PUCSBASE
  2

  9
$PUCSNAME
  2

  9
$PUCSORG
 10
0.0
 20
0.0
 30
0.0
  9
$PUCSXDIR
 10
1.0
 20
0.0
 30
0.0
  9
$PUCSYDIR
 10
0.0
 20
1.0
 30
0.0
  9
$PUCSORTHOREF
  2

  9
$PUCSORTHOVIEW
 70
     0
  9
$PUCSORGTOP
 10
0.0
 20
0.0
 30
0.0
  9
$PUCSORGBOTTOM
 10
0.0
 20
0.0
 30
0.0
  9
$PUCSORGLEFT
 10
0.0
 20
0.0
 30
0.0
  9
$PUCSORGRIGHT
 10
0.0
 20
0.0
 30
0.0
  9
$PUCSORGFRONT
 10
0.0
 20
0.0
 30
0.0
  9
$PUCSORGBACK
 10
0.0
 20
0.0
 30
0.0
  9
$USERI1
 70
     0
  9
$USERI2
 70
     0
  9
$USERI3
 70
     0
  9
$USERI4
 70
     0
  9
$USERI5
 70
     0
  9
$USERR1
 40
0.0
  9
$USERR2
 40
0.0
  9
$USERR3
 40
0.0
  9
$USERR4
 40
0.0
  9
$USERR5
 40
0.0
  9
$WORLDVIEW
 70
     1
  9
$SHADEDGE
 70
     3
  9
$SHADEDIF
 70
    70
  9
$TILEMODE
 70
     1
  9
$MAXACTVP
 70
    64
  9
$PINSBASE
 10
0.0
 20
0.0
 30
0.0
  9
$PLIMCHECK
 70
     0
  9
$PEXTMIN
 10
1.000000000000000E+20
 20
1.000000000000000E+20
 30
1.000000000000000E+20
  9
$PEXTMAX
 10
-1.000000000000000E+20
 20
-1.000000000000000E+20
 30
-1.000000000000000E+20
  9
$PLIMMIN
 10
0.0
 20
0.0
  9
$PLIMMAX
 10
12.0
 20
9.0
  9
$UNITMODE
 70
     0
  9
$VISRETAIN
 70
     1
  9
$PLINEGEN
 70
     0
  9
$PSLTSCALE
 70
     1
  9
$TREEDEPTH
 70
  3020
  9
$CMLSTYLE
  2
Standard
  9
$CMLJUST
 70
     0
  9
$CMLSCALE
 40
1.0
  9
$PROXYGRAPHICS
 70
     1
  9
$MEASUREMENT
 70
     0
  9
$CELWEIGHT
370
    -1
  9
$ENDCAPS
280
     0
  9
$JOINSTYLE
280
     0
  9
$LWDISPLAY
290
     0
  9
$INSUNITS
 70
     1
  9
$HYPERLINKBASE
  1

  9
$STYLESHEET
  1

  9
$XEDIT
290
     1
  9
$CEPSNTYPE
380
     0
  9
$PSTYLEMODE
290
     1
  9
$FINGERPRINTGUID
  2
{B3198C28-65E6-4D33-9878-3A2510B00697}
  9
$VERSIONGUID
  2
{FAEB1C32-E019-11D5-929B-00C0DF256EC4}
  9
$EXTNAMES
290
     1
  9
$PSVPSCALE
 40
0.0
  9
$OLESTARTUP
290
     0
  9
$SORTENTS
280
   127
  9
$INDEXCTL
280
     0
  9
$HIDETEXT
280
     1
  9
$XCLIPFRAME
280
     2
  9
$HALOGAP
280
     0
  9
$OBSCOLOR
 70
   257
  9
$OBSLTYPE
280
     0
  9
$INTERSECTIONDISPLAY
280
     0
  9
$INTERSECTIONCOLOR
 70
   257
  9
$DIMASSOC
280
     2
  9
$PROJECTNAME
  1

  9
$CAMERADISPLAY
290
     0
  9
$LENSLENGTH
 40
50.0
  9
$CAMERAHEIGHT
 40
0.0
  9
$STEPSPERSEC
 40
2.0
  9
$STEPSIZE
 40
6.0
  9
$3DDWFPREC
 40
2.0
  9
$PSOLWIDTH
 40
0.25
  9
$PSOLHEIGHT
 40
4.0
  9
$LOFTANG1
 40
1.570796326794897
  9
$LOFTANG2
 40
1.570796326794897
  9
$LOFTMAG1
 40
0.0
  9
$LOFTMAG2
 40
0.0
  9
$LOFTPARAM
 70
     7
  9
$LOFTNORMALS
280
     1
  9
$LATITUDE
 40
37.795
  9
$LONGITUDE
 40
-122.394
  9
$NORTHDIRECTION
 40
0.0
  9
$TIMEZONE
 70
 -8000
  9
$LIGHTGLYPHDISPLAY
280
     1
  9
$TILEMODELIGHTSYNCH
280
     1
  9
$CMATERIAL
347
44
  9
$SOLIDHIST
280
     0
  9
$SHOWHIST
280
     1
  9
$DWFFRAME
280
     2
  9
$DGNFRAME
280
     2
  9
$REALWORLDSCALE
290
     1
  9
$INTERFERECOLOR
 62
   256
  9
$CSHADOW
280
     0
  9
$SHADOWPLANELOCATION
 40
0.0
  0
ENDSEC
  0
SECTION
  2
CLASSES
  0
CLASS
  1
ACDBDICTIONARYWDFLT
  2
AcDbDictionaryWithDefault
  3
ObjectDBX Classes
 90
        0
 91
        4
280
     0
281
     0
  0
CLASS
  1
VISUALSTYLE
  2
AcDbVisualStyle
  3
ObjectDBX Classes
 90
     4095
 91
        4
280
     0
281
     0
  0
CLASS
  1
MATERIAL
  2
AcDbMaterial
  3
ObjectDBX Classes
 90
     1153
 91
        4
280
     0
281
     0
  0
CLASS
  1
SCALE
  2
AcDbScale
  3
ObjectDBX Classes
 90
     1153
 91
        4
280
     0
281
     0
  0
CLASS
  1
TABLESTYLE
  2
AcDbTableStyle
  3
ObjectDBX Classes
 90
     4095
 91
        4
280
     0
281
     0
  0
CLASS
  1
MLEADERSTYLE
  2
AcDbMLeaderStyle
  3
ACDB_MLEADERSTYLE_CLASS
 90
     4095
 91
        4
280
     0
281
     0
  0
CLASS
  1
SUN
  2
AcDbSun
  3
SCENEOE
 90
     1153
 91
        4
280
     0
281
     0
  0
CLASS
  1
DICTIONARYVAR
  2
AcDbDictionaryVar
  3
ObjectDBX Classes
 90
        0
 91
        4
280
     0
281
     0
  0
CLASS
  1
CELLSTYLEMAP
  2
AcDbCellStyleMap
  3
ObjectDBX Classes
 90
     1152
 91
        4
280
     0
281
     0
  0
ENDSEC
  0
SECTION
  2
TABLES
  0
TABLE
  2
VPORT
  5
8
330
0
100
AcDbSymbolTable
 70
     1
  0
VPORT
  5
29
330
8
100
AcDbSymbolTableRecord
100
AcDbViewportTableRecord
  2
*Active
 70
     0
 10
0.0
 20
0.0
 11
1.0
 21
1.0
 12
0.0
 22
0.0449084197529803
 13
0.0
 23
0.0
 14
0.5
 24
0.5
 15
0.5
 25
0.5
 16
0.0
 26
0.0
 36
1.0
 17
0.0
 27
0.0
 37
0.0
 40
6.211613176296082
 41
1.765241924890486
 42
50.0
 43
0.0
 44
0.0
 50
0.0
 51
0.0
 71
     0
 72
   100
 73
     1
 74
     3
 75
     0
 76
     0
 77
     0
 78
     0
281
     0
 65
     1
110
0.0
120
0.0
130
0.0
111
1.0
121
0.0
131
0.0
112
0.0
122
1.0
132
0.0
 79
     0
146
0.0
348
2F
 60
     3
 61
     5
292
     1
282
     1
141
0.0
142
0.0
 63
   250
361
6D
  0
ENDTAB
  0
TABLE
  2
LTYPE
  5
5
330
0
100
AcDbSymbolTable
 70
     3
  0
LTYPE
  5
14
330
5
100
AcDbSymbolTableRecord
100
AcDbLinetypeTableRecord
  2
ByBlock
 70
     0
  3

 72
    65
 73
     0
 40
0.0
  0
LTYPE
  5
15
330
5
100
AcDbSymbolTableRecord
100
AcDbLinetypeTableRecord
  2
ByLayer
 70
     0
  3

 72
    65
 73
     0
 40
0.0
  0
LTYPE
  5
16
330
5
100
AcDbSymbolTableRecord
100
AcDbLinetypeTableRecord
  2
Continuous
 70
     0
  3
Solid line
 72
    65
 73
     0
 40
0.0
  0
LTYPE
  5
A1
330
5
100
AcDbSymbolTableRecord
100
AcDbLinetypeTableRecord
  2
Dashed
 70
     0
  3

 72
    65
 73
     2
 40
2.0
 49
1.0
 74
     0
 49
-1.0
 74
     0
  0
LTYPE
  5
102
330
5
100
AcDbSymbolTableRecord
100
AcDbLinetypeTableRecord
  2
Center
 70
     0
  3

 72
    65
 73
     4
 40
1.5
 49
0.45
 74
     0
 49
-0.5
 74
     0
 49
0.05
 74
     0
 49
-0.5
 74
     0
  0
ENDTAB
  0
TABLE
  2
LAYER
  5
2
330
0
100
AcDbSymbolTable
 70
     7
  0
LAYER
  5
10
330
2
100
AcDbSymbolTableRecord
100
AcDbLayerTableRecord
  2
0
 70
     0
 62
     7
  6
Continuous
370
    -3
390
F
347
46
348
0
  0
LAYER
  5
72
330
2
100
AcDbSymbolTableRecord
100
AcDbLayerTableRecord
  2
AM_6
 70
     0
 62
    -2
  6
Continuous
370
    35
390
F
347
46
348
0
  0
LAYER
  5
A2
330
2
100
AcDbSymbolTableRecord
100
AcDbLayerTableRecord
  2
AM_9
 70
     0
 62
     6
  6
Dashed
370
    25
390
F
347
46
348
0
  0
LAYER
  5
A9
330
2
100
AcDbSymbolTableRecord
100
AcDbLayerTableRecord
  2
AM_5
 70
     0
 62
     3
  6
Continuous
370
    25
390
F
347
46
348
0
  0
LAYER
  5
AF
330
2
100
AcDbSymbolTableRecord
100
AcDbLayerTableRecord
  2
AM_4
 70
     0
 62
     7
  6
Continuous
370
    50
390
F
347
46
348
0
  0
LAYER
  5
103
330
2
100
AcDbSymbolTableRecord
100
AcDbLayerTableRecord
  2
AM_7
 70
     0
 62
     7
  6
Center
370
    25
390
F
347
46
348
0
  0
LAYER
  5
167
330
2
100
AcDbSymbolTableRecord
100
AcDbLayerTableRecord
  2
ConnectionPoints
 70
     0
 62
     7
  6
Continuous
370
    50
390
F
347
46
348
0
  0
ENDTAB
  0
TABLE
  2
STYLE
  5
3
330
0
100
AcDbSymbolTable
 70
     1
  0
STYLE
  5
11
330
3
100
AcDbSymbolTableRecord
100
AcDbTextStyleTableRecord
  2
Standard
 70
     0
 40
0.0
 41
1.0
 50
0.0
 71
     0
 42
0.2
  3
txt
  4

  0
ENDTAB
  0
TABLE
  2
VIEW
  5
6
330
0
100
AcDbSymbolTable
 70
     0
  0
ENDTAB
  0
TABLE
  2
UCS
  5
7
330
0
100
AcDbSymbolTable
 70
     0
  0
ENDTAB
  0
TABLE
  2
APPID
  5
9
330
0
100
AcDbSymbolTable
 70
     1
  0
APPID
  5
12
330
9
100
AcDbSymbolTableRecord
100
AcDbRegAppTableRecord
  2
ACAD
 70
     0
  0
ENDTAB
  0
TABLE
  2
DIMSTYLE
  5
A
330
0
100
AcDbSymbolTable
 70
     1
100
AcDbDimStyleTable
  0
DIMSTYLE
105
27
330
A
100
AcDbSymbolTableRecord
100
AcDbDimStyleTableRecord
  2
Standard
 70
     0
178
     0
340
11
  0
ENDTAB
  0
TABLE
  2
BLOCK_RECORD
  5
1
330
0
100
AcDbSymbolTable
 70
     5
  0
BLOCK_RECORD
  5
1F
330
1
100
AcDbSymbolTableRecord
100
AcDbBlockTableRecord
  2
*Model_Space
340
22
 70
     0
280
     1
281
     0
  0
BLOCK_RECORD
  5
1B
330
1
100
AcDbSymbolTableRecord
100
AcDbBlockTableRecord
  2
*Paper_Space
340
1E
 70
     0
280
     1
281
     0
  0
BLOCK_RECORD
  5
23
330
1
100
AcDbSymbolTableRecord
100
AcDbBlockTableRecord
  2
*Paper_Space0
340
26
 70
     0
280
     1
281
     0
  0
BLOCK_RECORD
  5
6E
330
1
100
AcDbSymbolTableRecord
100
AcDbBlockTableRecord
  2
1_126419_0
340
0
102
{BLKREFS
331
6F
102
}
 70
     0
280
     1
281
     0
  0
BLOCK_RECORD
  5
8F
330
1
100
AcDbSymbolTableRecord
100
AcDbBlockTableRecord
  2
2_405020c_Inch_0_in_126419_0
340
0
102
{BLKREFS
331
90
102
}
 70
     0
280
     1
281
     0
  0
BLOCK_RECORD
  5
D7
330
1
100
AcDbSymbolTableRecord
100
AcDbBlockTableRecord
  2
3_126479_0_in_126419_0
340
0
102
{BLKREFS
331
D8
102
}
 70
     0
280
     1
281
     0
  0
BLOCK_RECORD
  5
10C
330
1
100
AcDbSymbolTableRecord
100
AcDbBlockTableRecord
  2
4_126419H_0_in_126419_0
340
0
102
{BLKREFS
331
10D
102
}
 70
     0
280
     1
281
     0
  0
ENDTAB
  0
ENDSEC
  0
SECTION
  2
BLOCKS
  0
BLOCK
  5
20
330
1F
100
AcDbEntity
  8
0
100
AcDbBlockBegin
  2
*Model_Space
 70
     0
 10
0.0
 20
0.0
 30
0.0
  3
*Model_Space
  1

  0
ENDBLK
  5
21
330
1F
100
AcDbEntity
  8
0
100
AcDbBlockEnd
  0
BLOCK
  5
1C
330
1B
100
AcDbEntity
 67
     1
  8
0
100
AcDbBlockBegin
  2
*Paper_Space
 70
     0
 10
0.0
 20
0.0
 30
0.0
  3
*Paper_Space
  1

  0
ENDBLK
  5
1D
330
1B
100
AcDbEntity
 67
     1
  8
0
100
AcDbBlockEnd
  0
BLOCK
  5
24
330
23
100
AcDbEntity
  8
0
100
AcDbBlockBegin
  2
*Paper_Space0
 70
     0
 10
0.0
 20
0.0
 30
0.0
  3
*Paper_Space0
  1

  0
ENDBLK
  5
25
330
23
100
AcDbEntity
  8
0
100
AcDbBlockEnd
  0
BLOCK
  5
70
330
6E
100
AcDbEntity
  8
0
100
AcDbBlockBegin
  2
1_126419_0
 70
     2
 10
0.0
 20
0.0
 30
0.0
  3
1_126419_0
  1

  0
ATTDEF
  5
73
330
6E
100
AcDbEntity
  8
AM_6
100
AcDbText
 10
10.375
 20
3.089816839505962
 30
0.0
 40
0.5
  1
Eccentric Collar High Backing Height Two-Bolt Pillow Block Expansion Inch Bore
100
AcDbAttributeDefinition
  3

  2
NN
 70
     8
280
     0
  0
ATTDEF
  5
74
330
6E
100
AcDbEntity
  8
AM_6
100
AcDbText
 10
10.375
 20
2.589816839505962
 30
0.0
 40
0.5
  1
Eccentric Collar Pillow Block Bearings -(Normal Duty) -Expansion
100
AcDbAttributeDefinition
  3

  2
NT
 70
     8
280
     0
  0
ATTDEF
  5
75
330
6E
100
AcDbEntity
  8
AM_6
100
AcDbText
 10
10.375
 20
2.089816839505962
 30
0.0
 40
0.5
  1
126419
100
AcDbAttributeDefinition
  3

  2
NB
 70
     8
280
     0
  0
ATTDEF
  5
76
330
6E
100
AcDbEntity
  8
AM_6
100
AcDbText
 10
10.375
 20
1.589816839505962
 30
0.0
 40
0.5
  1
$PN.
100
AcDbAttributeDefinition
  3

  2
NBSYN
 70
     8
280
     0
  0
ATTDEF
  5
77
330
6E
100
AcDbEntity
  8
AM_6
100
AcDbText
 10
10.375
 20
1.089816839505962
 30
0.0
 40
0.5
  1
126419
100
AcDbAttributeDefinition
  3

  2
LINA
 70
     8
280
     0
  0
ATTDEF
  5
78
330
6E
100
AcDbEntity
  8
AM_6
100
AcDbText
 10
10.375
 20
0.589816839505962
 30
0.0
 40
0.5
  1
212
100
AcDbAttributeDefinition
  3

  2
SERIES
 70
     8
280
     0
  0
ATTDEF
  5
79
330
6E
100
AcDbEntity
  8
AM_6
100
AcDbText
 10
10.375
 20
0.089816839505962
 30
0.0
 40
0.5
  1
2-7/16
100
AcDbAttributeDefinition
  3

  2
SS
 70
     8
280
     0
  0
ATTDEF
  5
7A
330
6E
100
AcDbEntity
  8
AM_6
100
AcDbText
 10
10.375
 20
-0.410183160494038
 30
0.0
 40
0.5
  1
126419
100
AcDbAttributeDefinition
  3

  2
PN
 70
     8
280
     0
  0
ATTDEF
  5
7B
330
6E
100
AcDbEntity
  8
AM_6
100
AcDbText
 10
10.375
 20
-0.910183160494038
 30
0.0
 40
0.5
  1
P2B-SXRH-207-E
100
AcDbAttributeDefinition
  3

  2
DESCRIPTION
 70
     8
280
     0
  0
ATTDEF
  5
7C
330
6E
100
AcDbEntity
  8
AM_6
100
AcDbText
 10
10.375
 20
-1.410183160494038
 30
0.0
 40
0.5
  1
2.74
100
AcDbAttributeDefinition
  3

  2
A
 70
     8
280
     0
  0
ATTDEF
  5
7D
330
6E
100
AcDbEntity
  8
AM_6
100
AcDbText
 10
10.375
 20
-1.910183160494038
 30
0.0
 40
0.5
  1
10.75
100
AcDbAttributeDefinition
  3

  2
B
 70
     8
280
     0
  0
ATTDEF
  5
7E
330
6E
100
AcDbEntity
  8
AM_6
100
AcDbText
 10
10.375
 20
-2.410183160494038
 30
0.0
 40
0.5
  1
2.69
100
AcDbAttributeDefinition
  3

  2
C
 70
     8
280
     0
  0
ATTDEF
  5
7F
330
6E
100
AcDbEntity
  8
AM_6
100
AcDbText
 10
10.375
 20
-2.910183160494038
 30
0.0
 40
0.5
  1
7.50
100
AcDbAttributeDefinition
  3

  2
DMIN
 70
     8
280
     0
  0
ATTDEF
  5
80
330
6E
100
AcDbEntity
  8
AM_6
100
AcDbText
 10
10.375
 20
-3.410183160494038
 30
0.0
 40
0.5
  1
8.50
100
AcDbAttributeDefinition
  3

  2
DMAX
 70
     8
280
     0
  0
ATTDEF
  5
81
330
6E
100
AcDbEntity
  8
AM_6
100
AcDbText
 10
10.375
 20
-3.910183160494038
 30
0.0
 40
0.5
  1
3/4
100
AcDbAttributeDefinition
  3

  2
F
 70
     8
280
     0
  0
ATTDEF
  5
82
330
6E
100
AcDbEntity
  8
AM_6
100
AcDbText
 10
10.375
 20
-4.410183160494038
 30
0.0
 40
0.5
  1
1.32
100
AcDbAttributeDefinition
  3

  2
G
 70
     8
280
     0
  0
ATTDEF
  5
83
330
6E
100
AcDbEntity
  8
AM_6
100
AcDbText
 10
10.375
 20
-4.910183160494038
 30
0.0
 40
0.5
  1
0.94
100
AcDbAttributeDefinition
  3

  2
H
 70
     8
280
     0
  0
ATTDEF
  5
84
330
6E
100
AcDbEntity
  8
AM_6
100
AcDbText
 10
10.375
 20
-5.410183160494038
 30
0.0
 40
0.5
  1
6.09
100
AcDbAttributeDefinition
  3

  2
J
 70
     8
280
     0
  0
ATTDEF
  5
85
330
6E
100
AcDbEntity
  8
AM_6
100
AcDbText
 10
10.375
 20
-5.910183160494038
 30
0.0
 40
0.5
  1
3.31
100
AcDbAttributeDefinition
  3

  2
L
 70
     8
280
     0
  0
ATTDEF
  5
86
330
6E
100
AcDbEntity
  8
AM_6
100
AcDbText
 10
10.375
 20
-6.410183160494038
 30
0.0
 40
0.5
  1
3.00
100
AcDbAttributeDefinition
  3

  2
M
 70
     8
280
     0
  0
ATTDEF
  5
87
330
6E
100
AcDbEntity
  8
AM_6
100
AcDbText
 10
10.375
 20
-6.910183160494038
 30
0.0
 40
0.5
  1
0.90
100
AcDbAttributeDefinition
  3

  2
R
 70
     8
280
     0
  0
ATTDEF
  5
88
330
6E
100
AcDbEntity
  8
AM_6
100
AcDbText
 10
10.375
 20
-7.410183160494038
 30
0.0
 40
0.5
  1
1.84
100
AcDbAttributeDefinition
  3

  2
S
 70
     8
280
     0
  0
ATTDEF
  5
89
330
6E
100
AcDbEntity
  8
AM_6
100
AcDbText
 10
10.375
 20
-7.910183160494038
 30
0.0
 40
0.5
  1
0.22
100
AcDbAttributeDefinition
  3

  2
T
 70
     8
280
     0
  0
ATTDEF
  5
8A
330
6E
100
AcDbEntity
  8
AM_6
100
AcDbText
 10
10.375
 20
-8.410183160494038
 30
0.0
 40
0.5
  1
4.88
100
AcDbAttributeDefinition
  3

  2
U
 70
     8
280
     0
  0
ATTDEF
  5
8B
330
6E
100
AcDbEntity
  8
AM_6
100
AcDbText
 10
10.375
 20
-8.910183160494038
 30
0.0
 40
0.5
  1
9.76
100
AcDbAttributeDefinition
  3

  2
V
 70
     8
280
     0
  0
ATTDEF
  5
8C
330
6E
100
AcDbEntity
  8
AM_6
100
AcDbText
 10
10.375
 20
-9.410183160494038
 30
0.0
 40
0.5
  1
0.94
100
AcDbAttributeDefinition
  3

  2
W
 70
     8
280
     0
  0
ATTDEF
  5
8D
330
6E
100
AcDbEntity
  8
AM_6
100
AcDbText
 10
10.375
 20
-9.910183160494038
 30
0.0
 40
0.5
  1
0.12
100
AcDbAttributeDefinition
  3

  2
X
 70
     8
280
     0
  0
ATTDEF
  5
8E
330
6E
100
AcDbEntity
  8
AM_6
100
AcDbText
 10
10.375
 20
-10.41018316049404
 30
0.0
 40
0.5
  1
baldor
100
AcDbAttributeDefinition
  3

  2
COMPANY
 70
     8
280
     0
  0
INSERT
  5
90
330
6E
100
AcDbEntity
  8
0
100
AcDbBlockReference
  2
2_405020c_Inch_0_in_126419_0
 10
0.0
 20
0.0
 30
0.0
  0
INSERT
  5
D8
330
6E
100
AcDbEntity
  8
0
100
AcDbBlockReference
  2
3_126479_0_in_126419_0
 10
0.0
 20
0.0
 30
0.0
  0
INSERT
  5
10D
330
6E
100
AcDbEntity
  8
0
100
AcDbBlockReference
  2
4_126419H_0_in_126419_0
 10
0.0
 20
0.0
 30
0.0
  0
ENDBLK
  5
71
330
6E
100
AcDbEntity
  8
0
100
AcDbBlockEnd
  0
BLOCK
  5
91
330
8F
100
AcDbEntity
  8
0
100
AcDbBlockBegin
  2
2_405020c_Inch_0_in_126419_0
 70
     2
 10
0.0
 20
0.0
 30
0.0
  3
2_405020c_Inch_0_in_126419_0
  1

  0
ATTDEF
  5
93
330
8F
100
AcDbEntity
  8
AM_6
100
AcDbText
 10
7.528714076279964
 20
2.528714076279966
 30
0.0
 40
0.5
  1
405020C -Inch
100
AcDbAttributeDefinition
  3

  2
NN
 70
     8
280
     0
  0
ATTDEF
  5
94
330
8F
100
AcDbEntity
  8
AM_6
100
AcDbText
 10
7.528714076279964
 20
2.028714076279966
 30
0.0
 40
0.5
  1
Grease fitting
100
AcDbAttributeDefinition
  3

  2
NT
 70
     8
280
     0
  0
ATTDEF
  5
95
330
8F
100
AcDbEntity
  8
AM_6
100
AcDbText
 10
7.528714076279964
 20
1.528714076279966
 30
0.0
 40
0.5
  1
405020c-Inch
100
AcDbAttributeDefinition
  3

  2
NB
 70
     8
280
     0
  0
ATTDEF
  5
96
330
8F
100
AcDbEntity
  8
AM_6
100
AcDbText
 10
7.528714076279964
 20
1.028714076279966
 30
0.0
 40
0.5
  1
$MN.-Inch
100
AcDbAttributeDefinition
  3

  2
NBSYN
 70
     8
280
     0
  0
ATTDEF
  5
97
330
8F
100
AcDbEntity
  8
AM_6
100
AcDbText
 10
7.528714076279964
 20
0.5287140762799658
 30
0.0
 40
0.5
  1
405020c
100
AcDbAttributeDefinition
  3

  2
LINA
 70
     8
280
     0
  0
ATTDEF
  5
98
330
8F
100
AcDbEntity
  8
AM_6
100
AcDbText
 10
7.528714076279964
 20
0.0287140762799658
 30
0.0
 40
0.5
  1
405020c
100
AcDbAttributeDefinition
  3

  2
MN
 70
     8
280
     0
  0
ATTDEF
  5
99
330
8F
100
AcDbEntity
  8
AM_6
100
AcDbText
 10
7.528714076279964
 20
-0.4712859237200342
 30
0.0
 40
0.5
  1
0.230
100
AcDbAttributeDefinition
  3

  2
NDR
 70
     8
280
     0
  0
ATTDEF
  5
9A
330
8F
100
AcDbEntity
  8
AM_6
100
AcDbText
 10
7.528714076279964
 20
-0.9712859237200342
 30
0.0
 40
0.5
  1
0.210
100
AcDbAttributeDefinition
  3

  2
KDR
 70
     8
280
     0
  0
ATTDEF
  5
9B
330
8F
100
AcDbEntity
  8
AM_6
100
AcDbText
 10
7.528714076279964
 20
-1.471285923720034
 30
0.0
 40
0.5
  1
0.157
100
AcDbAttributeDefinition
  3

  2
BZE
 70
     8
280
     0
  0
ATTDEF
  5
9C
330
8F
100
AcDbEntity
  8
AM_6
100
AcDbText
 10
7.528714076279964
 20
-1.971285923720034
 30
0.0
 40
0.5
  1
9/32
100
AcDbAttributeDefinition
  3

  2
WAF
 70
     8
280
     0
  0
ATTDEF
  5
9D
330
8F
100
AcDbEntity
  8
AM_6
100
AcDbText
 10
7.528714076279964
 20
-2.471285923720034
 30
0.0
 40
0.5
  1
0.2813
100
AcDbAttributeDefinition
  3

  2
WAF1
 70
     8
280
     0
  0
ATTDEF
  5
9E
330
8F
100
AcDbEntity
  8
AM_6
100
AcDbText
 10
7.528714076279964
 20
-2.971285923720034
 30
0.0
 40
0.5
  1
0.545
100
AcDbAttributeDefinition
  3

  2
BL
 70
     8
280
     0
  0
ATTDEF
  5
9F
330
8F
100
AcDbEntity
  8
AM_6
100
AcDbText
 10
7.528714076279964
 20
-3.471285923720034
 30
0.0
 40
0.5
  1
0.200
100
AcDbAttributeDefinition
  3

  2
TL
 70
     8
280
     0
  0
ATTDEF
  5
A0
330
8F
100
AcDbEntity
  8
AM_6
100
AcDbText
 10
7.528714076279964
 20
-3.971285923720034
 30
0.0
 40
0.5
  1
baldor
100
AcDbAttributeDefinition
  3

  2
COMPANY
 70
     8
280
     0
  0
LINE
  5
A3
330
8F
100
AcDbEntity
  8
AM_9
100
AcDbLine
 10
2.149667280521828
 20
2.008120592855072
 30
0.0
 11
2.164272764679399
 21
2.008120592855072
 31
0.0
  0
LINE
  5
A4
330
8F
100
AcDbEntity
  8
AM_9
100
AcDbLine
 10
2.008120592855071
 20
2.164272764679399
 30
0.0
 11
2.008120592855071
 21
2.149667280521828
 31
0.0
  0
LINE
  5
A5
330
8F
100
AcDbEntity
  8
AM_9
100
AcDbLine
 10
2.149667280521828
 20
2.008120592855072
 30
0.0
 11
2.008120592855071
 21
2.149667280521828
 31
0.0
  0
LINE
  5
A6
330
8F
100
AcDbEntity
  8
AM_9
100
AcDbLine
 10
2.164272764679399
 20
2.008120592855072
 30
0.0
 11
2.302582794983969
 21
2.138047790867549
 31
0.0
  0
LINE
  5
A7
330
8F
100
AcDbEntity
  8
AM_9
100
AcDbLine
 10
2.138047790867549
 20
2.302582794983969
 30
0.0
 11
2.008120592855071
 21
2.164272764679399
 31
0.0
  0
LINE
  5
A8
330
8F
100
AcDbEntity
  8
AM_9
100
AcDbLine
 10
2.164272764679399
 20
2.008120592855072
 30
0.0
 11
2.008120592855071
 21
2.164272764679399
 31
0.0
  0
LINE
  5
AA
330
8F
100
AcDbEntity
  8
AM_5
100
AcDbLine
 10
2.282148767493425
 20
2.132572509703343
 30
0.0
 11
2.149667280521827
 21
2.008120592855071
 31
0.0
  0
LINE
  5
AB
330
8F
100
AcDbEntity
  8
AM_5
100
AcDbLine
 10
2.302582794983968
 20
2.138047790867549
 30
0.0
 11
2.282148767493425
 21
2.132572509703343
 31
0.0
  0
LINE
  5
AC
330
8F
100
AcDbEntity
  8
AM_5
100
AcDbLine
 10
2.125497989719241
 20
2.289223287477527
 30
0.0
 11
2.289223287477526
 21
2.125497989719241
 31
0.0
  0
LINE
  5
AD
330
8F
100
AcDbEntity
  8
AM_5
100
AcDbLine
 10
2.132572509703342
 20
2.282148767493426
 30
0.0
 11
2.008120592855071
 21
2.149667280521828
 31
0.0
  0
LINE
  5
AE
330
8F
100
AcDbEntity
  8
AM_5
100
AcDbLine
 10
2.138047790867549
 20
2.302582794983969
 30
0.0
 11
2.132572509703342
 21
2.282148767493426
 31
0.0
  0
LINE
  5
B0
330
8F
100
AcDbEntity
  8
AM_4
100
AcDbLine
 10
2.168001176230974
 20
2.366910313778751
 30
0.0
 11
2.148492921616733
 21
2.378173409831703
 31
0.0
  0
LINE
  5
B1
330
8F
100
AcDbEntity
  8
AM_4
100
AcDbLine
 10
2.378173409831702
 20
2.148492921616733
 30
0.0
 11
2.36691031377875
 21
2.168001176230975
 31
0.0
  0
LINE
  5
B2
330
8F
100
AcDbEntity
  8
AM_4
100
AcDbLine
 10
2.109597628098919
 20
2.339278116313889
 30
0.0
 11
2.120860724151871
 21
2.319769861699647
 31
0.0
  0
LINE
  5
B3
330
8F
100
AcDbEntity
  8
AM_4
100
AcDbLine
 10
2.319769861699646
 20
2.120860724151872
 30
0.0
 11
2.339278116313888
 21
2.109597628098919
 31
0.0
  0
LINE
  5
B4
330
8F
100
AcDbEntity
  8
AM_4
100
AcDbLine
 10
2.521405899968733
 20
2.407128364901503
 30
0.0
 11
2.407128358018945
 21
2.521405906851291
 31
0.0
  0
ARC
  5
B5
330
8F
100
AcDbEntity
  8
AM_4
100
AcDbCircle
 10
2.389450688489282
 20
2.503728237321628
 30
0.0
 40
0.024999999999999
100
AcDbArc
 50
44.99999999999928
 51
112.0000000000025
  0
ARC
  5
B6
330
8F
100
AcDbEntity
  8
AM_4
100
AcDbCircle
 10
2.503728237321627
 20
2.389450688489282
 30
0.0
 40
0.0249999999999995
100
AcDbArc
 50
338.0000000000011
 51
45.00000000000216
  0
ARC
  5
B7
330
8F
100
AcDbEntity
  8
AM_4
100
AcDbCircle
 10
2.212295122002038
 20
2.416910313778751
 30
0.0
 40
0.0500000000000003
100
AcDbArc
 50
270.0
 51
339.9999999999997
  0
ARC
  5
B8
330
8F
100
AcDbEntity
  8
AM_4
100
AcDbCircle
 10
2.416910313778749
 20
2.212295122002039
 30
0.0
 40
0.049999999999999
100
AcDbArc
 50
109.9999999999992
 51
180.0
  0
LINE
  5
B9
330
8F
100
AcDbEntity
  8
AM_4
100
AcDbLine
 10
2.399809306612466
 20
2.259279753041334
 30
0.0
 11
2.470677904020645
 21
2.285073813042107
 31
0.0
  0
LINE
  5
BA
330
8F
100
AcDbEntity
  8
AM_4
100
AcDbLine
 10
2.285073813042105
 20
2.470677904020647
 30
0.0
 11
2.259279753041334
 21
2.399809306612467
 31
0.0
  0
LINE
  5
BB
330
8F
100
AcDbEntity
  8
AM_4
100
AcDbLine
 10
2.399809306612466
 20
2.259279753041334
 30
0.0
 11
2.259279753041334
 21
2.399809306612467
 31
0.0
  0
LINE
  5
BC
330
8F
100
AcDbEntity
  8
AM_4
100
AcDbLine
 10
2.380085523653883
 20
2.526907833685797
 30
0.0
 11
2.313328114410605
 21
2.499936089582702
 31
0.0
  0
LINE
  5
BD
330
8F
100
AcDbEntity
  8
AM_4
100
AcDbLine
 10
2.499936089582702
 20
2.313328114410607
 30
0.0
 11
2.526907833685796
 21
2.380085523653884
 31
0.0
  0
LINE
  5
BE
330
8F
100
AcDbEntity
  8
AM_4
100
AcDbLine
 10
2.526907833685796
 20
2.380085523653884
 30
0.0
 11
2.380085523653883
 21
2.526907833685797
 31
0.0
  0
ARC
  5
BF
330
8F
100
AcDbEntity
  8
AM_4
100
AcDbCircle
 10
2.332058444081401
 20
2.453576896854362
 30
0.0
 40
0.0500000000000004
100
AcDbArc
 50
111.9999999999999
 51
159.9999999999992
  0
ARC
  5
C0
330
8F
100
AcDbEntity
  8
AM_4
100
AcDbCircle
 10
2.453576896854364
 20
2.332058444081401
 30
0.0
 40
0.0499999999999983
100
AcDbArc
 50
289.9999999999985
 51
338.0000000000007
  0
LINE
  5
C1
330
8F
100
AcDbEntity
  8
AM_4
100
AcDbLine
 10
2.499936089582702
 20
2.313328114410607
 30
0.0
 11
2.313328114410605
 21
2.499936089582702
 31
0.0
  0
LINE
  5
C2
330
8F
100
AcDbEntity
  8
AM_4
100
AcDbLine
 10
2.470677904020645
 20
2.285073813042107
 30
0.0
 11
2.285073813042105
 21
2.470677904020647
 31
0.0
  0
LINE
  5
C3
330
8F
100
AcDbEntity
  8
AM_4
100
AcDbLine
 10
2.36691031377875
 20
2.168001176230975
 30
0.0
 11
2.168001176230974
 21
2.366910313778751
 31
0.0
  0
LINE
  5
C4
330
8F
100
AcDbEntity
  8
AM_4
100
AcDbLine
 10
2.212295122002038
 20
2.366910313778751
 30
0.0
 11
2.168001176230974
 21
2.366910313778751
 31
0.0
  0
LINE
  5
C5
330
8F
100
AcDbEntity
  8
AM_4
100
AcDbLine
 10
2.36691031377875
 20
2.168001176230975
 30
0.0
 11
2.36691031377875
 21
2.212295122002039
 31
0.0
  0
LINE
  5
C6
330
8F
100
AcDbEntity
  8
AM_4
100
AcDbLine
 10
2.36691031377875
 20
2.212295122002039
 30
0.0
 11
2.212295122002038
 21
2.366910313778751
 31
0.0
  0
LWPOLYLINE
  5
C7
330
8F
100
AcDbEntity
  8
AM_4
100
AcDbPolyline
 90
        3
 70
     0
 43
0.0
 10
2.220315292925759
 20
2.220315292925759
 10
2.178758660341191
 20
2.266866642758443
 10
2.167017750152661
 20
2.281857994260147
  0
LWPOLYLINE
  5
C8
330
8F
100
AcDbEntity
  8
AM_4
100
AcDbPolyline
 90
        3
 70
     0
 43
0.0
 10
2.267455745004862
 20
2.267455745004863
 10
2.29507765675682
 20
2.237657534703078
 10
2.32075328777796
 20
2.205913043670475
  0
LWPOLYLINE
  5
C9
330
8F
100
AcDbEntity
  8
AM_4
100
AcDbPolyline
 90
        3
 70
     0
 43
0.0
 10
2.281857994260146
 20
2.167017750152662
 10
2.250252204575709
 20
2.192573906191543
 10
2.220315292925759
 20
2.220315292925759
  0
LINE
  5
CA
330
8F
100
AcDbEntity
  8
AM_4
100
AcDbLine
 10
2.32075328777796
 20
2.205913043670475
 30
0.0
 11
2.281857994260146
 21
2.167017750152662
 31
0.0
  0
LWPOLYLINE
  5
CB
330
8F
100
AcDbEntity
  8
AM_4
100
AcDbPolyline
 90
        3
 70
     0
 43
0.0
 10
2.306445476006372
 20
2.134185109845146
 10
2.29317859476785
 20
2.149628289633495
 10
2.281857994260146
 20
2.167017750152662
  0
LWPOLYLINE
  5
CC
330
8F
100
AcDbEntity
  8
AM_4
100
AcDbPolyline
 90
        3
 70
     0
 43
0.0
 10
2.339278116313888
 20
2.109597628098919
 10
2.32196281306028
 20
2.120863297706971
 10
2.306445476006372
 20
2.134185109845146
  0
LINE
  5
CD
330
8F
100
AcDbEntity
  8
AM_4
100
AcDbLine
 10
2.378173409831702
 20
2.148492921616733
 30
0.0
 11
2.339278116313888
 21
2.109597628098919
 31
0.0
  0
LWPOLYLINE
  5
CE
330
8F
100
AcDbEntity
  8
AM_4
100
AcDbPolyline
 90
        3
 70
     0
 43
0.0
 10
2.353585928085475
 20
2.181325561924249
 10
2.366852809323997
 20
2.1658823821359
 10
2.378173409831702
 20
2.148492921616733
  0
LWPOLYLINE
  5
CF
330
8F
100
AcDbEntity
  8
AM_4
100
AcDbPolyline
 90
        3
 70
     0
 43
0.0
 10
2.32075328777796
 20
2.205913043670475
 10
2.338068591031568
 20
2.194647374062425
 10
2.353585928085475
 20
2.181325561924249
  0
LWPOLYLINE
  5
D0
330
8F
100
AcDbEntity
  8
AM_4
100
AcDbPolyline
 90
        3
 70
     0
 43
0.0
 10
2.205913043670475
 20
2.32075328777796
 10
2.220904395172179
 20
2.30901237758943
 10
2.267455745004862
 20
2.267455745004863
  0
LINE
  5
D1
330
8F
100
AcDbEntity
  8
AM_4
100
AcDbLine
 10
2.148492921616733
 20
2.378173409831703
 30
0.0
 11
2.109597628098919
 21
2.339278116313889
 31
0.0
  0
LWPOLYLINE
  5
D2
330
8F
100
AcDbEntity
  8
AM_4
100
AcDbPolyline
 90
        3
 70
     0
 43
0.0
 10
2.134185109845145
 20
2.306445476006373
 10
2.120918228606623
 20
2.321888655794722
 10
2.109597628098919
 20
2.339278116313889
  0
LWPOLYLINE
  5
D3
330
8F
100
AcDbEntity
  8
AM_4
100
AcDbPolyline
 90
        3
 70
     0
 43
0.0
 10
2.167017750152661
 20
2.281857994260147
 10
2.149702446899053
 20
2.293123663868198
 10
2.134185109845145
 20
2.306445476006373
  0
LINE
  5
D4
330
8F
100
AcDbEntity
  8
AM_4
100
AcDbLine
 10
2.205913043670475
 20
2.32075328777796
 30
0.0
 11
2.167017750152661
 21
2.281857994260147
 31
0.0
  0
LWPOLYLINE
  5
D5
330
8F
100
AcDbEntity
  8
AM_4
100
AcDbPolyline
 90
        3
 70
     0
 43
0.0
 10
2.181325561924248
 20
2.353585928085476
 10
2.194592443162771
 20
2.338142748297127
 10
2.205913043670475
 20
2.32075328777796
  0
LWPOLYLINE
  5
D6
330
8F
100
AcDbEntity
  8
AM_4
100
AcDbPolyline
 90
        3
 70
     0
 43
0.0
 10
2.148492921616733
 20
2.378173409831703
 10
2.16580822487034
 20
2.366907740223652
 10
2.181325561924248
 20
2.353585928085476
  0
ENDBLK
  5
92
330
8F
100
AcDbEntity
  8
0
100
AcDbBlockEnd
  0
BLOCK
  5
D9
330
D7
100
AcDbEntity
  8
0
100
AcDbBlockBegin
  2
3_126479_0_in_126419_0
 70
     2
 10
0.0
 20
0.0
 30
0.0
  3
3_126479_0_in_126419_0
  1

  0
ATTDEF
  5
DB
330
D7
100
AcDbEntity
  8
AM_6
100
AcDbText
 10
7.600534999999999
 20
2.600534999999999
 30
0.0
 40
0.5
  1
Eccentric Collar High Backing Height Expansion Insert Inch Bore
100
AcDbAttributeDefinition
  3

  2
NN
 70
     8
280
     0
  0
ATTDEF
  5
DC
330
D7
100
AcDbEntity
  8
AM_6
100
AcDbText
 10
7.600534999999999
 20
2.100534999999999
 30
0.0
 40
0.5
  1
SXRH-E Expansion Normal Duty Bearing Inserts
100
AcDbAttributeDefinition
  3

  2
NT
 70
     8
280
     0
  0
ATTDEF
  5
DD
330
D7
100
AcDbEntity
  8
AM_6
100
AcDbText
 10
7.600534999999999
 20
1.600534999999999
 30
0.0
 40
0.5
  1
126479
100
AcDbAttributeDefinition
  3

  2
NB
 70
     8
280
     0
  0
ATTDEF
  5
DE
330
D7
100
AcDbEntity
  8
AM_6
100
AcDbText
 10
7.600534999999999
 20
1.100534999999999
 30
0.0
 40
0.5
  1
$PN.
100
AcDbAttributeDefinition
  3

  2
NBSYN
 70
     8
280
     0
  0
ATTDEF
  5
DF
330
D7
100
AcDbEntity
  8
AM_6
100
AcDbText
 10
7.600534999999999
 20
0.6005349999999994
 30
0.0
 40
0.5
  1
126479
100
AcDbAttributeDefinition
  3

  2
LINA
 70
     8
280
     0
  0
ATTDEF
  5
E0
330
D7
100
AcDbEntity
  8
AM_6
100
AcDbText
 10
7.600534999999999
 20
0.1005349999999994
 30
0.0
 40
0.5
  1
212
100
AcDbAttributeDefinition
  3

  2
SERIES
 70
     8
280
     0
  0
ATTDEF
  5
E1
330
D7
100
AcDbEntity
  8
AM_6
100
AcDbText
 10
7.600534999999999
 20
-0.3994650000000006
 30
0.0
 40
0.5
  1
2-7/16
100
AcDbAttributeDefinition
  3

  2
SS
 70
     8
280
     0
  0
ATTDEF
  5
E2
330
D7
100
AcDbEntity
  8
AM_6
100
AcDbText
 10
7.600534999999999
 20
-0.8994650000000006
 30
0.0
 40
0.5
  1
126479
100
AcDbAttributeDefinition
  3

  2
PN
 70
     8
280
     0
  0
ATTDEF
  5
E3
330
D7
100
AcDbEntity
  8
AM_6
100
AcDbText
 10
7.600534999999999
 20
-1.399465000000001
 30
0.0
 40
0.5
  1
INS-SXRH-207-E
100
AcDbAttributeDefinition
  3

  2
DESCRIPTION
 70
     8
280
     0
  0
ATTDEF
  5
E4
330
D7
100
AcDbEntity
  8
AM_6
100
AcDbText
 10
7.600534999999999
 20
-1.899465000000001
 30
0.0
 40
0.5
  1
5.46
100
AcDbAttributeDefinition
  3

  2
WEIGHT
 70
     8
280
     0
  0
ATTDEF
  5
E5
330
D7
100
AcDbEntity
  8
AM_6
100
AcDbText
 10
7.600534999999999
 20
-2.399465000000001
 30
0.0
 40
0.5
  1
2.74
100
AcDbAttributeDefinition
  3

  2
A
 70
     8
280
     0
  0
ATTDEF
  5
E6
330
D7
100
AcDbEntity
  8
AM_6
100
AcDbText
 10
7.600534999999999
 20
-2.899465000000001
 30
0.0
 40
0.5
  1
5.035
100
AcDbAttributeDefinition
  3

  2
B
 70
     8
280
     0
  0
ATTDEF
  5
E7
330
D7
100
AcDbEntity
  8
AM_6
100
AcDbText
 10
7.600534999999999
 20
-3.399465000000001
 30
0.0
 40
0.5
  1
1.55
100
AcDbAttributeDefinition
  3

  2
E
 70
     8
280
     0
  0
ATTDEF
  5
E8
330
D7
100
AcDbEntity
  8
AM_6
100
AcDbText
 10
7.600534999999999
 20
-3.899465000000001
 30
0.0
 40
0.5
  1
3.31
100
AcDbAttributeDefinition
  3

  2
L
 70
     8
280
     0
  0
ATTDEF
  5
E9
330
D7
100
AcDbEntity
  8
AM_6
100
AcDbText
 10
7.600534999999999
 20
-4.399465000000001
 30
0.0
 40
0.5
  1
7/16-20
100
AcDbAttributeDefinition
  3

  2
N
 70
     8
280
     0
  0
ATTDEF
  5
EA
330
D7
100
AcDbEntity
  8
AM_6
100
AcDbText
 10
7.600534999999999
 20
-4.899465000000001
 30
0.0
 40
0.5
  1
0.90
100
AcDbAttributeDefinition
  3

  2
W
 70
     8
280
     0
  0
ATTDEF
  5
EB
330
D7
100
AcDbEntity
  8
AM_6
100
AcDbText
 10
7.600534999999999
 20
-5.399465000000001
 30
0.0
 40
0.5
  1
1.84
100
AcDbAttributeDefinition
  3

  2
Y
 70
     8
280
     0
  0
ATTDEF
  5
EC
330
D7
100
AcDbEntity
  8
AM_6
100
AcDbText
 10
7.600534999999999
 20
-5.899465000000001
 30
0.0
 40
0.5
  1
2.97
100
AcDbAttributeDefinition
  3

  2
Z
 70
     8
280
     0
  0
ATTDEF
  5
ED
330
D7
100
AcDbEntity
  8
AM_6
100
AcDbText
 10
7.600534999999999
 20
-6.399465000000001
 30
0.0
 40
0.5
  1
baldor
100
AcDbAttributeDefinition
  3

  2
COMPANY
 70
     8
280
     0
  0
LINE
  5
EE
330
D7
100
AcDbEntity
  8
AM_9
100
AcDbLine
 10
2.032765557188407
 20
-0.8125
 30
0.0
 11
2.163467094641089
 21
-0.8125
 31
0.0
  0
ARC
  5
EF
330
D7
100
AcDbEntity
  8
AM_9
100
AcDbCircle
 10
0.0000000000000075
 20
-0.0000000000000003
 30
0.0
 40
2.311005434782616
100
AcDbArc
 50
159.4161016893961
 51
200.5838983106039
  0
ARC
  5
F0
330
D7
100
AcDbEntity
  8
AM_9
100
AcDbCircle
 10
-0.0000000000000053
 20
-0.0000000000000002
 30
0.0
 40
2.311005434782614
100
AcDbArc
 50
339.416101689396
 51
20.58389831060396
  0
LINE
  5
F1
330
D7
100
AcDbEntity
  8
AM_9
100
AcDbLine
 10
-2.163467094641089
 20
-0.8125000000000007
 30
0.0
 11
-2.032765557188407
 21
-0.8125000000000003
 31
0.0
  0
LINE
  5
F2
330
D7
100
AcDbEntity
  8
AM_9
100
AcDbLine
 10
2.163467094641089
 20
0.8124999999999996
 30
0.0
 11
2.032765557188407
 21
0.8125
 31
0.0
  0
LINE
  5
F3
330
D7
100
AcDbEntity
  8
AM_9
100
AcDbLine
 10
-2.032765557188407
 20
0.8124999999999998
 30
0.0
 11
-2.163467094641089
 21
0.8124999999999999
 31
0.0
  0
ARC
  5
F4
330
D7
100
AcDbEntity
  8
AM_9
100
AcDbCircle
 10
0.0000000000010014
 20
0.0000000000000191
 30
0.0
 40
2.517500000001001
100
AcDbArc
 50
180.0
 51
181.9289929263702
  0
ARC
  5
F5
330
D7
100
AcDbEntity
  8
AM_9
100
AcDbCircle
 10
0.000000000000568
 20
-0.0000000000000044
 30
0.0
 40
2.517500000000566
100
AcDbArc
 50
182.2013969810997
 51
184.0285230857437
  0
ARC
  5
F6
330
D7
100
AcDbEntity
  8
AM_9
100
AcDbCircle
 10
-0.0000000000054725
 20
0.0000000000002798
 30
0.0
 40
2.517500000005478
100
AcDbArc
 50
355.9714769142572
 51
357.5707761779801
  0
ARC
  5
F7
330
D7
100
AcDbEntity
  8
AM_9
100
AcDbCircle
 10
-0.0000000000248819
 20
0.0000000000002812
 30
0.0
 40
2.517500000024882
100
AcDbArc
 50
359.1162303122592
 51
359.9736647021999
  0
CIRCLE
  5
F8
330
D7
100
AcDbEntity
  8
AM_9
100
AcDbCircle
 10
0.0
 20
0.0
 30
0.0
 40
1.485
  0
CIRCLE
  5
F9
330
D7
100
AcDbEntity
  8
AM_9
100
AcDbCircle
 10
0.0
 20
0.0
 30
0.0
 40
1.4646
  0
CIRCLE
  5
FA
330
D7
100
AcDbEntity
  8
AM_9
100
AcDbCircle
 10
0.0
 20
0.0
 30
0.0
 40
1.414285714285715
  0
LINE
  5
FB
330
D7
100
AcDbEntity
  8
AM_9
100
AcDbLine
 10
0.1917
 20
1.203680574397481
 30
0.0
 11
0.1917
 21
1.640679636417349
 31
0.0
  0
LINE
  5
FC
330
D7
100
AcDbEntity
  8
AM_9
100
AcDbLine
 10
-0.1917
 20
1.640679636417349
 30
0.0
 11
-0.1917
 21
1.20359998241373
 31
0.0
  0
LINE
  5
FD
330
D7
100
AcDbEntity
  8
AM_9
100
AcDbLine
 10
-0.1917
 20
1.640679636417349
 30
0.0
 11
0.1917
 21
1.640679636417349
 31
0.0
  0
LINE
  5
FE
330
D7
100
AcDbEntity
  8
AM_9
100
AcDbLine
 10
0.1917
 20
1.640679636417349
 30
0.0
 11
0.1942436488781544
 21
1.643223285295504
 31
0.0
  0
LINE
  5
FF
330
D7
100
AcDbEntity
  8
AM_9
100
AcDbLine
 10
-0.1942662962338042
 20
1.643245932651153
 30
0.0
 11
-0.1917
 21
1.640679636417349
 31
0.0
  0
LINE
  5
100
330
D7
100
AcDbEntity
  8
AM_5
100
AcDbLine
 10
-0.21875
 20
1.19895788082818
 30
0.0
 11
-0.21875
 21
1.64047963641735
 31
0.0
  0
LINE
  5
101
330
D7
100
AcDbEntity
  8
AM_5
100
AcDbLine
 10
0.21875
 20
1.19895788082818
 30
0.0
 11
0.21875
 21
1.64047963641735
 31
0.0
  0
LINE
  5
104
330
D7
100
AcDbEntity
  8
AM_7
100
AcDbLine
 10
-2.600534999999999
 20
0.0
 30
0.0
 11
2.600534999999999
 21
0.0
 31
0.0
  0
LINE
  5
105
330
D7
100
AcDbEntity
  8
AM_7
100
AcDbLine
 10
0.0
 20
-2.600534999999999
 30
0.0
 11
0.0
 21
2.600534999999999
 31
0.0
  0
CIRCLE
  5
106
330
D7
100
AcDbEntity
  8
AM_4
100
AcDbCircle
 10
0.0
 20
0.0
 30
0.0
 40
2.189130434782609
  0
CIRCLE
  5
107
330
D7
100
AcDbEntity
  8
AM_4
100
AcDbCircle
 10
0.0
 20
0.0
 30
0.0
 40
2.476699999999999
  0
CIRCLE
  5
108
330
D7
100
AcDbEntity
  8
AM_4
100
AcDbCircle
 10
0.0
 20
0.0
 30
0.0
 40
1.21875
  0
CIRCLE
  5
109
330
D7
100
AcDbEntity
  8
AM_4
100
AcDbCircle
 10
0.0
 20
0.0
 30
0.0
 40
1.23915
  0
CIRCLE
  5
10A
330
D7
100
AcDbEntity
  8
AM_4
100
AcDbCircle
 10
0.0
 20
0.0
 30
0.0
 40
1.6142
  0
CIRCLE
  5
10B
330
D7
100
AcDbEntity
  8
AM_4
100
AcDbCircle
 10
-0.0000000000000001
 20
-0.0000000000000001
 30
0.0
 40
1.655
  0
ENDBLK
  5
DA
330
D7
100
AcDbEntity
  8
0
100
AcDbBlockEnd
  0
BLOCK
  5
10E
330
10C
100
AcDbEntity
  8
0
100
AcDbBlockBegin
  2
4_126419H_0_in_126419_0
 70
     2
 10
0.0
 20
0.0
 30
0.0
  3
4_126419H_0_in_126419_0
  1

  0
ATTDEF
  5
110
330
10C
100
AcDbEntity
  8
AM_6
100
AcDbText
 10
10.375
 20
3.089816839505962
 30
0.0
 40
0.5
  1
P2B-SXRH-E -I-Housing
100
AcDbAttributeDefinition
  3

  2
NN
 70
     8
280
     0
  0
ATTDEF
  5
111
330
10C
100
AcDbEntity
  8
AM_6
100
AcDbText
 10
10.375
 20
2.589816839505962
 30
0.0
 40
0.5
  1
Eccentric Collar Pillow Block Bearings -(Normal Duty) -Expansion
100
AcDbAttributeDefinition
  3

  2
NT
 70
     8
280
     0
  0
ATTDEF
  5
112
330
10C
100
AcDbEntity
  8
AM_6
100
AcDbText
 10
10.375
 20
2.089816839505962
 30
0.0
 40
0.5
  1
126419H
100
AcDbAttributeDefinition
  3

  2
NB
 70
     8
280
     0
  0
ATTDEF
  5
113
330
10C
100
AcDbEntity
  8
AM_6
100
AcDbText
 10
10.375
 20
1.589816839505962
 30
0.0
 40
0.5
  1
$PN.H
100
AcDbAttributeDefinition
  3

  2
NBSYN
 70
     8
280
     0
  0
ATTDEF
  5
114
330
10C
100
AcDbEntity
  8
AM_6
100
AcDbText
 10
10.375
 20
1.089816839505962
 30
0.0
 40
0.5
  1
126419
100
AcDbAttributeDefinition
  3

  2
LINA
 70
     8
280
     0
  0
ATTDEF
  5
115
330
10C
100
AcDbEntity
  8
AM_6
100
AcDbText
 10
10.375
 20
0.589816839505962
 30
0.0
 40
0.5
  1
212
100
AcDbAttributeDefinition
  3

  2
SERIES
 70
     8
280
     0
  0
ATTDEF
  5
116
330
10C
100
AcDbEntity
  8
AM_6
100
AcDbText
 10
10.375
 20
0.089816839505962
 30
0.0
 40
0.5
  1
2-7/16
100
AcDbAttributeDefinition
  3

  2
SS
 70
     8
280
     0
  0
ATTDEF
  5
117
330
10C
100
AcDbEntity
  8
AM_6
100
AcDbText
 10
10.375
 20
-0.410183160494038
 30
0.0
 40
0.5
  1
126419
100
AcDbAttributeDefinition
  3

  2
PN
 70
     8
280
     0
  0
ATTDEF
  5
118
330
10C
100
AcDbEntity
  8
AM_6
100
AcDbText
 10
10.375
 20
-0.910183160494038
 30
0.0
 40
0.5
  1
P2B-SXRH-207-E
100
AcDbAttributeDefinition
  3

  2
DESCRIPTION
 70
     8
280
     0
  0
ATTDEF
  5
119
330
10C
100
AcDbEntity
  8
AM_6
100
AcDbText
 10
10.375
 20
-1.410183160494038
 30
0.0
 40
0.5
  1
2.74
100
AcDbAttributeDefinition
  3

  2
A
 70
     8
280
     0
  0
ATTDEF
  5
11A
330
10C
100
AcDbEntity
  8
AM_6
100
AcDbText
 10
10.375
 20
-1.910183160494038
 30
0.0
 40
0.5
  1
10.75
100
AcDbAttributeDefinition
  3

  2
B
 70
     8
280
     0
  0
ATTDEF
  5
11B
330
10C
100
AcDbEntity
  8
AM_6
100
AcDbText
 10
10.375
 20
-2.410183160494038
 30
0.0
 40
0.5
  1
2.69
100
AcDbAttributeDefinition
  3

  2
C
 70
     8
280
     0
  0
ATTDEF
  5
11C
330
10C
100
AcDbEntity
  8
AM_6
100
AcDbText
 10
10.375
 20
-2.910183160494038
 30
0.0
 40
0.5
  1
7.50
100
AcDbAttributeDefinition
  3

  2
DMIN
 70
     8
280
     0
  0
ATTDEF
  5
11D
330
10C
100
AcDbEntity
  8
AM_6
100
AcDbText
 10
10.375
 20
-3.410183160494038
 30
0.0
 40
0.5
  1
8.50
100
AcDbAttributeDefinition
  3

  2
DMAX
 70
     8
280
     0
  0
ATTDEF
  5
11E
330
10C
100
AcDbEntity
  8
AM_6
100
AcDbText
 10
10.375
 20
-3.910183160494038
 30
0.0
 40
0.5
  1
3/4
100
AcDbAttributeDefinition
  3

  2
F
 70
     8
280
     0
  0
ATTDEF
  5
11F
330
10C
100
AcDbEntity
  8
AM_6
100
AcDbText
 10
10.375
 20
-4.410183160494038
 30
0.0
 40
0.5
  1
1.32
100
AcDbAttributeDefinition
  3

  2
G
 70
     8
280
     0
  0
ATTDEF
  5
120
330
10C
100
AcDbEntity
  8
AM_6
100
AcDbText
 10
10.375
 20
-4.910183160494038
 30
0.0
 40
0.5
  1
0.94
100
AcDbAttributeDefinition
  3

  2
H
 70
     8
280
     0
  0
ATTDEF
  5
121
330
10C
100
AcDbEntity
  8
AM_6
100
AcDbText
 10
10.375
 20
-5.410183160494038
 30
0.0
 40
0.5
  1
6.09
100
AcDbAttributeDefinition
  3

  2
J
 70
     8
280
     0
  0
ATTDEF
  5
122
330
10C
100
AcDbEntity
  8
AM_6
100
AcDbText
 10
10.375
 20
-5.910183160494038
 30
0.0
 40
0.5
  1
3.31
100
AcDbAttributeDefinition
  3

  2
L
 70
     8
280
     0
  0
ATTDEF
  5
123
330
10C
100
AcDbEntity
  8
AM_6
100
AcDbText
 10
10.375
 20
-6.410183160494038
 30
0.0
 40
0.5
  1
3.00
100
AcDbAttributeDefinition
  3

  2
M
 70
     8
280
     0
  0
ATTDEF
  5
124
330
10C
100
AcDbEntity
  8
AM_6
100
AcDbText
 10
10.375
 20
-6.910183160494038
 30
0.0
 40
0.5
  1
0.90
100
AcDbAttributeDefinition
  3

  2
R
 70
     8
280
     0
  0
ATTDEF
  5
125
330
10C
100
AcDbEntity
  8
AM_6
100
AcDbText
 10
10.375
 20
-7.410183160494038
 30
0.0
 40
0.5
  1
1.84
100
AcDbAttributeDefinition
  3

  2
S
 70
     8
280
     0
  0
ATTDEF
  5
126
330
10C
100
AcDbEntity
  8
AM_6
100
AcDbText
 10
10.375
 20
-7.910183160494038
 30
0.0
 40
0.5
  1
0.22
100
AcDbAttributeDefinition
  3

  2
T
 70
     8
280
     0
  0
ATTDEF
  5
127
330
10C
100
AcDbEntity
  8
AM_6
100
AcDbText
 10
10.375
 20
-8.410183160494038
 30
0.0
 40
0.5
  1
4.88
100
AcDbAttributeDefinition
  3

  2
U
 70
     8
280
     0
  0
ATTDEF
  5
128
330
10C
100
AcDbEntity
  8
AM_6
100
AcDbText
 10
10.375
 20
-8.910183160494038
 30
0.0
 40
0.5
  1
9.76
100
AcDbAttributeDefinition
  3

  2
V
 70
     8
280
     0
  0
ATTDEF
  5
129
330
10C
100
AcDbEntity
  8
AM_6
100
AcDbText
 10
10.375
 20
-9.410183160494038
 30
0.0
 40
0.5
  1
0.94
100
AcDbAttributeDefinition
  3

  2
W
 70
     8
280
     0
  0
ATTDEF
  5
12A
330
10C
100
AcDbEntity
  8
AM_6
100
AcDbText
 10
10.375
 20
-9.910183160494038
 30
0.0
 40
0.5
  1
0.12
100
AcDbAttributeDefinition
  3

  2
X
 70
     8
280
     0
  0
ATTDEF
  5
12B
330
10C
100
AcDbEntity
  8
AM_6
100
AcDbText
 10
10.375
 20
-10.41018316049404
 30
0.0
 40
0.5
  1
6955
100
AcDbAttributeDefinition
  3

  2
CAPS
 70
     8
280
     0
  0
ATTDEF
  5
12C
330
10C
100
AcDbEntity
  8
AM_6
100
AcDbText
 10
10.375
 20
-10.91018316049404
 30
0.0
 40
0.5
  1
11791
100
AcDbAttributeDefinition
  3

  2
CAPD
 70
     8
280
     0
  0
ATTDEF
  5
12D
330
10C
100
AcDbEntity
  8
AM_6
100
AcDbText
 10
10.375
 20
-11.41018316049404
 30
0.0
 40
0.5
  1
baldor
100
AcDbAttributeDefinition
  3

  2
COMPANY
 70
     8
280
     0
  0
LINE
  5
12E
330
10C
100
AcDbEntity
  8
AM_9
100
AcDbLine
 10
-3.75
 20
-1.349142408991864
 30
0.0
 11
-3.75
 21
-3.0
 31
0.0
  0
LINE
  5
12F
330
10C
100
AcDbEntity
  8
AM_9
100
AcDbLine
 10
-3.34
 20
-3.0
 30
0.0
 11
-3.34
 21
-2.06
 31
0.0
  0
LINE
  5
130
330
10C
100
AcDbEntity
  8
AM_9
100
AcDbLine
 10
-4.25
 20
-2.06
 30
0.0
 11
-4.25
 21
-3.0
 31
0.0
  0
LINE
  5
131
330
10C
100
AcDbEntity
  8
AM_9
100
AcDbLine
 10
-4.66
 20
-2.06
 30
0.0
 11
-4.66
 21
-3.0
 31
0.0
  0
LINE
  5
132
330
10C
100
AcDbEntity
  8
AM_9
100
AcDbLine
 10
4.25
 20
-2.06
 30
0.0
 11
4.25
 21
-3.0
 31
0.0
  0
LINE
  5
133
330
10C
100
AcDbEntity
  8
AM_9
100
AcDbLine
 10
4.66
 20
-3.0
 30
0.0
 11
4.66
 21
-2.06
 31
0.0
  0
LINE
  5
134
330
10C
100
AcDbEntity
  8
AM_9
100
AcDbLine
 10
3.749999999999999
 20
-1.349142408991856
 30
0.0
 11
3.75
 21
-3.0
 31
0.0
  0
LINE
  5
135
330
10C
100
AcDbEntity
  8
AM_9
100
AcDbLine
 10
3.34
 20
-2.06
 30
0.0
 11
3.34
 21
-3.0
 31
0.0
  0
LINE
  5
136
330
10C
100
AcDbEntity
  8
AM_9
100
AcDbLine
 10
-2.85
 20
-2.06
 30
0.0
 11
-2.85
 21
1.19275406758955
 31
0.0
  0
LINE
  5
137
330
10C
100
AcDbEntity
  8
AM_9
100
AcDbLine
 10
2.85
 20
1.192754067589546
 30
0.0
 11
2.85
 21
-2.06
 31
0.0
  0
LINE
  5
138
330
10C
100
AcDbEntity
  8
AM_9
100
AcDbLine
 10
4.82
 20
-2.06
 30
0.0
 11
4.82
 21
-2.1225
 31
0.0
  0
LINE
  5
139
330
10C
100
AcDbEntity
  8
AM_9
100
AcDbLine
 10
4.94
 20
-2.1225
 30
0.0
 11
4.94
 21
-2.06
 31
0.0
  0
LINE
  5
13A
330
10C
100
AcDbEntity
  8
AM_9
100
AcDbLine
 10
4.82
 20
-2.1225
 30
0.0
 11
4.94
 21
-2.1225
 31
0.0
  0
LINE
  5
13B
330
10C
100
AcDbEntity
  8
AM_9
100
AcDbLine
 10
-4.94
 20
-2.06
 30
0.0
 11
-4.94
 21
-2.1225
 31
0.0
  0
LINE
  5
13C
330
10C
100
AcDbEntity
  8
AM_9
100
AcDbLine
 10
-4.82
 20
-2.1225
 30
0.0
 11
-4.82
 21
-2.06
 31
0.0
  0
LINE
  5
13D
330
10C
100
AcDbEntity
  8
AM_9
100
AcDbLine
 10
-4.94
 20
-2.1225
 30
0.0
 11
-4.82
 21
-2.1225
 31
0.0
  0
LINE
  5
13E
330
10C
100
AcDbEntity
  8
AM_7
100
AcDbLine
 10
-0.2660604217523462
 20
-0.2660604217523462
 30
0.0
 11
2.483535792222451
 21
2.483535792222452
 31
0.0
  0
LINE
  5
13F
330
10C
100
AcDbEntity
  8
AM_7
100
AcDbLine
 10
4.88
 20
-2.12875
 30
0.0
 11
4.88
 21
-1.99125
 31
0.0
  0
LINE
  5
140
330
10C
100
AcDbEntity
  8
AM_7
100
AcDbLine
 10
-4.88
 20
-2.12875
 30
0.0
 11
-4.88
 21
-1.99125
 31
0.0
  0
LINE
  5
141
330
10C
100
AcDbEntity
  8
AM_4
100
AcDbLine
 10
2.449537114064487
 20
1.88385168911525
 30
0.0
 11
2.467802666341051
 21
1.902117241391813
 31
0.0
  0
LINE
  5
142
330
10C
100
AcDbEntity
  8
AM_4
100
AcDbLine
 10
1.902117241391813
 20
2.467802666341051
 30
0.0
 11
2.467802666341051
 21
1.902117241391813
 31
0.0
  0
LINE
  5
143
330
10C
100
AcDbEntity
  8
AM_4
100
AcDbLine
 10
1.972827919510467
 20
2.46780266634105
 30
0.0
 11
2.467802665327432
 21
1.972827920524086
 31
0.0
  0
ARC
  5
144
330
10C
100
AcDbEntity
  8
AM_4
100
AcDbCircle
 10
2.432447327281724
 20
1.937472580451139
 30
0.0
 40
0.0499999999999996
100
AcDbArc
 50
315.0000000000003
 51
45.0000000000009
  0
ARC
  5
145
330
10C
100
AcDbEntity
  8
AM_4
100
AcDbCircle
 10
1.937472580451139
 20
2.432447327281723
 30
0.0
 40
0.0499999999999997
100
AcDbArc
 50
44.99999999999946
 51
134.9999999999993
  0
LINE
  5
146
330
10C
100
AcDbEntity
  8
AM_4
100
AcDbLine
 10
1.902117241391813
 20
2.467802666341051
 30
0.0
 11
1.883732926638866
 21
2.449418351588104
 31
0.0
  0
ARC
  5
147
330
10C
100
AcDbEntity
  8
AM_4
100
AcDbCircle
 10
0.0
 20
0.0
 30
0.0
 40
2.5175
100
AcDbArc
 50
184.0285230857448
 51
355.9714769142547
  0
LWPOLYLINE
  5
148
330
10C
100
AcDbEntity
  8
AM_4
100
AcDbPolyline
 90
        8
 70
     0
 43
0.0
 10
2.545374999999999
 20
-2.8825
 10
2.57383868859221
 20
-2.886913067740179
 10
2.597219211927344
 20
-2.898089683780559
 10
2.623096747740721
 20
-2.923629120225427
 10
2.633533120427016
 20
-2.943876644768403
 10
2.638694081879204
 20
-2.965206242555132
 10
2.639374545858798
 20
-2.976207804278273
 10
2.639375
 20
-2.976500000000001
  0
LINE
  5
149
330
10C
100
AcDbEntity
  8
AM_4
100
AcDbLine
 10
2.511279761904762
 20
-0.1768621142233797
 30
0.0
 11
2.517499734067952
 21
-0.0011571377588941
 31
0.0
  0
LINE
  5
14A
330
10C
100
AcDbEntity
  8
AM_4
100
AcDbLine
 10
2.511279761904762
 20
-0.1768621142233797
 30
0.0
 11
2.511279761904762
 21
-2.8825
 31
0.0
  0
LWPOLYLINE
  5
14B
330
10C
100
AcDbEntity
  8
AM_4
100
AcDbPolyline
 90
        8
 70
     0
 43
0.0
 10
-2.639375
 20
-2.9765
 10
-2.639374545858798
 20
-2.976207804278298
 10
-2.638694081879204
 20
-2.965206242555131
 10
-2.633533120427016
 20
-2.943876644768402
 10
-2.623096747740721
 20
-2.923629120225426
 10
-2.597219211927344
 20
-2.898089683780559
 10
-2.573838688592211
 20
-2.886913067740179
 10
-2.545375
 20
-2.8825
  0
LINE
  5
14C
330
10C
100
AcDbEntity
  8
AM_4
100
AcDbLine
 10
-2.545375
 20
-2.8825
 30
0.0
 11
2.545374999999999
 21
-2.8825
 31
0.0
  0
LINE
  5
14D
330
10C
100
AcDbEntity
  8
AM_4
100
AcDbLine
 10
-2.511279761904763
 20
-0.1768621142233569
 30
0.0
 11
-2.511279761904763
 21
-2.8825
 31
0.0
  0
LWPOLYLINE
  5
14E
330
10C
100
AcDbEntity
  8
AM_4
100
AcDbPolyline
 90
        3
 70
     0
 43
0.0
 10
-2.517499734067952
 20
-0.0011571377588926
 10
-2.516240834187103
 20
-0.0796135313209385
 10
-2.511279761904763
 20
-0.1768621142233569
  0
LINE
  5
14F
330
10C
100
AcDbEntity
  8
AM_4
100
AcDbLine
 10
-2.639375
 20
-0.9809523809523735
 30
0.0
 11
-2.639375
 21
-3.0
 31
0.0
  0
LINE
  5
150
330
10C
100
AcDbEntity
  8
AM_4
100
AcDbLine
 10
-2.639375
 20
-3.0
 30
0.0
 11
-5.375000000000001
 21
-3.0
 31
0.0
  0
LWPOLYLINE
  5
151
330
10C
100
AcDbEntity
  8
AM_4
100
AcDbPolyline
 90
       19
 70
     0
 43
0.0
 10
-5.375000000000001
 20
-2.248000017717724
 10
-5.37428460478545
 20
-2.231614738013743
 10
-5.372143860642946
 20
-2.21535416004717
 10
-5.36859405992803
 20
-2.199342036634734
 10
-5.36366221876757
 20
-2.18370022970399
 10
-5.357385871450725
 20
-2.168547782850461
 10
-5.349812784770338
 20
-2.154000015344
 10
-5.341000594488801
 20
-2.140167644479515
 10
-5.331016366695103
 20
-2.127155942951496
 10
-5.319936087391396
 20
-2.115063937665253
 10
-5.307844084193635
 20
-2.103983656082367
 10
-5.294832384547509
 20
-2.09399942583614
 10
-5.281000015344002
 20
-2.085187232947389
 10
-5.266452249264965
 20
-2.077614143524945
 10
-5.251299803594443
 20
-2.071337793352069
 10
-5.235657997593284
 20
-2.066405949243341
 10
-5.219645874849938
 20
-2.062856145510357
 10
-5.203385297286865
 20
-2.060715398302955
 10
-5.187000017717728
 20
-2.060000000000001
  0
LINE
  5
152
330
10C
100
AcDbEntity
  8
AM_4
100
AcDbLine
 10
-5.375000000000001
 20
-2.248
 30
0.0
 11
-5.375000000000001
 21
-3.0
 31
0.0
  0
LINE
  5
153
330
10C
100
AcDbEntity
  8
AM_4
100
AcDbLine
 10
2.639375
 20
-0.9809523809523817
 30
0.0
 11
2.639375
 21
-3.0
 31
0.0
  0
LINE
  5
154
330
10C
100
AcDbEntity
  8
AM_4
100
AcDbLine
 10
2.767470238095239
 20
-3.0
 30
0.0
 11
2.767470238095239
 21
-2.06
 31
0.0
  0
LWPOLYLINE
  5
155
330
10C
100
AcDbEntity
  8
AM_4
100
AcDbPolyline
 90
       16
 70
     0
 43
0.0
 10
4.133170159690859
 20
-2.06
 10
4.116784880054299
 20
-2.059284603241248
 10
4.100524302289475
 20
-2.057143857566295
 10
4.084512179211584
 20
-2.053594055342345
 10
4.068870372745633
 20
-2.048662212707751
 10
4.053717926483607
 20
-2.04238586396289
 10
4.039170159690858
 20
-2.034812775911475
 10
4.025337789656862
 20
-2.026000584326331
 10
4.012326089069789
 20
-2.016016355306368
 10
4.000234084827787
 20
-2.004936074863071
 10
3.989153804384491
 20
-1.992844070621069
 10
3.979169575364528
 20
-1.979832370033997
 10
3.970357383779383
 20
-1.966
 10
3.962784295727968
 20
-1.951452233207251
 10
3.956507946983107
 20
-1.936299786945226
 10
3.955818327251571
 20
-1.934372490173371
  0
LWPOLYLINE
  5
156
330
10C
100
AcDbEntity
  8
AM_4
100
AcDbPolyline
 90
       16
 70
     0
 43
0.0
 10
-3.955818327251572
 20
-1.934372490173372
 10
-3.961929325226067
 20
-1.949592374701397
 10
-3.969343569348882
 20
-1.964221734406387
 10
-3.978004632745399
 20
-1.978149231027539
 10
-3.987846599493478
 20
-1.991268867905914
 10
-3.998794566283423
 20
-2.003480796683013
 10
-4.010765212477402
 20
-2.014692077207079
 10
-4.023667434229802
 20
-2.024817384863766
 10
-4.037403037842514
 20
-2.033779659947981
 10
-4.051867487078261
 20
-2.041510694134762
 10
-4.066950698744487
 20
-2.047951649585822
 10
-4.082537880492918
 20
-2.053053506741023
 10
-4.098510404458651
 20
-2.056777437386829
 10
-4.114746710089834
 20
-2.059095100162453
 10
-4.131123229296863
 20
-2.059988856254731
 10
-4.133170159690859
 20
-2.06
  0
LWPOLYLINE
  5
157
330
10C
100
AcDbEntity
  8
AM_4
100
AcDbPolyline
 90
       19
 70
     0
 43
0.0
 10
2.639375
 20
-1.079047619047618
 10
2.639862441053962
 20
-1.164543252409606
 10
2.641321054495103
 20
-1.249388212378035
 10
2.6437397393944
 20
-1.332936777576757
 10
2.647100088099329
 20
-1.414553092976607
 10
2.651376526327211
 20
-1.493616009136113
 10
2.656536507800946
 20
-1.569523809523808
 10
2.662540761945839
 20
-1.641698789944358
 10
2.669343592762379
 20
-1.709591655216318
 10
2.67689322660039
 20
-1.772685699640135
 10
2.685132206187772
 20
-1.830500739440519
 10
2.693997827915033
 20
-1.882596767254914
 10
2.703422619047619
 20
-1.92857730085521
 10
2.713334851234168
 20
-1.968092400616903
 10
2.723659086402569
 20
-2.000841332770937
 10
2.734316750889248
 20
-2.026574858169275
 10
2.745226733432188
 20
-2.045097129145308
 10
2.75630600247661
 20
-2.056267180032854
 10
2.767470238095238
 20
-2.06
  0
LINE
  5
158
330
10C
100
AcDbEntity
  8
AM_4
100
AcDbLine
 10
2.767470238095239
 20
-2.06
 30
0.0
 11
5.187000000000002
 21
-2.06
 31
0.0
  0
LINE
  5
159
330
10C
100
AcDbEntity
  8
AM_4
100
AcDbLine
 10
2.914984905518057
 20
1.025164865083605
 30
0.0
 11
3.955818327251571
 21
-1.934372490173371
 31
0.0
  0
LWPOLYLINE
  5
15A
330
10C
100
AcDbEntity
  8
AM_4
100
AcDbPolyline
 90
       30
 70
     0
 43
0.0
 10
-2.914984905518059
 20
1.025164865083601
 10
-2.814543502639395
 20
1.275321477804862
 10
-2.692681724237812
 20
1.515772124019864
 10
-2.550327012029102
 20
1.744686829122843
 10
-2.388562771329297
 20
1.960323413985488
 10
-2.208620125686042
 20
2.161040753992062
 10
-2.011868547285023
 20
2.345311268988673
 10
-1.799805434439721
 20
2.511732549090618
 10
-1.5740447154861
 20
2.659038027868404
 10
-1.336304565813444
 20
2.786106621683052
 10
-1.08839433151219
 20
2.891971261809518
 10
-0.8322007591576631
 20
2.975826254413624
 10
-0.5696736365293891
 20
3.037033412368621
 10
-0.3028109535487799
 20
3.07512691224458
 10
-0.0336436963694117
 20
3.089816839505962
 10
0.2357796096539471
 20
3.080991394936285
 10
0.5034084904802184
 20
3.048717745497676
 10
0.7672061287275781
 20
2.993241513149724
 10
1.025164865083595
 20
2.914984905518061
 10
1.275321477804855
 20
2.814543502639397
 10
1.515772124019858
 20
2.692681724237815
 10
1.744686829122837
 20
2.550327012029105
 10
1.960323413985482
 20
2.388562771329301
 10
2.161040753992058
 20
2.208620125686046
 10
2.345311268988669
 20
2.011868547285027
 10
2.511732549090614
 20
1.799805434439727
 10
2.6590380278684
 20
1.574044715486105
 10
2.786106621683049
 20
1.33630456581345
 10
2.891971261809517
 20
1.088394331512196
 10
2.914984905518057
 20
1.025164865083605
  0
LINE
  5
15B
330
10C
100
AcDbEntity
  8
AM_4
100
AcDbLine
 10
-3.955818327251572
 20
-1.934372490173372
 30
0.0
 11
-2.914984905518057
 21
1.025164865083603
 31
0.0
  0
LWPOLYLINE
  5
15C
330
10C
100
AcDbEntity
  8
AM_4
100
AcDbPolyline
 90
       19
 70
     0
 43
0.0
 10
-2.767470238095239
 20
-2.059999999999994
 10
-2.75630600247661
 20
-2.056267180032849
 10
-2.745226733432189
 20
-2.045097129145303
 10
-2.734316750889249
 20
-2.02657485816927
 10
-2.72365908640257
 20
-2.000841332770933
 10
-2.713334851234168
 20
-1.968092400616898
 10
-2.703422619047619
 20
-1.928577300855206
 10
-2.693997827915033
 20
-1.88259676725491
 10
-2.685132206187772
 20
-1.830500739440515
 10
-2.67689322660039
 20
-1.772685699640131
 10
-2.669343592762379
 20
-1.709591655216314
 10
-2.662540761945839
 20
-1.641698789944354
 10
-2.656536507800946
 20
-1.569523809523804
 10
-2.651376526327211
 20
-1.493616009136109
 10
-2.647100088099329
 20
-1.414553092976603
 10
-2.6437397393944
 20
-1.332936777576753
 10
-2.641321054495103
 20
-1.249388212378031
 10
-2.639862441053962
 20
-1.164543252409602
 10
-2.639375
 20
-1.079047619047614
  0
LWPOLYLINE
  5
15D
330
10C
100
AcDbEntity
  8
AM_4
100
AcDbPolyline
 90
       19
 70
     0
 43
0.0
 10
-2.517499734067949
 20
-0.0011571377588925
 10
-2.528627131410255
 20
-0.0090370004345399
 10
-2.539622504795996
 20
-0.0243137260144803
 10
-2.550402172794518
 20
-0.0468710493927108
 10
-2.560884095623411
 20
-0.0765372957178391
 10
-2.57098849952079
 20
-0.1130866869423615
 10
-2.58063848387179
 20
-0.1562410601299337
 10
-2.589760606468679
 20
-0.2056719844432753
 10
-2.598285442450407
 20
-0.2610032607011537
 10
-2.606148112667717
 20
-0.3218137844813082
 10
-2.613288777452644
 20
-0.3876407509793737
 10
-2.619653092034524
 20
-0.4579831772328907
 10
-2.625192620136511
 20
-0.532305714904152
 10
-2.629865202604889
 20
-0.6100427246043039
 10
-2.633635278265694
 20
-0.6906025807506383
 10
-2.63647415456671
 20
-0.7733721741945108
 10
-2.638360225945128
 20
-0.8577215783521663
 10
-2.639279138258917
 20
-0.9430088433264024
 10
-2.639375
 20
-0.9809523809523739
  0
LWPOLYLINE
  5
15E
330
10C
100
AcDbEntity
  8
AM_4
100
AcDbPolyline
 90
       38
 70
     0
 43
0.0
 10
2.517499734067952
 20
-0.0011571377588942
 10
2.508020738726711
 20
0.2182618246893518
 10
2.479454191179433
 20
0.4360196828616189
 10
2.432017500101906
 20
0.6504591679714263
 10
2.366071687356286
 20
0.8599482660549873
 10
2.28211864039674
 20
1.06289263858291
 10
2.180797292602863
 20
1.257747756339094
 10
2.062878760610871
 20
1.443030654220679
 10
1.929260475650379
 20
1.617331217497912
 10
1.780959353550862
 20
1.779322913638696
 10
1.619104055398163
 20
1.92777288802214
 10
1.444926397742127
 20
2.06155134670664
 10
1.259751977728859
 20
2.179640154843966
 10
1.064990084506034
 20
2.281140585300221
 10
0.8621229736815229
 20
2.365280158511995
 10
0.6526945864632113
 20
2.431418521522286
 10
0.4382987993341479
 20
2.479052321453149
 10
0.2205672936901009
 20
2.507819036325035
 10
0.0011571377588989
 20
2.517499734067952
 10
-0.2182618246893472
 20
2.508020738726711
 10
-0.4360196828616144
 20
2.479454191179434
 10
-0.6504591679714218
 20
2.432017500101907
 10
-0.8599482660549829
 20
2.366071687356288
 10
-1.062892638582906
 20
2.282118640396741
 10
-1.25774775633909
 20
2.180797292602865
 10
-1.443030654220675
 20
2.062878760610873
 10
-1.617331217497908
 20
1.929260475650381
 10
-1.779322913638693
 20
1.780959353550865
 10
-1.927772888022137
 20
1.619104055398167
 10
-2.061551346706638
 20
1.44492639774213
 10
-2.179640154843964
 20
1.259751977728863
 10
-2.281140585300219
 20
1.064990084506038
 10
-2.365280158511994
 20
0.8621229736815272
 10
-2.431418521522285
 20
0.6526945864632157
 10
-2.479052321453148
 20
0.4382987993341524
 10
-2.507819036325035
 20
0.2205672936901054
 10
-2.517499734067952
 20
0.0011571377589035
 10
-2.517499734067952
 20
-0.001157137758893
  0
LWPOLYLINE
  5
15F
330
10C
100
AcDbEntity
  8
AM_4
100
AcDbPolyline
 90
       19
 70
     0
 43
0.0
 10
2.639375
 20
-0.9809523809523817
 10
2.638887558946038
 20
-0.8954567475903935
 10
2.637428945504897
 20
-0.8106117876219648
 10
2.6350102606056
 20
-0.727063222423243
 10
2.631649911900671
 20
-0.6454469070233934
 10
2.62737347367279
 20
-0.5663839908638871
 10
2.622213492199054
 20
-0.4904761904761924
 10
2.616209238054162
 20
-0.4183012100556425
 10
2.609406407237622
 20
-0.3504083447836826
 10
2.60185677339961
 20
-0.2873143003598652
 10
2.593617793812228
 20
-0.2294992605594811
 10
2.584752172084968
 20
-0.1774032327450866
 10
2.575327380952381
 20
-0.1314226991447911
 10
2.565415148765833
 20
-0.0919075993830982
 10
2.555090913597432
 20
-0.0591586672290637
 10
2.544433249110752
 20
-0.0334251418307258
 10
2.533523266567812
 20
-0.0149028708546934
 10
2.522443997523391
 20
-0.003732819967147
 10
2.517499734067952
 20
-0.0011571377588941
  0
LINE
  5
160
330
10C
100
AcDbEntity
  8
AM_4
100
AcDbLine
 10
-2.767470238095239
 20
-3.0
 30
0.0
 11
-2.767470238095239
 21
-2.06
 31
0.0
  0
LINE
  5
161
330
10C
100
AcDbEntity
  8
AM_4
100
AcDbLine
 10
-5.187
 20
-2.06
 30
0.0
 11
-2.767470238095239
 21
-2.06
 31
0.0
  0
LINE
  5
162
330
10C
100
AcDbEntity
  8
AM_4
100
AcDbLine
 10
-5.105999999999998
 20
-3.0
 30
0.0
 11
-5.106
 21
-2.06
 31
0.0
  0
LINE
  5
163
330
10C
100
AcDbEntity
  8
AM_4
100
AcDbLine
 10
5.375000000000001
 20
-2.247999999999999
 30
0.0
 11
5.375000000000001
 21
-3.0
 31
0.0
  0
LWPOLYLINE
  5
164
330
10C
100
AcDbEntity
  8
AM_4
100
AcDbPolyline
 90
       19
 70
     0
 43
0.0
 10
5.187000000000002
 20
-2.06
 10
5.203385279636562
 20
-2.060715396758753
 10
5.219645857401384
 20
-2.062856142433706
 10
5.235657980479275
 20
-2.066405944657656
 10
5.251299786945227
 20
-2.07133778729225
 10
5.266452233207253
 20
-2.077614136037111
 10
5.281000000000001
 20
-2.085187224088526
 10
5.294832370033998
 20
-2.09399941567367
 10
5.30784407062107
 20
-2.103983644693632
 10
5.319936074863072
 20
-2.115063925136929
 10
5.331016355306368
 20
-2.12715592937893
 10
5.341000584326332
 20
-2.140167629966003
 10
5.349812775911475
 20
-2.153999999999999
 10
5.357385863962891
 20
-2.168547766792748
 10
5.363662212707752
 20
-2.183700213054773
 10
5.368594055342346
 20
-2.199342019520725
 10
5.372143857566295
 20
-2.215354142598616
 10
5.374284603241248
 20
-2.231614720363439
 10
5.375000000000001
 20
-2.247999999999998
  0
LINE
  5
165
330
10C
100
AcDbEntity
  8
AM_4
100
AcDbLine
 10
5.106000000000001
 20
-2.06
 30
0.0
 11
5.106
 21
-3.0
 31
0.0
  0
LINE
  5
166
330
10C
100
AcDbEntity
  8
AM_4
100
AcDbLine
 10
5.375000000000001
 20
-3.0
 30
0.0
 11
2.639375
 21
-3.0
 31
0.0
  0
ENDBLK
  5
10F
330
10C
100
AcDbEntity
  8
0
100
AcDbBlockEnd
  0
ENDSEC
  0
SECTION
  2
ENTITIES
  0
INSERT
  5
6F
330
1F
100
AcDbEntity
  8
0
100
AcDbBlockReference
  2
1_126419_0
 10
0.0
 20
0.0
 30
0.0
  0
POINT
  5
168
330
1F
100
AcDbEntity
  8
ConnectionPoints
100
AcDbPoint
 10
0.0
 20
0.0
 30
1.84
  0
POINT
  5
169
330
1F
100
AcDbEntity
  8
ConnectionPoints
100
AcDbPoint
 10
2.220315292925759
 20
2.220315292925759
 30
0.0
  0
POINT
  5
16A
330
1F
100
AcDbEntity
  8
ConnectionPoints
100
AcDbPoint
 10
0.0
 20
0.0
 30
1.84
  0
ENDSEC
  0
SECTION
  2
OBJECTS
  0
DICTIONARY
  5
C
330
0
100
AcDbDictionary
281
     1
  3
ACAD_DETAILVIEWSTYLE
350
172
  3
ACAD_GROUP
350
D
  3
ACAD_LAYOUT
350
1A
  3
ACAD_MATERIAL
350
43
  3
ACAD_MLEADERSTYLE
350
6B
  3
ACAD_MLINESTYLE
350
17
  3
ACAD_PLOTSETTINGS
350
19
  3
ACAD_PLOTSTYLENAME
350
E
  3
ACAD_SCALELIST
350
47
  3
ACAD_SECTIONVIEWSTYLE
350
173
  3
ACAD_TABLESTYLE
350
69
  3
ACAD_VISUALSTYLE
350
2A
  3
ACDB_RECOMPOSE_DATA
350
16F
  3
AcDbVariableDictionary
350
16B
  0
SUN
  5
6D
330
29
100
AcDbSun
 90
        1
290
     0
 63
     7
421
 16777215
 40
1.0
291
     1
 91
  2455826
 92
 54000000
292
     0
 70
     2
 71
   256
280
     1
  0
DICTIONARY
  5
172
102
{ACAD_REACTORS
330
C
102
}
330
C
100
AcDbDictionary
281
     1
  0
DICTIONARY
  5
D
102
{ACAD_REACTORS
330
C
102
}
330
C
100
AcDbDictionary
281
     1
  0
DICTIONARY
  5
1A
102
{ACAD_REACTORS
330
C
102
}
330
C
100
AcDbDictionary
281
     1
  3
Layout1
350
1E
  3
Layout2
350
26
  3
Model
350
22
  0
DICTIONARY
  5
43
102
{ACAD_REACTORS
330
C
102
}
330
C
100
AcDbDictionary
281
     1
  3
ByBlock
350
45
  3
ByLayer
350
44
  3
Global
350
46
  0
DICTIONARY
  5
6B
102
{ACAD_REACTORS
330
C
102
}
330
C
100
AcDbDictionary
281
     1
  3
Standard
350
6C
  0
DICTIONARY
  5
17
102
{ACAD_REACTORS
330
C
102
}
330
C
100
AcDbDictionary
281
     1
  3
Standard
350
18
  0
DICTIONARY
  5
19
102
{ACAD_REACTORS
330
C
102
}
330
C
100
AcDbDictionary
281
     1
  0
ACDBDICTIONARYWDFLT
  5
E
102
{ACAD_REACTORS
330
C
102
}
330
C
100
AcDbDictionary
281
     1
  3
Normal
350
F
100
AcDbDictionaryWithDefault
340
F
  0
DICTIONARY
  5
47
102
{ACAD_REACTORS
330
C
102
}
330
C
100
AcDbDictionary
281
     1
  3
A0
350
48
  3
A1
350
49
  3
A2
350
4A
  3
A3
350
4B
  3
A4
350
4C
  3
A5
350
4D
  3
A6
350
4E
  3
A7
350
4F
  3
A8
350
50
  3
A9
350
51
  3
B0
350
52
  3
B1
350
53
  3
B2
350
54
  3
B3
350
55
  3
B4
350
56
  3
B5
350
57
  3
B6
350
58
  3
B7
350
59
  3
B8
350
5A
  3
B9
350
5B
  3
C0
350
5C
  3
C1
350
5D
  3
C2
350
5E
  3
C3
350
5F
  3
C4
350
60
  3
C5
350
61
  3
C6
350
62
  3
C7
350
63
  3
C8
350
64
  3
C9
350
65
  3
D0
350
66
  3
D1
350
67
  3
D2
350
68
  0
DICTIONARY
  5
173
102
{ACAD_REACTORS
330
C
102
}
330
C
100
AcDbDictionary
281
     1
  0
DICTIONARY
  5
69
102
{ACAD_REACTORS
330
C
102
}
330
C
100
AcDbDictionary
281
     1
  3
Standard
350
6A
  0
DICTIONARY
  5
2A
102
{ACAD_REACTORS
330
C
102
}
330
C
100
AcDbDictionary
281
     1
  3
2dWireframe
350
2F
  3
Basic
350
32
  3
Brighten
350
36
  3
ColorChange
350
3A
  3
Conceptual
350
34
  3
Dim
350
35
  3
EdgeColorOff
350
3D
  3
Facepattern
350
39
  3
Flat
350
2B
  3
FlatWithEdges
350
2C
  3
Gouraud
350
2D
  3
GouraudWithEdges
350
2E
  3
Hidden
350
31
  3
JitterOff
350
3B
  3
Linepattern
350
38
  3
OverhangOff
350
3C
  3
Realistic
350
33
  3
Shaded
350
42
  3
Shaded with edges
350
41
  3
Shades of Gray
350
3E
  3
Sketchy
350
3F
  3
Thicken
350
37
  3
Wireframe
350
30
  3
X-Ray
350
40
  0
XRECORD
  5
16F
102
{ACAD_REACTORS
330
C
102
}
330
C
100
AcDbXrecord
280
     1
 90
        1
330
6A
  0
DICTIONARY
  5
16B
102
{ACAD_REACTORS
330
C
102
}
330
C
100
AcDbDictionary
281
     1
  3
CANNOSCALE
350
16C
  3
CMLEADERSTYLE
350
171
  3
CTABLESTYLE
350
170
  0
LAYOUT
  5
1E
102
{ACAD_REACTORS
330
1A
102
}
330
1A
100
AcDbPlotSettings
  1

  2
none_device
  4

  6

 40
0.0
 41
0.0
 42
0.0
 43
0.0
 44
0.0
 45
0.0
 46
0.0
 47
0.0
 48
0.0
 49
0.0
140
0.0
141
0.0
142
1.0
143
1.0
 70
   688
 72
     0
 73
     0
 74
     5
  7

 75
    16
 76
     0
 77
     2
 78
   300
147
1.0
148
0.0
149
0.0
100
AcDbLayout
  1
Layout1
 70
     1
 71
     1
 10
0.0
 20
0.0
 11
12.0
 21
9.0
 12
0.0
 22
0.0
 32
0.0
 14
1.000000000000000E+20
 24
1.000000000000000E+20
 34
1.000000000000000E+20
 15
-1.000000000000000E+20
 25
-1.000000000000000E+20
 35
-1.000000000000000E+20
146
0.0
 13
0.0
 23
0.0
 33
0.0
 16
1.0
 26
0.0
 36
0.0
 17
0.0
 27
1.0
 37
0.0
 76
     0
330
1B
  0
LAYOUT
  5
26
102
{ACAD_REACTORS
330
1A
102
}
330
1A
100
AcDbPlotSettings
  1

  2
none_device
  4

  6

 40
0.0
 41
0.0
 42
0.0
 43
0.0
 44
0.0
 45
0.0
 46
0.0
 47
0.0
 48
0.0
 49
0.0
140
0.0
141
0.0
142
1.0
143
1.0
 70
   688
 72
     0
 73
     0
 74
     5
  7

 75
    16
 76
     0
 77
     2
 78
   300
147
1.0
148
0.0
149
0.0
100
AcDbLayout
  1
Layout2
 70
     1
 71
     2
 10
0.0
 20
0.0
 11
0.0
 21
0.0
 12
0.0
 22
0.0
 32
0.0
 14
0.0
 24
0.0
 34
0.0
 15
0.0
 25
0.0
 35
0.0
146
0.0
 13
0.0
 23
0.0
 33
0.0
 16
1.0
 26
0.0
 36
0.0
 17
0.0
 27
1.0
 37
0.0
 76
     0
330
23
  0
LAYOUT
  5
22
102
{ACAD_REACTORS
330
1A
102
}
330
1A
100
AcDbPlotSettings
  1

  2
none_device
  4
Letter_(8.50_x_11.00_Inches)
  6

 40
6.35
 41
6.35
 42
6.35000508
 43
6.35000508
 44
215.9
 45
279.4
 46
0.0
 47
0.0
 48
0.0
 49
0.0
140
0.0
141
0.0
142
1.0
143
1.0
 70
  1712
 72
     0
 73
     0
 74
     0
  7

 75
     0
 76
     0
 77
     2
 78
   300
147
1.0
148
0.0
149
0.0
100
AcDbLayout
  1
Model
 70
     1
 71
     0
 10
0.0
 20
0.0
 11
12.0
 21
9.0
 12
0.0
 22
0.0
 32
0.0
 14
1.000000000000000E+20
 24
1.000000000000000E+20
 34
1.000000000000000E+20
 15
-1.000000000000000E+20
 25
-1.000000000000000E+20
 35
-1.000000000000000E+20
146
0.0
 13
0.0
 23
0.0
 33
0.0
 16
1.0
 26
0.0
 36
0.0
 17
0.0
 27
1.0
 37
0.0
 76
     0
330
1F
331
29
  0
MATERIAL
  5
45
102
{ACAD_REACTORS
330
43
102
}
330
43
100
AcDbMaterial
  1
ByBlock
 72
     1
 94
      127
  0
MATERIAL
  5
44
102
{ACAD_REACTORS
330
43
102
}
330
43
100
AcDbMaterial
  1
ByLayer
 72
     1
 94
      127
  0
MATERIAL
  5
46
102
{ACAD_REACTORS
330
43
102
}
330
43
100
AcDbMaterial
  1
Global
 72
     1
 94
      127
  0
MLEADERSTYLE
  5
6C
102
{ACAD_REACTORS
330
6B
102
}
330
6B
100
AcDbMLeaderStyle
179
     2
170
     2
171
     1
172
     0
 90
        2
 40
0.0
 41
0.0
173
     1
 91
-1056964608
340
14
 92
       -2
290
     1
 42
0.09
291
     1
 43
0.36
  3
Standard
341
0
 44
0.18
300

342
11
174
     1
178
     6
175
     1
176
     0
 93
-1056964608
 45
0.18
292
     0
297
     0
 46
0.18
343
0
 94
-1056964608
 47
1.0
 49
1.0
140
1.0
293
     1
141
0.0
294
     1
177
     0
142
1.0
295
     0
296
     0
143
0.125
271
     0
272
     9
273
     9
298
     0
  0
MLINESTYLE
  5
18
102
{ACAD_REACTORS
330
17
102
}
330
17
100
AcDbMlineStyle
  2
Standard
 70
     0
  3

 62
   256
 51
90.0
 52
90.0
 71
     2
 49
0.5
 62
   256
  6
BYLAYER
 49
-0.5
 62
   256
  6
BYLAYER
  0
ACDBPLACEHOLDER
  5
F
102
{ACAD_REACTORS
330
E
102
}
330
E
  0
SCALE
  5
48
102
{ACAD_REACTORS
330
47
102
}
330
47
100
AcDbScale
 70
     0
300
1:1
140
1.0
141
1.0
290
     1
  0
SCALE
  5
49
102
{ACAD_REACTORS
330
47
102
}
330
47
100
AcDbScale
 70
     0
300
1:2
140
1.0
141
2.0
290
     0
  0
SCALE
  5
4A
102
{ACAD_REACTORS
330
47
102
}
330
47
100
AcDbScale
 70
     0
300
1:4
140
1.0
141
4.0
290
     0
  0
SCALE
  5
4B
102
{ACAD_REACTORS
330
47
102
}
330
47
100
AcDbScale
 70
     0
300
1:5
140
1.0
141
5.0
290
     0
  0
SCALE
  5
4C
102
{ACAD_REACTORS
330
47
102
}
330
47
100
AcDbScale
 70
     0
300
1:8
140
1.0
141
8.0
290
     0
  0
SCALE
  5
4D
102
{ACAD_REACTORS
330
47
102
}
330
47
100
AcDbScale
 70
     0
300
1:10
140
1.0
141
10.0
290
     0
  0
SCALE
  5
4E
102
{ACAD_REACTORS
330
47
102
}
330
47
100
AcDbScale
 70
     0
300
1:16
140
1.0
141
16.0
290
     0
  0
SCALE
  5
4F
102
{ACAD_REACTORS
330
47
102
}
330
47
100
AcDbScale
 70
     0
300
1:20
140
1.0
141
20.0
290
     0
  0
SCALE
  5
50
102
{ACAD_REACTORS
330
47
102
}
330
47
100
AcDbScale
 70
     0
300
1:30
140
1.0
141
30.0
290
     0
  0
SCALE
  5
51
102
{ACAD_REACTORS
330
47
102
}
330
47
100
AcDbScale
 70
     0
300
1:40
140
1.0
141
40.0
290
     0
  0
SCALE
  5
52
102
{ACAD_REACTORS
330
47
102
}
330
47
100
AcDbScale
 70
     0
300
1:50
140
1.0
141
50.0
290
     0
  0
SCALE
  5
53
102
{ACAD_REACTORS
330
47
102
}
330
47
100
AcDbScale
 70
     0
300
1:100
140
1.0
141
100.0
290
     0
  0
SCALE
  5
54
102
{ACAD_REACTORS
330
47
102
}
330
47
100
AcDbScale
 70
     0
300
2:1
140
2.0
141
1.0
290
     0
  0
SCALE
  5
55
102
{ACAD_REACTORS
330
47
102
}
330
47
100
AcDbScale
 70
     0
300
4:1
140
4.0
141
1.0
290
     0
  0
SCALE
  5
56
102
{ACAD_REACTORS
330
47
102
}
330
47
100
AcDbScale
 70
     0
300
8:1
140
8.0
141
1.0
290
     0
  0
SCALE
  5
57
102
{ACAD_REACTORS
330
47
102
}
330
47
100
AcDbScale
 70
     0
300
10:1
140
10.0
141
1.0
290
     0
  0
SCALE
  5
58
102
{ACAD_REACTORS
330
47
102
}
330
47
100
AcDbScale
 70
     0
300
100:1
140
100.0
141
1.0
290
     0
  0
SCALE
  5
59
102
{ACAD_REACTORS
330
47
102
}
330
47
100
AcDbScale
 70
     0
300
1/128" = 1'-0"
140
0.0078125
141
12.0
290
     0
  0
SCALE
  5
5A
102
{ACAD_REACTORS
330
47
102
}
330
47
100
AcDbScale
 70
     0
300
1/64" = 1'-0"
140
0.015625
141
12.0
290
     0
  0
SCALE
  5
5B
102
{ACAD_REACTORS
330
47
102
}
330
47
100
AcDbScale
 70
     0
300
1/32" = 1'-0"
140
0.03125
141
12.0
290
     0
  0
SCALE
  5
5C
102
{ACAD_REACTORS
330
47
102
}
330
47
100
AcDbScale
 70
     0
300
1/16" = 1'-0"
140
0.0625
141
12.0
290
     0
  0
SCALE
  5
5D
102
{ACAD_REACTORS
330
47
102
}
330
47
100
AcDbScale
 70
     0
300
3/32" = 1'-0"
140
0.09375
141
12.0
290
     0
  0
SCALE
  5
5E
102
{ACAD_REACTORS
330
47
102
}
330
47
100
AcDbScale
 70
     0
300
1/8" = 1'-0"
140
0.125
141
12.0
290
     0
  0
SCALE
  5
5F
102
{ACAD_REACTORS
330
47
102
}
330
47
100
AcDbScale
 70
     0
300
3/16" = 1'-0"
140
0.1875
141
12.0
290
     0
  0
SCALE
  5
60
102
{ACAD_REACTORS
330
47
102
}
330
47
100
AcDbScale
 70
     0
300
1/4" = 1'-0"
140
0.25
141
12.0
290
     0
  0
SCALE
  5
61
102
{ACAD_REACTORS
330
47
102
}
330
47
100
AcDbScale
 70
     0
300
3/8" = 1'-0"
140
0.375
141
12.0
290
     0
  0
SCALE
  5
62
102
{ACAD_REACTORS
330
47
102
}
330
47
100
AcDbScale
 70
     0
300
1/2" = 1'-0"
140
0.5
141
12.0
290
     0
  0
SCALE
  5
63
102
{ACAD_REACTORS
330
47
102
}
330
47
100
AcDbScale
 70
     0
300
3/4" = 1'-0"
140
0.75
141
12.0
290
     0
  0
SCALE
  5
64
102
{ACAD_REACTORS
330
47
102
}
330
47
100
AcDbScale
 70
     0
300
1" = 1'-0"
140
1.0
141
12.0
290
     0
  0
SCALE
  5
65
102
{ACAD_REACTORS
330
47
102
}
330
47
100
AcDbScale
 70
     0
300
1-1/2" = 1'-0"
140
1.5
141
12.0
290
     0
  0
SCALE
  5
66
102
{ACAD_REACTORS
330
47
102
}
330
47
100
AcDbScale
 70
     0
300
3" = 1'-0"
140
3.0
141
12.0
290
     0
  0
SCALE
  5
67
102
{ACAD_REACTORS
330
47
102
}
330
47
100
AcDbScale
 70
     0
300
6" = 1'-0"
140
6.0
141
12.0
290
     0
  0
SCALE
  5
68
102
{ACAD_REACTORS
330
47
102
}
330
47
100
AcDbScale
 70
     0
300
1'-0" = 1'-0"
140
12.0
141
12.0
290
     0
  0
TABLESTYLE
  5
6A
102
{ACAD_REACTORS
330
69
102
}
102
{ACAD_XDICTIONARY
360
16D
102
}
330
69
100
AcDbTableStyle
  3
Standard
 70
     0
 71
     0
 40
0.06
 41
0.06
280
     0
281
     0
  7
Standard
140
0.18
170
     2
 62
     0
 63
   257
283
     0
 90
        4
 91
        0
  1

274
    -2
284
     1
 64
     0
275
    -2
285
     1
 65
     0
276
    -2
286
     1
 66
     0
277
    -2
287
     1
 67
     0
278
    -2
288
     1
 68
     0
279
    -2
289
     1
 69
     0
  7
Standard
140
0.25
170
     5
 62
     0
 63
   257
283
     0
 90
        4
 91
        0
  1

274
    -2
284
     1
 64
     0
275
    -2
285
     1
 65
     0
276
    -2
286
     1
 66
     0
277
    -2
287
     1
 67
     0
278
    -2
288
     1
 68
     0
279
    -2
289
     1
 69
     0
  7
Standard
140
0.18
170
     5
 62
     0
 63
   257
283
     0
 90
        4
 91
        0
  1

274
    -2
284
     1
 64
     0
275
    -2
285
     1
 65
     0
276
    -2
286
     1
 66
     0
277
    -2
287
     1
 67
     0
278
    -2
288
     1
 68
     0
279
    -2
289
     1
 69
     0
  0
VISUALSTYLE
  5
2F
102
{ACAD_REACTORS
330
2A
102
}
330
2A
100
AcDbVisualStyle
  2
2dWireframe
 70
     4
177
     3
291
     0
 70
    58
 90
        0
176
     1
 90
        2
176
     1
 90
        0
176
     1
 90
        0
176
     1
 40
0.6
176
     1
 40
30.0
176
     1
 62
     7
420
 16777215
176
     1
 90
        1
176
     1
 90
        4
176
     1
 62
     7
176
     1
 62
   257
176
     1
 90
        1
176
     1
 90
        1
176
     1
 40
1.0
176
     1
 90
        0
176
     1
 62
   257
176
     1
 40
1.0
176
     1
 90
        1
176
     1
 90
        6
176
     1
 90
        2
176
     1
 62
     7
176
     1
 90
        5
176
     1
 90
        0
176
     1
 90
        0
176
     1
290
     0
176
     1
 90
        1
176
     1
 40
0.0
176
     1
 90
        0
176
     1
290
     1
176
     1
290
     1
176
     1
290
     0
176
     1
290
     0
176
     1
290
     0
176
     1
290
     0
176
     1
290
     0
176
     1
290
     0
176
     1
290
     0
176
     1
 90
       50
176
     1
 40
0.0
176
     1
 40
1.0
176
     1
 90
        0
176
     1
 62
    18
420
        0
176
     1
 90
       50
176
     1
 90
        3
176
     1
 62
     5
420
      255
176
     1
290
     0
176
     1
 90
       50
176
     1
 90
       50
176
     1
 90
       50
176
     1
290
     0
176
     1
 90
       50
176
     1
 62
   256
176
     0
 40
1.0
176
     0
 90
        2
176
     1
  1
strokes_ogs.tif
176
     1
290
     0
176
     1
 40
1.0
176
     1
 40
1.0
176
     1
  0
VISUALSTYLE
  5
32
102
{ACAD_REACTORS
330
2A
102
}
330
2A
100
AcDbVisualStyle
  2
Basic
 70
     7
177
     3
291
     1
 70
    58
 90
        1
176
     1
 90
        0
176
     1
 90
        1
176
     1
 90
        0
176
     1
 40
0.6
176
     1
 40
30.0
176
     1
 62
     7
420
 16777215
176
     1
 90
        0
176
     1
 90
        4
176
     1
 62
     7
176
     1
 62
   257
176
     1
 90
        1
176
     1
 90
        1
176
     1
 40
1.0
176
     1
 90
        8
176
     1
 62
     7
176
     1
 40
1.0
176
     1
 90
        1
176
     1
 90
        6
176
     1
 90
        2
176
     1
 62
     7
176
     1
 90
        5
176
     1
 90
        0
176
     1
 90
        0
176
     1
290
     0
176
     1
 90
        1
176
     1
 40
0.0
176
     1
 90
        0
176
     1
290
     0
176
     1
290
     1
176
     1
290
     1
176
     1
290
     0
176
     1
290
     0
176
     1
290
     0
176
     1
290
     0
176
     1
290
     0
176
     1
290
     0
176
     1
 90
       50
176
     1
 40
0.0
176
     1
 40
1.0
176
     1
 90
        0
176
     1
 62
    18
420
        0
176
     1
 90
       50
176
     1
 90
        3
176
     1
 62
     5
420
      255
176
     1
290
     0
176
     1
 90
       50
176
     1
 90
       50
176
     1
 90
       50
176
     1
290
     0
176
     1
 90
       50
176
     1
 62
   256
176
     0
 40
1.0
176
     0
 90
        2
176
     1
  1
strokes_ogs.tif
176
     1
290
     0
176
     1
 40
1.0
176
     1
 40
1.0
176
     1
  0
VISUALSTYLE
  5
36
102
{ACAD_REACTORS
330
2A
102
}
330
2A
100
AcDbVisualStyle
  2
Brighten
 70
    12
177
     3
291
     1
 70
    58
 90
        2
176
     1
 90
        2
176
     1
 90
        0
176
     1
 90
        0
176
     1
 40
0.6
176
     1
 40
30.0
176
     1
 62
     7
420
 16777215
176
     1
 90
        1
176
     1
 90
        4
176
     1
 62
     7
176
     1
 62
   257
176
     1
 90
        1
176
     1
 90
        1
176
     1
 40
1.0
176
     1
 90
        8
176
     1
 62
     7
176
     1
 40
1.0
176
     1
 90
        1
176
     1
 90
        6
176
     1
 90
        2
176
     1
 62
     7
176
     1
 90
        5
176
     1
 90
        0
176
     1
 90
        0
176
     1
290
     0
176
     1
 90
        1
176
     1
 40
50.0
176
     1
 90
        0
176
     1
290
     0
176
     1
290
     1
176
     1
290
     1
176
     1
290
     0
176
     1
290
     0
176
     1
290
     0
176
     1
290
     0
176
     1
290
     0
176
     1
290
     0
176
     1
 90
       50
176
     1
 40
0.0
176
     1
 40
1.0
176
     1
 90
        0
176
     1
 62
    18
420
        0
176
     1
 90
       50
176
     1
 90
        3
176
     1
 62
     5
420
      255
176
     1
290
     0
176
     1
 90
       50
176
     1
 90
       50
176
     1
 90
       50
176
     1
290
     0
176
     1
 90
       50
176
     1
 62
   256
176
     0
 40
1.0
176
     0
 90
        2
176
     1
  1
strokes_ogs.tif
176
     1
290
     0
176
     1
 40
1.0
176
     1
 40
1.0
176
     1
  0
VISUALSTYLE
  5
3A
102
{ACAD_REACTORS
330
2A
102
}
330
2A
100
AcDbVisualStyle
  2
ColorChange
 70
    16
177
     3
291
     1
 70
    58
 90
        2
176
     1
 90
        2
176
     1
 90
        3
176
     1
 90
        0
176
     1
 40
0.6
176
     1
 40
30.0
176
     1
 62
     8
420
  8421504
176
     1
 90
        1
176
     1
 90
        4
176
     1
 62
     7
176
     1
 62
   257
176
     1
 90
        1
176
     1
 90
        1
176
     1
 40
1.0
176
     1
 90
        8
176
     1
 62
     8
420
  8421504
176
     1
 40
1.0
176
     1
 90
        1
176
     1
 90
        6
176
     1
 90
        2
176
     1
 62
     7
176
     1
 90
        5
176
     1
 90
        0
176
     1
 90
        0
176
     1
290
     0
176
     1
 90
        1
176
     1
 40
0.0
176
     1
 90
        0
176
     1
290
     0
176
     1
290
     1
176
     1
290
     1
176
     1
290
     0
176
     1
290
     0
176
     1
290
     0
176
     1
290
     0
176
     1
290
     0
176
     1
290
     0
176
     1
 90
       50
176
     1
 40
0.0
176
     1
 40
1.0
176
     1
 90
        0
176
     1
 62
    18
420
        0
176
     1
 90
       50
176
     1
 90
        3
176
     1
 62
     5
420
      255
176
     1
290
     0
176
     1
 90
       50
176
     1
 90
       50
176
     1
 90
       50
176
     1
290
     0
176
     1
 90
       50
176
     1
 62
   256
176
     0
 40
1.0
176
     0
 90
        2
176
     1
  1
strokes_ogs.tif
176
     1
290
     0
176
     1
 40
1.0
176
     1
 40
1.0
176
     1
  0
VISUALSTYLE
  5
34
102
{ACAD_REACTORS
330
2A
102
}
330
2A
100
AcDbVisualStyle
  2
Conceptual
 70
     9
177
     3
291
     0
 70
    58
 90
        3
176
     1
 90
        2
176
     1
 90
        0
176
     1
 90
        0
176
     1
 40
0.6
176
     1
 40
30.0
176
     1
 62
     7
420
 16777215
176
     1
 90
        2
176
     1
 90
        2
176
     1
 62
     7
176
     1
 62
   257
176
     1
 90
        1
176
     1
 90
        1
176
     1
 40
179.0
176
     1
 90
        8
176
     1
 62
     7
176
     1
 40
1.0
176
     1
 90
        1
176
     1
 90
        6
176
     1
 90
        2
176
     1
 62
     7
176
     1
 90
        3
176
     1
 90
        0
176
     1
 90
        0
176
     1
290
     0
176
     1
 90
        1
176
     1
 40
0.0
176
     1
 90
        0
176
     1
290
     0
176
     1
290
     1
176
     1
290
     1
176
     1
290
     0
176
     1
290
     0
176
     1
290
     0
176
     1
290
     0
176
     1
290
     0
176
     1
290
     0
176
     1
 90
       50
176
     1
 40
0.0
176
     1
 40
1.0
176
     1
 90
        0
176
     1
 62
    18
420
        0
176
     1
 90
       50
176
     1
 90
        3
176
     1
 62
     5
420
      255
176
     1
290
     0
176
     1
 90
       50
176
     1
 90
       50
176
     1
 90
       50
176
     1
290
     0
176
     1
 90
       50
176
     1
 62
   256
176
     0
 40
1.0
176
     0
 90
        2
176
     1
  1
strokes_ogs.tif
176
     1
290
     0
176
     1
 40
1.0
176
     1
 40
1.0
176
     1
  0
VISUALSTYLE
  5
35
102
{ACAD_REACTORS
330
2A
102
}
330
2A
100
AcDbVisualStyle
  2
Dim
 70
    11
177
     3
291
     1
 70
    58
 90
        2
176
     1
 90
        2
176
     1
 90
        0
176
     1
 90
        0
176
     1
 40
0.6
176
     1
 40
30.0
176
     1
 62
     7
420
 16777215
176
     1
 90
        1
176
     1
 90
        4
176
     1
 62
     7
176
     1
 62
   257
176
     1
 90
        1
176
     1
 90
        1
176
     1
 40
1.0
176
     1
 90
        8
176
     1
 62
     7
176
     1
 40
1.0
176
     1
 90
        1
176
     1
 90
        6
176
     1
 90
        2
176
     1
 62
     7
176
     1
 90
        5
176
     1
 90
        0
176
     1
 90
        0
176
     1
290
     0
176
     1
 90
        1
176
     1
 40
-50.0
176
     1
 90
        0
176
     1
290
     0
176
     1
290
     1
176
     1
290
     1
176
     1
290
     0
176
     1
290
     0
176
     1
290
     0
176
     1
290
     0
176
     1
290
     0
176
     1
290
     0
176
     1
 90
       50
176
     1
 40
0.0
176
     1
 40
1.0
176
     1
 90
        0
176
     1
 62
    18
420
        0
176
     1
 90
       50
176
     1
 90
        3
176
     1
 62
     5
420
      255
176
     1
290
     0
176
     1
 90
       50
176
     1
 90
       50
176
     1
 90
       50
176
     1
290
     0
176
     1
 90
       50
176
     1
 62
   256
176
     0
 40
1.0
176
     0
 90
        2
176
     1
  1
strokes_ogs.tif
176
     1
290
     0
176
     1
 40
1.0
176
     1
 40
1.0
176
     1
  0
VISUALSTYLE
  5
3D
102
{ACAD_REACTORS
330
2A
102
}
330
2A
100
AcDbVisualStyle
  2
EdgeColorOff
 70
    22
177
     3
291
     1
 70
    58
 90
        2
176
     0
 90
        2
176
     0
 90
        0
176
     0
 90
        0
176
     0
 40
0.6
176
     0
 40
30.0
176
     0
 62
     7
420
 16777215
176
     0
 90
        1
176
     0
 90
        4
176
     0
 62
     7
176
     0
 62
   257
176
     0
 90
        1
176
     0
 90
        1
176
     0
 40
1.0
176
     0
 90
        8
176
     2
 62
     7
176
     0
 40
1.0
176
     0
 90
        1
176
     0
 90
        6
176
     0
 90
        2
176
     0
 62
     7
176
     0
 90
        5
176
     0
 90
        0
176
     0
 90
        0
176
     0
290
     0
176
     0
 90
        1
176
     0
 40
0.0
176
     0
 90
        0
176
     0
290
     0
176
     0
290
     1
176
     0
290
     1
176
     0
290
     0
176
     0
290
     0
176
     0
290
     0
176
     0
290
     0
176
     0
290
     0
176
     0
290
     0
176
     0
 90
       50
176
     0
 40
0.0
176
     0
 40
1.0
176
     0
 90
        0
176
     0
 62
    18
420
        0
176
     0
 90
       50
176
     0
 90
        3
176
     0
 62
     5
420
      255
176
     0
290
     0
176
     0
 90
       50
176
     0
 90
       50
176
     0
 90
       50
176
     0
290
     0
176
     0
 90
       50
176
     0
 62
   256
176
     0
 40
1.0
176
     0
 90
        2
176
     0
  1
strokes_ogs.tif
176
     0
290
     0
176
     0
 40
1.0
176
     0
 40
1.0
176
     0
  0
VISUALSTYLE
  5
39
102
{ACAD_REACTORS
330
2A
102
}
330
2A
100
AcDbVisualStyle
  2
Facepattern
 70
    15
177
     3
291
     1
 70
    58
 90
        2
176
     1
 90
        2
176
     1
 90
        0
176
     1
 90
        0
176
     1
 40
0.6
176
     1
 40
30.0
176
     1
 62
     7
420
 16777215
176
     1
 90
        1
176
     1
 90
        4
176
     1
 62
     7
176
     1
 62
   257
176
     1
 90
        1
176
     1
 90
        1
176
     1
 40
1.0
176
     1
 90
        8
176
     1
 62
     7
176
     1
 40
1.0
176
     1
 90
        1
176
     1
 90
        6
176
     1
 90
        2
176
     1
 62
     7
176
     1
 90
        5
176
     1
 90
        0
176
     1
 90
        0
176
     1
290
     0
176
     1
 90
        1
176
     1
 40
0.0
176
     1
 90
        0
176
     1
290
     0
176
     1
290
     1
176
     1
290
     1
176
     1
290
     0
176
     1
290
     0
176
     1
290
     0
176
     1
290
     0
176
     1
290
     0
176
     1
290
     0
176
     1
 90
       50
176
     1
 40
0.0
176
     1
 40
1.0
176
     1
 90
        0
176
     1
 62
    18
420
        0
176
     1
 90
       50
176
     1
 90
        3
176
     1
 62
     5
420
      255
176
     1
290
     0
176
     1
 90
       50
176
     1
 90
       50
176
     1
 90
       50
176
     1
290
     0
176
     1
 90
       50
176
     1
 62
   256
176
     0
 40
1.0
176
     0
 90
        2
176
     1
  1
strokes_ogs.tif
176
     1
290
     0
176
     1
 40
1.0
176
     1
 40
1.0
176
     1
  0
VISUALSTYLE
  5
2B
102
{ACAD_REACTORS
330
2A
102
}
330
2A
100
AcDbVisualStyle
  2
Flat
 70
     0
177
     3
291
     1
 70
    58
 90
        2
176
     1
 90
        1
176
     1
 90
        1
176
     1
 90
        2
176
     1
 40
0.6
176
     1
 40
30.0
176
     1
 62
     7
420
 16777215
176
     1
 90
        0
176
     1
 90
        0
176
     1
 62
     7
176
     1
 62
   257
176
     1
 90
        1
176
     1
 90
        1
176
     1
 40
1.0
176
     1
 90
        8
176
     1
 62
     7
176
     1
 40
1.0
176
     1
 90
        1
176
     1
 90
        6
176
     1
 90
        2
176
     1
 62
     7
176
     1
 90
        5
176
     1
 90
        0
176
     1
 90
        0
176
     1
290
     0
176
     1
 90
       13
176
     1
 40
0.0
176
     1
 90
        0
176
     1
290
     0
176
     1
290
     1
176
     1
290
     1
176
     1
290
     0
176
     1
290
     0
176
     1
290
     0
176
     1
290
     0
176
     1
290
     0
176
     1
290
     0
176
     1
 90
       50
176
     1
 40
0.0
176
     1
 40
1.0
176
     1
 90
        0
176
     1
 62
    18
420
        0
176
     1
 90
       50
176
     1
 90
        3
176
     1
 62
     5
420
      255
176
     1
290
     0
176
     1
 90
       50
176
     1
 90
       50
176
     1
 90
       50
176
     1
290
     0
176
     1
 90
       50
176
     1
 62
   256
176
     0
 40
1.0
176
     0
 90
        2
176
     1
  1
strokes_ogs.tif
176
     1
290
     0
176
     1
 40
1.0
176
     1
 40
1.0
176
     1
  0
VISUALSTYLE
  5
2C
102
{ACAD_REACTORS
330
2A
102
}
330
2A
100
AcDbVisualStyle
  2
FlatWithEdges
 70
     1
177
     3
291
     1
 70
    58
 90
        2
176
     1
 90
        1
176
     1
 90
        1
176
     1
 90
        2
176
     1
 40
0.6
176
     1
 40
30.0
176
     1
 62
     7
420
 16777215
176
     1
 90
        1
176
     1
 90
        0
176
     1
 62
     7
176
     1
 62
   257
176
     1
 90
        1
176
     1
 90
        1
176
     1
 40
1.0
176
     1
 90
        0
176
     1
 62
   257
176
     1
 40
1.0
176
     1
 90
        1
176
     1
 90
        6
176
     1
 90
        2
176
     1
 62
     7
176
     1
 90
        5
176
     1
 90
        0
176
     1
 90
        0
176
     1
290
     0
176
     1
 90
       13
176
     1
 40
0.0
176
     1
 90
        0
176
     1
290
     0
176
     1
290
     1
176
     1
290
     1
176
     1
290
     0
176
     1
290
     0
176
     1
290
     0
176
     1
290
     0
176
     1
290
     0
176
     1
290
     0
176
     1
 90
       50
176
     1
 40
0.0
176
     1
 40
1.0
176
     1
 90
        0
176
     1
 62
    18
420
        0
176
     1
 90
       50
176
     1
 90
        3
176
     1
 62
     5
420
      255
176
     1
290
     0
176
     1
 90
       50
176
     1
 90
       50
176
     1
 90
       50
176
     1
290
     0
176
     1
 90
       50
176
     1
 62
   256
176
     0
 40
1.0
176
     0
 90
        2
176
     1
  1
strokes_ogs.tif
176
     1
290
     0
176
     1
 40
1.0
176
     1
 40
1.0
176
     1
  0
VISUALSTYLE
  5
2D
102
{ACAD_REACTORS
330
2A
102
}
330
2A
100
AcDbVisualStyle
  2
Gouraud
 70
     2
177
     3
291
     1
 70
    58
 90
        2
176
     1
 90
        2
176
     1
 90
        1
176
     1
 90
        2
176
     1
 40
0.6
176
     1
 40
30.0
176
     1
 62
     7
420
 16777215
176
     1
 90
        0
176
     1
 90
        0
176
     1
 62
     7
176
     1
 62
   257
176
     1
 90
        1
176
     1
 90
        1
176
     1
 40
1.0
176
     1
 90
        0
176
     1
 62
     7
176
     1
 40
1.0
176
     1
 90
        1
176
     1
 90
        6
176
     1
 90
        2
176
     1
 62
     7
176
     1
 90
        5
176
     1
 90
        0
176
     1
 90
        0
176
     1
290
     0
176
     1
 90
       13
176
     1
 40
0.0
176
     1
 90
        0
176
     1
290
     0
176
     1
290
     1
176
     1
290
     1
176
     1
290
     0
176
     1
290
     0
176
     1
290
     0
176
     1
290
     0
176
     1
290
     0
176
     1
290
     0
176
     1
 90
       50
176
     1
 40
0.0
176
     1
 40
1.0
176
     1
 90
        0
176
     1
 62
    18
420
        0
176
     1
 90
       50
176
     1
 90
        3
176
     1
 62
     5
420
      255
176
     1
290
     0
176
     1
 90
       50
176
     1
 90
       50
176
     1
 90
       50
176
     1
290
     0
176
     1
 90
       50
176
     1
 62
   256
176
     0
 40
1.0
176
     0
 90
        2
176
     1
  1
strokes_ogs.tif
176
     1
290
     0
176
     1
 40
1.0
176
     1
 40
1.0
176
     1
  0
VISUALSTYLE
  5
2E
102
{ACAD_REACTORS
330
2A
102
}
330
2A
100
AcDbVisualStyle
  2
GouraudWithEdges
 70
     3
177
     3
291
     1
 70
    58
 90
        2
176
     1
 90
        2
176
     1
 90
        1
176
     1
 90
        2
176
     1
 40
0.6
176
     1
 40
30.0
176
     1
 62
     7
420
 16777215
176
     1
 90
        1
176
     1
 90
        0
176
     1
 62
     7
176
     1
 62
   257
176
     1
 90
        1
176
     1
 90
        1
176
     1
 40
1.0
176
     1
 90
        0
176
     1
 62
   257
176
     1
 40
1.0
176
     1
 90
        1
176
     1
 90
        6
176
     1
 90
        2
176
     1
 62
     7
176
     1
 90
        5
176
     1
 90
        0
176
     1
 90
        0
176
     1
290
     0
176
     1
 90
       13
176
     1
 40
0.0
176
     1
 90
        0
176
     1
290
     0
176
     1
290
     1
176
     1
290
     1
176
     1
290
     0
176
     1
290
     0
176
     1
290
     0
176
     1
290
     0
176
     1
290
     0
176
     1
290
     0
176
     1
 90
       50
176
     1
 40
0.0
176
     1
 40
1.0
176
     1
 90
        0
176
     1
 62
    18
420
        0
176
     1
 90
       50
176
     1
 90
        3
176
     1
 62
     5
420
      255
176
     1
290
     0
176
     1
 90
       50
176
     1
 90
       50
176
     1
 90
       50
176
     1
290
     0
176
     1
 90
       50
176
     1
 62
   256
176
     0
 40
1.0
176
     0
 90
        2
176
     1
  1
strokes_ogs.tif
176
     1
290
     0
176
     1
 40
1.0
176
     1
 40
1.0
176
     1
  0
VISUALSTYLE
  5
31
102
{ACAD_REACTORS
330
2A
102
}
330
2A
100
AcDbVisualStyle
  2
Hidden
 70
     6
177
     3
291
     0
 70
    58
 90
        1
176
     1
 90
        2
176
     1
 90
        2
176
     1
 90
        0
176
     1
 40
0.6
176
     1
 40
30.0
176
     1
 62
     7
420
 16777215
176
     1
 90
        2
176
     1
 90
        2
176
     1
 62
     7
176
     1
 62
   257
176
     1
 90
        2
176
     1
 90
        1
176
     1
 40
40.0
176
     1
 90
        0
176
     1
 62
   257
176
     1
 40
1.0
176
     1
 90
        1
176
     1
 90
        6
176
     1
 90
        2
176
     1
 62
     7
176
     1
 90
        3
176
     1
 90
        0
176
     1
 90
        0
176
     1
290
     0
176
     1
 90
        1
176
     1
 40
0.0
176
     1
 90
        0
176
     1
290
     0
176
     1
290
     1
176
     1
290
     1
176
     1
290
     0
176
     1
290
     0
176
     1
290
     0
176
     1
290
     0
176
     1
290
     0
176
     1
290
     0
176
     1
 90
       50
176
     1
 40
0.0
176
     1
 40
1.0
176
     1
 90
        0
176
     1
 62
    18
420
        0
176
     1
 90
       50
176
     1
 90
        3
176
     1
 62
     5
420
      255
176
     1
290
     0
176
     1
 90
       50
176
     1
 90
       50
176
     1
 90
       50
176
     1
290
     0
176
     1
 90
       50
176
     1
 62
   256
176
     0
 40
1.0
176
     0
 90
        2
176
     1
  1
strokes_ogs.tif
176
     1
290
     0
176
     1
 40
1.0
176
     1
 40
1.0
176
     1
  0
VISUALSTYLE
  5
3B
102
{ACAD_REACTORS
330
2A
102
}
330
2A
100
AcDbVisualStyle
  2
JitterOff
 70
    20
177
     3
291
     1
 70
    58
 90
        2
176
     0
 90
        2
176
     0
 90
        0
176
     0
 90
        0
176
     0
 40
0.6
176
     0
 40
30.0
176
     0
 62
     7
420
 16777215
176
     0
 90
        1
176
     0
 90
        4
176
     0
 62
     7
176
     0
 62
   257
176
     0
 90
        1
176
     0
 90
        1
176
     0
 40
1.0
176
     0
 90
       10
176
     2
 62
     7
176
     0
 40
1.0
176
     0
 90
        1
176
     0
 90
        6
176
     0
 90
        2
176
     0
 62
     7
176
     0
 90
        5
176
     0
 90
        0
176
     0
 90
        0
176
     0
290
     0
176
     0
 90
        1
176
     0
 40
0.0
176
     0
 90
        0
176
     0
290
     0
176
     0
290
     1
176
     0
290
     1
176
     0
290
     0
176
     0
290
     0
176
     0
290
     0
176
     0
290
     0
176
     0
290
     0
176
     0
290
     0
176
     0
 90
       50
176
     0
 40
0.0
176
     0
 40
1.0
176
     0
 90
        0
176
     0
 62
    18
420
        0
176
     0
 90
       50
176
     0
 90
        3
176
     0
 62
     5
420
      255
176
     0
290
     0
176
     0
 90
       50
176
     0
 90
       50
176
     0
 90
       50
176
     0
290
     0
176
     0
 90
       50
176
     0
 62
   256
176
     0
 40
1.0
176
     0
 90
        2
176
     0
  1
strokes_ogs.tif
176
     0
290
     0
176
     0
 40
1.0
176
     0
 40
1.0
176
     0
  0
VISUALSTYLE
  5
38
102
{ACAD_REACTORS
330
2A
102
}
330
2A
100
AcDbVisualStyle
  2
Linepattern
 70
    14
177
     3
291
     1
 70
    58
 90
        2
176
     1
 90
        2
176
     1
 90
        0
176
     1
 90
        0
176
     1
 40
0.6
176
     1
 40
30.0
176
     1
 62
     7
420
 16777215
176
     1
 90
        1
176
     1
 90
        4
176
     1
 62
     7
176
     1
 62
   257
176
     1
 90
        7
176
     1
 90
        7
176
     1
 40
1.0
176
     1
 90
        8
176
     1
 62
     7
176
     1
 40
1.0
176
     1
 90
        1
176
     1
 90
        6
176
     1
 90
        2
176
     1
 62
     7
176
     1
 90
        5
176
     1
 90
        0
176
     1
 90
        0
176
     1
290
     0
176
     1
 90
        1
176
     1
 40
0.0
176
     1
 90
        0
176
     1
290
     0
176
     1
290
     1
176
     1
290
     1
176
     1
290
     0
176
     1
290
     0
176
     1
290
     0
176
     1
290
     0
176
     1
290
     0
176
     1
290
     0
176
     1
 90
       50
176
     1
 40
0.0
176
     1
 40
1.0
176
     1
 90
        0
176
     1
 62
    18
420
        0
176
     1
 90
       50
176
     1
 90
        3
176
     1
 62
     5
420
      255
176
     1
290
     0
176
     1
 90
       50
176
     1
 90
       50
176
     1
 90
       50
176
     1
290
     0
176
     1
 90
       50
176
     1
 62
   256
176
     0
 40
1.0
176
     0
 90
        2
176
     1
  1
strokes_ogs.tif
176
     1
290
     0
176
     1
 40
1.0
176
     1
 40
1.0
176
     1
  0
VISUALSTYLE
  5
3C
102
{ACAD_REACTORS
330
2A
102
}
330
2A
100
AcDbVisualStyle
  2
OverhangOff
 70
    21
177
     3
291
     1
 70
    58
 90
        2
176
     0
 90
        2
176
     0
 90
        0
176
     0
 90
        0
176
     0
 40
0.6
176
     0
 40
30.0
176
     0
 62
     7
420
 16777215
176
     0
 90
        1
176
     0
 90
        4
176
     0
 62
     7
176
     0
 62
   257
176
     0
 90
        1
176
     0
 90
        1
176
     0
 40
1.0
176
     0
 90
        9
176
     2
 62
     7
176
     0
 40
1.0
176
     0
 90
        1
176
     0
 90
        6
176
     0
 90
        2
176
     0
 62
     7
176
     0
 90
        5
176
     0
 90
        0
176
     0
 90
        0
176
     0
290
     0
176
     0
 90
        1
176
     0
 40
0.0
176
     0
 90
        0
176
     0
290
     0
176
     0
290
     1
176
     0
290
     1
176
     0
290
     0
176
     0
290
     0
176
     0
290
     0
176
     0
290
     0
176
     0
290
     0
176
     0
290
     0
176
     0
 90
       50
176
     0
 40
0.0
176
     0
 40
1.0
176
     0
 90
        0
176
     0
 62
    18
420
        0
176
     0
 90
       50
176
     0
 90
        3
176
     0
 62
     5
420
      255
176
     0
290
     0
176
     0
 90
       50
176
     0
 90
       50
176
     0
 90
       50
176
     0
290
     0
176
     0
 90
       50
176
     0
 62
   256
176
     0
 40
1.0
176
     0
 90
        2
176
     0
  1
strokes_ogs.tif
176
     0
290
     0
176
     0
 40
1.0
176
     0
 40
1.0
176
     0
  0
VISUALSTYLE
  5
33
102
{ACAD_REACTORS
330
2A
102
}
330
2A
100
AcDbVisualStyle
  2
Realistic
 70
     8
177
     3
291
     0
 70
    58
 90
        2
176
     1
 90
        3
176
     1
 90
        0
176
     1
 90
        2
176
     1
 40
0.6
176
     1
 40
30.0
176
     1
 62
     7
420
 16777215
176
     1
 90
        0
176
     1
 90
        0
176
     1
 62
     7
176
     1
 62
   257
176
     1
 90
        1
176
     1
 90
        1
176
     1
 40
1.0
176
     1
 90
        8
176
     1
 62
   257
176
     1
 40
1.0
176
     1
 90
        1
176
     1
 90
        6
176
     1
 90
        2
176
     1
 62
     7
176
     1
 90
        3
176
     1
 90
        0
176
     1
 90
        0
176
     1
290
     0
176
     1
 90
       13
176
     1
 40
0.0
176
     1
 90
        0
176
     1
290
     0
176
     1
290
     1
176
     1
290
     1
176
     1
290
     0
176
     1
290
     0
176
     1
290
     0
176
     1
290
     0
176
     1
290
     0
176
     1
290
     0
176
     1
 90
       50
176
     1
 40
0.0
176
     1
 40
1.0
176
     1
 90
        0
176
     1
 62
    18
420
        0
176
     1
 90
       50
176
     1
 90
        3
176
     1
 62
     5
420
      255
176
     1
290
     0
176
     1
 90
       50
176
     1
 90
       50
176
     1
 90
       50
176
     1
290
     0
176
     1
 90
       50
176
     1
 62
   256
176
     0
 40
1.0
176
     0
 90
        2
176
     1
  1
strokes_ogs.tif
176
     1
290
     0
176
     1
 40
1.0
176
     1
 40
1.0
176
     1
  0
VISUALSTYLE
  5
42
102
{ACAD_REACTORS
330
2A
102
}
330
2A
100
AcDbVisualStyle
  2
Shaded
 70
    27
177
     3
291
     0
 70
    58
 90
        2
176
     1
 90
        2
176
     1
 90
        1
176
     1
 90
        2
176
     1
 40
0.6
176
     1
 40
30.0
176
     1
 62
     7
420
 16777215
176
     1
 90
        0
176
     1
 90
        4
176
     1
 62
     7
176
     1
 62
   257
176
     1
 90
        1
176
     1
 90
        1
176
     1
 40
1.0
176
     1
 90
        8
176
     1
 62
   257
176
     1
 40
1.0
176
     1
 90
        1
176
     1
 90
        6
176
     1
 90
        2
176
     1
 62
     8
420
  7895160
176
     1
 90
        3
176
     1
 90
        0
176
     1
 90
        0
176
     1
290
     0
176
     1
 90
        5
176
     1
 40
0.0
176
     1
 90
        0
176
     1
290
     0
176
     1
290
     1
176
     1
290
     1
176
     1
290
     0
176
     1
290
     0
176
     1
290
     0
176
     1
290
     0
176
     1
290
     0
176
     1
290
     0
176
     1
 90
       50
176
     1
 40
0.0
176
     1
 40
1.0
176
     1
 90
        0
176
     1
 62
    18
420
        0
176
     1
 90
       50
176
     1
 90
        3
176
     1
 62
     5
420
      255
176
     1
290
     0
176
     1
 90
       50
176
     1
 90
       50
176
     1
 90
       50
176
     1
290
     0
176
     1
 90
       50
176
     1
 62
   256
176
     0
 40
1.0
176
     0
 90
        2
176
     1
  1
strokes_ogs.tif
176
     1
290
     0
176
     1
 40
1.0
176
     1
 40
1.0
176
     1
  0
VISUALSTYLE
  5
41
102
{ACAD_REACTORS
330
2A
102
}
330
2A
100
AcDbVisualStyle
  2
Shaded with edges
 70
    26
177
     3
291
     0
 70
    58
 90
        2
176
     1
 90
        2
176
     1
 90
        1
176
     1
 90
        2
176
     1
 40
0.6
176
     1
 40
30.0
176
     1
 62
     7
420
 16777215
176
     1
 90
        1
176
     1
 90
       10
176
     1
 62
     7
176
     1
 62
   257
176
     1
 90
        2
176
     1
 90
        1
176
     1
 40
1.0
176
     1
 90
        8
176
     1
 62
   257
176
     1
 40
1.0
176
     1
 90
        1
176
     1
 90
        6
176
     1
 90
        2
176
     1
 62
     7
176
     1
 90
        3
176
     1
 90
        0
176
     1
 90
        0
176
     1
290
     0
176
     1
 90
        5
176
     1
 40
0.0
176
     1
 90
        0
176
     1
290
     0
176
     1
290
     1
176
     1
290
     1
176
     1
290
     0
176
     1
290
     0
176
     1
290
     0
176
     1
290
     0
176
     1
290
     0
176
     1
290
     0
176
     1
 90
       50
176
     1
 40
0.0
176
     1
 40
1.0
176
     1
 90
        0
176
     1
 62
    18
420
        0
176
     1
 90
       50
176
     1
 90
        3
176
     1
 62
     5
420
      255
176
     1
290
     0
176
     1
 90
       50
176
     1
 90
       50
176
     1
 90
       50
176
     1
290
     0
176
     1
 90
       50
176
     1
 62
   256
176
     0
 40
1.0
176
     0
 90
        2
176
     1
  1
strokes_ogs.tif
176
     1
290
     0
176
     1
 40
1.0
176
     1
 40
1.0
176
     1
  0
VISUALSTYLE
  5
3E
102
{ACAD_REACTORS
330
2A
102
}
330
2A
100
AcDbVisualStyle
  2
Shades of Gray
 70
    23
177
     3
291
     0
 70
    58
 90
        2
176
     1
 90
        2
176
     1
 90
        3
176
     1
 90
        0
176
     1
 40
0.6
176
     1
 40
30.0
176
     1
 62
     7
420
 16777215
176
     1
 90
        2
176
     1
 90
        2
176
     1
 62
     7
176
     1
 62
     7
176
     1
 90
        1
176
     1
 90
        1
176
     1
 40
40.0
176
     1
 90
        8
176
     1
 62
     7
176
     1
 40
1.0
176
     1
 90
        1
176
     1
 90
        6
176
     1
 90
        2
176
     1
 62
     7
176
     1
 90
        3
176
     1
 90
        0
176
     1
 90
        0
176
     1
290
     0
176
     1
 90
        1
176
     1
 40
0.0
176
     1
 90
        0
176
     1
290
     0
176
     1
290
     1
176
     1
290
     1
176
     1
290
     0
176
     1
290
     0
176
     1
290
     0
176
     1
290
     0
176
     1
290
     0
176
     1
290
     0
176
     1
 90
       50
176
     1
 40
0.0
176
     1
 40
1.0
176
     1
 90
        0
176
     1
 62
    18
420
        0
176
     1
 90
       50
176
     1
 90
        3
176
     1
 62
     5
420
      255
176
     1
290
     0
176
     1
 90
       50
176
     1
 90
       50
176
     1
 90
       50
176
     1
290
     0
176
     1
 90
       50
176
     1
 62
   256
176
     0
 40
1.0
176
     0
 90
        2
176
     1
  1
strokes_ogs.tif
176
     1
290
     0
176
     1
 40
1.0
176
     1
 40
1.0
176
     1
  0
VISUALSTYLE
  5
3F
102
{ACAD_REACTORS
330
2A
102
}
330
2A
100
AcDbVisualStyle
  2
Sketchy
 70
    24
177
     3
291
     0
 70
    58
 90
        1
176
     1
 90
        2
176
     1
 90
        2
176
     1
 90
        0
176
     1
 40
0.6
176
     1
 40
30.0
176
     1
 62
     7
420
 16777215
176
     1
 90
        2
176
     1
 90
        2
176
     1
 62
     7
176
     1
 62
     7
176
     1
 90
        1
176
     1
 90
        1
176
     1
 40
40.0
176
     1
 90
       11
176
     1
 62
     7
176
     1
 40
1.0
176
     1
 90
        1
176
     1
 90
        6
176
     1
 90
        2
176
     1
 62
     7
176
     1
 90
        6
176
     1
 90
        0
176
     1
 90
        0
176
     1
290
     0
176
     1
 90
        1
176
     1
 40
0.0
176
     1
 90
        0
176
     1
290
     0
176
     1
290
     1
176
     1
290
     1
176
     1
290
     0
176
     1
290
     0
176
     1
290
     0
176
     1
290
     0
176
     1
290
     0
176
     1
290
     0
176
     1
 90
       50
176
     1
 40
0.0
176
     1
 40
1.0
176
     1
 90
        0
176
     1
 62
    18
420
        0
176
     1
 90
       50
176
     1
 90
        3
176
     1
 62
     5
420
      255
176
     1
290
     0
176
     1
 90
       50
176
     1
 90
       50
176
     1
 90
       50
176
     1
290
     0
176
     1
 90
       50
176
     1
 62
   256
176
     0
 40
1.0
176
     0
 90
        2
176
     1
  1
strokes_ogs.tif
176
     1
290
     0
176
     1
 40
1.0
176
     1
 40
1.0
176
     1
  0
VISUALSTYLE
  5
37
102
{ACAD_REACTORS
330
2A
102
}
330
2A
100
AcDbVisualStyle
  2
Thicken
 70
    13
177
     3
291
     1
 70
    58
 90
        2
176
     1
 90
        2
176
     1
 90
        0
176
     1
 90
        0
176
     1
 40
0.6
176
     1
 40
30.0
176
     1
 62
     7
420
 16777215
176
     1
 90
        1
176
     1
 90
        4
176
     1
 62
     7
176
     1
 62
   257
176
     1
 90
        1
176
     1
 90
        1
176
     1
 40
1.0
176
     1
 90
       12
176
     1
 62
     7
176
     1
 40
1.0
176
     1
 90
        1
176
     1
 90
        6
176
     1
 90
        2
176
     1
 62
     7
176
     1
 90
        5
176
     1
 90
        0
176
     1
 90
        0
176
     1
290
     0
176
     1
 90
        1
176
     1
 40
0.0
176
     1
 90
        0
176
     1
290
     0
176
     1
290
     1
176
     1
290
     1
176
     1
290
     0
176
     1
290
     0
176
     1
290
     0
176
     1
290
     0
176
     1
290
     0
176
     1
290
     0
176
     1
 90
       50
176
     1
 40
0.0
176
     1
 40
1.0
176
     1
 90
        0
176
     1
 62
    18
420
        0
176
     1
 90
       50
176
     1
 90
        3
176
     1
 62
     5
420
      255
176
     1
290
     0
176
     1
 90
       50
176
     1
 90
       50
176
     1
 90
       50
176
     1
290
     0
176
     1
 90
       50
176
     1
 62
   256
176
     0
 40
1.0
176
     0
 90
        2
176
     1
  1
strokes_ogs.tif
176
     1
290
     0
176
     1
 40
1.0
176
     1
 40
1.0
176
     1
  0
VISUALSTYLE
  5
30
102
{ACAD_REACTORS
330
2A
102
}
330
2A
100
AcDbVisualStyle
  2
Wireframe
 70
     5
177
     3
291
     0
 70
    58
 90
        0
176
     1
 90
        2
176
     1
 90
        0
176
     1
 90
        0
176
     1
 40
0.6
176
     1
 40
30.0
176
     1
 62
     7
420
 16777215
176
     1
 90
        1
176
     1
 90
        4
176
     1
 62
     7
176
     1
 62
   257
176
     1
 90
        1
176
     1
 90
        1
176
     1
 40
1.0
176
     1
 90
        0
176
     1
 62
   257
176
     1
 40
1.0
176
     1
 90
        1
176
     1
 90
        6
176
     1
 90
        2
176
     1
 62
     7
176
     1
 90
        3
176
     1
 90
        0
176
     1
 90
        0
176
     1
290
     0
176
     1
 90
        1
176
     1
 40
0.0
176
     1
 90
        0
176
     1
290
     0
176
     1
290
     1
176
     1
290
     1
176
     1
290
     0
176
     1
290
     0
176
     1
290
     0
176
     1
290
     0
176
     1
290
     0
176
     1
290
     0
176
     1
 90
       50
176
     1
 40
0.0
176
     1
 40
1.0
176
     1
 90
        0
176
     1
 62
    18
420
        0
176
     1
 90
       50
176
     1
 90
        3
176
     1
 62
     5
420
      255
176
     1
290
     0
176
     1
 90
       50
176
     1
 90
       50
176
     1
 90
       50
176
     1
290
     0
176
     1
 90
       50
176
     1
 62
   256
176
     0
 40
1.0
176
     0
 90
        2
176
     1
  1
strokes_ogs.tif
176
     1
290
     0
176
     1
 40
1.0
176
     1
 40
1.0
176
     1
  0
VISUALSTYLE
  5
40
102
{ACAD_REACTORS
330
2A
102
}
330
2A
100
AcDbVisualStyle
  2
X-Ray
 70
    25
177
     3
291
     0
 70
    58
 90
        2
176
     1
 90
        2
176
     1
 90
        1
176
     1
 90
        1
176
     1
 40
0.5
176
     1
 40
30.0
176
     1
 62
     7
420
 16777215
176
     1
 90
        1
176
     1
 90
        0
176
     1
 62
     7
176
     1
 62
   257
176
     1
 90
        1
176
     1
 90
        1
176
     1
 40
1.0
176
     1
 90
        8
176
     1
 62
     7
176
     1
 40
1.0
176
     1
 90
        1
176
     1
 90
        6
176
     1
 90
        2
176
     1
 62
     7
176
     1
 90
        3
176
     1
 90
        0
176
     1
 90
        0
176
     1
290
     0
176
     1
 90
       13
176
     1
 40
0.0
176
     1
 90
        0
176
     1
290
     0
176
     1
290
     1
176
     1
290
     1
176
     1
290
     0
176
     1
290
     0
176
     1
290
     0
176
     1
290
     0
176
     1
290
     0
176
     1
290
     0
176
     1
 90
       50
176
     1
 40
0.0
176
     1
 40
1.0
176
     1
 90
        0
176
     1
 62
    18
420
        0
176
     1
 90
       50
176
     1
 90
        3
176
     1
 62
     5
420
      255
176
     1
290
     0
176
     1
 90
       50
176
     1
 90
       50
176
     1
 90
       50
176
     1
290
     0
176
     1
 90
       50
176
     1
 62
   256
176
     0
 40
1.0
176
     0
 90
        2
176
     1
  1
strokes_ogs.tif
176
     1
290
     0
176
     1
 40
1.0
176
     1
 40
1.0
176
     1
  0
DICTIONARYVAR
  5
16C
102
{ACAD_REACTORS
330
16B
102
}
330
16B
100
DictionaryVariables
280
     0
  1
1:1
  0
DICTIONARYVAR
  5
171
102
{ACAD_REACTORS
330
16B
102
}
330
16B
100
DictionaryVariables
280
     0
  1
Standard
  0
DICTIONARYVAR
  5
170
102
{ACAD_REACTORS
330
16B
102
}
330
16B
100
DictionaryVariables
280
     0
  1
Standard
  0
DICTIONARY
  5
16D
330
6A
100
AcDbDictionary
280
     1
281
     1
  3
ACAD_ROUNDTRIP_2008_TABLESTYLE_CELLSTYLEMAP
360
16E
  0
CELLSTYLEMAP
  5
16E
102
{ACAD_REACTORS
330
16D
102
}
330
16D
100
AcDbCellStyleMap
 90
        3
300
CELLSTYLE
  1
TABLEFORMAT_BEGIN
 90
        5
170
     1
 91
        0
 92
    32768
 62
   257
 93
        1
300
CONTENTFORMAT
  1
CONTENTFORMAT_BEGIN
 90
        0
 91
        0
 92
        4
 93
        0
300

 40
0.0
140
1.0
 94
        5
 62
     0
340
11
144
0.25
309
CONTENTFORMAT_END
171
     1
301
MARGIN
  1
CELLMARGIN_BEGIN
 40
0.06
 40
0.06
 40
0.06
 40
0.06
 40
0.06
 40
0.06
309
CELLMARGIN_END
 94
        6
 95
        1
302
GRIDFORMAT
  1
GRIDFORMAT_BEGIN
 90
        0
 91
        1
 62
     0
 92
       -2
340
14
 93
        0
 40
0.045
309
GRIDFORMAT_END
 95
        2
302
GRIDFORMAT
  1
GRIDFORMAT_BEGIN
 90
        0
 91
        1
 62
     0
 92
       -2
340
14
 93
        0
 40
0.045
309
GRIDFORMAT_END
 95
        4
302
GRIDFORMAT
  1
GRIDFORMAT_BEGIN
 90
        0
 91
        1
 62
     0
 92
       -2
340
14
 93
        0
 40
0.045
309
GRIDFORMAT_END
 95
        8
302
GRIDFORMAT
  1
GRIDFORMAT_BEGIN
 90
        0
 91
        1
 62
     0
 92
       -2
340
14
 93
        0
 40
0.045
309
GRIDFORMAT_END
 95
       16
302
GRIDFORMAT
  1
GRIDFORMAT_BEGIN
 90
        0
 91
        1
 62
     0
 92
       -2
340
14
 93
        0
 40
0.045
309
GRIDFORMAT_END
 95
       32
302
GRIDFORMAT
  1
GRIDFORMAT_BEGIN
 90
        0
 91
        1
 62
     0
 92
       -2
340
14
 93
        0
 40
0.045
309
GRIDFORMAT_END
309
TABLEFORMAT_END
  1
CELLSTYLE_BEGIN
 90
        1
 91
        1
300
_TITLE
309
CELLSTYLE_END
300
CELLSTYLE
  1
TABLEFORMAT_BEGIN
 90
        5
170
     1
 91
        0
 92
        0
 62
   257
 93
        1
300
CONTENTFORMAT
  1
CONTENTFORMAT_BEGIN
 90
        0
 91
        0
 92
        4
 93
        0
300

 40
0.0
140
1.0
 94
        5
 62
     0
340
11
144
0.18
309
CONTENTFORMAT_END
171
     1
301
MARGIN
  1
CELLMARGIN_BEGIN
 40
0.06
 40
0.06
 40
0.06
 40
0.06
 40
0.06
 40
0.06
309
CELLMARGIN_END
 94
        6
 95
        1
302
GRIDFORMAT
  1
GRIDFORMAT_BEGIN
 90
        0
 91
        1
 62
     0
 92
       -2
340
14
 93
        0
 40
0.045
309
GRIDFORMAT_END
 95
        2
302
GRIDFORMAT
  1
GRIDFORMAT_BEGIN
 90
        0
 91
        1
 62
     0
 92
       -2
340
14
 93
        0
 40
0.045
309
GRIDFORMAT_END
 95
        4
302
GRIDFORMAT
  1
GRIDFORMAT_BEGIN
 90
        0
 91
        1
 62
     0
 92
       -2
340
14
 93
        0
 40
0.045
309
GRIDFORMAT_END
 95
        8
302
GRIDFORMAT
  1
GRIDFORMAT_BEGIN
 90
        0
 91
        1
 62
     0
 92
       -2
340
14
 93
        0
 40
0.045
309
GRIDFORMAT_END
 95
       16
302
GRIDFORMAT
  1
GRIDFORMAT_BEGIN
 90
        0
 91
        1
 62
     0
 92
       -2
340
14
 93
        0
 40
0.045
309
GRIDFORMAT_END
 95
       32
302
GRIDFORMAT
  1
GRIDFORMAT_BEGIN
 90
        0
 91
        1
 62
     0
 92
       -2
340
14
 93
        0
 40
0.045
309
GRIDFORMAT_END
309
TABLEFORMAT_END
  1
CELLSTYLE_BEGIN
 90
        2
 91
        1
300
_HEADER
309
CELLSTYLE_END
300
CELLSTYLE
  1
TABLEFORMAT_BEGIN
 90
        5
170
     1
 91
        0
 92
        0
 62
   257
 93
        1
300
CONTENTFORMAT
  1
CONTENTFORMAT_BEGIN
 90
        0
 91
        0
 92
        4
 93
        0
300

 40
0.0
140
1.0
 94
        2
 62
     0
340
11
144
0.18
309
CONTENTFORMAT_END
171
     1
301
MARGIN
  1
CELLMARGIN_BEGIN
 40
0.06
 40
0.06
 40
0.06
 40
0.06
 40
0.06
 40
0.06
309
CELLMARGIN_END
 94
        6
 95
        1
302
GRIDFORMAT
  1
GRIDFORMAT_BEGIN
 90
        0
 91
        1
 62
     0
 92
       -2
340
14
 93
        0
 40
0.045
309
GRIDFORMAT_END
 95
        2
302
GRIDFORMAT
  1
GRIDFORMAT_BEGIN
 90
        0
 91
        1
 62
     0
 92
       -2
340
14
 93
        0
 40
0.045
309
GRIDFORMAT_END
 95
        4
302
GRIDFORMAT
  1
GRIDFORMAT_BEGIN
 90
        0
 91
        1
 62
     0
 92
       -2
340
14
 93
        0
 40
0.045
309
GRIDFORMAT_END
 95
        8
302
GRIDFORMAT
  1
GRIDFORMAT_BEGIN
 90
        0
 91
        1
 62
     0
 92
       -2
340
14
 93
        0
 40
0.045
309
GRIDFORMAT_END
 95
       16
302
GRIDFORMAT
  1
GRIDFORMAT_BEGIN
 90
        0
 91
        1
 62
     0
 92
       -2
340
14
 93
        0
 40
0.045
309
GRIDFORMAT_END
 95
       32
302
GRIDFORMAT
  1
GRIDFORMAT_BEGIN
 90
        0
 91
        1
 62
     0
 92
       -2
340
14
 93
        0
 40
0.045
309
GRIDFORMAT_END
309
TABLEFORMAT_END
  1
CELLSTYLE_BEGIN
 90
        3
 91
        2
300
_DATA
309
CELLSTYLE_END
  0
ENDSEC
  0
EOF