0
SECTION
  2
HEADER
  9
$ACADVER
  1
AC1027
  9
$ACADMAINTVER
 70
     8
  9
$DWGCODEPAGE
  3
ANSI_1252
  9
$REQUIREDVERSIONS
160
                 0
  9
$COMMENTS
  1
File was created by Cadenas
  9
$CUSTOMPROPERTYTAG
  1
NN
  9
$CUSTOMPROPERTY
  1
Set Screw High Backing Height Two-Bolt Pillow Block Expansion Inch Bore
  9
$CUSTOMPROPERTYTAG
  1
NT
  9
$CUSTOMPROPERTY
  1
SC Pillow Block Bearings -(Normal Duty) -Expansion
  9
$CUSTOMPROPERTYTAG
  1
NB
  9
$CUSTOMPROPERTY
  1
126406
  9
$CUSTOMPROPERTYTAG
  1
NBSYN
  9
$CUSTOMPROPERTY
  1
$PN.
  9
$CUSTOMPROPERTYTAG
  1
LINA
  9
$CUSTOMPROPERTY
  1
126406
  9
$CUSTOMPROPERTYTAG
  1
SERIES
  9
$CUSTOMPROPERTY
  1
207
  9
$CUSTOMPROPERTYTAG
  1
SS
  9
$CUSTOMPROPERTY
  1
1-7/16
  9
$CUSTOMPROPERTYTAG
  1
PN
  9
$CUSTOMPROPERTY
  1
126406
  9
$CUSTOMPROPERTYTAG
  1
DESCRIPTION
  9
$CUSTOMPROPERTY
  1
P2B-SCH-107-E
  9
$CUSTOMPROPERTYTAG
  1
WEIGHT
  9
$CUSTOMPROPERTY
  1
6.4
  9
$CUSTOMPROPERTYTAG
  1
A
  9
$CUSTOMPROPERTY
  1
1.71
  9
$CUSTOMPROPERTYTAG
  1
B
  9
$CUSTOMPROPERTY
  1
7.25
  9
$CUSTOMPROPERTYTAG
  1
C
  9
$CUSTOMPROPERTY
  1
1.93
  9
$CUSTOMPROPERTYTAG
  1
DMIN
  9
$CUSTOMPROPERTY
  1
5.18
  9
$CUSTOMPROPERTYTAG
  1
DMAX
  9
$CUSTOMPROPERTY
  1
5.88
  9
$CUSTOMPROPERTYTAG
  1
F
  9
$CUSTOMPROPERTY
  1
1/2
  9
$CUSTOMPROPERTYTAG
  1
G
  9
$CUSTOMPROPERTY
  1
0.91
  9
$CUSTOMPROPERTYTAG
  1
H
  9
$CUSTOMPROPERTY
  1
0.93
  9
$CUSTOMPROPERTYTAG
  1
J
  9
$CUSTOMPROPERTY
  1
4.19
  9
$CUSTOMPROPERTYTAG
  1
L
  9
$CUSTOMPROPERTY
  1
1.84
  9
$CUSTOMPROPERTYTAG
  1
M
  9
$CUSTOMPROPERTY
  1
2.13
  9
$CUSTOMPROPERTYTAG
  1
R
  9
$CUSTOMPROPERTY
  1
0.67
  9
$CUSTOMPROPERTYTAG
  1
S
  9
$CUSTOMPROPERTY
  1
1.04
  9
$CUSTOMPROPERTYTAG
  1
T
  9
$CUSTOMPROPERTY
  1
0.16
  9
$CUSTOMPROPERTYTAG
  1
U
  9
$CUSTOMPROPERTY
  1
3.26
  9
$CUSTOMPROPERTYTAG
  1
V
  9
$CUSTOMPROPERTY
  1
6.52
  9
$CUSTOMPROPERTYTAG
  1
W
  9
$CUSTOMPROPERTY
  1
0.69
  9
$CUSTOMPROPERTYTAG
  1
X
  9
$CUSTOMPROPERTY
  1
0.12
  9
$CUSTOMPROPERTYTAG
  1
COMPANY
  9
$CUSTOMPROPERTY
  1
baldor
  9
$INSBASE
 10
0.0
 20
0.0
 30
0.0
  9
$EXTMIN
 10
1.000000000000000E+20
 20
1.000000000000000E+20
 30
1.000000000000000E+20
  9
$EXTMAX
 10
-1.000000000000000E+20
 20
-1.000000000000000E+20
 30
-1.000000000000000E+20
  9
$LIMMIN
 10
0.0
 20
0.0
  9
$LIMMAX
 10
12.0
 20
9.0
  9
$ORTHOMODE
 70
     0
  9
$REGENMODE
 70
     1
  9
$FILLMODE
 70
     1
  9
$QTEXTMODE
 70
     0
  9
$MIRRTEXT
 70
     1
  9
$LTSCALE
 40
1.0
  9
$ATTMODE
 70
     1
  9
$TEXTSIZE
 40
0.2
  9
$TRACEWID
 40
0.05
  9
$TEXTSTYLE
  7
Standard
  9
$CLAYER
  8
0
  9
$CELTYPE
  6
ByLayer
  9
$CECOLOR
 62
   256
  9
$CELTSCALE
 40
1.0
  9
$DISPSILH
 70
     0
  9
$DIMSCALE
 40
1.0
  9
$DIMASZ
 40
0.18
  9
$DIMEXO
 40
0.0625
  9
$DIMDLI
 40
0.38
  9
$DIMRND
 40
0.0
  9
$DIMDLE
 40
0.0
  9
$DIMEXE
 40
0.18
  9
$DIMTP
 40
0.0
  9
$DIMTM
 40
0.0
  9
$DIMTXT
 40
0.18
  9
$DIMCEN
 40
0.09
  9
$DIMTSZ
 40
0.0
  9
$DIMTOL
 70
     0
  9
$DIMLIM
 70
     0
  9
$DIMTIH
 70
     1
  9
$DIMTOH
 70
     1
  9
$DIMSE1
 70
     0
  9
$DIMSE2
 70
     0
  9
$DIMTAD
 70
     0
  9
$DIMZIN
 70
     0
  9
$DIMBLK
  1

  9
$DIMASO
 70
     1
  9
$DIMSHO
 70
     1
  9
$DIMPOST
  1

  9
$DIMAPOST
  1

  9
$DIMALT
 70
     0
  9
$DIMALTD
 70
     2
  9
$DIMALTF
 40
25.4
  9
$DIMLFAC
 40
1.0
  9
$DIMTOFL
 70
     0
  9
$DIMTVP
 40
0.0
  9
$DIMTIX
 70
     0
  9
$DIMSOXD
 70
     0
  9
$DIMSAH
 70
     0
  9
$DIMBLK1
  1

  9
$DIMBLK2
  1

  9
$DIMSTYLE
  2
Standard
  9
$DIMCLRD
 70
     0
  9
$DIMCLRE
 70
     0
  9
$DIMCLRT
 70
     0
  9
$DIMTFAC
 40
1.0
  9
$DIMGAP
 40
0.09
  9
$DIMJUST
 70
     0
  9
$DIMSD1
 70
     0
  9
$DIMSD2
 70
     0
  9
$DIMTOLJ
 70
     1
  9
$DIMTZIN
 70
     0
  9
$DIMALTZ
 70
     0
  9
$DIMALTTZ
 70
     0
  9
$DIMUPT
 70
     0
  9
$DIMDEC
 70
     4
  9
$DIMTDEC
 70
     4
  9
$DIMALTU
 70
     2
  9
$DIMALTTD
 70
     2
  9
$DIMTXSTY
  7
Standard
  9
$DIMAUNIT
 70
     0
  9
$DIMADEC
 70
     0
  9
$DIMALTRND
 40
0.0
  9
$DIMAZIN
 70
     0
  9
$DIMDSEP
 70
    46
  9
$DIMATFIT
 70
     3
  9
$DIMFRAC
 70
     0
  9
$DIMLDRBLK
  1

  9
$DIMLUNIT
 70
     2
  9
$DIMLWD
 70
    -2
  9
$DIMLWE
 70
    -2
  9
$DIMTMOVE
 70
     0
  9
$DIMFXL
 40
1.0
  9
$DIMFXLON
 70
     0
  9
$DIMJOGANG
 40
0.7853981633974483
  9
$DIMTFILL
 70
     0
  9
$DIMTFILLCLR
 70
     0
  9
$DIMARCSYM
 70
     0
  9
$DIMLTYPE
  6

  9
$DIMLTEX1
  6

  9
$DIMLTEX2
  6

  9
$DIMTXTDIRECTION
 70
     0
  9
$LUNITS
 70
     2
  9
$LUPREC
 70
     4
  9
$SKETCHINC
 40
0.1
  9
$FILLETRAD
 40
0.5
  9
$AUNITS
 70
     0
  9
$AUPREC
 70
     0
  9
$MENU
  1
.
  9
$ELEVATION
 40
0.0
  9
$PELEVATION
 40
0.0
  9
$THICKNESS
 40
0.0
  9
$LIMCHECK
 70
     0
  9
$CHAMFERA
 40
0.0
  9
$CHAMFERB
 40
0.0
  9
$CHAMFERC
 40
0.0
  9
$CHAMFERD
 40
0.0
  9
$SKPOLY
 70
     0
  9
$TDCREATE
 40
2458168.991598495
  9
$TDUCREATE
 40
2458168.949931829
  9
$TDUPDATE
 40
2458168.991598681
  9
$TDUUPDATE
 40
2458168.949932014
  9
$TDINDWG
 40
0.0000000116
  9
$TDUSRTIMER
 40
0.0000000116
  9
$USRTIMER
 70
     1
  9
$ANGBASE
 50
0.0
  9
$ANGDIR
 70
     0
  9
$PDMODE
 70
     0
  9
$PDSIZE
 40
0.0
  9
$PLINEWID
 40
0.0
  9
$SPLFRAME
 70
     0
  9
$SPLINETYPE
 70
     6
  9
$SPLINESEGS
 70
     8
  9
$HANDSEED
  5
177
  9
$SURFTAB1
 70
     6
  9
$SURFTAB2
 70
     6
  9
$SURFTYPE
 70
     6
  9
$SURFU
 70
     6
  9
$SURFV
 70
     6
  9
$UCSBASE
  2

  9
$UCSNAME
  2

  9
$UCSORG
 10
0.0
 20
0.0
 30
0.0
  9
$UCSXDIR
 10
1.0
 20
0.0
 30
0.0
  9
$UCSYDIR
 10
0.0
 20
1.0
 30
0.0
  9
$UCSORTHOREF
  2

  9
$UCSORTHOVIEW
 70
     0
  9
$UCSORGTOP
 10
0.0
 20
0.0
 30
0.0
  9
$UCSORGBOTTOM
 10
0.0
 20
0.0
 30
0.0
  9
$UCSORGLEFT
 10
0.0
 20
0.0
 30
0.0
  9
$UCSORGRIGHT
 10
0.0
 20
0.0
 30
0.0
  9
$UCSORGFRONT
 10
0.0
 20
0.0
 30
0.0
  9
$UCSORGBACK
 10
0.0
 20
0.0
 30
0.0
  9
$PUCSBASE
  2

  9
$PUCSNAME
  2

  9
$PUCSORG
 10
0.0
 20
0.0
 30
0.0
  9
$PUCSXDIR
 10
1.0
 20
0.0
 30
0.0
  9
$PUCSYDIR
 10
0.0
 20
1.0
 30
0.0
  9
$PUCSORTHOREF
  2

  9
$PUCSORTHOVIEW
 70
     0
  9
$PUCSORGTOP
 10
0.0
 20
0.0
 30
0.0
  9
$PUCSORGBOTTOM
 10
0.0
 20
0.0
 30
0.0
  9
$PUCSORGLEFT
 10
0.0
 20
0.0
 30
0.0
  9
$PUCSORGRIGHT
 10
0.0
 20
0.0
 30
0.0
  9
$PUCSORGFRONT
 10
0.0
 20
0.0
 30
0.0
  9
$PUCSORGBACK
 10
0.0
 20
0.0
 30
0.0
  9
$USERI1
 70
     0
  9
$USERI2
 70
     0
  9
$USERI3
 70
     0
  9
$USERI4
 70
     0
  9
$USERI5
 70
     0
  9
$USERR1
 40
0.0
  9
$USERR2
 40
0.0
  9
$USERR3
 40
0.0
  9
$USERR4
 40
0.0
  9
$USERR5
 40
0.0
  9
$WORLDVIEW
 70
     1
  9
$SHADEDGE
 70
     3
  9
$SHADEDIF
 70
    70
  9
$TILEMODE
 70
     1
  9
$MAXACTVP
 70
    64
  9
$PINSBASE
 10
0.0
 20
0.0
 30
0.0
  9
$PLIMCHECK
 70
     0
  9
$PEXTMIN
 10
1.000000000000000E+20
 20
1.000000000000000E+20
 30
1.000000000000000E+20
  9
$PEXTMAX
 10
-1.000000000000000E+20
 20
-1.000000000000000E+20
 30
-1.000000000000000E+20
  9
$PLIMMIN
 10
0.0
 20
0.0
  9
$PLIMMAX
 10
12.0
 20
9.0
  9
$UNITMODE
 70
     0
  9
$VISRETAIN
 70
     1
  9
$PLINEGEN
 70
     0
  9
$PSLTSCALE
 70
     1
  9
$TREEDEPTH
 70
  3020
  9
$CMLSTYLE
  2
Standard
  9
$CMLJUST
 70
     0
  9
$CMLSCALE
 40
1.0
  9
$PROXYGRAPHICS
 70
     1
  9
$MEASUREMENT
 70
     0
  9
$CELWEIGHT
370
    -1
  9
$ENDCAPS
280
     0
  9
$JOINSTYLE
280
     0
  9
$LWDISPLAY
290
     0
  9
$INSUNITS
 70
     1
  9
$HYPERLINKBASE
  1

  9
$STYLESHEET
  1

  9
$XEDIT
290
     1
  9
$CEPSNTYPE
380
     0
  9
$PSTYLEMODE
290
     1
  9
$FINGERPRINTGUID
  2
{8F0B7C15-AC10-4158-83A1-5EE88D3F922A}
  9
$VERSIONGUID
  2
{FAEB1C32-E019-11D5-929B-00C0DF256EC4}
  9
$EXTNAMES
290
     1
  9
$PSVPSCALE
 40
0.0
  9
$OLESTARTUP
290
     0
  9
$SORTENTS
280
   127
  9
$INDEXCTL
280
     0
  9
$HIDETEXT
280
     1
  9
$XCLIPFRAME
280
     2
  9
$HALOGAP
280
     0
  9
$OBSCOLOR
 70
   257
  9
$OBSLTYPE
280
     0
  9
$INTERSECTIONDISPLAY
280
     0
  9
$INTERSECTIONCOLOR
 70
   257
  9
$DIMASSOC
280
     2
  9
$PROJECTNAME
  1

  9
$CAMERADISPLAY
290
     0
  9
$LENSLENGTH
 40
50.0
  9
$CAMERAHEIGHT
 40
0.0
  9
$STEPSPERSEC
 40
2.0
  9
$STEPSIZE
 40
6.0
  9
$3DDWFPREC
 40
2.0
  9
$PSOLWIDTH
 40
0.25
  9
$PSOLHEIGHT
 40
4.0
  9
$LOFTANG1
 40
1.570796326794897
  9
$LOFTANG2
 40
1.570796326794897
  9
$LOFTMAG1
 40
0.0
  9
$LOFTMAG2
 40
0.0
  9
$LOFTPARAM
 70
     7
  9
$LOFTNORMALS
280
     1
  9
$LATITUDE
 40
37.795
  9
$LONGITUDE
 40
-122.394
  9
$NORTHDIRECTION
 40
0.0
  9
$TIMEZONE
 70
 -8000
  9
$LIGHTGLYPHDISPLAY
280
     1
  9
$TILEMODELIGHTSYNCH
280
     1
  9
$CMATERIAL
347
44
  9
$SOLIDHIST
280
     0
  9
$SHOWHIST
280
     1
  9
$DWFFRAME
280
     2
  9
$DGNFRAME
280
     2
  9
$REALWORLDSCALE
290
     1
  9
$INTERFERECOLOR
 62
   256
  9
$CSHADOW
280
     0
  9
$SHADOWPLANELOCATION
 40
0.0
  0
ENDSEC
  0
SECTION
  2
CLASSES
  0
CLASS
  1
ACDBDICTIONARYWDFLT
  2
AcDbDictionaryWithDefault
  3
ObjectDBX Classes
 90
        0
 91
        4
280
     0
281
     0
  0
CLASS
  1
VISUALSTYLE
  2
AcDbVisualStyle
  3
ObjectDBX Classes
 90
     4095
 91
        4
280
     0
281
     0
  0
CLASS
  1
MATERIAL
  2
AcDbMaterial
  3
ObjectDBX Classes
 90
     1153
 91
        4
280
     0
281
     0
  0
CLASS
  1
SCALE
  2
AcDbScale
  3
ObjectDBX Classes
 90
     1153
 91
        4
280
     0
281
     0
  0
CLASS
  1
TABLESTYLE
  2
AcDbTableStyle
  3
ObjectDBX Classes
 90
     4095
 91
        4
280
     0
281
     0
  0
CLASS
  1
MLEADERSTYLE
  2
AcDbMLeaderStyle
  3
ACDB_MLEADERSTYLE_CLASS
 90
     4095
 91
        4
280
     0
281
     0
  0
CLASS
  1
SUN
  2
AcDbSun
  3
SCENEOE
 90
     1153
 91
        4
280
     0
281
     0
  0
CLASS
  1
DICTIONARYVAR
  2
AcDbDictionaryVar
  3
ObjectDBX Classes
 90
        0
 91
        4
280
     0
281
     0
  0
CLASS
  1
CELLSTYLEMAP
  2
AcDbCellStyleMap
  3
ObjectDBX Classes
 90
     1152
 91
        4
280
     0
281
     0
  0
ENDSEC
  0
SECTION
  2
TABLES
  0
TABLE
  2
VPORT
  5
8
330
0
100
AcDbSymbolTable
 70
     1
  0
VPORT
  5
29
330
8
100
AcDbSymbolTableRecord
100
AcDbViewportTableRecord
  2
*Active
 70
     0
 10
0.0
 20
0.0
 11
1.0
 21
1.0
 12
0.0
 22
-0.0353884339123347
 13
0.0
 23
0.0
 14
0.5
 24
0.5
 15
0.5
 25
0.5
 16
0.0
 26
0.0
 36
1.0
 17
0.0
 27
0.0
 37
0.0
 40
4.273007594818837
 41
1.730631138818167
 42
50.0
 43
0.0
 44
0.0
 50
0.0
 51
0.0
 71
     0
 72
   100
 73
     1
 74
     3
 75
     0
 76
     0
 77
     0
 78
     0
281
     0
 65
     1
110
0.0
120
0.0
130
0.0
111
1.0
121
0.0
131
0.0
112
0.0
122
1.0
132
0.0
 79
     0
146
0.0
348
2F
 60
     3
 61
     5
292
     1
282
     1
141
0.0
142
0.0
 63
   250
361
6D
  0
ENDTAB
  0
TABLE
  2
LTYPE
  5
5
330
0
100
AcDbSymbolTable
 70
     3
  0
LTYPE
  5
14
330
5
100
AcDbSymbolTableRecord
100
AcDbLinetypeTableRecord
  2
ByBlock
 70
     0
  3

 72
    65
 73
     0
 40
0.0
  0
LTYPE
  5
15
330
5
100
AcDbSymbolTableRecord
100
AcDbLinetypeTableRecord
  2
ByLayer
 70
     0
  3

 72
    65
 73
     0
 40
0.0
  0
LTYPE
  5
16
330
5
100
AcDbSymbolTableRecord
100
AcDbLinetypeTableRecord
  2
Continuous
 70
     0
  3
Solid line
 72
    65
 73
     0
 40
0.0
  0
LTYPE
  5
A2
330
5
100
AcDbSymbolTableRecord
100
AcDbLinetypeTableRecord
  2
Dashed
 70
     0
  3

 72
    65
 73
     2
 40
2.0
 49
1.0
 74
     0
 49
-1.0
 74
     0
  0
LTYPE
  5
102
330
5
100
AcDbSymbolTableRecord
100
AcDbLinetypeTableRecord
  2
Center
 70
     0
  3

 72
    65
 73
     4
 40
1.5
 49
0.45
 74
     0
 49
-0.5
 74
     0
 49
0.05
 74
     0
 49
-0.5
 74
     0
  0
ENDTAB
  0
TABLE
  2
LAYER
  5
2
330
0
100
AcDbSymbolTable
 70
     7
  0
LAYER
  5
10
330
2
100
AcDbSymbolTableRecord
100
AcDbLayerTableRecord
  2
0
 70
     0
 62
     7
  6
Continuous
370
    -3
390
F
347
46
348
0
  0
LAYER
  5
72
330
2
100
AcDbSymbolTableRecord
100
AcDbLayerTableRecord
  2
AM_6
 70
     0
 62
    -2
  6
Continuous
370
    35
390
F
347
46
348
0
  0
LAYER
  5
A3
330
2
100
AcDbSymbolTableRecord
100
AcDbLayerTableRecord
  2
AM_9
 70
     0
 62
     6
  6
Dashed
370
    25
390
F
347
46
348
0
  0
LAYER
  5
AA
330
2
100
AcDbSymbolTableRecord
100
AcDbLayerTableRecord
  2
AM_5
 70
     0
 62
     3
  6
Continuous
370
    25
390
F
347
46
348
0
  0
LAYER
  5
B0
330
2
100
AcDbSymbolTableRecord
100
AcDbLayerTableRecord
  2
AM_4
 70
     0
 62
     7
  6
Continuous
370
    50
390
F
347
46
348
0
  0
LAYER
  5
103
330
2
100
AcDbSymbolTableRecord
100
AcDbLayerTableRecord
  2
AM_7
 70
     0
 62
     7
  6
Center
370
    25
390
F
347
46
348
0
  0
LAYER
  5
16A
330
2
100
AcDbSymbolTableRecord
100
AcDbLayerTableRecord
  2
ConnectionPoints
 70
     0
 62
     7
  6
Continuous
370
    50
390
F
347
46
348
0
  0
ENDTAB
  0
TABLE
  2
STYLE
  5
3
330
0
100
AcDbSymbolTable
 70
     1
  0
STYLE
  5
11
330
3
100
AcDbSymbolTableRecord
100
AcDbTextStyleTableRecord
  2
Standard
 70
     0
 40
0.0
 41
1.0
 50
0.0
 71
     0
 42
0.2
  3
txt
  4

  0
ENDTAB
  0
TABLE
  2
VIEW
  5
6
330
0
100
AcDbSymbolTable
 70
     0
  0
ENDTAB
  0
TABLE
  2
UCS
  5
7
330
0
100
AcDbSymbolTable
 70
     0
  0
ENDTAB
  0
TABLE
  2
APPID
  5
9
330
0
100
AcDbSymbolTable
 70
     1
  0
APPID
  5
12
330
9
100
AcDbSymbolTableRecord
100
AcDbRegAppTableRecord
  2
ACAD
 70
     0
  0
ENDTAB
  0
TABLE
  2
DIMSTYLE
  5
A
330
0
100
AcDbSymbolTable
 70
     1
100
AcDbDimStyleTable
  0
DIMSTYLE
105
27
330
A
100
AcDbSymbolTableRecord
100
AcDbDimStyleTableRecord
  2
Standard
 70
     0
178
     0
340
11
  0
ENDTAB
  0
TABLE
  2
BLOCK_RECORD
  5
1
330
0
100
AcDbSymbolTable
 70
     5
  0
BLOCK_RECORD
  5
1F
330
1
100
AcDbSymbolTableRecord
100
AcDbBlockTableRecord
  2
*Model_Space
340
22
 70
     0
280
     1
281
     0
  0
BLOCK_RECORD
  5
1B
330
1
100
AcDbSymbolTableRecord
100
AcDbBlockTableRecord
  2
*Paper_Space
340
1E
 70
     0
280
     1
281
     0
  0
BLOCK_RECORD
  5
23
330
1
100
AcDbSymbolTableRecord
100
AcDbBlockTableRecord
  2
*Paper_Space0
340
26
 70
     0
280
     1
281
     0
  0
BLOCK_RECORD
  5
6E
330
1
100
AcDbSymbolTableRecord
100
AcDbBlockTableRecord
  2
1_126406_0
340
0
102
{BLKREFS
331
6F
102
}
 70
     0
280
     1
281
     0
  0
BLOCK_RECORD
  5
90
330
1
100
AcDbSymbolTableRecord
100
AcDbBlockTableRecord
  2
2_405020c_Inch_0_in_126406_0
340
0
102
{BLKREFS
331
91
102
}
 70
     0
280
     1
281
     0
  0
BLOCK_RECORD
  5
D8
330
1
100
AcDbSymbolTableRecord
100
AcDbBlockTableRecord
  2
3_126496_0_in_126406_0
340
0
102
{BLKREFS
331
D9
102
}
 70
     0
280
     1
281
     0
  0
BLOCK_RECORD
  5
10C
330
1
100
AcDbSymbolTableRecord
100
AcDbBlockTableRecord
  2
4_126406H_0_in_126406_0
340
0
102
{BLKREFS
331
10D
102
}
 70
     0
280
     1
281
     0
  0
ENDTAB
  0
ENDSEC
  0
SECTION
  2
BLOCKS
  0
BLOCK
  5
20
330
1F
100
AcDbEntity
  8
0
100
AcDbBlockBegin
  2
*Model_Space
 70
     0
 10
0.0
 20
0.0
 30
0.0
  3
*Model_Space
  1

  0
ENDBLK
  5
21
330
1F
100
AcDbEntity
  8
0
100
AcDbBlockEnd
  0
BLOCK
  5
1C
330
1B
100
AcDbEntity
 67
     1
  8
0
100
AcDbBlockBegin
  2
*Paper_Space
 70
     0
 10
0.0
 20
0.0
 30
0.0
  3
*Paper_Space
  1

  0
ENDBLK
  5
1D
330
1B
100
AcDbEntity
 67
     1
  8
0
100
AcDbBlockEnd
  0
BLOCK
  5
24
330
23
100
AcDbEntity
  8
0
100
AcDbBlockBegin
  2
*Paper_Space0
 70
     0
 10
0.0
 20
0.0
 30
0.0
  3
*Paper_Space0
  1

  0
ENDBLK
  5
25
330
23
100
AcDbEntity
  8
0
100
AcDbBlockEnd
  0
BLOCK
  5
70
330
6E
100
AcDbEntity
  8
0
100
AcDbBlockBegin
  2
1_126406_0
 70
     2
 10
0.0
 20
0.0
 30
0.0
  3
1_126406_0
  1

  0
ATTDEF
  5
73
330
6E
100
AcDbEntity
  8
AM_6
100
AcDbText
 10
8.625
 20
2.05922313217533
 30
0.0
 40
0.5
  1
Set Screw High Backing Height Two-Bolt Pillow Block Expansion Inch Bore
100
AcDbAttributeDefinition
  3

  2
NN
 70
     8
280
     0
  0
ATTDEF
  5
74
330
6E
100
AcDbEntity
  8
AM_6
100
AcDbText
 10
8.625
 20
1.55922313217533
 30
0.0
 40
0.5
  1
SC Pillow Block Bearings -(Normal Duty) -Expansion
100
AcDbAttributeDefinition
  3

  2
NT
 70
     8
280
     0
  0
ATTDEF
  5
75
330
6E
100
AcDbEntity
  8
AM_6
100
AcDbText
 10
8.625
 20
1.05922313217533
 30
0.0
 40
0.5
  1
126406
100
AcDbAttributeDefinition
  3

  2
NB
 70
     8
280
     0
  0
ATTDEF
  5
76
330
6E
100
AcDbEntity
  8
AM_6
100
AcDbText
 10
8.625
 20
0.5592231321753305
 30
0.0
 40
0.5
  1
$PN.
100
AcDbAttributeDefinition
  3

  2
NBSYN
 70
     8
280
     0
  0
ATTDEF
  5
77
330
6E
100
AcDbEntity
  8
AM_6
100
AcDbText
 10
8.625
 20
0.0592231321753305
 30
0.0
 40
0.5
  1
126406
100
AcDbAttributeDefinition
  3

  2
LINA
 70
     8
280
     0
  0
ATTDEF
  5
78
330
6E
100
AcDbEntity
  8
AM_6
100
AcDbText
 10
8.625
 20
-0.4407768678246695
 30
0.0
 40
0.5
  1
207
100
AcDbAttributeDefinition
  3

  2
SERIES
 70
     8
280
     0
  0
ATTDEF
  5
79
330
6E
100
AcDbEntity
  8
AM_6
100
AcDbText
 10
8.625
 20
-0.9407768678246695
 30
0.0
 40
0.5
  1
1-7/16
100
AcDbAttributeDefinition
  3

  2
SS
 70
     8
280
     0
  0
ATTDEF
  5
7A
330
6E
100
AcDbEntity
  8
AM_6
100
AcDbText
 10
8.625
 20
-1.44077686782467
 30
0.0
 40
0.5
  1
126406
100
AcDbAttributeDefinition
  3

  2
PN
 70
     8
280
     0
  0
ATTDEF
  5
7B
330
6E
100
AcDbEntity
  8
AM_6
100
AcDbText
 10
8.625
 20
-1.94077686782467
 30
0.0
 40
0.5
  1
P2B-SCH-107-E
100
AcDbAttributeDefinition
  3

  2
DESCRIPTION
 70
     8
280
     0
  0
ATTDEF
  5
7C
330
6E
100
AcDbEntity
  8
AM_6
100
AcDbText
 10
8.625
 20
-2.44077686782467
 30
0.0
 40
0.5
  1
6.4
100
AcDbAttributeDefinition
  3

  2
WEIGHT
 70
     8
280
     0
  0
ATTDEF
  5
7D
330
6E
100
AcDbEntity
  8
AM_6
100
AcDbText
 10
8.625
 20
-2.94077686782467
 30
0.0
 40
0.5
  1
1.71
100
AcDbAttributeDefinition
  3

  2
A
 70
     8
280
     0
  0
ATTDEF
  5
7E
330
6E
100
AcDbEntity
  8
AM_6
100
AcDbText
 10
8.625
 20
-3.44077686782467
 30
0.0
 40
0.5
  1
7.25
100
AcDbAttributeDefinition
  3

  2
B
 70
     8
280
     0
  0
ATTDEF
  5
7F
330
6E
100
AcDbEntity
  8
AM_6
100
AcDbText
 10
8.625
 20
-3.94077686782467
 30
0.0
 40
0.5
  1
1.93
100
AcDbAttributeDefinition
  3

  2
C
 70
     8
280
     0
  0
ATTDEF
  5
80
330
6E
100
AcDbEntity
  8
AM_6
100
AcDbText
 10
8.625
 20
-4.44077686782467
 30
0.0
 40
0.5
  1
5.18
100
AcDbAttributeDefinition
  3

  2
DMIN
 70
     8
280
     0
  0
ATTDEF
  5
81
330
6E
100
AcDbEntity
  8
AM_6
100
AcDbText
 10
8.625
 20
-4.94077686782467
 30
0.0
 40
0.5
  1
5.88
100
AcDbAttributeDefinition
  3

  2
DMAX
 70
     8
280
     0
  0
ATTDEF
  5
82
330
6E
100
AcDbEntity
  8
AM_6
100
AcDbText
 10
8.625
 20
-5.44077686782467
 30
0.0
 40
0.5
  1
1/2
100
AcDbAttributeDefinition
  3

  2
F
 70
     8
280
     0
  0
ATTDEF
  5
83
330
6E
100
AcDbEntity
  8
AM_6
100
AcDbText
 10
8.625
 20
-5.94077686782467
 30
0.0
 40
0.5
  1
0.91
100
AcDbAttributeDefinition
  3

  2
G
 70
     8
280
     0
  0
ATTDEF
  5
84
330
6E
100
AcDbEntity
  8
AM_6
100
AcDbText
 10
8.625
 20
-6.44077686782467
 30
0.0
 40
0.5
  1
0.93
100
AcDbAttributeDefinition
  3

  2
H
 70
     8
280
     0
  0
ATTDEF
  5
85
330
6E
100
AcDbEntity
  8
AM_6
100
AcDbText
 10
8.625
 20
-6.94077686782467
 30
0.0
 40
0.5
  1
4.19
100
AcDbAttributeDefinition
  3

  2
J
 70
     8
280
     0
  0
ATTDEF
  5
86
330
6E
100
AcDbEntity
  8
AM_6
100
AcDbText
 10
8.625
 20
-7.44077686782467
 30
0.0
 40
0.5
  1
1.84
100
AcDbAttributeDefinition
  3

  2
L
 70
     8
280
     0
  0
ATTDEF
  5
87
330
6E
100
AcDbEntity
  8
AM_6
100
AcDbText
 10
8.625
 20
-7.94077686782467
 30
0.0
 40
0.5
  1
2.13
100
AcDbAttributeDefinition
  3

  2
M
 70
     8
280
     0
  0
ATTDEF
  5
88
330
6E
100
AcDbEntity
  8
AM_6
100
AcDbText
 10
8.625
 20
-8.44077686782467
 30
0.0
 40
0.5
  1
0.67
100
AcDbAttributeDefinition
  3

  2
R
 70
     8
280
     0
  0
ATTDEF
  5
89
330
6E
100
AcDbEntity
  8
AM_6
100
AcDbText
 10
8.625
 20
-8.94077686782467
 30
0.0
 40
0.5
  1
1.04
100
AcDbAttributeDefinition
  3

  2
S
 70
     8
280
     0
  0
ATTDEF
  5
8A
330
6E
100
AcDbEntity
  8
AM_6
100
AcDbText
 10
8.625
 20
-9.44077686782467
 30
0.0
 40
0.5
  1
0.16
100
AcDbAttributeDefinition
  3

  2
T
 70
     8
280
     0
  0
ATTDEF
  5
8B
330
6E
100
AcDbEntity
  8
AM_6
100
AcDbText
 10
8.625
 20
-9.94077686782467
 30
0.0
 40
0.5
  1
3.26
100
AcDbAttributeDefinition
  3

  2
U
 70
     8
280
     0
  0
ATTDEF
  5
8C
330
6E
100
AcDbEntity
  8
AM_6
100
AcDbText
 10
8.625
 20
-10.44077686782467
 30
0.0
 40
0.5
  1
6.52
100
AcDbAttributeDefinition
  3

  2
V
 70
     8
280
     0
  0
ATTDEF
  5
8D
330
6E
100
AcDbEntity
  8
AM_6
100
AcDbText
 10
8.625
 20
-10.94077686782467
 30
0.0
 40
0.5
  1
0.69
100
AcDbAttributeDefinition
  3

  2
W
 70
     8
280
     0
  0
ATTDEF
  5
8E
330
6E
100
AcDbEntity
  8
AM_6
100
AcDbText
 10
8.625
 20
-11.44077686782467
 30
0.0
 40
0.5
  1
0.12
100
AcDbAttributeDefinition
  3

  2
X
 70
     8
280
     0
  0
ATTDEF
  5
8F
330
6E
100
AcDbEntity
  8
AM_6
100
AcDbText
 10
8.625
 20
-11.94077686782467
 30
0.0
 40
0.5
  1
baldor
100
AcDbAttributeDefinition
  3

  2
COMPANY
 70
     8
280
     0
  0
INSERT
  5
91
330
6E
100
AcDbEntity
  8
0
100
AcDbBlockReference
  2
2_405020c_Inch_0_in_126406_0
 10
0.0
 20
0.0
 30
0.0
  0
INSERT
  5
D9
330
6E
100
AcDbEntity
  8
0
100
AcDbBlockReference
  2
3_126496_0_in_126406_0
 10
0.0
 20
0.0
 30
0.0
  0
INSERT
  5
10D
330
6E
100
AcDbEntity
  8
0
100
AcDbBlockReference
  2
4_126406H_0_in_126406_0
 10
0.0
 20
0.0
 30
0.0
  0
ENDBLK
  5
71
330
6E
100
AcDbEntity
  8
0
100
AcDbBlockEnd
  0
BLOCK
  5
92
330
90
100
AcDbEntity
  8
0
100
AcDbBlockBegin
  2
2_405020c_Inch_0_in_126406_0
 70
     2
 10
0.0
 20
0.0
 30
0.0
  3
2_405020c_Inch_0_in_126406_0
  1

  0
ATTDEF
  5
94
330
90
100
AcDbEntity
  8
AM_6
100
AcDbText
 10
6.835749430717149
 20
1.83574943071715
 30
0.0
 40
0.5
  1
405020C -Inch
100
AcDbAttributeDefinition
  3

  2
NN
 70
     8
280
     0
  0
ATTDEF
  5
95
330
90
100
AcDbEntity
  8
AM_6
100
AcDbText
 10
6.835749430717149
 20
1.33574943071715
 30
0.0
 40
0.5
  1
Grease fitting
100
AcDbAttributeDefinition
  3

  2
NT
 70
     8
280
     0
  0
ATTDEF
  5
96
330
90
100
AcDbEntity
  8
AM_6
100
AcDbText
 10
6.835749430717149
 20
0.8357494307171496
 30
0.0
 40
0.5
  1
405020c-Inch
100
AcDbAttributeDefinition
  3

  2
NB
 70
     8
280
     0
  0
ATTDEF
  5
97
330
90
100
AcDbEntity
  8
AM_6
100
AcDbText
 10
6.835749430717149
 20
0.3357494307171496
 30
0.0
 40
0.5
  1
$MN.-Inch
100
AcDbAttributeDefinition
  3

  2
NBSYN
 70
     8
280
     0
  0
ATTDEF
  5
98
330
90
100
AcDbEntity
  8
AM_6
100
AcDbText
 10
6.835749430717149
 20
-0.1642505692828504
 30
0.0
 40
0.5
  1
405020c
100
AcDbAttributeDefinition
  3

  2
LINA
 70
     8
280
     0
  0
ATTDEF
  5
99
330
90
100
AcDbEntity
  8
AM_6
100
AcDbText
 10
6.835749430717149
 20
-0.6642505692828504
 30
0.0
 40
0.5
  1
405020c
100
AcDbAttributeDefinition
  3

  2
MN
 70
     8
280
     0
  0
ATTDEF
  5
9A
330
90
100
AcDbEntity
  8
AM_6
100
AcDbText
 10
6.835749430717149
 20
-1.16425056928285
 30
0.0
 40
0.5
  1
0.230
100
AcDbAttributeDefinition
  3

  2
NDR
 70
     8
280
     0
  0
ATTDEF
  5
9B
330
90
100
AcDbEntity
  8
AM_6
100
AcDbText
 10
6.835749430717149
 20
-1.66425056928285
 30
0.0
 40
0.5
  1
0.210
100
AcDbAttributeDefinition
  3

  2
KDR
 70
     8
280
     0
  0
ATTDEF
  5
9C
330
90
100
AcDbEntity
  8
AM_6
100
AcDbText
 10
6.835749430717149
 20
-2.16425056928285
 30
0.0
 40
0.5
  1
0.157
100
AcDbAttributeDefinition
  3

  2
BZE
 70
     8
280
     0
  0
ATTDEF
  5
9D
330
90
100
AcDbEntity
  8
AM_6
100
AcDbText
 10
6.835749430717149
 20
-2.66425056928285
 30
0.0
 40
0.5
  1
9/32
100
AcDbAttributeDefinition
  3

  2
WAF
 70
     8
280
     0
  0
ATTDEF
  5
9E
330
90
100
AcDbEntity
  8
AM_6
100
AcDbText
 10
6.835749430717149
 20
-3.16425056928285
 30
0.0
 40
0.5
  1
0.2813
100
AcDbAttributeDefinition
  3

  2
WAF1
 70
     8
280
     0
  0
ATTDEF
  5
9F
330
90
100
AcDbEntity
  8
AM_6
100
AcDbText
 10
6.835749430717149
 20
-3.66425056928285
 30
0.0
 40
0.5
  1
0.545
100
AcDbAttributeDefinition
  3

  2
BL
 70
     8
280
     0
  0
ATTDEF
  5
A0
330
90
100
AcDbEntity
  8
AM_6
100
AcDbText
 10
6.835749430717149
 20
-4.16425056928285
 30
0.0
 40
0.5
  1
0.200
100
AcDbAttributeDefinition
  3

  2
TL
 70
     8
280
     0
  0
ATTDEF
  5
A1
330
90
100
AcDbEntity
  8
AM_6
100
AcDbText
 10
6.835749430717149
 20
-4.66425056928285
 30
0.0
 40
0.5
  1
baldor
100
AcDbAttributeDefinition
  3

  2
COMPANY
 70
     8
280
     0
  0
LINE
  5
A4
330
90
100
AcDbEntity
  8
AM_9
100
AcDbLine
 10
1.456702634959012
 20
1.315155947292255
 30
0.0
 11
1.471308119116583
 21
1.315155947292255
 31
0.0
  0
LINE
  5
A5
330
90
100
AcDbEntity
  8
AM_9
100
AcDbLine
 10
1.315155947292255
 20
1.471308119116583
 30
0.0
 11
1.315155947292255
 21
1.456702634959012
 31
0.0
  0
LINE
  5
A6
330
90
100
AcDbEntity
  8
AM_9
100
AcDbLine
 10
1.456702634959012
 20
1.315155947292255
 30
0.0
 11
1.315155947292255
 21
1.456702634959012
 31
0.0
  0
LINE
  5
A7
330
90
100
AcDbEntity
  8
AM_9
100
AcDbLine
 10
1.471308119116583
 20
1.315155947292255
 30
0.0
 11
1.609618149421153
 21
1.445083145304733
 31
0.0
  0
LINE
  5
A8
330
90
100
AcDbEntity
  8
AM_9
100
AcDbLine
 10
1.445083145304733
 20
1.609618149421153
 30
0.0
 11
1.315155947292255
 21
1.471308119116583
 31
0.0
  0
LINE
  5
A9
330
90
100
AcDbEntity
  8
AM_9
100
AcDbLine
 10
1.471308119116583
 20
1.315155947292255
 30
0.0
 11
1.315155947292255
 21
1.471308119116583
 31
0.0
  0
LINE
  5
AB
330
90
100
AcDbEntity
  8
AM_5
100
AcDbLine
 10
1.589184121930609
 20
1.439607864140527
 30
0.0
 11
1.456702634959011
 21
1.315155947292255
 31
0.0
  0
LINE
  5
AC
330
90
100
AcDbEntity
  8
AM_5
100
AcDbLine
 10
1.609618149421153
 20
1.445083145304733
 30
0.0
 11
1.589184121930609
 21
1.439607864140527
 31
0.0
  0
LINE
  5
AD
330
90
100
AcDbEntity
  8
AM_5
100
AcDbLine
 10
1.432533344156425
 20
1.596258641914711
 30
0.0
 11
1.59625864191471
 21
1.432533344156426
 31
0.0
  0
LINE
  5
AE
330
90
100
AcDbEntity
  8
AM_5
100
AcDbLine
 10
1.439607864140526
 20
1.589184121930609
 30
0.0
 11
1.315155947292255
 21
1.456702634959012
 31
0.0
  0
LINE
  5
AF
330
90
100
AcDbEntity
  8
AM_5
100
AcDbLine
 10
1.445083145304732
 20
1.609618149421153
 30
0.0
 11
1.439607864140526
 21
1.589184121930609
 31
0.0
  0
LINE
  5
B1
330
90
100
AcDbEntity
  8
AM_4
100
AcDbLine
 10
1.685208764268886
 20
1.455528276053917
 30
0.0
 11
1.673945668215934
 21
1.475036530668159
 31
0.0
  0
LINE
  5
B2
330
90
100
AcDbEntity
  8
AM_4
100
AcDbLine
 10
1.475036530668158
 20
1.673945668215934
 30
0.0
 11
1.455528276053917
 21
1.685208764268886
 31
0.0
  0
LINE
  5
B3
330
90
100
AcDbEntity
  8
AM_4
100
AcDbLine
 10
1.416632982536103
 20
1.646313470751073
 30
0.0
 11
1.427896078589055
 21
1.626805216136831
 31
0.0
  0
LINE
  5
B4
330
90
100
AcDbEntity
  8
AM_4
100
AcDbLine
 10
1.62680521613683
 20
1.427896078589056
 30
0.0
 11
1.646313470751072
 21
1.416632982536103
 31
0.0
  0
LINE
  5
B5
330
90
100
AcDbEntity
  8
AM_4
100
AcDbLine
 10
1.828441254405917
 20
1.714163719338687
 30
0.0
 11
1.714163712456129
 21
1.828441261288475
 31
0.0
  0
ARC
  5
B6
330
90
100
AcDbEntity
  8
AM_4
100
AcDbCircle
 10
1.696486042926465
 20
1.810763591758811
 30
0.0
 40
0.0250000000000001
100
AcDbArc
 50
44.99999999999964
 51
112.0000000000001
  0
ARC
  5
B7
330
90
100
AcDbEntity
  8
AM_4
100
AcDbCircle
 10
1.810763591758812
 20
1.696486042926467
 30
0.0
 40
0.0249999999999987
100
AcDbArc
 50
337.9999999999976
 51
45.00000000000109
  0
ARC
  5
B8
330
90
100
AcDbEntity
  8
AM_4
100
AcDbCircle
 10
1.519330476439222
 20
1.723945668215935
 30
0.0
 40
0.0500000000000003
100
AcDbArc
 50
270.0
 51
339.9999999999999
  0
ARC
  5
B9
330
90
100
AcDbEntity
  8
AM_4
100
AcDbCircle
 10
1.723945668215934
 20
1.519330476439223
 30
0.0
 40
0.0499999999999997
100
AcDbArc
 50
109.9999999999998
 51
180.0
  0
LINE
  5
BA
330
90
100
AcDbEntity
  8
AM_4
100
AcDbLine
 10
1.70684466104965
 20
1.566315107478518
 30
0.0
 11
1.777713258457829
 21
1.59210916747929
 31
0.0
  0
LINE
  5
BB
330
90
100
AcDbEntity
  8
AM_4
100
AcDbLine
 10
1.59210916747929
 20
1.77771325845783
 30
0.0
 11
1.566315107478518
 21
1.706844661049651
 31
0.0
  0
LINE
  5
BC
330
90
100
AcDbEntity
  8
AM_4
100
AcDbLine
 10
1.70684466104965
 20
1.566315107478518
 30
0.0
 11
1.566315107478518
 21
1.706844661049651
 31
0.0
  0
LINE
  5
BD
330
90
100
AcDbEntity
  8
AM_4
100
AcDbLine
 10
1.687120878091067
 20
1.833943188122981
 30
0.0
 11
1.620363468847789
 21
1.806971444019886
 31
0.0
  0
LINE
  5
BE
330
90
100
AcDbEntity
  8
AM_4
100
AcDbLine
 10
1.806971444019885
 20
1.62036346884779
 30
0.0
 11
1.83394318812298
 21
1.687120878091068
 31
0.0
  0
LINE
  5
BF
330
90
100
AcDbEntity
  8
AM_4
100
AcDbLine
 10
1.83394318812298
 20
1.687120878091068
 30
0.0
 11
1.687120878091067
 21
1.833943188122981
 31
0.0
  0
ARC
  5
C0
330
90
100
AcDbEntity
  8
AM_4
100
AcDbCircle
 10
1.639093798518586
 20
1.760612251291546
 30
0.0
 40
0.0500000000000016
100
AcDbArc
 50
112.0000000000007
 51
159.9999999999994
  0
ARC
  5
C1
330
90
100
AcDbEntity
  8
AM_4
100
AcDbCircle
 10
1.760612251291547
 20
1.639093798518585
 30
0.0
 40
0.0499999999999991
100
AcDbArc
 50
289.9999999999994
 51
338.0000000000003
  0
LINE
  5
C2
330
90
100
AcDbEntity
  8
AM_4
100
AcDbLine
 10
1.806971444019885
 20
1.62036346884779
 30
0.0
 11
1.620363468847789
 21
1.806971444019886
 31
0.0
  0
LINE
  5
C3
330
90
100
AcDbEntity
  8
AM_4
100
AcDbLine
 10
1.777713258457829
 20
1.59210916747929
 30
0.0
 11
1.59210916747929
 21
1.77771325845783
 31
0.0
  0
LINE
  5
C4
330
90
100
AcDbEntity
  8
AM_4
100
AcDbLine
 10
1.673945668215934
 20
1.475036530668159
 30
0.0
 11
1.475036530668158
 21
1.673945668215934
 31
0.0
  0
LINE
  5
C5
330
90
100
AcDbEntity
  8
AM_4
100
AcDbLine
 10
1.519330476439222
 20
1.673945668215934
 30
0.0
 11
1.475036530668158
 21
1.673945668215934
 31
0.0
  0
LINE
  5
C6
330
90
100
AcDbEntity
  8
AM_4
100
AcDbLine
 10
1.673945668215934
 20
1.475036530668159
 30
0.0
 11
1.673945668215934
 21
1.519330476439223
 31
0.0
  0
LINE
  5
C7
330
90
100
AcDbEntity
  8
AM_4
100
AcDbLine
 10
1.673945668215934
 20
1.519330476439223
 30
0.0
 11
1.519330476439222
 21
1.673945668215934
 31
0.0
  0
LINE
  5
C8
330
90
100
AcDbEntity
  8
AM_4
100
AcDbLine
 10
1.646313470751072
 20
1.416632982536103
 30
0.0
 11
1.613480830443556
 21
1.44122046428233
 31
0.0
  0
LINE
  5
C9
330
90
100
AcDbEntity
  8
AM_4
100
AcDbLine
 10
1.685208764268886
 20
1.455528276053917
 30
0.0
 11
1.646313470751072
 21
1.416632982536103
 31
0.0
  0
LINE
  5
CA
330
90
100
AcDbEntity
  8
AM_4
100
AcDbLine
 10
1.660621282522659
 20
1.488360916361433
 30
0.0
 11
1.685208764268886
 21
1.455528276053917
 31
0.0
  0
LINE
  5
CB
330
90
100
AcDbEntity
  8
AM_4
100
AcDbLine
 10
1.627788642215144
 20
1.512948398107659
 30
0.0
 11
1.58889334869733
 21
1.474053104589846
 31
0.0
  0
LINE
  5
CC
330
90
100
AcDbEntity
  8
AM_4
100
AcDbLine
 10
1.574491099442046
 20
1.574491099442046
 30
0.0
 11
1.627788642215144
 21
1.512948398107659
 31
0.0
  0
LINE
  5
CD
330
90
100
AcDbEntity
  8
AM_4
100
AcDbLine
 10
1.627788642215144
 20
1.512948398107659
 30
0.0
 11
1.660621282522659
 21
1.488360916361433
 31
0.0
  0
LINE
  5
CE
330
90
100
AcDbEntity
  8
AM_4
100
AcDbLine
 10
1.613480830443556
 20
1.44122046428233
 30
0.0
 11
1.58889334869733
 21
1.474053104589846
 31
0.0
  0
LINE
  5
CF
330
90
100
AcDbEntity
  8
AM_4
100
AcDbLine
 10
1.58889334869733
 20
1.474053104589846
 30
0.0
 11
1.527350647362943
 21
1.527350647362943
 31
0.0
  0
LWPOLYLINE
  5
D0
330
90
100
AcDbEntity
  8
AM_4
100
AcDbPolyline
 90
        3
 70
     0
 43
0.0
 10
1.512948398107659
 20
1.627788642215144
 10
1.527939749609363
 20
1.616047732026614
 10
1.574491099442046
 20
1.574491099442046
  0
LWPOLYLINE
  5
D1
330
90
100
AcDbEntity
  8
AM_4
100
AcDbPolyline
 90
        3
 70
     0
 43
0.0
 10
1.527350647362943
 20
1.527350647362943
 10
1.485794014778375
 20
1.573901997195627
 10
1.474053104589845
 20
1.58889334869733
  0
LINE
  5
D2
330
90
100
AcDbEntity
  8
AM_4
100
AcDbLine
 10
1.455528276053917
 20
1.685208764268886
 30
0.0
 11
1.416632982536103
 21
1.646313470751073
 31
0.0
  0
LINE
  5
D3
330
90
100
AcDbEntity
  8
AM_4
100
AcDbLine
 10
1.441220464282329
 20
1.613480830443557
 30
0.0
 11
1.416632982536103
 21
1.646313470751073
 31
0.0
  0
LINE
  5
D4
330
90
100
AcDbEntity
  8
AM_4
100
AcDbLine
 10
1.474053104589845
 20
1.58889334869733
 30
0.0
 11
1.441220464282329
 21
1.613480830443557
 31
0.0
  0
LINE
  5
D5
330
90
100
AcDbEntity
  8
AM_4
100
AcDbLine
 10
1.512948398107659
 20
1.627788642215144
 30
0.0
 11
1.474053104589845
 21
1.58889334869733
 31
0.0
  0
LINE
  5
D6
330
90
100
AcDbEntity
  8
AM_4
100
AcDbLine
 10
1.488360916361432
 20
1.66062128252266
 30
0.0
 11
1.512948398107659
 21
1.627788642215144
 31
0.0
  0
LINE
  5
D7
330
90
100
AcDbEntity
  8
AM_4
100
AcDbLine
 10
1.455528276053917
 20
1.685208764268886
 30
0.0
 11
1.488360916361432
 21
1.66062128252266
 31
0.0
  0
ENDBLK
  5
93
330
90
100
AcDbEntity
  8
0
100
AcDbBlockEnd
  0
BLOCK
  5
DA
330
D8
100
AcDbEntity
  8
0
100
AcDbBlockBegin
  2
3_126496_0_in_126406_0
 70
     2
 10
0.0
 20
0.0
 30
0.0
  3
3_126496_0_in_126406_0
  1

  0
ATTDEF
  5
DC
330
D8
100
AcDbEntity
  8
AM_6
100
AcDbText
 10
6.665300000000001
 20
1.665300000000001
 30
0.0
 40
0.5
  1
Set Screw High Backing Height Medium Duty Extreme Duty Expansion Inch Bore
100
AcDbAttributeDefinition
  3

  2
NN
 70
     8
280
     0
  0
ATTDEF
  5
DD
330
D8
100
AcDbEntity
  8
AM_6
100
AcDbText
 10
6.665300000000001
 20
1.165300000000001
 30
0.0
 40
0.5
  1
SC Expansion Normal Duty Bearing Inserts
100
AcDbAttributeDefinition
  3

  2
NT
 70
     8
280
     0
  0
ATTDEF
  5
DE
330
D8
100
AcDbEntity
  8
AM_6
100
AcDbText
 10
6.665300000000001
 20
0.6653000000000011
 30
0.0
 40
0.5
  1
126496
100
AcDbAttributeDefinition
  3

  2
NB
 70
     8
280
     0
  0
ATTDEF
  5
DF
330
D8
100
AcDbEntity
  8
AM_6
100
AcDbText
 10
6.665300000000001
 20
0.1653000000000011
 30
0.0
 40
0.5
  1
$PN.
100
AcDbAttributeDefinition
  3

  2
NBSYN
 70
     8
280
     0
  0
ATTDEF
  5
E0
330
D8
100
AcDbEntity
  8
AM_6
100
AcDbText
 10
6.665300000000001
 20
-0.3346999999999989
 30
0.0
 40
0.5
  1
126496
100
AcDbAttributeDefinition
  3

  2
LINA
 70
     8
280
     0
  0
ATTDEF
  5
E1
330
D8
100
AcDbEntity
  8
AM_6
100
AcDbText
 10
6.665300000000001
 20
-0.8346999999999989
 30
0.0
 40
0.5
  1
207
100
AcDbAttributeDefinition
  3

  2
SERIES
 70
     8
280
     0
  0
ATTDEF
  5
E2
330
D8
100
AcDbEntity
  8
AM_6
100
AcDbText
 10
6.665300000000001
 20
-1.334699999999999
 30
0.0
 40
0.5
  1
1-7/16
100
AcDbAttributeDefinition
  3

  2
SS
 70
     8
280
     0
  0
ATTDEF
  5
E3
330
D8
100
AcDbEntity
  8
AM_6
100
AcDbText
 10
6.665300000000001
 20
-1.834699999999999
 30
0.0
 40
0.5
  1
126496
100
AcDbAttributeDefinition
  3

  2
PN
 70
     8
280
     0
  0
ATTDEF
  5
E4
330
D8
100
AcDbEntity
  8
AM_6
100
AcDbText
 10
6.665300000000001
 20
-2.334699999999999
 30
0.0
 40
0.5
  1
INS-SCH-107-E
100
AcDbAttributeDefinition
  3

  2
DESCRIPTION
 70
     8
280
     0
  0
ATTDEF
  5
E5
330
D8
100
AcDbEntity
  8
AM_6
100
AcDbText
 10
6.665300000000001
 20
-2.834699999999999
 30
0.0
 40
0.5
  1
1.71
100
AcDbAttributeDefinition
  3

  2
A
 70
     8
280
     0
  0
ATTDEF
  5
E6
330
D8
100
AcDbEntity
  8
AM_6
100
AcDbText
 10
6.665300000000001
 20
-3.334699999999999
 30
0.0
 40
0.5
  1
3.272
100
AcDbAttributeDefinition
  3

  2
B
 70
     8
280
     0
  0
ATTDEF
  5
E7
330
D8
100
AcDbEntity
  8
AM_6
100
AcDbText
 10
6.665300000000001
 20
-3.834699999999999
 30
0.0
 40
0.5
  1
0.75
100
AcDbAttributeDefinition
  3

  2
C
 70
     8
280
     0
  0
ATTDEF
  5
E8
330
D8
100
AcDbEntity
  8
AM_6
100
AcDbText
 10
6.665300000000001
 20
-4.334699999999999
 30
0.0
 40
0.5
  1
2.8346
100
AcDbAttributeDefinition
  3

  2
D
 70
     8
280
     0
  0
ATTDEF
  5
E9
330
D8
100
AcDbEntity
  8
AM_6
100
AcDbText
 10
6.665300000000001
 20
-4.834699999999999
 30
0.0
 40
0.5
  1
1
100
AcDbAttributeDefinition
  3

  2
E
 70
     8
280
     0
  0
ATTDEF
  5
EA
330
D8
100
AcDbEntity
  8
AM_6
100
AcDbText
 10
6.665300000000001
 20
-5.334699999999999
 30
0.0
 40
0.5
  1
0.2
100
AcDbAttributeDefinition
  3

  2
J
 70
     8
280
     0
  0
ATTDEF
  5
EB
330
D8
100
AcDbEntity
  8
AM_6
100
AcDbText
 10
6.665300000000001
 20
-5.834699999999999
 30
0.0
 40
0.5
  1
1.84
100
AcDbAttributeDefinition
  3

  2
L
 70
     8
280
     0
  0
ATTDEF
  5
EC
330
D8
100
AcDbEntity
  8
AM_6
100
AcDbText
 10
6.665300000000001
 20
-6.334699999999999
 30
0.0
 40
0.5
  1
5/16 - 24
100
AcDbAttributeDefinition
  3

  2
N
 70
     8
280
     0
  0
ATTDEF
  5
ED
330
D8
100
AcDbEntity
  8
AM_6
100
AcDbText
 10
6.665300000000001
 20
-6.834699999999999
 30
0.0
 40
0.5
  1
0.67
100
AcDbAttributeDefinition
  3

  2
W
 70
     8
280
     0
  0
ATTDEF
  5
EE
330
D8
100
AcDbEntity
  8
AM_6
100
AcDbText
 10
6.665300000000001
 20
-7.334699999999999
 30
0.0
 40
0.5
  1
1.04
100
AcDbAttributeDefinition
  3

  2
Y
 70
     8
280
     0
  0
ATTDEF
  5
EF
330
D8
100
AcDbEntity
  8
AM_6
100
AcDbText
 10
6.665300000000001
 20
-7.834699999999999
 30
0.0
 40
0.5
  1
baldor
100
AcDbAttributeDefinition
  3

  2
COMPANY
 70
     8
280
     0
  0
ARC
  5
F0
330
D8
100
AcDbEntity
  8
AM_9
100
AcDbCircle
 10
-0.0000000000087472
 20
-0.0000000000012328
 30
0.0
 40
1.635999999991168
100
AcDbArc
 50
187.690892711572
 51
188.9748658463712
  0
ARC
  5
F1
330
D8
100
AcDbEntity
  8
AM_9
100
AcDbCircle
 10
0.0000000000003164
 20
-0.0000000000000045
 30
0.0
 40
1.635999999999687
100
AcDbArc
 50
351.0251341536323
 51
352.6936939840057
  0
ARC
  5
F2
330
D8
100
AcDbEntity
  8
AM_9
100
AcDbCircle
 10
0.0000000000004914
 20
-0.0000000000000041
 30
0.0
 40
1.63599999999951
100
AcDbArc
 50
358.8783513190845
 51
3.250836789506575
  0
ARC
  5
F3
330
D8
100
AcDbEntity
  8
AM_9
100
AcDbCircle
 10
-0.0000000000013132
 20
0.0000000000000223
 30
0.0
 40
1.635999999998688
100
AcDbArc
 50
176.7491632104926
 51
179.9999991462263
  0
LINE
  5
F4
330
D8
100
AcDbEntity
  8
AM_9
100
AcDbLine
 10
0.1292
 20
0.7071117666163071
 30
0.0
 11
0.1292
 21
0.9073344012334852
 31
0.0
  0
LINE
  5
F5
330
D8
100
AcDbEntity
  8
AM_9
100
AcDbLine
 10
-0.1292
 20
0.9073344012334852
 30
0.0
 11
-0.1292
 21
0.7070423767356523
 31
0.0
  0
LINE
  5
F6
330
D8
100
AcDbEntity
  8
AM_9
100
AcDbLine
 10
0.6954631798064999
 20
0.1817433795786436
 30
0.0
 11
0.8769265127010424
 21
0.2663611213816987
 31
0.0
  0
LINE
  5
F7
330
D8
100
AcDbEntity
  8
AM_9
100
AcDbLine
 10
0.7677219538672455
 20
0.5005510535519692
 30
0.0
 11
0.5861957323835238
 21
0.4159039863181692
 31
0.0
  0
LINE
  5
F8
330
D8
100
AcDbEntity
  8
AM_9
100
AcDbLine
 10
0.7677219538672455
 20
0.500551053551969
 30
0.0
 11
0.8769265127010424
 21
0.2663611213816988
 31
0.0
  0
LINE
  5
F9
330
D8
100
AcDbEntity
  8
AM_9
100
AcDbLine
 10
0.8769265127010424
 20
0.2663611213816988
 30
0.0
 11
0.8807756804367105
 21
0.2649601388992177
 31
0.0
  0
LINE
  5
FA
330
D8
100
AcDbEntity
  8
AM_9
100
AcDbLine
 10
0.7692012222032845
 20
0.5046153099025503
 30
0.0
 11
0.7677219538672455
 21
0.5005510535519692
 31
0.0
  0
LINE
  5
FB
330
D8
100
AcDbEntity
  8
AM_9
100
AcDbLine
 10
-0.1292
 20
0.9073344012334852
 30
0.0
 11
0.1292
 21
0.9073344012334852
 31
0.0
  0
LINE
  5
FC
330
D8
100
AcDbEntity
  8
AM_9
100
AcDbLine
 10
0.1292
 20
0.9073344012334852
 30
0.0
 11
0.1321249937164112
 21
0.9102593949498965
 31
0.0
  0
LINE
  5
FD
330
D8
100
AcDbEntity
  8
AM_9
100
AcDbLine
 10
-0.1320946661195581
 20
0.9102290673530434
 30
0.0
 11
-0.1292
 21
0.9073344012334852
 31
0.0
  0
LINE
  5
FE
330
D8
100
AcDbEntity
  8
AM_5
100
AcDbLine
 10
-0.15625
 20
0.9066344012334852
 30
0.0
 11
-0.15625
 21
0.701560760020114
 31
0.0
  0
LINE
  5
FF
330
D8
100
AcDbEntity
  8
AM_5
100
AcDbLine
 10
0.15625
 20
0.9066344012334852
 30
0.0
 11
0.15625
 21
0.701560760020114
 31
0.0
  0
LINE
  5
100
330
D8
100
AcDbEntity
  8
AM_5
100
AcDbLine
 10
0.7556557144362338
 20
0.5247708464080919
 30
0.0
 11
0.5697958764885955
 21
0.4381029806296612
 31
0.0
  0
LINE
  5
101
330
D8
100
AcDbEntity
  8
AM_5
100
AcDbLine
 10
0.8877239212302025
 20
0.2415496629591388
 30
0.0
 11
0.701864083282564
 21
0.154881797180708
 31
0.0
  0
LINE
  5
104
330
D8
100
AcDbEntity
  8
AM_7
100
AcDbLine
 10
-1.665300000000001
 20
0.0
 30
0.0
 11
1.665300000000001
 21
0.0
 31
0.0
  0
LINE
  5
105
330
D8
100
AcDbEntity
  8
AM_7
100
AcDbLine
 10
0.0
 20
-1.665300000000001
 30
0.0
 11
0.0
 21
1.665300000000001
 31
0.0
  0
LINE
  5
106
330
D8
100
AcDbEntity
  8
AM_7
100
AcDbLine
 10
0.5392079390063746
 20
0.2514367912966458
 30
0.0
 11
0.9183118587124229
 21
0.4282158522921539
 31
0.0
  0
CIRCLE
  5
107
330
D8
100
AcDbEntity
  8
AM_4
100
AcDbCircle
 10
0.0
 20
0.0
 30
0.0
 40
1.586000000000001
  0
CIRCLE
  5
108
330
D8
100
AcDbEntity
  8
AM_4
100
AcDbCircle
 10
0.0
 20
0.0
 30
0.0
 40
0.8832
  0
CIRCLE
  5
109
330
D8
100
AcDbEntity
  8
AM_4
100
AcDbCircle
 10
0.0
 20
0.0
 30
0.0
 40
0.92
  0
CIRCLE
  5
10A
330
D8
100
AcDbEntity
  8
AM_4
100
AcDbCircle
 10
0.0
 20
0.0
 30
0.0
 40
0.71875
  0
CIRCLE
  5
10B
330
D8
100
AcDbEntity
  8
AM_4
100
AcDbCircle
 10
0.0
 20
0.0
 30
0.0
 40
0.7555499999999999
  0
ENDBLK
  5
DB
330
D8
100
AcDbEntity
  8
0
100
AcDbBlockEnd
  0
BLOCK
  5
10E
330
10C
100
AcDbEntity
  8
0
100
AcDbBlockBegin
  2
4_126406H_0_in_126406_0
 70
     2
 10
0.0
 20
0.0
 30
0.0
  3
4_126406H_0_in_126406_0
  1

  0
ATTDEF
  5
110
330
10C
100
AcDbEntity
  8
AM_6
100
AcDbText
 10
8.625
 20
2.05922313217533
 30
0.0
 40
0.5
  1
P2B-SCH-E -housing-Inch
100
AcDbAttributeDefinition
  3

  2
NN
 70
     8
280
     0
  0
ATTDEF
  5
111
330
10C
100
AcDbEntity
  8
AM_6
100
AcDbText
 10
8.625
 20
1.55922313217533
 30
0.0
 40
0.5
  1
SC Pillow Block Bearings -(Normal Duty) -Expansion
100
AcDbAttributeDefinition
  3

  2
NT
 70
     8
280
     0
  0
ATTDEF
  5
112
330
10C
100
AcDbEntity
  8
AM_6
100
AcDbText
 10
8.625
 20
1.05922313217533
 30
0.0
 40
0.5
  1
126406H
100
AcDbAttributeDefinition
  3

  2
NB
 70
     8
280
     0
  0
ATTDEF
  5
113
330
10C
100
AcDbEntity
  8
AM_6
100
AcDbText
 10
8.625
 20
0.5592231321753305
 30
0.0
 40
0.5
  1
$PN.H
100
AcDbAttributeDefinition
  3

  2
NBSYN
 70
     8
280
     0
  0
ATTDEF
  5
114
330
10C
100
AcDbEntity
  8
AM_6
100
AcDbText
 10
8.625
 20
0.0592231321753305
 30
0.0
 40
0.5
  1
126406
100
AcDbAttributeDefinition
  3

  2
LINA
 70
     8
280
     0
  0
ATTDEF
  5
115
330
10C
100
AcDbEntity
  8
AM_6
100
AcDbText
 10
8.625
 20
-0.4407768678246695
 30
0.0
 40
0.5
  1
207
100
AcDbAttributeDefinition
  3

  2
SERIES
 70
     8
280
     0
  0
ATTDEF
  5
116
330
10C
100
AcDbEntity
  8
AM_6
100
AcDbText
 10
8.625
 20
-0.9407768678246695
 30
0.0
 40
0.5
  1
1-7/16
100
AcDbAttributeDefinition
  3

  2
SS
 70
     8
280
     0
  0
ATTDEF
  5
117
330
10C
100
AcDbEntity
  8
AM_6
100
AcDbText
 10
8.625
 20
-1.44077686782467
 30
0.0
 40
0.5
  1
126406
100
AcDbAttributeDefinition
  3

  2
PN
 70
     8
280
     0
  0
ATTDEF
  5
118
330
10C
100
AcDbEntity
  8
AM_6
100
AcDbText
 10
8.625
 20
-1.94077686782467
 30
0.0
 40
0.5
  1
P2B-SCH-107-E
100
AcDbAttributeDefinition
  3

  2
DESCRIPTION
 70
     8
280
     0
  0
ATTDEF
  5
119
330
10C
100
AcDbEntity
  8
AM_6
100
AcDbText
 10
8.625
 20
-2.44077686782467
 30
0.0
 40
0.5
  1
6.4
100
AcDbAttributeDefinition
  3

  2
WEIGHT
 70
     8
280
     0
  0
ATTDEF
  5
11A
330
10C
100
AcDbEntity
  8
AM_6
100
AcDbText
 10
8.625
 20
-2.94077686782467
 30
0.0
 40
0.5
  1
1.71
100
AcDbAttributeDefinition
  3

  2
A
 70
     8
280
     0
  0
ATTDEF
  5
11B
330
10C
100
AcDbEntity
  8
AM_6
100
AcDbText
 10
8.625
 20
-3.44077686782467
 30
0.0
 40
0.5
  1
7.25
100
AcDbAttributeDefinition
  3

  2
B
 70
     8
280
     0
  0
ATTDEF
  5
11C
330
10C
100
AcDbEntity
  8
AM_6
100
AcDbText
 10
8.625
 20
-3.94077686782467
 30
0.0
 40
0.5
  1
1.93
100
AcDbAttributeDefinition
  3

  2
C
 70
     8
280
     0
  0
ATTDEF
  5
11D
330
10C
100
AcDbEntity
  8
AM_6
100
AcDbText
 10
8.625
 20
-4.44077686782467
 30
0.0
 40
0.5
  1
5.18
100
AcDbAttributeDefinition
  3

  2
DMIN
 70
     8
280
     0
  0
ATTDEF
  5
11E
330
10C
100
AcDbEntity
  8
AM_6
100
AcDbText
 10
8.625
 20
-4.94077686782467
 30
0.0
 40
0.5
  1
5.88
100
AcDbAttributeDefinition
  3

  2
DMAX
 70
     8
280
     0
  0
ATTDEF
  5
11F
330
10C
100
AcDbEntity
  8
AM_6
100
AcDbText
 10
8.625
 20
-5.44077686782467
 30
0.0
 40
0.5
  1
1/2
100
AcDbAttributeDefinition
  3

  2
F
 70
     8
280
     0
  0
ATTDEF
  5
120
330
10C
100
AcDbEntity
  8
AM_6
100
AcDbText
 10
8.625
 20
-5.94077686782467
 30
0.0
 40
0.5
  1
0.91
100
AcDbAttributeDefinition
  3

  2
G
 70
     8
280
     0
  0
ATTDEF
  5
121
330
10C
100
AcDbEntity
  8
AM_6
100
AcDbText
 10
8.625
 20
-6.44077686782467
 30
0.0
 40
0.5
  1
0.93
100
AcDbAttributeDefinition
  3

  2
H
 70
     8
280
     0
  0
ATTDEF
  5
122
330
10C
100
AcDbEntity
  8
AM_6
100
AcDbText
 10
8.625
 20
-6.94077686782467
 30
0.0
 40
0.5
  1
4.19
100
AcDbAttributeDefinition
  3

  2
J
 70
     8
280
     0
  0
ATTDEF
  5
123
330
10C
100
AcDbEntity
  8
AM_6
100
AcDbText
 10
8.625
 20
-7.44077686782467
 30
0.0
 40
0.5
  1
1.84
100
AcDbAttributeDefinition
  3

  2
L
 70
     8
280
     0
  0
ATTDEF
  5
124
330
10C
100
AcDbEntity
  8
AM_6
100
AcDbText
 10
8.625
 20
-7.94077686782467
 30
0.0
 40
0.5
  1
2.13
100
AcDbAttributeDefinition
  3

  2
M
 70
     8
280
     0
  0
ATTDEF
  5
125
330
10C
100
AcDbEntity
  8
AM_6
100
AcDbText
 10
8.625
 20
-8.44077686782467
 30
0.0
 40
0.5
  1
0.67
100
AcDbAttributeDefinition
  3

  2
R
 70
     8
280
     0
  0
ATTDEF
  5
126
330
10C
100
AcDbEntity
  8
AM_6
100
AcDbText
 10
8.625
 20
-8.94077686782467
 30
0.0
 40
0.5
  1
1.04
100
AcDbAttributeDefinition
  3

  2
S
 70
     8
280
     0
  0
ATTDEF
  5
127
330
10C
100
AcDbEntity
  8
AM_6
100
AcDbText
 10
8.625
 20
-9.44077686782467
 30
0.0
 40
0.5
  1
0.16
100
AcDbAttributeDefinition
  3

  2
T
 70
     8
280
     0
  0
ATTDEF
  5
128
330
10C
100
AcDbEntity
  8
AM_6
100
AcDbText
 10
8.625
 20
-9.94077686782467
 30
0.0
 40
0.5
  1
3.26
100
AcDbAttributeDefinition
  3

  2
U
 70
     8
280
     0
  0
ATTDEF
  5
129
330
10C
100
AcDbEntity
  8
AM_6
100
AcDbText
 10
8.625
 20
-10.44077686782467
 30
0.0
 40
0.5
  1
6.52
100
AcDbAttributeDefinition
  3

  2
V
 70
     8
280
     0
  0
ATTDEF
  5
12A
330
10C
100
AcDbEntity
  8
AM_6
100
AcDbText
 10
8.625
 20
-10.94077686782467
 30
0.0
 40
0.5
  1
0.69
100
AcDbAttributeDefinition
  3

  2
W
 70
     8
280
     0
  0
ATTDEF
  5
12B
330
10C
100
AcDbEntity
  8
AM_6
100
AcDbText
 10
8.625
 20
-11.44077686782467
 30
0.0
 40
0.5
  1
0.12
100
AcDbAttributeDefinition
  3

  2
X
 70
     8
280
     0
  0
ATTDEF
  5
12C
330
10C
100
AcDbEntity
  8
AM_6
100
AcDbText
 10
8.625
 20
-11.94077686782467
 30
0.0
 40
0.5
  1
3065
100
AcDbAttributeDefinition
  3

  2
CAPS
 70
     8
280
     0
  0
ATTDEF
  5
12D
330
10C
100
AcDbEntity
  8
AM_6
100
AcDbText
 10
8.625
 20
-12.44077686782467
 30
0.0
 40
0.5
  1
5759
100
AcDbAttributeDefinition
  3

  2
CAPD
 70
     8
280
     0
  0
ATTDEF
  5
12E
330
10C
100
AcDbEntity
  8
AM_6
100
AcDbText
 10
8.625
 20
-12.94077686782467
 30
0.0
 40
0.5
  1
baldor
100
AcDbAttributeDefinition
  3

  2
COMPANY
 70
     8
280
     0
  0
LINE
  5
12F
330
10C
100
AcDbEntity
  8
AM_9
100
AcDbLine
 10
-2.59
 20
-0.796109762824749
 30
0.0
 11
-2.59
 21
-2.13
 31
0.0
  0
LINE
  5
130
330
10C
100
AcDbEntity
  8
AM_9
100
AcDbLine
 10
-2.31
 20
-2.13
 30
0.0
 11
-2.31
 21
-1.2
 31
0.0
  0
LINE
  5
131
330
10C
100
AcDbEntity
  8
AM_9
100
AcDbLine
 10
-2.94
 20
-1.2
 30
0.0
 11
-2.94
 21
-2.13
 31
0.0
  0
LINE
  5
132
330
10C
100
AcDbEntity
  8
AM_9
100
AcDbLine
 10
-3.22
 20
-1.2
 30
0.0
 11
-3.22
 21
-2.13
 31
0.0
  0
LINE
  5
133
330
10C
100
AcDbEntity
  8
AM_9
100
AcDbLine
 10
2.94
 20
-1.2
 30
0.0
 11
2.94
 21
-2.13
 31
0.0
  0
LINE
  5
134
330
10C
100
AcDbEntity
  8
AM_9
100
AcDbLine
 10
3.22
 20
-2.13
 30
0.0
 11
3.22
 21
-1.2
 31
0.0
  0
LINE
  5
135
330
10C
100
AcDbEntity
  8
AM_9
100
AcDbLine
 10
2.59
 20
-0.7961097628247509
 30
0.0
 11
2.59
 21
-2.13
 31
0.0
  0
LINE
  5
136
330
10C
100
AcDbEntity
  8
AM_9
100
AcDbLine
 10
2.31
 20
-1.2
 30
0.0
 11
2.31
 21
-2.13
 31
0.0
  0
LINE
  5
137
330
10C
100
AcDbEntity
  8
AM_9
100
AcDbLine
 10
-2.09
 20
-1.2
 30
0.0
 11
-2.09
 21
0.3578623433902465
 31
0.0
  0
LINE
  5
138
330
10C
100
AcDbEntity
  8
AM_9
100
AcDbLine
 10
2.09
 20
0.3578623433902465
 30
0.0
 11
2.09
 21
-1.2
 31
0.0
  0
LINE
  5
139
330
10C
100
AcDbEntity
  8
AM_9
100
AcDbLine
 10
3.319999999999999
 20
-1.26
 30
0.0
 11
3.319999999999999
 21
-1.2
 31
0.0
  0
LINE
  5
13A
330
10C
100
AcDbEntity
  8
AM_9
100
AcDbLine
 10
3.2
 20
-1.2
 30
0.0
 11
3.2
 21
-1.26
 31
0.0
  0
LINE
  5
13B
330
10C
100
AcDbEntity
  8
AM_9
100
AcDbLine
 10
3.2
 20
-1.26
 30
0.0
 11
3.319999999999999
 21
-1.26
 31
0.0
  0
LINE
  5
13C
330
10C
100
AcDbEntity
  8
AM_9
100
AcDbLine
 10
-3.2
 20
-1.26
 30
0.0
 11
-3.2
 21
-1.2
 31
0.0
  0
LINE
  5
13D
330
10C
100
AcDbEntity
  8
AM_9
100
AcDbLine
 10
-3.319999999999999
 20
-1.2
 30
0.0
 11
-3.319999999999999
 21
-1.26
 31
0.0
  0
LINE
  5
13E
330
10C
100
AcDbEntity
  8
AM_9
100
AcDbLine
 10
-3.319999999999999
 20
-1.26
 30
0.0
 11
-3.2
 21
-1.26
 31
0.0
  0
LINE
  5
13F
330
10C
100
AcDbEntity
  8
AM_7
100
AcDbLine
 10
3.26
 20
-1.197
 30
0.0
 11
3.26
 21
-1.262999999999999
 31
0.0
  0
LINE
  5
140
330
10C
100
AcDbEntity
  8
AM_7
100
AcDbLine
 10
-3.26
 20
-1.197
 30
0.0
 11
-3.26
 21
-1.262999999999999
 31
0.0
  0
LINE
  5
141
330
10C
100
AcDbEntity
  8
AM_7
100
AcDbLine
 10
-0.269786363288515
 20
-0.269786363288515
 30
0.0
 11
1.790571146659635
 21
1.790571146659636
 31
0.0
  0
LINE
  5
142
330
10C
100
AcDbEntity
  8
AM_4
100
AcDbLine
 10
1.766738464185985
 20
1.059631682999438
 30
0.0
 11
1.810193359837562
 21
1.103086578651015
 31
0.0
  0
LINE
  5
143
330
10C
100
AcDbEntity
  8
AM_4
100
AcDbLine
 10
1.103086578651015
 20
1.810193359837562
 30
0.0
 11
1.810193359837562
 21
1.103086578651015
 31
0.0
  0
LINE
  5
144
330
10C
100
AcDbEntity
  8
AM_4
100
AcDbLine
 10
1.244507934888324
 20
1.810193359837562
 30
0.0
 11
1.810193359536937
 21
1.244507935188949
 31
0.0
  0
ARC
  5
145
330
10C
100
AcDbEntity
  8
AM_4
100
AcDbCircle
 10
1.739482681718908
 20
1.173797256769669
 30
0.0
 40
0.0999999999999993
100
AcDbArc
 50
314.9999999999998
 51
45.00000000000036
  0
ARC
  5
146
330
10C
100
AcDbEntity
  8
AM_4
100
AcDbCircle
 10
1.173797256769669
 20
1.739482681718907
 30
0.0
 40
0.1000000000000004
100
AcDbArc
 50
45.00000000000018
 51
134.9999999999995
  0
LINE
  5
147
330
10C
100
AcDbEntity
  8
AM_4
100
AcDbLine
 10
1.103086578651015
 20
1.810193359837562
 30
0.0
 11
1.059528348019181
 21
1.766635129205729
 31
0.0
  0
LINE
  5
148
330
10C
100
AcDbEntity
  8
AM_4
100
AcDbLine
 10
1.615970238095238
 20
-2.013756449398279
 30
0.0
 11
1.614875
 21
-2.01375
 31
0.0
  0
LINE
  5
149
330
10C
100
AcDbEntity
  8
AM_4
100
AcDbLine
 10
-1.614875
 20
-2.01375
 30
0.0
 11
-1.615970238095238
 21
-2.013756449398279
 31
0.0
  0
ARC
  5
14A
330
10C
100
AcDbEntity
  8
AM_4
100
AcDbCircle
 10
0.0
 20
0.0000000000000001
 30
0.0
 40
1.636
100
AcDbArc
 50
188.9748658463661
 51
351.0251341536339
  0
LINE
  5
14B
330
10C
100
AcDbEntity
  8
AM_4
100
AcDbLine
 10
1.614875
 20
-2.01375
 30
0.0
 11
-1.614875
 21
-2.01375
 31
0.0
  0
LWPOLYLINE
  5
14C
330
10C
100
AcDbEntity
  8
AM_4
100
AcDbPolyline
 90
        9
 70
     0
 43
0.0
 10
-1.707875
 20
-2.10675
 10
-1.707874603966374
 20
-2.106478592377466
 10
-1.702802566508856
 20
-2.076455725824331
 10
-1.695322843704915
 20
-2.060090965486773
 10
-1.68424161486696
 20
-2.04480427583845
 10
-1.673833677860392
 20
-2.034831960808718
 10
-1.661321491942176
 20
-2.026178768246568
 10
-1.640175418987538
 20
-2.017257604797642
 10
-1.615970238095238
 20
-2.013756449398279
  0
LINE
  5
14D
330
10C
100
AcDbEntity
  8
AM_4
100
AcDbLine
 10
-1.615970238095238
 20
-0.2552179256839537
 30
0.0
 11
-1.615970238095238
 21
-2.013756449398279
 31
0.0
  0
LWPOLYLINE
  5
14E
330
10C
100
AcDbEntity
  8
AM_4
100
AcDbPolyline
 90
        6
 70
     0
 43
0.0
 10
-1.633367418277487
 20
0.0927732553570101
 10
-1.634412991500225
 20
0.0720428567957018
 10
-1.635970469707743
 20
-0.009599167936291
 10
-1.633455091664833
 20
-0.0912165747780027
 10
-1.626779531491391
 20
-0.1734363986485344
 10
-1.615970238095238
 20
-0.2552179256839537
  0
LWPOLYLINE
  5
14F
330
10C
100
AcDbEntity
  8
AM_4
100
AcDbPolyline
 90
        9
 70
     0
 43
0.0
 10
1.615970238095238
 20
-2.013756449398279
 10
1.640175418987538
 20
-2.017257604797642
 10
1.661321491942176
 20
-2.026178768246568
 10
1.673833677860391
 20
-2.034831960808718
 10
1.68424161486696
 20
-2.04480427583845
 10
1.695322843704915
 20
-2.060090965486772
 10
1.702802566508856
 20
-2.07645572582433
 10
1.707874603966374
 20
-2.106478592377418
 10
1.707875
 20
-2.106749999999999
  0
LINE
  5
150
330
10C
100
AcDbEntity
  8
AM_4
100
AcDbLine
 10
1.615970238095238
 20
-0.2552179256839537
 30
0.0
 11
1.615970238095238
 21
-2.013756449398279
 31
0.0
  0
LWPOLYLINE
  5
151
330
10C
100
AcDbEntity
  8
AM_4
100
AcDbPolyline
 90
        5
 70
     0
 43
0.0
 10
1.615970238095238
 20
-0.2552179256839537
 10
1.627755635062263
 20
-0.1640353392505639
 10
1.634412991500225
 20
-0.0720428567957018
 10
1.635967766683128
 20
0.01026968226468
 10
1.633367418277487
 20
0.0927732553570073
  0
LINE
  5
152
330
10C
100
AcDbEntity
  8
AM_4
100
AcDbLine
 10
-1.707875
 20
-0.5169523809523776
 30
0.0
 11
-1.707875
 21
-2.129999999999999
 31
0.0
  0
LINE
  5
153
330
10C
100
AcDbEntity
  8
AM_4
100
AcDbLine
 10
-1.707875
 20
-2.129999999999999
 30
0.0
 11
-3.625
 21
-2.129999999999999
 31
0.0
  0
LWPOLYLINE
  5
154
330
10C
100
AcDbEntity
  8
AM_4
100
AcDbPolyline
 90
       19
 70
     0
 43
0.0
 10
-3.625
 20
-1.385999999999999
 10
-3.624292213845064
 20
-1.369789031848935
 10
-3.62217424206027
 20
-1.35370143895395
 10
-3.618662203689766
 20
-1.33785965761093
 10
-3.613782827466179
 20
-1.322384253341425
 10
-3.607573248388816
 20
-1.307393003316229
 10
-3.600080725103905
 20
-1.292999999999999
 10
-3.591362280237752
 20
-1.279314782838705
 10
-3.58148426642013
 20
-1.266441504598303
 10
-3.570521861300697
 20
-1.254478138699302
 10
-3.558558495401696
 20
-1.24351573357987
 10
-3.545685217161294
 20
-1.233637719762247
 10
-3.532
 20
-1.224919274896094
 10
-3.51760699668377
 20
-1.217426751611183
 10
-3.502615746658575
 20
-1.211217172533821
 10
-3.487140342389069
 20
-1.206337796310233
 10
-3.471298561046049
 20
-1.202825757939729
 10
-3.455210968151065
 20
-1.200707786154935
 10
-3.439000000000001
 20
-1.2
  0
LINE
  5
155
330
10C
100
AcDbEntity
  8
AM_4
100
AcDbLine
 10
-3.625
 20
-1.386
 30
0.0
 11
-3.625
 21
-2.129999999999999
 31
0.0
  0
LINE
  5
156
330
10C
100
AcDbEntity
  8
AM_4
100
AcDbLine
 10
-1.799779761904762
 20
-2.129999999999999
 30
0.0
 11
-1.799779761904762
 21
-1.2
 31
0.0
  0
LINE
  5
157
330
10C
100
AcDbEntity
  8
AM_4
100
AcDbLine
 10
-3.431999999999999
 20
-2.13
 30
0.0
 11
-3.432
 21
-1.199999999999999
 31
0.0
  0
LINE
  5
158
330
10C
100
AcDbEntity
  8
AM_4
100
AcDbLine
 10
1.707875
 20
-0.516952380952383
 30
0.0
 11
1.707875
 21
-2.129999999999999
 31
0.0
  0
LINE
  5
159
330
10C
100
AcDbEntity
  8
AM_4
100
AcDbLine
 10
1.799779761904762
 20
-1.2
 30
0.0
 11
3.439
 21
-1.2
 31
0.0
  0
LWPOLYLINE
  5
15A
330
10C
100
AcDbEntity
  8
AM_4
100
AcDbPolyline
 90
       15
 70
     0
 43
0.0
 10
2.887117805329118
 20
-1.2
 10
2.870906837178053
 20
-1.199292213845065
 10
2.854819244283069
 20
-1.19717424206027
 10
2.838977462940049
 20
-1.193662203689767
 10
2.823502058670544
 20
-1.188782827466179
 10
2.808510808645349
 20
-1.182573248388817
 10
2.794117805329118
 20
-1.175080725103905
 10
2.780432588167824
 20
-1.166362280237752
 10
2.767559309927422
 20
-1.15648426642013
 10
2.75559594402842
 20
-1.145521861300698
 10
2.744633538908989
 20
-1.133558495401697
 10
2.734755525091366
 20
-1.120685217161295
 10
2.726037080225213
 20
-1.107
 10
2.718544556940302
 20
-1.092606996683771
 10
2.716449514241077
 20
-1.087948187382028
  0
LINE
  5
15B
330
10C
100
AcDbEntity
  8
AM_4
100
AcDbLine
 10
1.890197202372931
 20
0.8189960538009601
 30
0.0
 11
2.716449514241077
 21
-1.087948187382028
 31
0.0
  0
LWPOLYLINE
  5
15C
330
10C
100
AcDbEntity
  8
AM_4
100
AcDbPolyline
 90
       28
 70
     0
 43
0.0
 10
-1.890197202372931
 20
0.8189960538009616
 10
-1.81162422197534
 20
0.980621067666938
 10
-1.719263687359904
 20
1.134782963092779
 10
-1.61381851796386
 20
1.280308474968798
 10
-1.496091215195849
 20
1.416090066278909
 10
-1.366977754915623
 20
1.541094357126078
 10
-1.227460768516752
 20
1.654369989377304
 10
-1.078602064508394
 20
1.755054867073456
 10
-0.921534547511393
 20
1.842382717500077
 10
-0.7574535961700574
 20
1.915688922985421
 10
-0.5876079655988815
 20
1.974415579042248
 10
-0.4132902836021077
 20
2.018115740357842
 10
-0.2358272129956257
 20
2.046456822317712
 10
-0.0565693549018825
 20
2.05922313217533
 10
0.1231190301401745
 20
2.056317510604171
 10
0.3018704050215617
 20
2.037762071138854
 10
0.4783243638464008
 20
2.00369803187779
 10
0.6511379854422212
 20
1.954384640728186
 10
0.8189960538009611
 20
1.890197202372929
 10
0.9806210676669379
 20
1.811624221975338
 10
1.134782963092779
 20
1.719263687359903
 10
1.280308474968798
 20
1.61381851796386
 10
1.41609006627891
 20
1.496091215195849
 10
1.541094357126079
 20
1.366977754915622
 10
1.654369989377304
 20
1.227460768516752
 10
1.755054867073457
 20
1.078602064508394
 10
1.842382717500078
 20
0.9215345475113937
 10
1.890197202372931
 20
0.8189960538009607
  0
LINE
  5
15D
330
10C
100
AcDbEntity
  8
AM_4
100
AcDbLine
 10
-2.716449514241078
 20
-1.087948187382028
 30
0.0
 11
-1.890197202372931
 21
0.8189960538009613
 31
0.0
  0
LWPOLYLINE
  5
15E
330
10C
100
AcDbEntity
  8
AM_4
100
AcDbPolyline
 90
       15
 70
     0
 43
0.0
 10
-2.716449514241078
 20
-1.087948187382028
 10
-2.723543967810957
 20
-1.102541513876723
 10
-2.731883317052933
 20
-1.116460985987988
 10
-2.741404094483838
 20
-1.12960066812825
 10
-2.75203384123862
 20
-1.141860559382464
 10
-2.763691658526057
 20
-1.153147354575461
 10
-2.776288823317412
 20
-1.163375154380669
 10
-2.789729463582244
 20
-1.172466119065855
 10
-2.803911287932459
 20
-1.180351060900492
 10
-2.81872636412153
 20
-1.186969970716159
 10
-2.834061940474073
 20
-1.192272474612552
 10
-2.84980130399417
 20
-1.196218217333281
 10
-2.865824668621746
 20
-1.198777169393735
 10
-2.882010086876812
 20
-1.199929855623598
 10
-2.887117801409462
 20
-1.2
  0
LINE
  5
15F
330
10C
100
AcDbEntity
  8
AM_4
100
AcDbLine
 10
-3.439
 20
-1.2
 30
0.0
 11
-1.799779761904762
 21
-1.2
 31
0.0
  0
LWPOLYLINE
  5
160
330
10C
100
AcDbEntity
  8
AM_4
100
AcDbPolyline
 90
       19
 70
     0
 43
0.0
 10
-1.799779761904761
 20
-1.199999999999995
 10
-1.791769734118905
 20
-1.197637088719822
 10
-1.783820667481086
 20
-1.190566338060909
 10
-1.775993059188196
 20
-1.178841560705207
 10
-1.768346482065783
 20
-1.162551989288007
 10
-1.760939131182878
 20
-1.141821597283706
 10
-1.753827380952381
 20
-1.116808155492809
 10
-1.747065356087737
 20
-1.087702031310875
 10
-1.740704519681189
 20
-1.054724739917685
 10
-1.73479328153857
 20
-1.018127258412977
 10
-1.729376629751446
 20
-0.9781881157291621
 10
-1.724495788310583
 20
-0.9352112728579799
 10
-1.720187903366478
 20
-0.8895238095238067
 10
-1.716485760524727
 20
-0.8414734349094602
 10
-1.713417535327771
 20
-0.7914258413793653
 10
-1.711006578822005
 20
-0.7397619213398489
 10
-1.709271239842211
 20
-0.6868748684179397
 10
-1.708224725365854
 20
-0.633167185020449
 10
-1.707875
 20
-0.5790476190476177
  0
LWPOLYLINE
  5
161
330
10C
100
AcDbEntity
  8
AM_4
100
AcDbPolyline
 90
       17
 70
     0
 43
0.0
 10
-1.633367418277487
 20
0.0927732553570102
 10
-1.641166424197818
 20
0.08020846178255
 10
-1.648773671928035
 20
0.0630989136193016
 10
-1.65613126571953
 20
0.0415748248598152
 10
-1.663183209840912
 20
0.0158000068161503
 10
-1.669875834739338
 20
-0.0140293785831199
 10
-1.676158205498213
 20
-0.0476863117036318
 10
-1.681982509482664
 20
-0.0849146429617264
 10
-1.687304420222556
 20
-0.1254310422774486
 10
-1.692083434763703
 20
-0.1689271553875349
 10
-1.696283181919799
 20
-0.2150719506075463
 10
-1.699871699079107
 20
-0.2635142381828695
 10
-1.702821675459242
 20
-0.3138853430548032
 10
-1.705110659958705
 20
-0.3658019107003674
 10
-1.706721232023328
 20
-0.4188688246916987
 10
-1.70764113422721
 20
-0.4726822137706443
 10
-1.707875
 20
-0.5169523809523775
  0
LWPOLYLINE
  5
162
330
10C
100
AcDbEntity
  8
AM_4
100
AcDbPolyline
 90
       36
 70
     0
 43
0.0
 10
1.633367418277487
 20
0.0927732553570074
 10
1.619066240146077
 20
0.2347775756311614
 10
1.592442990308231
 20
0.3749950967921863
 10
1.553700287770771
 20
0.5123586788383924
 10
1.503132987893493
 20
0.6458229019680095
 10
1.441125938361832
 20
0.7743720228551201
 10
1.368151050263604
 20
0.8970277050696916
 10
1.284763706560679
 20
1.012856464808546
 10
1.191598535289292
 20
1.120976775270752
 10
1.089364579657485
 20
1.220565775608865
 10
0.978839901798168
 20
1.310865533396829
 10
0.860865661246474
 20
1.391188812953393
 10
0.7363397132077962
 20
1.460924305620609
 10
0.6062097753375324
 20
1.519541282191839
 10
0.4714662150374795
 20
1.566593632081477
 10
0.3331345121619073
 20
1.601723258495876
 10
0.1922674544966649
 20
1.624662803766176
 10
0.0499371254084398
 20
1.635237684101593
 10
-0.0927732553570044
 20
1.633367418277487
 10
-0.2347775756311585
 20
1.619066240146077
 10
-0.3749950967921833
 20
1.592442990308231
 10
-0.5123586788383897
 20
1.553700287770772
 10
-0.645822901968007
 20
1.503132987893494
 10
-0.7743720228551176
 20
1.441125938361833
 10
-0.8970277050696895
 20
1.368151050263605
 10
-1.012856464808544
 20
1.284763706560681
 10
-1.12097677527075
 20
1.191598535289294
 10
-1.220565775608863
 20
1.089364579657487
 10
-1.310865533396828
 20
0.97883990179817
 10
-1.391188812953392
 20
0.8608656612464765
 10
-1.460924305620609
 20
0.736339713207799
 10
-1.519541282191838
 20
0.606209775337535
 10
-1.566593632081476
 20
0.4714662150374823
 10
-1.601723258495876
 20
0.3331345121619102
 10
-1.624662803766176
 20
0.1922674544966679
 10
-1.633367418277487
 20
0.092773255357011
  0
LWPOLYLINE
  5
163
330
10C
100
AcDbEntity
  8
AM_4
100
AcDbPolyline
 90
       17
 70
     0
 43
0.0
 10
1.707875
 20
-0.5169523809523832
 10
1.707525274634146
 20
-0.4628328149795515
 10
1.706478760157788
 20
-0.4091251315820606
 10
1.704743421177995
 20
-0.3562380786601511
 10
1.702332464672228
 20
-0.3045741586206345
 10
1.699264239475273
 20
-0.2545265650905392
 10
1.695562096633522
 20
-0.2064761904761926
 10
1.691254211689416
 20
-0.1607887271420191
 10
1.686373370248553
 20
-0.1178118842708366
 10
1.68095671846143
 20
-0.077872741587022
 10
1.67504548031881
 20
-0.0412752600823127
 10
1.668684643912262
 20
-0.0082979686891231
 10
1.661922619047619
 20
0.0208081554928115
 10
1.654810868817121
 20
0.0458215972837086
 10
1.647403517934216
 20
0.06655198928801
 10
1.639756940811803
 20
0.0828415607052104
 10
1.633367418277487
 20
0.0927732553570074
  0
LINE
  5
164
330
10C
100
AcDbEntity
  8
AM_4
100
AcDbLine
 10
1.799779761904762
 20
-2.129999999999999
 30
0.0
 11
1.799779761904762
 21
-1.2
 31
0.0
  0
LWPOLYLINE
  5
165
330
10C
100
AcDbEntity
  8
AM_4
100
AcDbPolyline
 90
       19
 70
     0
 43
0.0
 10
1.707875
 20
-0.5790476190476129
 10
1.708224725365854
 20
-0.6331671850204444
 10
1.709271239842211
 20
-0.6868748684179352
 10
1.711006578822004
 20
-0.7397619213398448
 10
1.713417535327771
 20
-0.7914258413793614
 10
1.716485760524726
 20
-0.8414734349094568
 10
1.720187903366477
 20
-0.8895238095238037
 10
1.724495788310582
 20
-0.9352112728579776
 10
1.729376629751445
 20
-0.9781881157291603
 10
1.734793281538568
 20
-1.018127258412975
 10
1.740704519681188
 20
-1.054724739917685
 10
1.747065356087736
 20
-1.087702031310875
 10
1.753827380952379
 20
-1.11680815549281
 10
1.760939131182877
 20
-1.141821597283708
 10
1.768346482065782
 20
-1.16255198928801
 10
1.775993059188195
 20
-1.178841560705211
 10
1.783820667481085
 20
-1.190566338060914
 10
1.791769734118904
 20
-1.197637088719828
 10
1.79977976190476
 20
-1.200000000000002
  0
LINE
  5
166
330
10C
100
AcDbEntity
  8
AM_4
100
AcDbLine
 10
3.625
 20
-1.385999999999999
 30
0.0
 11
3.625
 21
-2.129999999999999
 31
0.0
  0
LWPOLYLINE
  5
167
330
10C
100
AcDbEntity
  8
AM_4
100
AcDbPolyline
 90
       19
 70
     0
 43
0.0
 10
3.439
 20
-1.2
 10
3.455210968151065
 20
-1.200707786154935
 10
3.471298561046049
 20
-1.202825757939729
 10
3.487140342389069
 20
-1.206337796310233
 10
3.502615746658575
 20
-1.211217172533821
 10
3.51760699668377
 20
-1.217426751611183
 10
3.532
 20
-1.224919274896094
 10
3.545685217161294
 20
-1.233637719762247
 10
3.558558495401696
 20
-1.24351573357987
 10
3.570521861300697
 20
-1.254478138699302
 10
3.58148426642013
 20
-1.266441504598303
 10
3.591362280237752
 20
-1.279314782838705
 10
3.600080725103906
 20
-1.292999999999999
 10
3.607573248388817
 20
-1.307393003316229
 10
3.613782827466179
 20
-1.322384253341425
 10
3.618662203689766
 20
-1.33785965761093
 10
3.62217424206027
 20
-1.35370143895395
 10
3.624292213845064
 20
-1.369789031848935
 10
3.625
 20
-1.385999999999999
  0
LINE
  5
168
330
10C
100
AcDbEntity
  8
AM_4
100
AcDbLine
 10
3.432000000000001
 20
-1.2
 30
0.0
 11
3.432
 21
-2.129999999999999
 31
0.0
  0
LINE
  5
169
330
10C
100
AcDbEntity
  8
AM_4
100
AcDbLine
 10
3.625
 20
-2.129999999999999
 30
0.0
 11
1.707875
 21
-2.129999999999999
 31
0.0
  0
ENDBLK
  5
10F
330
10C
100
AcDbEntity
  8
0
100
AcDbBlockEnd
  0
ENDSEC
  0
SECTION
  2
ENTITIES
  0
INSERT
  5
6F
330
1F
100
AcDbEntity
  8
0
100
AcDbBlockReference
  2
1_126406_0
 10
0.0
 20
0.0
 30
0.0
  0
POINT
  5
16B
330
1F
100
AcDbEntity
  8
ConnectionPoints
100
AcDbPoint
 10
0.0
 20
0.0
 30
1.04
  0
POINT
  5
16C
330
1F
100
AcDbEntity
  8
ConnectionPoints
100
AcDbPoint
 10
1.527350647362943
 20
1.527350647362943
 30
0.0
  0
POINT
  5
16D
330
1F
100
AcDbEntity
  8
ConnectionPoints
100
AcDbPoint
 10
0.0
 20
0.0
 30
1.04
  0
ENDSEC
  0
SECTION
  2
OBJECTS
  0
DICTIONARY
  5
C
330
0
100
AcDbDictionary
281
     1
  3
ACAD_DETAILVIEWSTYLE
350
175
  3
ACAD_GROUP
350
D
  3
ACAD_LAYOUT
350
1A
  3
ACAD_MATERIAL
350
43
  3
ACAD_MLEADERSTYLE
350
6B
  3
ACAD_MLINESTYLE
350
17
  3
ACAD_PLOTSETTINGS
350
19
  3
ACAD_PLOTSTYLENAME
350
E
  3
ACAD_SCALELIST
350
47
  3
ACAD_SECTIONVIEWSTYLE
350
176
  3
ACAD_TABLESTYLE
350
69
  3
ACAD_VISUALSTYLE
350
2A
  3
ACDB_RECOMPOSE_DATA
350
172
  3
AcDbVariableDictionary
350
16E
  0
SUN
  5
6D
330
29
100
AcDbSun
 90
        1
290
     0
 63
     7
421
 16777215
 40
1.0
291
     1
 91
  2455826
 92
 54000000
292
     0
 70
     2
 71
   256
280
     1
  0
DICTIONARY
  5
175
102
{ACAD_REACTORS
330
C
102
}
330
C
100
AcDbDictionary
281
     1
  0
DICTIONARY
  5
D
102
{ACAD_REACTORS
330
C
102
}
330
C
100
AcDbDictionary
281
     1
  0
DICTIONARY
  5
1A
102
{ACAD_REACTORS
330
C
102
}
330
C
100
AcDbDictionary
281
     1
  3
Layout1
350
1E
  3
Layout2
350
26
  3
Model
350
22
  0
DICTIONARY
  5
43
102
{ACAD_REACTORS
330
C
102
}
330
C
100
AcDbDictionary
281
     1
  3
ByBlock
350
45
  3
ByLayer
350
44
  3
Global
350
46
  0
DICTIONARY
  5
6B
102
{ACAD_REACTORS
330
C
102
}
330
C
100
AcDbDictionary
281
     1
  3
Standard
350
6C
  0
DICTIONARY
  5
17
102
{ACAD_REACTORS
330
C
102
}
330
C
100
AcDbDictionary
281
     1
  3
Standard
350
18
  0
DICTIONARY
  5
19
102
{ACAD_REACTORS
330
C
102
}
330
C
100
AcDbDictionary
281
     1
  0
ACDBDICTIONARYWDFLT
  5
E
102
{ACAD_REACTORS
330
C
102
}
330
C
100
AcDbDictionary
281
     1
  3
Normal
350
F
100
AcDbDictionaryWithDefault
340
F
  0
DICTIONARY
  5
47
102
{ACAD_REACTORS
330
C
102
}
330
C
100
AcDbDictionary
281
     1
  3
A0
350
48
  3
A1
350
49
  3
A2
350
4A
  3
A3
350
4B
  3
A4
350
4C
  3
A5
350
4D
  3
A6
350
4E
  3
A7
350
4F
  3
A8
350
50
  3
A9
350
51
  3
B0
350
52
  3
B1
350
53
  3
B2
350
54
  3
B3
350
55
  3
B4
350
56
  3
B5
350
57
  3
B6
350
58
  3
B7
350
59
  3
B8
350
5A
  3
B9
350
5B
  3
C0
350
5C
  3
C1
350
5D
  3
C2
350
5E
  3
C3
350
5F
  3
C4
350
60
  3
C5
350
61
  3
C6
350
62
  3
C7
350
63
  3
C8
350
64
  3
C9
350
65
  3
D0
350
66
  3
D1
350
67
  3
D2
350
68
  0
DICTIONARY
  5
176
102
{ACAD_REACTORS
330
C
102
}
330
C
100
AcDbDictionary
281
     1
  0
DICTIONARY
  5
69
102
{ACAD_REACTORS
330
C
102
}
330
C
100
AcDbDictionary
281
     1
  3
Standard
350
6A
  0
DICTIONARY
  5
2A
102
{ACAD_REACTORS
330
C
102
}
330
C
100
AcDbDictionary
281
     1
  3
2dWireframe
350
2F
  3
Basic
350
32
  3
Brighten
350
36
  3
ColorChange
350
3A
  3
Conceptual
350
34
  3
Dim
350
35
  3
EdgeColorOff
350
3D
  3
Facepattern
350
39
  3
Flat
350
2B
  3
FlatWithEdges
350
2C
  3
Gouraud
350
2D
  3
GouraudWithEdges
350
2E
  3
Hidden
350
31
  3
JitterOff
350
3B
  3
Linepattern
350
38
  3
OverhangOff
350
3C
  3
Realistic
350
33
  3
Shaded
350
42
  3
Shaded with edges
350
41
  3
Shades of Gray
350
3E
  3
Sketchy
350
3F
  3
Thicken
350
37
  3
Wireframe
350
30
  3
X-Ray
350
40
  0
XRECORD
  5
172
102
{ACAD_REACTORS
330
C
102
}
330
C
100
AcDbXrecord
280
     1
 90
        1
330
6A
  0
DICTIONARY
  5
16E
102
{ACAD_REACTORS
330
C
102
}
330
C
100
AcDbDictionary
281
     1
  3
CANNOSCALE
350
16F
  3
CMLEADERSTYLE
350
174
  3
CTABLESTYLE
350
173
  0
LAYOUT
  5
1E
102
{ACAD_REACTORS
330
1A
102
}
330
1A
100
AcDbPlotSettings
  1

  2
none_device
  4

  6

 40
0.0
 41
0.0
 42
0.0
 43
0.0
 44
0.0
 45
0.0
 46
0.0
 47
0.0
 48
0.0
 49
0.0
140
0.0
141
0.0
142
1.0
143
1.0
 70
   688
 72
     0
 73
     0
 74
     5
  7

 75
    16
 76
     0
 77
     2
 78
   300
147
1.0
148
0.0
149
0.0
100
AcDbLayout
  1
Layout1
 70
     1
 71
     1
 10
0.0
 20
0.0
 11
12.0
 21
9.0
 12
0.0
 22
0.0
 32
0.0
 14
1.000000000000000E+20
 24
1.000000000000000E+20
 34
1.000000000000000E+20
 15
-1.000000000000000E+20
 25
-1.000000000000000E+20
 35
-1.000000000000000E+20
146
0.0
 13
0.0
 23
0.0
 33
0.0
 16
1.0
 26
0.0
 36
0.0
 17
0.0
 27
1.0
 37
0.0
 76
     0
330
1B
  0
LAYOUT
  5
26
102
{ACAD_REACTORS
330
1A
102
}
330
1A
100
AcDbPlotSettings
  1

  2
none_device
  4

  6

 40
0.0
 41
0.0
 42
0.0
 43
0.0
 44
0.0
 45
0.0
 46
0.0
 47
0.0
 48
0.0
 49
0.0
140
0.0
141
0.0
142
1.0
143
1.0
 70
   688
 72
     0
 73
     0
 74
     5
  7

 75
    16
 76
     0
 77
     2
 78
   300
147
1.0
148
0.0
149
0.0
100
AcDbLayout
  1
Layout2
 70
     1
 71
     2
 10
0.0
 20
0.0
 11
0.0
 21
0.0
 12
0.0
 22
0.0
 32
0.0
 14
0.0
 24
0.0
 34
0.0
 15
0.0
 25
0.0
 35
0.0
146
0.0
 13
0.0
 23
0.0
 33
0.0
 16
1.0
 26
0.0
 36
0.0
 17
0.0
 27
1.0
 37
0.0
 76
     0
330
23
  0
LAYOUT
  5
22
102
{ACAD_REACTORS
330
1A
102
}
330
1A
100
AcDbPlotSettings
  1

  2
none_device
  4
Letter_(8.50_x_11.00_Inches)
  6

 40
6.35
 41
6.35
 42
6.35000508
 43
6.35000508
 44
215.9
 45
279.4
 46
0.0
 47
0.0
 48
0.0
 49
0.0
140
0.0
141
0.0
142
1.0
143
1.0
 70
  1712
 72
     0
 73
     0
 74
     0
  7

 75
     0
 76
     0
 77
     2
 78
   300
147
1.0
148
0.0
149
0.0
100
AcDbLayout
  1
Model
 70
     1
 71
     0
 10
0.0
 20
0.0
 11
12.0
 21
9.0
 12
0.0
 22
0.0
 32
0.0
 14
1.000000000000000E+20
 24
1.000000000000000E+20
 34
1.000000000000000E+20
 15
-1.000000000000000E+20
 25
-1.000000000000000E+20
 35
-1.000000000000000E+20
146
0.0
 13
0.0
 23
0.0
 33
0.0
 16
1.0
 26
0.0
 36
0.0
 17
0.0
 27
1.0
 37
0.0
 76
     0
330
1F
331
29
  0
MATERIAL
  5
45
102
{ACAD_REACTORS
330
43
102
}
330
43
100
AcDbMaterial
  1
ByBlock
 72
     1
 94
      127
  0
MATERIAL
  5
44
102
{ACAD_REACTORS
330
43
102
}
330
43
100
AcDbMaterial
  1
ByLayer
 72
     1
 94
      127
  0
MATERIAL
  5
46
102
{ACAD_REACTORS
330
43
102
}
330
43
100
AcDbMaterial
  1
Global
 72
     1
 94
      127
  0
MLEADERSTYLE
  5
6C
102
{ACAD_REACTORS
330
6B
102
}
330
6B
100
AcDbMLeaderStyle
179
     2
170
     2
171
     1
172
     0
 90
        2
 40
0.0
 41
0.0
173
     1
 91
-1056964608
340
14
 92
       -2
290
     1
 42
0.09
291
     1
 43
0.36
  3
Standard
341
0
 44
0.18
300

342
11
174
     1
178
     6
175
     1
176
     0
 93
-1056964608
 45
0.18
292
     0
297
     0
 46
0.18
343
0
 94
-1056964608
 47
1.0
 49
1.0
140
1.0
293
     1
141
0.0
294
     1
177
     0
142
1.0
295
     0
296
     0
143
0.125
271
     0
272
     9
273
     9
298
     0
  0
MLINESTYLE
  5
18
102
{ACAD_REACTORS
330
17
102
}
330
17
100
AcDbMlineStyle
  2
Standard
 70
     0
  3

 62
   256
 51
90.0
 52
90.0
 71
     2
 49
0.5
 62
   256
  6
BYLAYER
 49
-0.5
 62
   256
  6
BYLAYER
  0
ACDBPLACEHOLDER
  5
F
102
{ACAD_REACTORS
330
E
102
}
330
E
  0
SCALE
  5
48
102
{ACAD_REACTORS
330
47
102
}
330
47
100
AcDbScale
 70
     0
300
1:1
140
1.0
141
1.0
290
     1
  0
SCALE
  5
49
102
{ACAD_REACTORS
330
47
102
}
330
47
100
AcDbScale
 70
     0
300
1:2
140
1.0
141
2.0
290
     0
  0
SCALE
  5
4A
102
{ACAD_REACTORS
330
47
102
}
330
47
100
AcDbScale
 70
     0
300
1:4
140
1.0
141
4.0
290
     0
  0
SCALE
  5
4B
102
{ACAD_REACTORS
330
47
102
}
330
47
100
AcDbScale
 70
     0
300
1:5
140
1.0
141
5.0
290
     0
  0
SCALE
  5
4C
102
{ACAD_REACTORS
330
47
102
}
330
47
100
AcDbScale
 70
     0
300
1:8
140
1.0
141
8.0
290
     0
  0
SCALE
  5
4D
102
{ACAD_REACTORS
330
47
102
}
330
47
100
AcDbScale
 70
     0
300
1:10
140
1.0
141
10.0
290
     0
  0
SCALE
  5
4E
102
{ACAD_REACTORS
330
47
102
}
330
47
100
AcDbScale
 70
     0
300
1:16
140
1.0
141
16.0
290
     0
  0
SCALE
  5
4F
102
{ACAD_REACTORS
330
47
102
}
330
47
100
AcDbScale
 70
     0
300
1:20
140
1.0
141
20.0
290
     0
  0
SCALE
  5
50
102
{ACAD_REACTORS
330
47
102
}
330
47
100
AcDbScale
 70
     0
300
1:30
140
1.0
141
30.0
290
     0
  0
SCALE
  5
51
102
{ACAD_REACTORS
330
47
102
}
330
47
100
AcDbScale
 70
     0
300
1:40
140
1.0
141
40.0
290
     0
  0
SCALE
  5
52
102
{ACAD_REACTORS
330
47
102
}
330
47
100
AcDbScale
 70
     0
300
1:50
140
1.0
141
50.0
290
     0
  0
SCALE
  5
53
102
{ACAD_REACTORS
330
47
102
}
330
47
100
AcDbScale
 70
     0
300
1:100
140
1.0
141
100.0
290
     0
  0
SCALE
  5
54
102
{ACAD_REACTORS
330
47
102
}
330
47
100
AcDbScale
 70
     0
300
2:1
140
2.0
141
1.0
290
     0
  0
SCALE
  5
55
102
{ACAD_REACTORS
330
47
102
}
330
47
100
AcDbScale
 70
     0
300
4:1
140
4.0
141
1.0
290
     0
  0
SCALE
  5
56
102
{ACAD_REACTORS
330
47
102
}
330
47
100
AcDbScale
 70
     0
300
8:1
140
8.0
141
1.0
290
     0
  0
SCALE
  5
57
102
{ACAD_REACTORS
330
47
102
}
330
47
100
AcDbScale
 70
     0
300
10:1
140
10.0
141
1.0
290
     0
  0
SCALE
  5
58
102
{ACAD_REACTORS
330
47
102
}
330
47
100
AcDbScale
 70
     0
300
100:1
140
100.0
141
1.0
290
     0
  0
SCALE
  5
59
102
{ACAD_REACTORS
330
47
102
}
330
47
100
AcDbScale
 70
     0
300
1/128" = 1'-0"
140
0.0078125
141
12.0
290
     0
  0
SCALE
  5
5A
102
{ACAD_REACTORS
330
47
102
}
330
47
100
AcDbScale
 70
     0
300
1/64" = 1'-0"
140
0.015625
141
12.0
290
     0
  0
SCALE
  5
5B
102
{ACAD_REACTORS
330
47
102
}
330
47
100
AcDbScale
 70
     0
300
1/32" = 1'-0"
140
0.03125
141
12.0
290
     0
  0
SCALE
  5
5C
102
{ACAD_REACTORS
330
47
102
}
330
47
100
AcDbScale
 70
     0
300
1/16" = 1'-0"
140
0.0625
141
12.0
290
     0
  0
SCALE
  5
5D
102
{ACAD_REACTORS
330
47
102
}
330
47
100
AcDbScale
 70
     0
300
3/32" = 1'-0"
140
0.09375
141
12.0
290
     0
  0
SCALE
  5
5E
102
{ACAD_REACTORS
330
47
102
}
330
47
100
AcDbScale
 70
     0
300
1/8" = 1'-0"
140
0.125
141
12.0
290
     0
  0
SCALE
  5
5F
102
{ACAD_REACTORS
330
47
102
}
330
47
100
AcDbScale
 70
     0
300
3/16" = 1'-0"
140
0.1875
141
12.0
290
     0
  0
SCALE
  5
60
102
{ACAD_REACTORS
330
47
102
}
330
47
100
AcDbScale
 70
     0
300
1/4" = 1'-0"
140
0.25
141
12.0
290
     0
  0
SCALE
  5
61
102
{ACAD_REACTORS
330
47
102
}
330
47
100
AcDbScale
 70
     0
300
3/8" = 1'-0"
140
0.375
141
12.0
290
     0
  0
SCALE
  5
62
102
{ACAD_REACTORS
330
47
102
}
330
47
100
AcDbScale
 70
     0
300
1/2" = 1'-0"
140
0.5
141
12.0
290
     0
  0
SCALE
  5
63
102
{ACAD_REACTORS
330
47
102
}
330
47
100
AcDbScale
 70
     0
300
3/4" = 1'-0"
140
0.75
141
12.0
290
     0
  0
SCALE
  5
64
102
{ACAD_REACTORS
330
47
102
}
330
47
100
AcDbScale
 70
     0
300
1" = 1'-0"
140
1.0
141
12.0
290
     0
  0
SCALE
  5
65
102
{ACAD_REACTORS
330
47
102
}
330
47
100
AcDbScale
 70
     0
300
1-1/2" = 1'-0"
140
1.5
141
12.0
290
     0
  0
SCALE
  5
66
102
{ACAD_REACTORS
330
47
102
}
330
47
100
AcDbScale
 70
     0
300
3" = 1'-0"
140
3.0
141
12.0
290
     0
  0
SCALE
  5
67
102
{ACAD_REACTORS
330
47
102
}
330
47
100
AcDbScale
 70
     0
300
6" = 1'-0"
140
6.0
141
12.0
290
     0
  0
SCALE
  5
68
102
{ACAD_REACTORS
330
47
102
}
330
47
100
AcDbScale
 70
     0
300
1'-0" = 1'-0"
140
12.0
141
12.0
290
     0
  0
TABLESTYLE
  5
6A
102
{ACAD_REACTORS
330
69
102
}
102
{ACAD_XDICTIONARY
360
170
102
}
330
69
100
AcDbTableStyle
  3
Standard
 70
     0
 71
     0
 40
0.06
 41
0.06
280
     0
281
     0
  7
Standard
140
0.18
170
     2
 62
     0
 63
   257
283
     0
 90
        4
 91
        0
  1

274
    -2
284
     1
 64
     0
275
    -2
285
     1
 65
     0
276
    -2
286
     1
 66
     0
277
    -2
287
     1
 67
     0
278
    -2
288
     1
 68
     0
279
    -2
289
     1
 69
     0
  7
Standard
140
0.25
170
     5
 62
     0
 63
   257
283
     0
 90
        4
 91
        0
  1

274
    -2
284
     1
 64
     0
275
    -2
285
     1
 65
     0
276
    -2
286
     1
 66
     0
277
    -2
287
     1
 67
     0
278
    -2
288
     1
 68
     0
279
    -2
289
     1
 69
     0
  7
Standard
140
0.18
170
     5
 62
     0
 63
   257
283
     0
 90
        4
 91
        0
  1

274
    -2
284
     1
 64
     0
275
    -2
285
     1
 65
     0
276
    -2
286
     1
 66
     0
277
    -2
287
     1
 67
     0
278
    -2
288
     1
 68
     0
279
    -2
289
     1
 69
     0
  0
VISUALSTYLE
  5
2F
102
{ACAD_REACTORS
330
2A
102
}
330
2A
100
AcDbVisualStyle
  2
2dWireframe
 70
     4
177
     3
291
     0
 70
    58
 90
        0
176
     1
 90
        2
176
     1
 90
        0
176
     1
 90
        0
176
     1
 40
0.6
176
     1
 40
30.0
176
     1
 62
     7
420
 16777215
176
     1
 90
        1
176
     1
 90
        4
176
     1
 62
     7
176
     1
 62
   257
176
     1
 90
        1
176
     1
 90
        1
176
     1
 40
1.0
176
     1
 90
        0
176
     1
 62
   257
176
     1
 40
1.0
176
     1
 90
        1
176
     1
 90
        6
176
     1
 90
        2
176
     1
 62
     7
176
     1
 90
        5
176
     1
 90
        0
176
     1
 90
        0
176
     1
290
     0
176
     1
 90
        1
176
     1
 40
0.0
176
     1
 90
        0
176
     1
290
     1
176
     1
290
     1
176
     1
290
     0
176
     1
290
     0
176
     1
290
     0
176
     1
290
     0
176
     1
290
     0
176
     1
290
     0
176
     1
290
     0
176
     1
 90
       50
176
     1
 40
0.0
176
     1
 40
1.0
176
     1
 90
        0
176
     1
 62
    18
420
        0
176
     1
 90
       50
176
     1
 90
        3
176
     1
 62
     5
420
      255
176
     1
290
     0
176
     1
 90
       50
176
     1
 90
       50
176
     1
 90
       50
176
     1
290
     0
176
     1
 90
       50
176
     1
 62
   256
176
     0
 40
1.0
176
     0
 90
        2
176
     1
  1
strokes_ogs.tif
176
     1
290
     0
176
     1
 40
1.0
176
     1
 40
1.0
176
     1
  0
VISUALSTYLE
  5
32
102
{ACAD_REACTORS
330
2A
102
}
330
2A
100
AcDbVisualStyle
  2
Basic
 70
     7
177
     3
291
     1
 70
    58
 90
        1
176
     1
 90
        0
176
     1
 90
        1
176
     1
 90
        0
176
     1
 40
0.6
176
     1
 40
30.0
176
     1
 62
     7
420
 16777215
176
     1
 90
        0
176
     1
 90
        4
176
     1
 62
     7
176
     1
 62
   257
176
     1
 90
        1
176
     1
 90
        1
176
     1
 40
1.0
176
     1
 90
        8
176
     1
 62
     7
176
     1
 40
1.0
176
     1
 90
        1
176
     1
 90
        6
176
     1
 90
        2
176
     1
 62
     7
176
     1
 90
        5
176
     1
 90
        0
176
     1
 90
        0
176
     1
290
     0
176
     1
 90
        1
176
     1
 40
0.0
176
     1
 90
        0
176
     1
290
     0
176
     1
290
     1
176
     1
290
     1
176
     1
290
     0
176
     1
290
     0
176
     1
290
     0
176
     1
290
     0
176
     1
290
     0
176
     1
290
     0
176
     1
 90
       50
176
     1
 40
0.0
176
     1
 40
1.0
176
     1
 90
        0
176
     1
 62
    18
420
        0
176
     1
 90
       50
176
     1
 90
        3
176
     1
 62
     5
420
      255
176
     1
290
     0
176
     1
 90
       50
176
     1
 90
       50
176
     1
 90
       50
176
     1
290
     0
176
     1
 90
       50
176
     1
 62
   256
176
     0
 40
1.0
176
     0
 90
        2
176
     1
  1
strokes_ogs.tif
176
     1
290
     0
176
     1
 40
1.0
176
     1
 40
1.0
176
     1
  0
VISUALSTYLE
  5
36
102
{ACAD_REACTORS
330
2A
102
}
330
2A
100
AcDbVisualStyle
  2
Brighten
 70
    12
177
     3
291
     1
 70
    58
 90
        2
176
     1
 90
        2
176
     1
 90
        0
176
     1
 90
        0
176
     1
 40
0.6
176
     1
 40
30.0
176
     1
 62
     7
420
 16777215
176
     1
 90
        1
176
     1
 90
        4
176
     1
 62
     7
176
     1
 62
   257
176
     1
 90
        1
176
     1
 90
        1
176
     1
 40
1.0
176
     1
 90
        8
176
     1
 62
     7
176
     1
 40
1.0
176
     1
 90
        1
176
     1
 90
        6
176
     1
 90
        2
176
     1
 62
     7
176
     1
 90
        5
176
     1
 90
        0
176
     1
 90
        0
176
     1
290
     0
176
     1
 90
        1
176
     1
 40
50.0
176
     1
 90
        0
176
     1
290
     0
176
     1
290
     1
176
     1
290
     1
176
     1
290
     0
176
     1
290
     0
176
     1
290
     0
176
     1
290
     0
176
     1
290
     0
176
     1
290
     0
176
     1
 90
       50
176
     1
 40
0.0
176
     1
 40
1.0
176
     1
 90
        0
176
     1
 62
    18
420
        0
176
     1
 90
       50
176
     1
 90
        3
176
     1
 62
     5
420
      255
176
     1
290
     0
176
     1
 90
       50
176
     1
 90
       50
176
     1
 90
       50
176
     1
290
     0
176
     1
 90
       50
176
     1
 62
   256
176
     0
 40
1.0
176
     0
 90
        2
176
     1
  1
strokes_ogs.tif
176
     1
290
     0
176
     1
 40
1.0
176
     1
 40
1.0
176
     1
  0
VISUALSTYLE
  5
3A
102
{ACAD_REACTORS
330
2A
102
}
330
2A
100
AcDbVisualStyle
  2
ColorChange
 70
    16
177
     3
291
     1
 70
    58
 90
        2
176
     1
 90
        2
176
     1
 90
        3
176
     1
 90
        0
176
     1
 40
0.6
176
     1
 40
30.0
176
     1
 62
     8
420
  8421504
176
     1
 90
        1
176
     1
 90
        4
176
     1
 62
     7
176
     1
 62
   257
176
     1
 90
        1
176
     1
 90
        1
176
     1
 40
1.0
176
     1
 90
        8
176
     1
 62
     8
420
  8421504
176
     1
 40
1.0
176
     1
 90
        1
176
     1
 90
        6
176
     1
 90
        2
176
     1
 62
     7
176
     1
 90
        5
176
     1
 90
        0
176
     1
 90
        0
176
     1
290
     0
176
     1
 90
        1
176
     1
 40
0.0
176
     1
 90
        0
176
     1
290
     0
176
     1
290
     1
176
     1
290
     1
176
     1
290
     0
176
     1
290
     0
176
     1
290
     0
176
     1
290
     0
176
     1
290
     0
176
     1
290
     0
176
     1
 90
       50
176
     1
 40
0.0
176
     1
 40
1.0
176
     1
 90
        0
176
     1
 62
    18
420
        0
176
     1
 90
       50
176
     1
 90
        3
176
     1
 62
     5
420
      255
176
     1
290
     0
176
     1
 90
       50
176
     1
 90
       50
176
     1
 90
       50
176
     1
290
     0
176
     1
 90
       50
176
     1
 62
   256
176
     0
 40
1.0
176
     0
 90
        2
176
     1
  1
strokes_ogs.tif
176
     1
290
     0
176
     1
 40
1.0
176
     1
 40
1.0
176
     1
  0
VISUALSTYLE
  5
34
102
{ACAD_REACTORS
330
2A
102
}
330
2A
100
AcDbVisualStyle
  2
Conceptual
 70
     9
177
     3
291
     0
 70
    58
 90
        3
176
     1
 90
        2
176
     1
 90
        0
176
     1
 90
        0
176
     1
 40
0.6
176
     1
 40
30.0
176
     1
 62
     7
420
 16777215
176
     1
 90
        2
176
     1
 90
        2
176
     1
 62
     7
176
     1
 62
   257
176
     1
 90
        1
176
     1
 90
        1
176
     1
 40
179.0
176
     1
 90
        8
176
     1
 62
     7
176
     1
 40
1.0
176
     1
 90
        1
176
     1
 90
        6
176
     1
 90
        2
176
     1
 62
     7
176
     1
 90
        3
176
     1
 90
        0
176
     1
 90
        0
176
     1
290
     0
176
     1
 90
        1
176
     1
 40
0.0
176
     1
 90
        0
176
     1
290
     0
176
     1
290
     1
176
     1
290
     1
176
     1
290
     0
176
     1
290
     0
176
     1
290
     0
176
     1
290
     0
176
     1
290
     0
176
     1
290
     0
176
     1
 90
       50
176
     1
 40
0.0
176
     1
 40
1.0
176
     1
 90
        0
176
     1
 62
    18
420
        0
176
     1
 90
       50
176
     1
 90
        3
176
     1
 62
     5
420
      255
176
     1
290
     0
176
     1
 90
       50
176
     1
 90
       50
176
     1
 90
       50
176
     1
290
     0
176
     1
 90
       50
176
     1
 62
   256
176
     0
 40
1.0
176
     0
 90
        2
176
     1
  1
strokes_ogs.tif
176
     1
290
     0
176
     1
 40
1.0
176
     1
 40
1.0
176
     1
  0
VISUALSTYLE
  5
35
102
{ACAD_REACTORS
330
2A
102
}
330
2A
100
AcDbVisualStyle
  2
Dim
 70
    11
177
     3
291
     1
 70
    58
 90
        2
176
     1
 90
        2
176
     1
 90
        0
176
     1
 90
        0
176
     1
 40
0.6
176
     1
 40
30.0
176
     1
 62
     7
420
 16777215
176
     1
 90
        1
176
     1
 90
        4
176
     1
 62
     7
176
     1
 62
   257
176
     1
 90
        1
176
     1
 90
        1
176
     1
 40
1.0
176
     1
 90
        8
176
     1
 62
     7
176
     1
 40
1.0
176
     1
 90
        1
176
     1
 90
        6
176
     1
 90
        2
176
     1
 62
     7
176
     1
 90
        5
176
     1
 90
        0
176
     1
 90
        0
176
     1
290
     0
176
     1
 90
        1
176
     1
 40
-50.0
176
     1
 90
        0
176
     1
290
     0
176
     1
290
     1
176
     1
290
     1
176
     1
290
     0
176
     1
290
     0
176
     1
290
     0
176
     1
290
     0
176
     1
290
     0
176
     1
290
     0
176
     1
 90
       50
176
     1
 40
0.0
176
     1
 40
1.0
176
     1
 90
        0
176
     1
 62
    18
420
        0
176
     1
 90
       50
176
     1
 90
        3
176
     1
 62
     5
420
      255
176
     1
290
     0
176
     1
 90
       50
176
     1
 90
       50
176
     1
 90
       50
176
     1
290
     0
176
     1
 90
       50
176
     1
 62
   256
176
     0
 40
1.0
176
     0
 90
        2
176
     1
  1
strokes_ogs.tif
176
     1
290
     0
176
     1
 40
1.0
176
     1
 40
1.0
176
     1
  0
VISUALSTYLE
  5
3D
102
{ACAD_REACTORS
330
2A
102
}
330
2A
100
AcDbVisualStyle
  2
EdgeColorOff
 70
    22
177
     3
291
     1
 70
    58
 90
        2
176
     0
 90
        2
176
     0
 90
        0
176
     0
 90
        0
176
     0
 40
0.6
176
     0
 40
30.0
176
     0
 62
     7
420
 16777215
176
     0
 90
        1
176
     0
 90
        4
176
     0
 62
     7
176
     0
 62
   257
176
     0
 90
        1
176
     0
 90
        1
176
     0
 40
1.0
176
     0
 90
        8
176
     2
 62
     7
176
     0
 40
1.0
176
     0
 90
        1
176
     0
 90
        6
176
     0
 90
        2
176
     0
 62
     7
176
     0
 90
        5
176
     0
 90
        0
176
     0
 90
        0
176
     0
290
     0
176
     0
 90
        1
176
     0
 40
0.0
176
     0
 90
        0
176
     0
290
     0
176
     0
290
     1
176
     0
290
     1
176
     0
290
     0
176
     0
290
     0
176
     0
290
     0
176
     0
290
     0
176
     0
290
     0
176
     0
290
     0
176
     0
 90
       50
176
     0
 40
0.0
176
     0
 40
1.0
176
     0
 90
        0
176
     0
 62
    18
420
        0
176
     0
 90
       50
176
     0
 90
        3
176
     0
 62
     5
420
      255
176
     0
290
     0
176
     0
 90
       50
176
     0
 90
       50
176
     0
 90
       50
176
     0
290
     0
176
     0
 90
       50
176
     0
 62
   256
176
     0
 40
1.0
176
     0
 90
        2
176
     0
  1
strokes_ogs.tif
176
     0
290
     0
176
     0
 40
1.0
176
     0
 40
1.0
176
     0
  0
VISUALSTYLE
  5
39
102
{ACAD_REACTORS
330
2A
102
}
330
2A
100
AcDbVisualStyle
  2
Facepattern
 70
    15
177
     3
291
     1
 70
    58
 90
        2
176
     1
 90
        2
176
     1
 90
        0
176
     1
 90
        0
176
     1
 40
0.6
176
     1
 40
30.0
176
     1
 62
     7
420
 16777215
176
     1
 90
        1
176
     1
 90
        4
176
     1
 62
     7
176
     1
 62
   257
176
     1
 90
        1
176
     1
 90
        1
176
     1
 40
1.0
176
     1
 90
        8
176
     1
 62
     7
176
     1
 40
1.0
176
     1
 90
        1
176
     1
 90
        6
176
     1
 90
        2
176
     1
 62
     7
176
     1
 90
        5
176
     1
 90
        0
176
     1
 90
        0
176
     1
290
     0
176
     1
 90
        1
176
     1
 40
0.0
176
     1
 90
        0
176
     1
290
     0
176
     1
290
     1
176
     1
290
     1
176
     1
290
     0
176
     1
290
     0
176
     1
290
     0
176
     1
290
     0
176
     1
290
     0
176
     1
290
     0
176
     1
 90
       50
176
     1
 40
0.0
176
     1
 40
1.0
176
     1
 90
        0
176
     1
 62
    18
420
        0
176
     1
 90
       50
176
     1
 90
        3
176
     1
 62
     5
420
      255
176
     1
290
     0
176
     1
 90
       50
176
     1
 90
       50
176
     1
 90
       50
176
     1
290
     0
176
     1
 90
       50
176
     1
 62
   256
176
     0
 40
1.0
176
     0
 90
        2
176
     1
  1
strokes_ogs.tif
176
     1
290
     0
176
     1
 40
1.0
176
     1
 40
1.0
176
     1
  0
VISUALSTYLE
  5
2B
102
{ACAD_REACTORS
330
2A
102
}
330
2A
100
AcDbVisualStyle
  2
Flat
 70
     0
177
     3
291
     1
 70
    58
 90
        2
176
     1
 90
        1
176
     1
 90
        1
176
     1
 90
        2
176
     1
 40
0.6
176
     1
 40
30.0
176
     1
 62
     7
420
 16777215
176
     1
 90
        0
176
     1
 90
        0
176
     1
 62
     7
176
     1
 62
   257
176
     1
 90
        1
176
     1
 90
        1
176
     1
 40
1.0
176
     1
 90
        8
176
     1
 62
     7
176
     1
 40
1.0
176
     1
 90
        1
176
     1
 90
        6
176
     1
 90
        2
176
     1
 62
     7
176
     1
 90
        5
176
     1
 90
        0
176
     1
 90
        0
176
     1
290
     0
176
     1
 90
       13
176
     1
 40
0.0
176
     1
 90
        0
176
     1
290
     0
176
     1
290
     1
176
     1
290
     1
176
     1
290
     0
176
     1
290
     0
176
     1
290
     0
176
     1
290
     0
176
     1
290
     0
176
     1
290
     0
176
     1
 90
       50
176
     1
 40
0.0
176
     1
 40
1.0
176
     1
 90
        0
176
     1
 62
    18
420
        0
176
     1
 90
       50
176
     1
 90
        3
176
     1
 62
     5
420
      255
176
     1
290
     0
176
     1
 90
       50
176
     1
 90
       50
176
     1
 90
       50
176
     1
290
     0
176
     1
 90
       50
176
     1
 62
   256
176
     0
 40
1.0
176
     0
 90
        2
176
     1
  1
strokes_ogs.tif
176
     1
290
     0
176
     1
 40
1.0
176
     1
 40
1.0
176
     1
  0
VISUALSTYLE
  5
2C
102
{ACAD_REACTORS
330
2A
102
}
330
2A
100
AcDbVisualStyle
  2
FlatWithEdges
 70
     1
177
     3
291
     1
 70
    58
 90
        2
176
     1
 90
        1
176
     1
 90
        1
176
     1
 90
        2
176
     1
 40
0.6
176
     1
 40
30.0
176
     1
 62
     7
420
 16777215
176
     1
 90
        1
176
     1
 90
        0
176
     1
 62
     7
176
     1
 62
   257
176
     1
 90
        1
176
     1
 90
        1
176
     1
 40
1.0
176
     1
 90
        0
176
     1
 62
   257
176
     1
 40
1.0
176
     1
 90
        1
176
     1
 90
        6
176
     1
 90
        2
176
     1
 62
     7
176
     1
 90
        5
176
     1
 90
        0
176
     1
 90
        0
176
     1
290
     0
176
     1
 90
       13
176
     1
 40
0.0
176
     1
 90
        0
176
     1
290
     0
176
     1
290
     1
176
     1
290
     1
176
     1
290
     0
176
     1
290
     0
176
     1
290
     0
176
     1
290
     0
176
     1
290
     0
176
     1
290
     0
176
     1
 90
       50
176
     1
 40
0.0
176
     1
 40
1.0
176
     1
 90
        0
176
     1
 62
    18
420
        0
176
     1
 90
       50
176
     1
 90
        3
176
     1
 62
     5
420
      255
176
     1
290
     0
176
     1
 90
       50
176
     1
 90
       50
176
     1
 90
       50
176
     1
290
     0
176
     1
 90
       50
176
     1
 62
   256
176
     0
 40
1.0
176
     0
 90
        2
176
     1
  1
strokes_ogs.tif
176
     1
290
     0
176
     1
 40
1.0
176
     1
 40
1.0
176
     1
  0
VISUALSTYLE
  5
2D
102
{ACAD_REACTORS
330
2A
102
}
330
2A
100
AcDbVisualStyle
  2
Gouraud
 70
     2
177
     3
291
     1
 70
    58
 90
        2
176
     1
 90
        2
176
     1
 90
        1
176
     1
 90
        2
176
     1
 40
0.6
176
     1
 40
30.0
176
     1
 62
     7
420
 16777215
176
     1
 90
        0
176
     1
 90
        0
176
     1
 62
     7
176
     1
 62
   257
176
     1
 90
        1
176
     1
 90
        1
176
     1
 40
1.0
176
     1
 90
        0
176
     1
 62
     7
176
     1
 40
1.0
176
     1
 90
        1
176
     1
 90
        6
176
     1
 90
        2
176
     1
 62
     7
176
     1
 90
        5
176
     1
 90
        0
176
     1
 90
        0
176
     1
290
     0
176
     1
 90
       13
176
     1
 40
0.0
176
     1
 90
        0
176
     1
290
     0
176
     1
290
     1
176
     1
290
     1
176
     1
290
     0
176
     1
290
     0
176
     1
290
     0
176
     1
290
     0
176
     1
290
     0
176
     1
290
     0
176
     1
 90
       50
176
     1
 40
0.0
176
     1
 40
1.0
176
     1
 90
        0
176
     1
 62
    18
420
        0
176
     1
 90
       50
176
     1
 90
        3
176
     1
 62
     5
420
      255
176
     1
290
     0
176
     1
 90
       50
176
     1
 90
       50
176
     1
 90
       50
176
     1
290
     0
176
     1
 90
       50
176
     1
 62
   256
176
     0
 40
1.0
176
     0
 90
        2
176
     1
  1
strokes_ogs.tif
176
     1
290
     0
176
     1
 40
1.0
176
     1
 40
1.0
176
     1
  0
VISUALSTYLE
  5
2E
102
{ACAD_REACTORS
330
2A
102
}
330
2A
100
AcDbVisualStyle
  2
GouraudWithEdges
 70
     3
177
     3
291
     1
 70
    58
 90
        2
176
     1
 90
        2
176
     1
 90
        1
176
     1
 90
        2
176
     1
 40
0.6
176
     1
 40
30.0
176
     1
 62
     7
420
 16777215
176
     1
 90
        1
176
     1
 90
        0
176
     1
 62
     7
176
     1
 62
   257
176
     1
 90
        1
176
     1
 90
        1
176
     1
 40
1.0
176
     1
 90
        0
176
     1
 62
   257
176
     1
 40
1.0
176
     1
 90
        1
176
     1
 90
        6
176
     1
 90
        2
176
     1
 62
     7
176
     1
 90
        5
176
     1
 90
        0
176
     1
 90
        0
176
     1
290
     0
176
     1
 90
       13
176
     1
 40
0.0
176
     1
 90
        0
176
     1
290
     0
176
     1
290
     1
176
     1
290
     1
176
     1
290
     0
176
     1
290
     0
176
     1
290
     0
176
     1
290
     0
176
     1
290
     0
176
     1
290
     0
176
     1
 90
       50
176
     1
 40
0.0
176
     1
 40
1.0
176
     1
 90
        0
176
     1
 62
    18
420
        0
176
     1
 90
       50
176
     1
 90
        3
176
     1
 62
     5
420
      255
176
     1
290
     0
176
     1
 90
       50
176
     1
 90
       50
176
     1
 90
       50
176
     1
290
     0
176
     1
 90
       50
176
     1
 62
   256
176
     0
 40
1.0
176
     0
 90
        2
176
     1
  1
strokes_ogs.tif
176
     1
290
     0
176
     1
 40
1.0
176
     1
 40
1.0
176
     1
  0
VISUALSTYLE
  5
31
102
{ACAD_REACTORS
330
2A
102
}
330
2A
100
AcDbVisualStyle
  2
Hidden
 70
     6
177
     3
291
     0
 70
    58
 90
        1
176
     1
 90
        2
176
     1
 90
        2
176
     1
 90
        0
176
     1
 40
0.6
176
     1
 40
30.0
176
     1
 62
     7
420
 16777215
176
     1
 90
        2
176
     1
 90
        2
176
     1
 62
     7
176
     1
 62
   257
176
     1
 90
        2
176
     1
 90
        1
176
     1
 40
40.0
176
     1
 90
        0
176
     1
 62
   257
176
     1
 40
1.0
176
     1
 90
        1
176
     1
 90
        6
176
     1
 90
        2
176
     1
 62
     7
176
     1
 90
        3
176
     1
 90
        0
176
     1
 90
        0
176
     1
290
     0
176
     1
 90
        1
176
     1
 40
0.0
176
     1
 90
        0
176
     1
290
     0
176
     1
290
     1
176
     1
290
     1
176
     1
290
     0
176
     1
290
     0
176
     1
290
     0
176
     1
290
     0
176
     1
290
     0
176
     1
290
     0
176
     1
 90
       50
176
     1
 40
0.0
176
     1
 40
1.0
176
     1
 90
        0
176
     1
 62
    18
420
        0
176
     1
 90
       50
176
     1
 90
        3
176
     1
 62
     5
420
      255
176
     1
290
     0
176
     1
 90
       50
176
     1
 90
       50
176
     1
 90
       50
176
     1
290
     0
176
     1
 90
       50
176
     1
 62
   256
176
     0
 40
1.0
176
     0
 90
        2
176
     1
  1
strokes_ogs.tif
176
     1
290
     0
176
     1
 40
1.0
176
     1
 40
1.0
176
     1
  0
VISUALSTYLE
  5
3B
102
{ACAD_REACTORS
330
2A
102
}
330
2A
100
AcDbVisualStyle
  2
JitterOff
 70
    20
177
     3
291
     1
 70
    58
 90
        2
176
     0
 90
        2
176
     0
 90
        0
176
     0
 90
        0
176
     0
 40
0.6
176
     0
 40
30.0
176
     0
 62
     7
420
 16777215
176
     0
 90
        1
176
     0
 90
        4
176
     0
 62
     7
176
     0
 62
   257
176
     0
 90
        1
176
     0
 90
        1
176
     0
 40
1.0
176
     0
 90
       10
176
     2
 62
     7
176
     0
 40
1.0
176
     0
 90
        1
176
     0
 90
        6
176
     0
 90
        2
176
     0
 62
     7
176
     0
 90
        5
176
     0
 90
        0
176
     0
 90
        0
176
     0
290
     0
176
     0
 90
        1
176
     0
 40
0.0
176
     0
 90
        0
176
     0
290
     0
176
     0
290
     1
176
     0
290
     1
176
     0
290
     0
176
     0
290
     0
176
     0
290
     0
176
     0
290
     0
176
     0
290
     0
176
     0
290
     0
176
     0
 90
       50
176
     0
 40
0.0
176
     0
 40
1.0
176
     0
 90
        0
176
     0
 62
    18
420
        0
176
     0
 90
       50
176
     0
 90
        3
176
     0
 62
     5
420
      255
176
     0
290
     0
176
     0
 90
       50
176
     0
 90
       50
176
     0
 90
       50
176
     0
290
     0
176
     0
 90
       50
176
     0
 62
   256
176
     0
 40
1.0
176
     0
 90
        2
176
     0
  1
strokes_ogs.tif
176
     0
290
     0
176
     0
 40
1.0
176
     0
 40
1.0
176
     0
  0
VISUALSTYLE
  5
38
102
{ACAD_REACTORS
330
2A
102
}
330
2A
100
AcDbVisualStyle
  2
Linepattern
 70
    14
177
     3
291
     1
 70
    58
 90
        2
176
     1
 90
        2
176
     1
 90
        0
176
     1
 90
        0
176
     1
 40
0.6
176
     1
 40
30.0
176
     1
 62
     7
420
 16777215
176
     1
 90
        1
176
     1
 90
        4
176
     1
 62
     7
176
     1
 62
   257
176
     1
 90
        7
176
     1
 90
        7
176
     1
 40
1.0
176
     1
 90
        8
176
     1
 62
     7
176
     1
 40
1.0
176
     1
 90
        1
176
     1
 90
        6
176
     1
 90
        2
176
     1
 62
     7
176
     1
 90
        5
176
     1
 90
        0
176
     1
 90
        0
176
     1
290
     0
176
     1
 90
        1
176
     1
 40
0.0
176
     1
 90
        0
176
     1
290
     0
176
     1
290
     1
176
     1
290
     1
176
     1
290
     0
176
     1
290
     0
176
     1
290
     0
176
     1
290
     0
176
     1
290
     0
176
     1
290
     0
176
     1
 90
       50
176
     1
 40
0.0
176
     1
 40
1.0
176
     1
 90
        0
176
     1
 62
    18
420
        0
176
     1
 90
       50
176
     1
 90
        3
176
     1
 62
     5
420
      255
176
     1
290
     0
176
     1
 90
       50
176
     1
 90
       50
176
     1
 90
       50
176
     1
290
     0
176
     1
 90
       50
176
     1
 62
   256
176
     0
 40
1.0
176
     0
 90
        2
176
     1
  1
strokes_ogs.tif
176
     1
290
     0
176
     1
 40
1.0
176
     1
 40
1.0
176
     1
  0
VISUALSTYLE
  5
3C
102
{ACAD_REACTORS
330
2A
102
}
330
2A
100
AcDbVisualStyle
  2
OverhangOff
 70
    21
177
     3
291
     1
 70
    58
 90
        2
176
     0
 90
        2
176
     0
 90
        0
176
     0
 90
        0
176
     0
 40
0.6
176
     0
 40
30.0
176
     0
 62
     7
420
 16777215
176
     0
 90
        1
176
     0
 90
        4
176
     0
 62
     7
176
     0
 62
   257
176
     0
 90
        1
176
     0
 90
        1
176
     0
 40
1.0
176
     0
 90
        9
176
     2
 62
     7
176
     0
 40
1.0
176
     0
 90
        1
176
     0
 90
        6
176
     0
 90
        2
176
     0
 62
     7
176
     0
 90
        5
176
     0
 90
        0
176
     0
 90
        0
176
     0
290
     0
176
     0
 90
        1
176
     0
 40
0.0
176
     0
 90
        0
176
     0
290
     0
176
     0
290
     1
176
     0
290
     1
176
     0
290
     0
176
     0
290
     0
176
     0
290
     0
176
     0
290
     0
176
     0
290
     0
176
     0
290
     0
176
     0
 90
       50
176
     0
 40
0.0
176
     0
 40
1.0
176
     0
 90
        0
176
     0
 62
    18
420
        0
176
     0
 90
       50
176
     0
 90
        3
176
     0
 62
     5
420
      255
176
     0
290
     0
176
     0
 90
       50
176
     0
 90
       50
176
     0
 90
       50
176
     0
290
     0
176
     0
 90
       50
176
     0
 62
   256
176
     0
 40
1.0
176
     0
 90
        2
176
     0
  1
strokes_ogs.tif
176
     0
290
     0
176
     0
 40
1.0
176
     0
 40
1.0
176
     0
  0
VISUALSTYLE
  5
33
102
{ACAD_REACTORS
330
2A
102
}
330
2A
100
AcDbVisualStyle
  2
Realistic
 70
     8
177
     3
291
     0
 70
    58
 90
        2
176
     1
 90
        3
176
     1
 90
        0
176
     1
 90
        2
176
     1
 40
0.6
176
     1
 40
30.0
176
     1
 62
     7
420
 16777215
176
     1
 90
        0
176
     1
 90
        0
176
     1
 62
     7
176
     1
 62
   257
176
     1
 90
        1
176
     1
 90
        1
176
     1
 40
1.0
176
     1
 90
        8
176
     1
 62
   257
176
     1
 40
1.0
176
     1
 90
        1
176
     1
 90
        6
176
     1
 90
        2
176
     1
 62
     7
176
     1
 90
        3
176
     1
 90
        0
176
     1
 90
        0
176
     1
290
     0
176
     1
 90
       13
176
     1
 40
0.0
176
     1
 90
        0
176
     1
290
     0
176
     1
290
     1
176
     1
290
     1
176
     1
290
     0
176
     1
290
     0
176
     1
290
     0
176
     1
290
     0
176
     1
290
     0
176
     1
290
     0
176
     1
 90
       50
176
     1
 40
0.0
176
     1
 40
1.0
176
     1
 90
        0
176
     1
 62
    18
420
        0
176
     1
 90
       50
176
     1
 90
        3
176
     1
 62
     5
420
      255
176
     1
290
     0
176
     1
 90
       50
176
     1
 90
       50
176
     1
 90
       50
176
     1
290
     0
176
     1
 90
       50
176
     1
 62
   256
176
     0
 40
1.0
176
     0
 90
        2
176
     1
  1
strokes_ogs.tif
176
     1
290
     0
176
     1
 40
1.0
176
     1
 40
1.0
176
     1
  0
VISUALSTYLE
  5
42
102
{ACAD_REACTORS
330
2A
102
}
330
2A
100
AcDbVisualStyle
  2
Shaded
 70
    27
177
     3
291
     0
 70
    58
 90
        2
176
     1
 90
        2
176
     1
 90
        1
176
     1
 90
        2
176
     1
 40
0.6
176
     1
 40
30.0
176
     1
 62
     7
420
 16777215
176
     1
 90
        0
176
     1
 90
        4
176
     1
 62
     7
176
     1
 62
   257
176
     1
 90
        1
176
     1
 90
        1
176
     1
 40
1.0
176
     1
 90
        8
176
     1
 62
   257
176
     1
 40
1.0
176
     1
 90
        1
176
     1
 90
        6
176
     1
 90
        2
176
     1
 62
     8
420
  7895160
176
     1
 90
        3
176
     1
 90
        0
176
     1
 90
        0
176
     1
290
     0
176
     1
 90
        5
176
     1
 40
0.0
176
     1
 90
        0
176
     1
290
     0
176
     1
290
     1
176
     1
290
     1
176
     1
290
     0
176
     1
290
     0
176
     1
290
     0
176
     1
290
     0
176
     1
290
     0
176
     1
290
     0
176
     1
 90
       50
176
     1
 40
0.0
176
     1
 40
1.0
176
     1
 90
        0
176
     1
 62
    18
420
        0
176
     1
 90
       50
176
     1
 90
        3
176
     1
 62
     5
420
      255
176
     1
290
     0
176
     1
 90
       50
176
     1
 90
       50
176
     1
 90
       50
176
     1
290
     0
176
     1
 90
       50
176
     1
 62
   256
176
     0
 40
1.0
176
     0
 90
        2
176
     1
  1
strokes_ogs.tif
176
     1
290
     0
176
     1
 40
1.0
176
     1
 40
1.0
176
     1
  0
VISUALSTYLE
  5
41
102
{ACAD_REACTORS
330
2A
102
}
330
2A
100
AcDbVisualStyle
  2
Shaded with edges
 70
    26
177
     3
291
     0
 70
    58
 90
        2
176
     1
 90
        2
176
     1
 90
        1
176
     1
 90
        2
176
     1
 40
0.6
176
     1
 40
30.0
176
     1
 62
     7
420
 16777215
176
     1
 90
        1
176
     1
 90
       10
176
     1
 62
     7
176
     1
 62
   257
176
     1
 90
        2
176
     1
 90
        1
176
     1
 40
1.0
176
     1
 90
        8
176
     1
 62
   257
176
     1
 40
1.0
176
     1
 90
        1
176
     1
 90
        6
176
     1
 90
        2
176
     1
 62
     7
176
     1
 90
        3
176
     1
 90
        0
176
     1
 90
        0
176
     1
290
     0
176
     1
 90
        5
176
     1
 40
0.0
176
     1
 90
        0
176
     1
290
     0
176
     1
290
     1
176
     1
290
     1
176
     1
290
     0
176
     1
290
     0
176
     1
290
     0
176
     1
290
     0
176
     1
290
     0
176
     1
290
     0
176
     1
 90
       50
176
     1
 40
0.0
176
     1
 40
1.0
176
     1
 90
        0
176
     1
 62
    18
420
        0
176
     1
 90
       50
176
     1
 90
        3
176
     1
 62
     5
420
      255
176
     1
290
     0
176
     1
 90
       50
176
     1
 90
       50
176
     1
 90
       50
176
     1
290
     0
176
     1
 90
       50
176
     1
 62
   256
176
     0
 40
1.0
176
     0
 90
        2
176
     1
  1
strokes_ogs.tif
176
     1
290
     0
176
     1
 40
1.0
176
     1
 40
1.0
176
     1
  0
VISUALSTYLE
  5
3E
102
{ACAD_REACTORS
330
2A
102
}
330
2A
100
AcDbVisualStyle
  2
Shades of Gray
 70
    23
177
     3
291
     0
 70
    58
 90
        2
176
     1
 90
        2
176
     1
 90
        3
176
     1
 90
        0
176
     1
 40
0.6
176
     1
 40
30.0
176
     1
 62
     7
420
 16777215
176
     1
 90
        2
176
     1
 90
        2
176
     1
 62
     7
176
     1
 62
     7
176
     1
 90
        1
176
     1
 90
        1
176
     1
 40
40.0
176
     1
 90
        8
176
     1
 62
     7
176
     1
 40
1.0
176
     1
 90
        1
176
     1
 90
        6
176
     1
 90
        2
176
     1
 62
     7
176
     1
 90
        3
176
     1
 90
        0
176
     1
 90
        0
176
     1
290
     0
176
     1
 90
        1
176
     1
 40
0.0
176
     1
 90
        0
176
     1
290
     0
176
     1
290
     1
176
     1
290
     1
176
     1
290
     0
176
     1
290
     0
176
     1
290
     0
176
     1
290
     0
176
     1
290
     0
176
     1
290
     0
176
     1
 90
       50
176
     1
 40
0.0
176
     1
 40
1.0
176
     1
 90
        0
176
     1
 62
    18
420
        0
176
     1
 90
       50
176
     1
 90
        3
176
     1
 62
     5
420
      255
176
     1
290
     0
176
     1
 90
       50
176
     1
 90
       50
176
     1
 90
       50
176
     1
290
     0
176
     1
 90
       50
176
     1
 62
   256
176
     0
 40
1.0
176
     0
 90
        2
176
     1
  1
strokes_ogs.tif
176
     1
290
     0
176
     1
 40
1.0
176
     1
 40
1.0
176
     1
  0
VISUALSTYLE
  5
3F
102
{ACAD_REACTORS
330
2A
102
}
330
2A
100
AcDbVisualStyle
  2
Sketchy
 70
    24
177
     3
291
     0
 70
    58
 90
        1
176
     1
 90
        2
176
     1
 90
        2
176
     1
 90
        0
176
     1
 40
0.6
176
     1
 40
30.0
176
     1
 62
     7
420
 16777215
176
     1
 90
        2
176
     1
 90
        2
176
     1
 62
     7
176
     1
 62
     7
176
     1
 90
        1
176
     1
 90
        1
176
     1
 40
40.0
176
     1
 90
       11
176
     1
 62
     7
176
     1
 40
1.0
176
     1
 90
        1
176
     1
 90
        6
176
     1
 90
        2
176
     1
 62
     7
176
     1
 90
        6
176
     1
 90
        0
176
     1
 90
        0
176
     1
290
     0
176
     1
 90
        1
176
     1
 40
0.0
176
     1
 90
        0
176
     1
290
     0
176
     1
290
     1
176
     1
290
     1
176
     1
290
     0
176
     1
290
     0
176
     1
290
     0
176
     1
290
     0
176
     1
290
     0
176
     1
290
     0
176
     1
 90
       50
176
     1
 40
0.0
176
     1
 40
1.0
176
     1
 90
        0
176
     1
 62
    18
420
        0
176
     1
 90
       50
176
     1
 90
        3
176
     1
 62
     5
420
      255
176
     1
290
     0
176
     1
 90
       50
176
     1
 90
       50
176
     1
 90
       50
176
     1
290
     0
176
     1
 90
       50
176
     1
 62
   256
176
     0
 40
1.0
176
     0
 90
        2
176
     1
  1
strokes_ogs.tif
176
     1
290
     0
176
     1
 40
1.0
176
     1
 40
1.0
176
     1
  0
VISUALSTYLE
  5
37
102
{ACAD_REACTORS
330
2A
102
}
330
2A
100
AcDbVisualStyle
  2
Thicken
 70
    13
177
     3
291
     1
 70
    58
 90
        2
176
     1
 90
        2
176
     1
 90
        0
176
     1
 90
        0
176
     1
 40
0.6
176
     1
 40
30.0
176
     1
 62
     7
420
 16777215
176
     1
 90
        1
176
     1
 90
        4
176
     1
 62
     7
176
     1
 62
   257
176
     1
 90
        1
176
     1
 90
        1
176
     1
 40
1.0
176
     1
 90
       12
176
     1
 62
     7
176
     1
 40
1.0
176
     1
 90
        1
176
     1
 90
        6
176
     1
 90
        2
176
     1
 62
     7
176
     1
 90
        5
176
     1
 90
        0
176
     1
 90
        0
176
     1
290
     0
176
     1
 90
        1
176
     1
 40
0.0
176
     1
 90
        0
176
     1
290
     0
176
     1
290
     1
176
     1
290
     1
176
     1
290
     0
176
     1
290
     0
176
     1
290
     0
176
     1
290
     0
176
     1
290
     0
176
     1
290
     0
176
     1
 90
       50
176
     1
 40
0.0
176
     1
 40
1.0
176
     1
 90
        0
176
     1
 62
    18
420
        0
176
     1
 90
       50
176
     1
 90
        3
176
     1
 62
     5
420
      255
176
     1
290
     0
176
     1
 90
       50
176
     1
 90
       50
176
     1
 90
       50
176
     1
290
     0
176
     1
 90
       50
176
     1
 62
   256
176
     0
 40
1.0
176
     0
 90
        2
176
     1
  1
strokes_ogs.tif
176
     1
290
     0
176
     1
 40
1.0
176
     1
 40
1.0
176
     1
  0
VISUALSTYLE
  5
30
102
{ACAD_REACTORS
330
2A
102
}
330
2A
100
AcDbVisualStyle
  2
Wireframe
 70
     5
177
     3
291
     0
 70
    58
 90
        0
176
     1
 90
        2
176
     1
 90
        0
176
     1
 90
        0
176
     1
 40
0.6
176
     1
 40
30.0
176
     1
 62
     7
420
 16777215
176
     1
 90
        1
176
     1
 90
        4
176
     1
 62
     7
176
     1
 62
   257
176
     1
 90
        1
176
     1
 90
        1
176
     1
 40
1.0
176
     1
 90
        0
176
     1
 62
   257
176
     1
 40
1.0
176
     1
 90
        1
176
     1
 90
        6
176
     1
 90
        2
176
     1
 62
     7
176
     1
 90
        3
176
     1
 90
        0
176
     1
 90
        0
176
     1
290
     0
176
     1
 90
        1
176
     1
 40
0.0
176
     1
 90
        0
176
     1
290
     0
176
     1
290
     1
176
     1
290
     1
176
     1
290
     0
176
     1
290
     0
176
     1
290
     0
176
     1
290
     0
176
     1
290
     0
176
     1
290
     0
176
     1
 90
       50
176
     1
 40
0.0
176
     1
 40
1.0
176
     1
 90
        0
176
     1
 62
    18
420
        0
176
     1
 90
       50
176
     1
 90
        3
176
     1
 62
     5
420
      255
176
     1
290
     0
176
     1
 90
       50
176
     1
 90
       50
176
     1
 90
       50
176
     1
290
     0
176
     1
 90
       50
176
     1
 62
   256
176
     0
 40
1.0
176
     0
 90
        2
176
     1
  1
strokes_ogs.tif
176
     1
290
     0
176
     1
 40
1.0
176
     1
 40
1.0
176
     1
  0
VISUALSTYLE
  5
40
102
{ACAD_REACTORS
330
2A
102
}
330
2A
100
AcDbVisualStyle
  2
X-Ray
 70
    25
177
     3
291
     0
 70
    58
 90
        2
176
     1
 90
        2
176
     1
 90
        1
176
     1
 90
        1
176
     1
 40
0.5
176
     1
 40
30.0
176
     1
 62
     7
420
 16777215
176
     1
 90
        1
176
     1
 90
        0
176
     1
 62
     7
176
     1
 62
   257
176
     1
 90
        1
176
     1
 90
        1
176
     1
 40
1.0
176
     1
 90
        8
176
     1
 62
     7
176
     1
 40
1.0
176
     1
 90
        1
176
     1
 90
        6
176
     1
 90
        2
176
     1
 62
     7
176
     1
 90
        3
176
     1
 90
        0
176
     1
 90
        0
176
     1
290
     0
176
     1
 90
       13
176
     1
 40
0.0
176
     1
 90
        0
176
     1
290
     0
176
     1
290
     1
176
     1
290
     1
176
     1
290
     0
176
     1
290
     0
176
     1
290
     0
176
     1
290
     0
176
     1
290
     0
176
     1
290
     0
176
     1
 90
       50
176
     1
 40
0.0
176
     1
 40
1.0
176
     1
 90
        0
176
     1
 62
    18
420
        0
176
     1
 90
       50
176
     1
 90
        3
176
     1
 62
     5
420
      255
176
     1
290
     0
176
     1
 90
       50
176
     1
 90
       50
176
     1
 90
       50
176
     1
290
     0
176
     1
 90
       50
176
     1
 62
   256
176
     0
 40
1.0
176
     0
 90
        2
176
     1
  1
strokes_ogs.tif
176
     1
290
     0
176
     1
 40
1.0
176
     1
 40
1.0
176
     1
  0
DICTIONARYVAR
  5
16F
102
{ACAD_REACTORS
330
16E
102
}
330
16E
100
DictionaryVariables
280
     0
  1
1:1
  0
DICTIONARYVAR
  5
174
102
{ACAD_REACTORS
330
16E
102
}
330
16E
100
DictionaryVariables
280
     0
  1
Standard
  0
DICTIONARYVAR
  5
173
102
{ACAD_REACTORS
330
16E
102
}
330
16E
100
DictionaryVariables
280
     0
  1
Standard
  0
DICTIONARY
  5
170
330
6A
100
AcDbDictionary
280
     1
281
     1
  3
ACAD_ROUNDTRIP_2008_TABLESTYLE_CELLSTYLEMAP
360
171
  0
CELLSTYLEMAP
  5
171
102
{ACAD_REACTORS
330
170
102
}
330
170
100
AcDbCellStyleMap
 90
        3
300
CELLSTYLE
  1
TABLEFORMAT_BEGIN
 90
        5
170
     1
 91
        0
 92
    32768
 62
   257
 93
        1
300
CONTENTFORMAT
  1
CONTENTFORMAT_BEGIN
 90
        0
 91
        0
 92
        4
 93
        0
300

 40
0.0
140
1.0
 94
        5
 62
     0
340
11
144
0.25
309
CONTENTFORMAT_END
171
     1
301
MARGIN
  1
CELLMARGIN_BEGIN
 40
0.06
 40
0.06
 40
0.06
 40
0.06
 40
0.06
 40
0.06
309
CELLMARGIN_END
 94
        6
 95
        1
302
GRIDFORMAT
  1
GRIDFORMAT_BEGIN
 90
        0
 91
        1
 62
     0
 92
       -2
340
14
 93
        0
 40
0.045
309
GRIDFORMAT_END
 95
        2
302
GRIDFORMAT
  1
GRIDFORMAT_BEGIN
 90
        0
 91
        1
 62
     0
 92
       -2
340
14
 93
        0
 40
0.045
309
GRIDFORMAT_END
 95
        4
302
GRIDFORMAT
  1
GRIDFORMAT_BEGIN
 90
        0
 91
        1
 62
     0
 92
       -2
340
14
 93
        0
 40
0.045
309
GRIDFORMAT_END
 95
        8
302
GRIDFORMAT
  1
GRIDFORMAT_BEGIN
 90
        0
 91
        1
 62
     0
 92
       -2
340
14
 93
        0
 40
0.045
309
GRIDFORMAT_END
 95
       16
302
GRIDFORMAT
  1
GRIDFORMAT_BEGIN
 90
        0
 91
        1
 62
     0
 92
       -2
340
14
 93
        0
 40
0.045
309
GRIDFORMAT_END
 95
       32
302
GRIDFORMAT
  1
GRIDFORMAT_BEGIN
 90
        0
 91
        1
 62
     0
 92
       -2
340
14
 93
        0
 40
0.045
309
GRIDFORMAT_END
309
TABLEFORMAT_END
  1
CELLSTYLE_BEGIN
 90
        1
 91
        1
300
_TITLE
309
CELLSTYLE_END
300
CELLSTYLE
  1
TABLEFORMAT_BEGIN
 90
        5
170
     1
 91
        0
 92
        0
 62
   257
 93
        1
300
CONTENTFORMAT
  1
CONTENTFORMAT_BEGIN
 90
        0
 91
        0
 92
        4
 93
        0
300

 40
0.0
140
1.0
 94
        5
 62
     0
340
11
144
0.18
309
CONTENTFORMAT_END
171
     1
301
MARGIN
  1
CELLMARGIN_BEGIN
 40
0.06
 40
0.06
 40
0.06
 40
0.06
 40
0.06
 40
0.06
309
CELLMARGIN_END
 94
        6
 95
        1
302
GRIDFORMAT
  1
GRIDFORMAT_BEGIN
 90
        0
 91
        1
 62
     0
 92
       -2
340
14
 93
        0
 40
0.045
309
GRIDFORMAT_END
 95
        2
302
GRIDFORMAT
  1
GRIDFORMAT_BEGIN
 90
        0
 91
        1
 62
     0
 92
       -2
340
14
 93
        0
 40
0.045
309
GRIDFORMAT_END
 95
        4
302
GRIDFORMAT
  1
GRIDFORMAT_BEGIN
 90
        0
 91
        1
 62
     0
 92
       -2
340
14
 93
        0
 40
0.045
309
GRIDFORMAT_END
 95
        8
302
GRIDFORMAT
  1
GRIDFORMAT_BEGIN
 90
        0
 91
        1
 62
     0
 92
       -2
340
14
 93
        0
 40
0.045
309
GRIDFORMAT_END
 95
       16
302
GRIDFORMAT
  1
GRIDFORMAT_BEGIN
 90
        0
 91
        1
 62
     0
 92
       -2
340
14
 93
        0
 40
0.045
309
GRIDFORMAT_END
 95
       32
302
GRIDFORMAT
  1
GRIDFORMAT_BEGIN
 90
        0
 91
        1
 62
     0
 92
       -2
340
14
 93
        0
 40
0.045
309
GRIDFORMAT_END
309
TABLEFORMAT_END
  1
CELLSTYLE_BEGIN
 90
        2
 91
        1
300
_HEADER
309
CELLSTYLE_END
300
CELLSTYLE
  1
TABLEFORMAT_BEGIN
 90
        5
170
     1
 91
        0
 92
        0
 62
   257
 93
        1
300
CONTENTFORMAT
  1
CONTENTFORMAT_BEGIN
 90
        0
 91
        0
 92
        4
 93
        0
300

 40
0.0
140
1.0
 94
        2
 62
     0
340
11
144
0.18
309
CONTENTFORMAT_END
171
     1
301
MARGIN
  1
CELLMARGIN_BEGIN
 40
0.06
 40
0.06
 40
0.06
 40
0.06
 40
0.06
 40
0.06
309
CELLMARGIN_END
 94
        6
 95
        1
302
GRIDFORMAT
  1
GRIDFORMAT_BEGIN
 90
        0
 91
        1
 62
     0
 92
       -2
340
14
 93
        0
 40
0.045
309
GRIDFORMAT_END
 95
        2
302
GRIDFORMAT
  1
GRIDFORMAT_BEGIN
 90
        0
 91
        1
 62
     0
 92
       -2
340
14
 93
        0
 40
0.045
309
GRIDFORMAT_END
 95
        4
302
GRIDFORMAT
  1
GRIDFORMAT_BEGIN
 90
        0
 91
        1
 62
     0
 92
       -2
340
14
 93
        0
 40
0.045
309
GRIDFORMAT_END
 95
        8
302
GRIDFORMAT
  1
GRIDFORMAT_BEGIN
 90
        0
 91
        1
 62
     0
 92
       -2
340
14
 93
        0
 40
0.045
309
GRIDFORMAT_END
 95
       16
302
GRIDFORMAT
  1
GRIDFORMAT_BEGIN
 90
        0
 91
        1
 62
     0
 92
       -2
340
14
 93
        0
 40
0.045
309
GRIDFORMAT_END
 95
       32
302
GRIDFORMAT
  1
GRIDFORMAT_BEGIN
 90
        0
 91
        1
 62
     0
 92
       -2
340
14
 93
        0
 40
0.045
309
GRIDFORMAT_END
309
TABLEFORMAT_END
  1
CELLSTYLE_BEGIN
 90
        3
 91
        2
300
_DATA
309
CELLSTYLE_END
  0
ENDSEC
  0
EOF