0
SECTION
  2
HEADER
  9
$ACADVER
  1
AC1027
  9
$ACADMAINTVER
 70
     8
  9
$DWGCODEPAGE
  3
ANSI_1252
  9
$REQUIREDVERSIONS
160
                 0
  9
$COMMENTS
  1
File was created by Cadenas
  9
$CUSTOMPROPERTYTAG
  1
NN
  9
$CUSTOMPROPERTY
  1
Set Screw Medium Duty Wide Slot Take Up Metric Bore
  9
$CUSTOMPROPERTYTAG
  1
NT
  9
$CUSTOMPROPERTY
  1
SC Take-Up Bearings -Wide Slot -(Medium Duty)
  9
$CUSTOMPROPERTYTAG
  1
NB
  9
$CUSTOMPROPERTY
  1
125995
  9
$CUSTOMPROPERTYTAG
  1
NBSYN
  9
$CUSTOMPROPERTY
  1
$PN.
  9
$CUSTOMPROPERTYTAG
  1
LINA
  9
$CUSTOMPROPERTY
  1
125995
  9
$CUSTOMPROPERTYTAG
  1
SERIES
  9
$CUSTOMPROPERTY
  1
212
  9
$CUSTOMPROPERTYTAG
  1
SS
  9
$CUSTOMPROPERTY
  1
55
  9
$CUSTOMPROPERTYTAG
  1
PN
  9
$CUSTOMPROPERTY
  1
125995
  9
$CUSTOMPROPERTYTAG
  1
DESCRIPTION
  9
$CUSTOMPROPERTY
  1
WSTU-SCM-55M
  9
$CUSTOMPROPERTYTAG
  1
W
  9
$CUSTOMPROPERTY
  1
5.1
  9
$CUSTOMPROPERTYTAG
  1
FS
  9
$CUSTOMPROPERTY
  1
WS502
  9
$CUSTOMPROPERTYTAG
  1
A
  9
$CUSTOMPROPERTY
  1
58.7
  9
$CUSTOMPROPERTYTAG
  1
B
  9
$CUSTOMPROPERTY
  1
190.5
  9
$CUSTOMPROPERTYTAG
  1
C
  9
$CUSTOMPROPERTY
  1
27.00
  9
$CUSTOMPROPERTYTAG
  1
D
  9
$CUSTOMPROPERTY
  1
101.6
  9
$CUSTOMPROPERTYTAG
  1
E
  9
$CUSTOMPROPERTY
  1
119.1
  9
$CUSTOMPROPERTYTAG
  1
F
  9
$CUSTOMPROPERTY
  1
31.8
  9
$CUSTOMPROPERTYTAG
  1
G
  9
$CUSTOMPROPERTY
  1
19.1
  9
$CUSTOMPROPERTYTAG
  1
H
  9
$CUSTOMPROPERTY
  1
31.8
  9
$CUSTOMPROPERTYTAG
  1
J
  9
$CUSTOMPROPERTY
  1
101.6
  9
$CUSTOMPROPERTYTAG
  1
K
  9
$CUSTOMPROPERTY
  1
63.5
  9
$CUSTOMPROPERTYTAG
  1
L
  9
$CUSTOMPROPERTY
  1
75.4
  9
$CUSTOMPROPERTYTAG
  1
M
  9
$CUSTOMPROPERTY
  1
129.79/130.56
  9
$CUSTOMPROPERTYTAG
  1
N
  9
$CUSTOMPROPERTY
  1
149.4
  9
$CUSTOMPROPERTYTAG
  1
R
  9
$CUSTOMPROPERTY
  1
22.9
  9
$CUSTOMPROPERTYTAG
  1
S
  9
$CUSTOMPROPERTY
  1
35.8
  9
$CUSTOMPROPERTYTAG
  1
T
  9
$CUSTOMPROPERTY
  1
63.5
  9
$CUSTOMPROPERTYTAG
  1
COMPANY
  9
$CUSTOMPROPERTY
  1
baldor
  9
$INSBASE
 10
0.0
 20
0.0
 30
0.0
  9
$EXTMIN
 10
1.000000000000000E+20
 20
1.000000000000000E+20
 30
1.000000000000000E+20
  9
$EXTMAX
 10
-1.000000000000000E+20
 20
-1.000000000000000E+20
 30
-1.000000000000000E+20
  9
$LIMMIN
 10
0.0
 20
0.0
  9
$LIMMAX
 10
420.0
 20
297.0
  9
$ORTHOMODE
 70
     0
  9
$REGENMODE
 70
     1
  9
$FILLMODE
 70
     1
  9
$QTEXTMODE
 70
     0
  9
$MIRRTEXT
 70
     1
  9
$LTSCALE
 40
1.0
  9
$ATTMODE
 70
     1
  9
$TEXTSIZE
 40
2.5
  9
$TRACEWID
 40
1.0
  9
$TEXTSTYLE
  7
Standard
  9
$CLAYER
  8
0
  9
$CELTYPE
  6
ByLayer
  9
$CECOLOR
 62
   256
  9
$CELTSCALE
 40
1.0
  9
$DISPSILH
 70
     0
  9
$DIMSCALE
 40
1.0
  9
$DIMASZ
 40
2.5
  9
$DIMEXO
 40
0.625
  9
$DIMDLI
 40
3.75
  9
$DIMRND
 40
0.0
  9
$DIMDLE
 40
0.0
  9
$DIMEXE
 40
1.25
  9
$DIMTP
 40
0.0
  9
$DIMTM
 40
0.0
  9
$DIMTXT
 40
2.5
  9
$DIMCEN
 40
2.5
  9
$DIMTSZ
 40
0.0
  9
$DIMTOL
 70
     0
  9
$DIMLIM
 70
     0
  9
$DIMTIH
 70
     0
  9
$DIMTOH
 70
     0
  9
$DIMSE1
 70
     0
  9
$DIMSE2
 70
     0
  9
$DIMTAD
 70
     1
  9
$DIMZIN
 70
     8
  9
$DIMBLK
  1

  9
$DIMASO
 70
     1
  9
$DIMSHO
 70
     1
  9
$DIMPOST
  1

  9
$DIMAPOST
  1

  9
$DIMALT
 70
     0
  9
$DIMALTD
 70
     3
  9
$DIMALTF
 40
0.03937007874016
  9
$DIMLFAC
 40
1.0
  9
$DIMTOFL
 70
     1
  9
$DIMTVP
 40
0.0
  9
$DIMTIX
 70
     0
  9
$DIMSOXD
 70
     0
  9
$DIMSAH
 70
     0
  9
$DIMBLK1
  1

  9
$DIMBLK2
  1

  9
$DIMSTYLE
  2
ISO-25
  9
$DIMCLRD
 70
     0
  9
$DIMCLRE
 70
     0
  9
$DIMCLRT
 70
     0
  9
$DIMTFAC
 40
1.0
  9
$DIMGAP
 40
0.625
  9
$DIMJUST
 70
     0
  9
$DIMSD1
 70
     0
  9
$DIMSD2
 70
     0
  9
$DIMTOLJ
 70
     0
  9
$DIMTZIN
 70
     8
  9
$DIMALTZ
 70
     0
  9
$DIMALTTZ
 70
     0
  9
$DIMUPT
 70
     0
  9
$DIMDEC
 70
     2
  9
$DIMTDEC
 70
     2
  9
$DIMALTU
 70
     2
  9
$DIMALTTD
 70
     3
  9
$DIMTXSTY
  7
Standard
  9
$DIMAUNIT
 70
     0
  9
$DIMADEC
 70
     0
  9
$DIMALTRND
 40
0.0
  9
$DIMAZIN
 70
     0
  9
$DIMDSEP
 70
    44
  9
$DIMATFIT
 70
     3
  9
$DIMFRAC
 70
     0
  9
$DIMLDRBLK
  1

  9
$DIMLUNIT
 70
     2
  9
$DIMLWD
 70
    -2
  9
$DIMLWE
 70
    -2
  9
$DIMTMOVE
 70
     0
  9
$DIMFXL
 40
1.0
  9
$DIMFXLON
 70
     0
  9
$DIMJOGANG
 40
0.7853981633974483
  9
$DIMTFILL
 70
     0
  9
$DIMTFILLCLR
 70
     0
  9
$DIMARCSYM
 70
     0
  9
$DIMLTYPE
  6

  9
$DIMLTEX1
  6

  9
$DIMLTEX2
  6

  9
$DIMTXTDIRECTION
 70
     0
  9
$LUNITS
 70
     2
  9
$LUPREC
 70
     4
  9
$SKETCHINC
 40
1.0
  9
$FILLETRAD
 40
10.0
  9
$AUNITS
 70
     0
  9
$AUPREC
 70
     0
  9
$MENU
  1
.
  9
$ELEVATION
 40
0.0
  9
$PELEVATION
 40
0.0
  9
$THICKNESS
 40
0.0
  9
$LIMCHECK
 70
     0
  9
$CHAMFERA
 40
0.0
  9
$CHAMFERB
 40
0.0
  9
$CHAMFERC
 40
0.0
  9
$CHAMFERD
 40
0.0
  9
$SKPOLY
 70
     0
  9
$TDCREATE
 40
2458168.985897639
  9
$TDUCREATE
 40
2458168.944230972
  9
$TDUPDATE
 40
2458168.985897824
  9
$TDUUPDATE
 40
2458168.944231157
  9
$TDINDWG
 40
0.0000000116
  9
$TDUSRTIMER
 40
0.0000000116
  9
$USRTIMER
 70
     1
  9
$ANGBASE
 50
0.0
  9
$ANGDIR
 70
     0
  9
$PDMODE
 70
     0
  9
$PDSIZE
 40
0.0
  9
$PLINEWID
 40
0.0
  9
$SPLFRAME
 70
     0
  9
$SPLINETYPE
 70
     6
  9
$SPLINESEGS
 70
     8
  9
$HANDSEED
  5
1AD
  9
$SURFTAB1
 70
     6
  9
$SURFTAB2
 70
     6
  9
$SURFTYPE
 70
     6
  9
$SURFU
 70
     6
  9
$SURFV
 70
     6
  9
$UCSBASE
  2

  9
$UCSNAME
  2

  9
$UCSORG
 10
0.0
 20
0.0
 30
0.0
  9
$UCSXDIR
 10
1.0
 20
0.0
 30
0.0
  9
$UCSYDIR
 10
0.0
 20
1.0
 30
0.0
  9
$UCSORTHOREF
  2

  9
$UCSORTHOVIEW
 70
     0
  9
$UCSORGTOP
 10
0.0
 20
0.0
 30
0.0
  9
$UCSORGBOTTOM
 10
0.0
 20
0.0
 30
0.0
  9
$UCSORGLEFT
 10
0.0
 20
0.0
 30
0.0
  9
$UCSORGRIGHT
 10
0.0
 20
0.0
 30
0.0
  9
$UCSORGFRONT
 10
0.0
 20
0.0
 30
0.0
  9
$UCSORGBACK
 10
0.0
 20
0.0
 30
0.0
  9
$PUCSBASE
  2

  9
$PUCSNAME
  2

  9
$PUCSORG
 10
0.0
 20
0.0
 30
0.0
  9
$PUCSXDIR
 10
1.0
 20
0.0
 30
0.0
  9
$PUCSYDIR
 10
0.0
 20
1.0
 30
0.0
  9
$PUCSORTHOREF
  2

  9
$PUCSORTHOVIEW
 70
     0
  9
$PUCSORGTOP
 10
0.0
 20
0.0
 30
0.0
  9
$PUCSORGBOTTOM
 10
0.0
 20
0.0
 30
0.0
  9
$PUCSORGLEFT
 10
0.0
 20
0.0
 30
0.0
  9
$PUCSORGRIGHT
 10
0.0
 20
0.0
 30
0.0
  9
$PUCSORGFRONT
 10
0.0
 20
0.0
 30
0.0
  9
$PUCSORGBACK
 10
0.0
 20
0.0
 30
0.0
  9
$USERI1
 70
     0
  9
$USERI2
 70
     0
  9
$USERI3
 70
     0
  9
$USERI4
 70
     0
  9
$USERI5
 70
     0
  9
$USERR1
 40
0.0
  9
$USERR2
 40
0.0
  9
$USERR3
 40
0.0
  9
$USERR4
 40
0.0
  9
$USERR5
 40
0.0
  9
$WORLDVIEW
 70
     1
  9
$SHADEDGE
 70
     3
  9
$SHADEDIF
 70
    70
  9
$TILEMODE
 70
     1
  9
$MAXACTVP
 70
    64
  9
$PINSBASE
 10
0.0
 20
0.0
 30
0.0
  9
$PLIMCHECK
 70
     0
  9
$PEXTMIN
 10
1.000000000000000E+20
 20
1.000000000000000E+20
 30
1.000000000000000E+20
  9
$PEXTMAX
 10
-1.000000000000000E+20
 20
-1.000000000000000E+20
 30
-1.000000000000000E+20
  9
$PLIMMIN
 10
0.0
 20
0.0
  9
$PLIMMAX
 10
420.0
 20
297.0
  9
$UNITMODE
 70
     0
  9
$VISRETAIN
 70
     1
  9
$PLINEGEN
 70
     0
  9
$PSLTSCALE
 70
     1
  9
$TREEDEPTH
 70
  3020
  9
$CMLSTYLE
  2
Standard
  9
$CMLJUST
 70
     0
  9
$CMLSCALE
 40
20.0
  9
$PROXYGRAPHICS
 70
     1
  9
$MEASUREMENT
 70
     1
  9
$CELWEIGHT
370
    -1
  9
$ENDCAPS
280
     0
  9
$JOINSTYLE
280
     0
  9
$LWDISPLAY
290
     0
  9
$INSUNITS
 70
     4
  9
$HYPERLINKBASE
  1

  9
$STYLESHEET
  1

  9
$XEDIT
290
     1
  9
$CEPSNTYPE
380
     0
  9
$PSTYLEMODE
290
     1
  9
$FINGERPRINTGUID
  2
{A205949F-01E6-4BCA-86EC-F525A211E033}
  9
$VERSIONGUID
  2
{FAEB1C32-E019-11D5-929B-00C0DF256EC4}
  9
$EXTNAMES
290
     1
  9
$PSVPSCALE
 40
0.0
  9
$OLESTARTUP
290
     0
  9
$SORTENTS
280
   127
  9
$INDEXCTL
280
     0
  9
$HIDETEXT
280
     1
  9
$XCLIPFRAME
280
     2
  9
$HALOGAP
280
     0
  9
$OBSCOLOR
 70
   257
  9
$OBSLTYPE
280
     0
  9
$INTERSECTIONDISPLAY
280
     0
  9
$INTERSECTIONCOLOR
 70
   257
  9
$DIMASSOC
280
     2
  9
$PROJECTNAME
  1

  9
$CAMERADISPLAY
290
     0
  9
$LENSLENGTH
 40
50.0
  9
$CAMERAHEIGHT
 40
0.0
  9
$STEPSPERSEC
 40
2.0
  9
$STEPSIZE
 40
6.0
  9
$3DDWFPREC
 40
2.0
  9
$PSOLWIDTH
 40
5.0
  9
$PSOLHEIGHT
 40
80.0
  9
$LOFTANG1
 40
1.570796326794897
  9
$LOFTANG2
 40
1.570796326794897
  9
$LOFTMAG1
 40
0.0
  9
$LOFTMAG2
 40
0.0
  9
$LOFTPARAM
 70
     7
  9
$LOFTNORMALS
280
     1
  9
$LATITUDE
 40
37.795
  9
$LONGITUDE
 40
-122.394
  9
$NORTHDIRECTION
 40
0.0
  9
$TIMEZONE
 70
 -8000
  9
$LIGHTGLYPHDISPLAY
280
     1
  9
$TILEMODELIGHTSYNCH
280
     1
  9
$CMATERIAL
347
44
  9
$SOLIDHIST
280
     0
  9
$SHOWHIST
280
     1
  9
$DWFFRAME
280
     2
  9
$DGNFRAME
280
     2
  9
$REALWORLDSCALE
290
     1
  9
$INTERFERECOLOR
 62
   256
  9
$CSHADOW
280
     0
  9
$SHADOWPLANELOCATION
 40
0.0
  0
ENDSEC
  0
SECTION
  2
CLASSES
  0
CLASS
  1
ACDBDICTIONARYWDFLT
  2
AcDbDictionaryWithDefault
  3
ObjectDBX Classes
 90
        0
 91
        4
280
     0
281
     0
  0
CLASS
  1
VISUALSTYLE
  2
AcDbVisualStyle
  3
ObjectDBX Classes
 90
     4095
 91
        4
280
     0
281
     0
  0
CLASS
  1
MATERIAL
  2
AcDbMaterial
  3
ObjectDBX Classes
 90
     1153
 91
        4
280
     0
281
     0
  0
CLASS
  1
SCALE
  2
AcDbScale
  3
ObjectDBX Classes
 90
     1153
 91
        4
280
     0
281
     0
  0
CLASS
  1
TABLESTYLE
  2
AcDbTableStyle
  3
ObjectDBX Classes
 90
     4095
 91
        4
280
     0
281
     0
  0
CLASS
  1
MLEADERSTYLE
  2
AcDbMLeaderStyle
  3
ACDB_MLEADERSTYLE_CLASS
 90
     4095
 91
        4
280
     0
281
     0
  0
CLASS
  1
SUN
  2
AcDbSun
  3
SCENEOE
 90
     1153
 91
        4
280
     0
281
     0
  0
CLASS
  1
DICTIONARYVAR
  2
AcDbDictionaryVar
  3
ObjectDBX Classes
 90
        0
 91
        4
280
     0
281
     0
  0
CLASS
  1
CELLSTYLEMAP
  2
AcDbCellStyleMap
  3
ObjectDBX Classes
 90
     1152
 91
        4
280
     0
281
     0
  0
ENDSEC
  0
SECTION
  2
TABLES
  0
TABLE
  2
VPORT
  5
8
330
0
100
AcDbSymbolTable
 70
     1
  0
VPORT
  5
29
330
8
100
AcDbSymbolTableRecord
100
AcDbViewportTableRecord
  2
*Active
 70
     0
 10
0.0
 20
0.0
 11
1.0
 21
1.0
 12
20.87893204859802
 22
0.0
 13
0.0
 23
0.0
 14
10.0
 24
10.0
 15
10.0
 25
10.0
 16
0.0
 26
0.0
 36
1.0
 17
0.0
 27
0.0
 37
0.0
 40
152.388
 41
1.327658205507389
 42
50.0
 43
0.0
 44
0.0
 50
0.0
 51
0.0
 71
     0
 72
   100
 73
     1
 74
     3
 75
     0
 76
     0
 77
     0
 78
     0
281
     0
 65
     1
110
0.0
120
0.0
130
0.0
111
1.0
121
0.0
131
0.0
112
0.0
122
1.0
132
0.0
 79
     0
146
0.0
348
2F
 60
     3
 61
     5
292
     1
282
     1
141
0.0
142
0.0
 63
   250
361
6D
  0
ENDTAB
  0
TABLE
  2
LTYPE
  5
5
330
0
100
AcDbSymbolTable
 70
     3
  0
LTYPE
  5
14
330
5
100
AcDbSymbolTableRecord
100
AcDbLinetypeTableRecord
  2
ByBlock
 70
     0
  3

 72
    65
 73
     0
 40
0.0
  0
LTYPE
  5
15
330
5
100
AcDbSymbolTableRecord
100
AcDbLinetypeTableRecord
  2
ByLayer
 70
     0
  3

 72
    65
 73
     0
 40
0.0
  0
LTYPE
  5
16
330
5
100
AcDbSymbolTableRecord
100
AcDbLinetypeTableRecord
  2
Continuous
 70
     0
  3
Solid line
 72
    65
 73
     0
 40
0.0
  0
LTYPE
  5
A6
330
5
100
AcDbSymbolTableRecord
100
AcDbLinetypeTableRecord
  2
Dashed
 70
     0
  3

 72
    65
 73
     2
 40
2.0
 49
1.0
 74
     0
 49
-1.0
 74
     0
  0
LTYPE
  5
C3
330
5
100
AcDbSymbolTableRecord
100
AcDbLinetypeTableRecord
  2
Center
 70
     0
  3

 72
    65
 73
     4
 40
1.5
 49
0.45
 74
     0
 49
-0.5
 74
     0
 49
0.05
 74
     0
 49
-0.5
 74
     0
  0
ENDTAB
  0
TABLE
  2
LAYER
  5
2
330
0
100
AcDbSymbolTable
 70
     7
  0
LAYER
  5
10
330
2
100
AcDbSymbolTableRecord
100
AcDbLayerTableRecord
  2
0
 70
     0
 62
     7
  6
Continuous
370
    -3
390
F
347
46
348
0
  0
LAYER
  5
72
330
2
100
AcDbSymbolTableRecord
100
AcDbLayerTableRecord
  2
AM_6
 70
     0
 62
    -2
  6
Continuous
370
    35
390
F
347
46
348
0
  0
LAYER
  5
A7
330
2
100
AcDbSymbolTableRecord
100
AcDbLayerTableRecord
  2
AM_9
 70
     0
 62
     6
  6
Dashed
370
    25
390
F
347
46
348
0
  0
LAYER
  5
BE
330
2
100
AcDbSymbolTableRecord
100
AcDbLayerTableRecord
  2
AM_5
 70
     0
 62
     3
  6
Continuous
370
    25
390
F
347
46
348
0
  0
LAYER
  5
C4
330
2
100
AcDbSymbolTableRecord
100
AcDbLayerTableRecord
  2
AM_7
 70
     0
 62
     7
  6
Center
370
    25
390
F
347
46
348
0
  0
LAYER
  5
C6
330
2
100
AcDbSymbolTableRecord
100
AcDbLayerTableRecord
  2
AM_4
 70
     0
 62
     7
  6
Continuous
370
    50
390
F
347
46
348
0
  0
LAYER
  5
1A0
330
2
100
AcDbSymbolTableRecord
100
AcDbLayerTableRecord
  2
ConnectionPoints
 70
     0
 62
     7
  6
Continuous
370
    50
390
F
347
46
348
0
  0
ENDTAB
  0
TABLE
  2
STYLE
  5
3
330
0
100
AcDbSymbolTable
 70
     1
  0
STYLE
  5
11
330
3
100
AcDbSymbolTableRecord
100
AcDbTextStyleTableRecord
  2
Standard
 70
     0
 40
0.0
 41
1.0
 50
0.0
 71
     0
 42
2.5
  3
txt
  4

  0
ENDTAB
  0
TABLE
  2
VIEW
  5
6
330
0
100
AcDbSymbolTable
 70
     0
  0
ENDTAB
  0
TABLE
  2
UCS
  5
7
330
0
100
AcDbSymbolTable
 70
     0
  0
ENDTAB
  0
TABLE
  2
APPID
  5
9
330
0
100
AcDbSymbolTable
 70
     1
  0
APPID
  5
12
330
9
100
AcDbSymbolTableRecord
100
AcDbRegAppTableRecord
  2
ACAD
 70
     0
  0
ENDTAB
  0
TABLE
  2
DIMSTYLE
  5
A
330
0
100
AcDbSymbolTable
 70
     1
100
AcDbDimStyleTable
  0
DIMSTYLE
105
27
330
A
100
AcDbSymbolTableRecord
100
AcDbDimStyleTableRecord
  2
ISO-25
 70
     0
 41
2.5
 42
0.625
 43
3.75
 44
1.25
 73
     0
 74
     0
 77
     1
 78
     8
140
2.5
141
2.5
143
0.03937007874016
147
0.625
171
     3
172
     1
178
     0
271
     2
272
     2
274
     3
278
    44
283
     0
284
     8
340
11
  0
ENDTAB
  0
TABLE
  2
BLOCK_RECORD
  5
1
330
0
100
AcDbSymbolTable
 70
     5
  0
BLOCK_RECORD
  5
1F
330
1
100
AcDbSymbolTableRecord
100
AcDbBlockTableRecord
  2
*Model_Space
340
22
 70
     0
280
     1
281
     0
  0
BLOCK_RECORD
  5
1B
330
1
100
AcDbSymbolTableRecord
100
AcDbBlockTableRecord
  2
*Paper_Space
340
1E
 70
     0
280
     1
281
     0
  0
BLOCK_RECORD
  5
23
330
1
100
AcDbSymbolTableRecord
100
AcDbBlockTableRecord
  2
*Paper_Space0
340
26
 70
     0
280
     1
281
     0
  0
BLOCK_RECORD
  5
6E
330
1
100
AcDbSymbolTableRecord
100
AcDbBlockTableRecord
  2
1_125995_0
340
0
102
{BLKREFS
331
6F
102
}
 70
     0
280
     1
281
     0
  0
BLOCK_RECORD
  5
8F
330
1
100
AcDbSymbolTableRecord
100
AcDbBlockTableRecord
  2
2_125836_0_in_125995_0
340
0
102
{BLKREFS
331
90
102
}
 70
     0
280
     1
281
     0
  0
BLOCK_RECORD
  5
CF
330
1
100
AcDbSymbolTableRecord
100
AcDbBlockTableRecord
  2
3_405016_Metric_0_in_125995_0
340
0
102
{BLKREFS
331
D0
102
}
 70
     0
280
     1
281
     0
  0
BLOCK_RECORD
  5
144
330
1
100
AcDbSymbolTableRecord
100
AcDbBlockTableRecord
  2
4_125995H_0_in_125995_0
340
0
102
{BLKREFS
331
145
102
}
 70
     0
280
     1
281
     0
  0
ENDTAB
  0
ENDSEC
  0
SECTION
  2
BLOCKS
  0
BLOCK
  5
20
330
1F
100
AcDbEntity
  8
0
100
AcDbBlockBegin
  2
*Model_Space
 70
     0
 10
0.0
 20
0.0
 30
0.0
  3
*Model_Space
  1

  0
ENDBLK
  5
21
330
1F
100
AcDbEntity
  8
0
100
AcDbBlockEnd
  0
BLOCK
  5
1C
330
1B
100
AcDbEntity
 67
     1
  8
0
100
AcDbBlockBegin
  2
*Paper_Space
 70
     0
 10
0.0
 20
0.0
 30
0.0
  3
*Paper_Space
  1

  0
ENDBLK
  5
1D
330
1B
100
AcDbEntity
 67
     1
  8
0
100
AcDbBlockEnd
  0
BLOCK
  5
24
330
23
100
AcDbEntity
  8
0
100
AcDbBlockBegin
  2
*Paper_Space0
 70
     0
 10
0.0
 20
0.0
 30
0.0
  3
*Paper_Space0
  1

  0
ENDBLK
  5
25
330
23
100
AcDbEntity
  8
0
100
AcDbBlockEnd
  0
BLOCK
  5
70
330
6E
100
AcDbEntity
  8
0
100
AcDbBlockBegin
  2
1_125995_0
 70
     2
 10
0.0
 20
0.0
 30
0.0
  3
1_125995_0
  1

  0
ATTDEF
  5
73
330
6E
100
AcDbEntity
  8
AM_6
100
AcDbText
 10
125.055
 20
74.7
 30
0.0
 40
0.5
  1
Set Screw Medium Duty Wide Slot Take Up Metric Bore
100
AcDbAttributeDefinition
  3

  2
NN
 70
     8
280
     0
  0
ATTDEF
  5
74
330
6E
100
AcDbEntity
  8
AM_6
100
AcDbText
 10
125.055
 20
74.2
 30
0.0
 40
0.5
  1
SC Take-Up Bearings -Wide Slot -(Medium Duty)
100
AcDbAttributeDefinition
  3

  2
NT
 70
     8
280
     0
  0
ATTDEF
  5
75
330
6E
100
AcDbEntity
  8
AM_6
100
AcDbText
 10
125.055
 20
73.7
 30
0.0
 40
0.5
  1
125995
100
AcDbAttributeDefinition
  3

  2
NB
 70
     8
280
     0
  0
ATTDEF
  5
76
330
6E
100
AcDbEntity
  8
AM_6
100
AcDbText
 10
125.055
 20
73.2
 30
0.0
 40
0.5
  1
$PN.
100
AcDbAttributeDefinition
  3

  2
NBSYN
 70
     8
280
     0
  0
ATTDEF
  5
77
330
6E
100
AcDbEntity
  8
AM_6
100
AcDbText
 10
125.055
 20
72.7
 30
0.0
 40
0.5
  1
125995
100
AcDbAttributeDefinition
  3

  2
LINA
 70
     8
280
     0
  0
ATTDEF
  5
78
330
6E
100
AcDbEntity
  8
AM_6
100
AcDbText
 10
125.055
 20
72.2
 30
0.0
 40
0.5
  1
212
100
AcDbAttributeDefinition
  3

  2
SERIES
 70
     8
280
     0
  0
ATTDEF
  5
79
330
6E
100
AcDbEntity
  8
AM_6
100
AcDbText
 10
125.055
 20
71.7
 30
0.0
 40
0.5
  1
55
100
AcDbAttributeDefinition
  3

  2
SS
 70
     8
280
     0
  0
ATTDEF
  5
7A
330
6E
100
AcDbEntity
  8
AM_6
100
AcDbText
 10
125.055
 20
71.2
 30
0.0
 40
0.5
  1
125995
100
AcDbAttributeDefinition
  3

  2
PN
 70
     8
280
     0
  0
ATTDEF
  5
7B
330
6E
100
AcDbEntity
  8
AM_6
100
AcDbText
 10
125.055
 20
70.7
 30
0.0
 40
0.5
  1
WSTU-SCM-55M
100
AcDbAttributeDefinition
  3

  2
DESCRIPTION
 70
     8
280
     0
  0
ATTDEF
  5
7C
330
6E
100
AcDbEntity
  8
AM_6
100
AcDbText
 10
125.055
 20
70.2
 30
0.0
 40
0.5
  1
5.1
100
AcDbAttributeDefinition
  3

  2
W
 70
     8
280
     0
  0
ATTDEF
  5
7D
330
6E
100
AcDbEntity
  8
AM_6
100
AcDbText
 10
125.055
 20
69.7
 30
0.0
 40
0.5
  1
WS502
100
AcDbAttributeDefinition
  3

  2
FS
 70
     8
280
     0
  0
ATTDEF
  5
7E
330
6E
100
AcDbEntity
  8
AM_6
100
AcDbText
 10
125.055
 20
69.2
 30
0.0
 40
0.5
  1
58.7
100
AcDbAttributeDefinition
  3

  2
A
 70
     8
280
     0
  0
ATTDEF
  5
7F
330
6E
100
AcDbEntity
  8
AM_6
100
AcDbText
 10
125.055
 20
68.7
 30
0.0
 40
0.5
  1
190.5
100
AcDbAttributeDefinition
  3

  2
B
 70
     8
280
     0
  0
ATTDEF
  5
80
330
6E
100
AcDbEntity
  8
AM_6
100
AcDbText
 10
125.055
 20
68.2
 30
0.0
 40
0.5
  1
27.00
100
AcDbAttributeDefinition
  3

  2
C
 70
     8
280
     0
  0
ATTDEF
  5
81
330
6E
100
AcDbEntity
  8
AM_6
100
AcDbText
 10
125.055
 20
67.7
 30
0.0
 40
0.5
  1
101.6
100
AcDbAttributeDefinition
  3

  2
D
 70
     8
280
     0
  0
ATTDEF
  5
82
330
6E
100
AcDbEntity
  8
AM_6
100
AcDbText
 10
125.055
 20
67.2
 30
0.0
 40
0.5
  1
119.1
100
AcDbAttributeDefinition
  3

  2
E
 70
     8
280
     0
  0
ATTDEF
  5
83
330
6E
100
AcDbEntity
  8
AM_6
100
AcDbText
 10
125.055
 20
66.7
 30
0.0
 40
0.5
  1
31.8
100
AcDbAttributeDefinition
  3

  2
F
 70
     8
280
     0
  0
ATTDEF
  5
84
330
6E
100
AcDbEntity
  8
AM_6
100
AcDbText
 10
125.055
 20
66.2
 30
0.0
 40
0.5
  1
19.1
100
AcDbAttributeDefinition
  3

  2
G
 70
     8
280
     0
  0
ATTDEF
  5
85
330
6E
100
AcDbEntity
  8
AM_6
100
AcDbText
 10
125.055
 20
65.7
 30
0.0
 40
0.5
  1
31.8
100
AcDbAttributeDefinition
  3

  2
H
 70
     8
280
     0
  0
ATTDEF
  5
86
330
6E
100
AcDbEntity
  8
AM_6
100
AcDbText
 10
125.055
 20
65.2
 30
0.0
 40
0.5
  1
101.6
100
AcDbAttributeDefinition
  3

  2
J
 70
     8
280
     0
  0
ATTDEF
  5
87
330
6E
100
AcDbEntity
  8
AM_6
100
AcDbText
 10
125.055
 20
64.7
 30
0.0
 40
0.5
  1
63.5
100
AcDbAttributeDefinition
  3

  2
K
 70
     8
280
     0
  0
ATTDEF
  5
88
330
6E
100
AcDbEntity
  8
AM_6
100
AcDbText
 10
125.055
 20
64.2
 30
0.0
 40
0.5
  1
75.4
100
AcDbAttributeDefinition
  3

  2
L
 70
     8
280
     0
  0
ATTDEF
  5
89
330
6E
100
AcDbEntity
  8
AM_6
100
AcDbText
 10
125.055
 20
63.7
 30
0.0
 40
0.5
  1
129.79/130.56
100
AcDbAttributeDefinition
  3

  2
M
 70
     8
280
     0
  0
ATTDEF
  5
8A
330
6E
100
AcDbEntity
  8
AM_6
100
AcDbText
 10
125.055
 20
63.2
 30
0.0
 40
0.5
  1
149.4
100
AcDbAttributeDefinition
  3

  2
N
 70
     8
280
     0
  0
ATTDEF
  5
8B
330
6E
100
AcDbEntity
  8
AM_6
100
AcDbText
 10
125.055
 20
62.7
 30
0.0
 40
0.5
  1
22.9
100
AcDbAttributeDefinition
  3

  2
R
 70
     8
280
     0
  0
ATTDEF
  5
8C
330
6E
100
AcDbEntity
  8
AM_6
100
AcDbText
 10
125.055
 20
62.2
 30
0.0
 40
0.5
  1
35.8
100
AcDbAttributeDefinition
  3

  2
S
 70
     8
280
     0
  0
ATTDEF
  5
8D
330
6E
100
AcDbEntity
  8
AM_6
100
AcDbText
 10
125.055
 20
61.7
 30
0.0
 40
0.5
  1
63.5
100
AcDbAttributeDefinition
  3

  2
T
 70
     8
280
     0
  0
ATTDEF
  5
8E
330
6E
100
AcDbEntity
  8
AM_6
100
AcDbText
 10
125.055
 20
61.2
 30
0.0
 40
0.5
  1
baldor
100
AcDbAttributeDefinition
  3

  2
COMPANY
 70
     8
280
     0
  0
INSERT
  5
90
330
6E
100
AcDbEntity
  8
0
100
AcDbBlockReference
  2
2_125836_0_in_125995_0
 10
0.0
 20
0.0
 30
0.0
  0
INSERT
  5
D0
330
6E
100
AcDbEntity
  8
0
100
AcDbBlockReference
  2
3_405016_Metric_0_in_125995_0
 10
0.0
 20
0.0
 30
0.0
  0
INSERT
  5
145
330
6E
100
AcDbEntity
  8
0
100
AcDbBlockReference
  2
4_125995H_0_in_125995_0
 10
0.0
 20
0.0
 30
0.0
  0
ENDBLK
  5
71
330
6E
100
AcDbEntity
  8
0
100
AcDbBlockEnd
  0
BLOCK
  5
91
330
8F
100
AcDbEntity
  8
0
100
AcDbBlockBegin
  2
2_125836_0_in_125995_0
 70
     2
 10
0.0
 20
0.0
 30
0.0
  3
2_125836_0_in_125995_0
  1

  0
ATTDEF
  5
93
330
8F
100
AcDbEntity
  8
AM_6
100
AcDbText
 10
59.75755034731413
 20
57.75
 30
0.0
 40
0.5
  1
Set Screw Medium Duty Insert Metric Bore
100
AcDbAttributeDefinition
  3

  2
NN
 70
     8
280
     0
  0
ATTDEF
  5
94
330
8F
100
AcDbEntity
  8
AM_6
100
AcDbText
 10
59.75755034731413
 20
57.25
 30
0.0
 40
0.5
  1
SC Medium Duty Bearing Inserts
100
AcDbAttributeDefinition
  3

  2
NT
 70
     8
280
     0
  0
ATTDEF
  5
95
330
8F
100
AcDbEntity
  8
AM_6
100
AcDbText
 10
59.75755034731413
 20
56.75
 30
0.0
 40
0.5
  1
125836
100
AcDbAttributeDefinition
  3

  2
NB
 70
     8
280
     0
  0
ATTDEF
  5
96
330
8F
100
AcDbEntity
  8
AM_6
100
AcDbText
 10
59.75755034731413
 20
56.25
 30
0.0
 40
0.5
  1
$PN.
100
AcDbAttributeDefinition
  3

  2
NBSYN
 70
     8
280
     0
  0
ATTDEF
  5
97
330
8F
100
AcDbEntity
  8
AM_6
100
AcDbText
 10
59.75755034731413
 20
55.75
 30
0.0
 40
0.5
  1
125836
100
AcDbAttributeDefinition
  3

  2
LINA
 70
     8
280
     0
  0
ATTDEF
  5
98
330
8F
100
AcDbEntity
  8
AM_6
100
AcDbText
 10
59.75755034731413
 20
55.25
 30
0.0
 40
0.5
  1
212
100
AcDbAttributeDefinition
  3

  2
SERIES
 70
     8
280
     0
  0
ATTDEF
  5
99
330
8F
100
AcDbEntity
  8
AM_6
100
AcDbText
 10
59.75755034731413
 20
54.75
 30
0.0
 40
0.5
  1
55
100
AcDbAttributeDefinition
  3

  2
SS
 70
     8
280
     0
  0
ATTDEF
  5
9A
330
8F
100
AcDbEntity
  8
AM_6
100
AcDbText
 10
59.75755034731413
 20
54.25
 30
0.0
 40
0.5
  1
125836
100
AcDbAttributeDefinition
  3

  2
PN
 70
     8
280
     0
  0
ATTDEF
  5
9B
330
8F
100
AcDbEntity
  8
AM_6
100
AcDbText
 10
59.75755034731413
 20
53.75
 30
0.0
 40
0.5
  1
INS-SCM-55M
100
AcDbAttributeDefinition
  3

  2
DESCRIPTION
 70
     8
280
     0
  0
ATTDEF
  5
9C
330
8F
100
AcDbEntity
  8
AM_6
100
AcDbText
 10
59.75755034731413
 20
53.25
 30
0.0
 40
0.5
  1
1.27
100
AcDbAttributeDefinition
  3

  2
WEIGHT
 70
     8
280
     0
  0
ATTDEF
  5
9D
330
8F
100
AcDbEntity
  8
AM_6
100
AcDbText
 10
59.75755034731413
 20
52.75
 30
0.0
 40
0.5
  1
58.7
100
AcDbAttributeDefinition
  3

  2
A
 70
     8
280
     0
  0
ATTDEF
  5
9E
330
8F
100
AcDbEntity
  8
AM_6
100
AcDbText
 10
59.75755034731413
 20
52.25
 30
0.0
 40
0.5
  1
25.9
100
AcDbAttributeDefinition
  3

  2
C
 70
     8
280
     0
  0
ATTDEF
  5
9F
330
8F
100
AcDbEntity
  8
AM_6
100
AcDbText
 10
59.75755034731413
 20
51.75
 30
0.0
 40
0.5
  1
110.0
100
AcDbAttributeDefinition
  3

  2
D
 70
     8
280
     0
  0
ATTDEF
  5
A0
330
8F
100
AcDbEntity
  8
AM_6
100
AcDbText
 10
59.75755034731413
 20
51.25
 30
0.0
 40
0.5
  1
6.4
100
AcDbAttributeDefinition
  3

  2
J
 70
     8
280
     0
  0
ATTDEF
  5
A1
330
8F
100
AcDbEntity
  8
AM_6
100
AcDbText
 10
59.75755034731413
 20
50.75
 30
0.0
 40
0.5
  1
75.4
100
AcDbAttributeDefinition
  3

  2
L
 70
     8
280
     0
  0
ATTDEF
  5
A2
330
8F
100
AcDbEntity
  8
AM_6
100
AcDbText
 10
59.75755034731413
 20
50.25
 30
0.0
 40
0.5
  1
M10 x 1.5
100
AcDbAttributeDefinition
  3

  2
N
 70
     8
280
     0
  0
ATTDEF
  5
A3
330
8F
100
AcDbEntity
  8
AM_6
100
AcDbText
 10
59.75755034731413
 20
49.75
 30
0.0
 40
0.5
  1
22.9
100
AcDbAttributeDefinition
  3

  2
W
 70
     8
280
     0
  0
ATTDEF
  5
A4
330
8F
100
AcDbEntity
  8
AM_6
100
AcDbText
 10
59.75755034731413
 20
49.25
 30
0.0
 40
0.5
  1
35.8
100
AcDbAttributeDefinition
  3

  2
Y
 70
     8
280
     0
  0
ATTDEF
  5
A5
330
8F
100
AcDbEntity
  8
AM_6
100
AcDbText
 10
59.75755034731413
 20
48.75
 30
0.0
 40
0.5
  1
baldor
100
AcDbAttributeDefinition
  3

  2
COMPANY
 70
     8
280
     0
  0
LINE
  5
A8
330
8F
100
AcDbEntity
  8
AM_9
100
AcDbLine
 10
-2.590000000000019
 20
55.39545454545454
 30
0.0
 11
-2.590000000000019
 21
54.32358229117533
 31
0.0
  0
LINE
  5
A9
330
8F
100
AcDbEntity
  8
AM_9
100
AcDbLine
 10
2.589999999999998
 20
54.32389609765738
 30
0.0
 11
2.589999999999998
 21
55.39545454545454
 31
0.0
  0
LWPOLYLINE
  5
AA
330
8F
100
AcDbEntity
  8
AM_9
100
AcDbPolyline
 90
        6
 70
     0
 43
0.0
 10
-1.051532932721731
 20
54.74748520561405
 10
-1.112000030217382
 20
54.74292405426468
 10
-1.814271624921891
 20
54.66082958148759
 10
-2.319312917314371
 20
54.53932297937138
 10
-2.569768678154188
 20
54.38638936005649
 10
-2.58999964149829
 20
54.32470577434053
  0
LWPOLYLINE
  5
AB
330
8F
100
AcDbEntity
  8
AM_9
100
AcDbPolyline
 90
        5
 70
     0
 43
0.0
 10
1.643796579584448
 20
54.68676502252347
 10
1.379680790036625
 20
54.71861289616691
 10
0.5748998041300154
 20
54.77330254955135
 10
-0.2867672364586388
 20
54.78117315822369
 10
-1.051532932721731
 20
54.74748520561405
  0
LWPOLYLINE
  5
AC
330
8F
100
AcDbEntity
  8
AM_9
100
AcDbPolyline
 90
        4
 70
     0
 43
0.0
 10
2.589999625491084
 20
54.32417166483287
 10
2.456042807771687
 20
54.47943484323632
 10
2.034288122148551
 20
54.6186679520201
 10
1.643796579584448
 20
54.68676502252347
  0
LWPOLYLINE
  5
AD
330
8F
100
AcDbEntity
  8
AM_9
100
AcDbPolyline
 90
        4
 70
     0
 43
0.0
 10
-2.58999964149829
 20
54.32470577434053
 10
-2.530346677955602
 20
54.21531951828311
 10
-2.196035509468246
 20
54.04585326492775
 10
-1.828349520247522
 20
53.94657691733011
  0
LINE
  5
AE
330
8F
100
AcDbEntity
  8
AM_9
100
AcDbLine
 10
0.2354545454545402
 20
57.75
 30
0.0
 11
-0.2354545170932696
 21
57.75
 31
0.0
  0
LINE
  5
AF
330
8F
100
AcDbEntity
  8
AM_9
100
AcDbLine
 10
2.589999999999999
 20
55.39545454545454
 30
0.0
 11
-2.590000000000019
 21
55.39545454545454
 31
0.0
  0
ARC
  5
B0
330
8F
100
AcDbEntity
  8
AM_9
100
AcDbCircle
 10
-0.2354545454545623
 20
55.39545454545454
 30
0.0
 40
2.354545454545459
100
AcDbArc
 50
90.0
 51
180.0
  0
ARC
  5
B1
330
8F
100
AcDbEntity
  8
AM_9
100
AcDbCircle
 10
0.2354545454545409
 20
55.39545454545454
 30
0.0
 40
2.354545454545458
100
AcDbArc
 50
0.0
 51
90.0
  0
LWPOLYLINE
  5
B2
330
8F
100
AcDbEntity
  8
AM_9
100
AcDbPolyline
 90
        9
 70
     0
 43
0.0
 10
-1.828349520247522
 20
53.94657691733011
 10
-1.127282464212208
 20
53.83626194910747
 10
-0.296119765206296
 20
53.78151718527567
 10
0.5570978843721874
 20
53.79148260755093
 10
1.341975681436634
 20
53.86243059677892
 10
1.986375683642982
 20
53.98402020214426
 10
2.42211300823012
 20
54.14111518767141
 10
2.589411170425834
 20
54.3137175538074
 10
2.589999625491084
 20
54.32417166483287
  0
CIRCLE
  5
B3
330
8F
100
AcDbEntity
  8
AM_9
100
AcDbCircle
 10
0.0
 20
0.0
 30
0.0
 40
52.40999999999994
  0
LINE
  5
B4
330
8F
100
AcDbEntity
  8
AM_9
100
AcDbLine
 10
27.18137137570101
 20
-4.188
 30
0.0
 11
37.36696401903696
 21
-4.188
 31
0.0
  0
LINE
  5
B5
330
8F
100
AcDbEntity
  8
AM_9
100
AcDbLine
 10
37.36696401903696
 20
4.188
 30
0.0
 11
27.17961448377654
 21
4.188
 31
0.0
  0
LINE
  5
B6
330
8F
100
AcDbEntity
  8
AM_9
100
AcDbLine
 10
7.691670535497443
 20
-26.40449292389638
 30
0.0
 11
11.99634436814317
 21
-35.63589574854155
 31
0.0
  0
LINE
  5
B7
330
8F
100
AcDbEntity
  8
AM_9
100
AcDbLine
 10
19.58757839236214
 20
-32.09604518820146
 30
0.0
 11
15.28205682564146
 21
-22.86282439196578
 31
0.0
  0
LINE
  5
B8
330
8F
100
AcDbEntity
  8
AM_9
100
AcDbLine
 10
19.58757839236215
 20
-32.09604518820146
 30
0.0
 11
11.99634436814317
 21
-35.63589574854155
 31
0.0
  0
LINE
  5
B9
330
8F
100
AcDbEntity
  8
AM_9
100
AcDbLine
 10
11.99634436814317
 20
-35.63589574854155
 30
0.0
 11
11.95623455699448
 21
-35.74609654897117
 31
0.0
  0
LINE
  5
BA
330
8F
100
AcDbEntity
  8
AM_9
100
AcDbLine
 10
19.70610833838053
 20
-32.13918656042133
 30
0.0
 11
19.58757839236214
 21
-32.09604518820146
 31
0.0
  0
LINE
  5
BB
330
8F
100
AcDbEntity
  8
AM_9
100
AcDbLine
 10
37.36696401903696
 20
4.188
 30
0.0
 11
37.36696401903696
 21
-4.188
 31
0.0
  0
LINE
  5
BC
330
8F
100
AcDbEntity
  8
AM_9
100
AcDbLine
 10
37.36696401903696
 20
-4.188
 30
0.0
 11
37.44959683936654
 21
-4.270632820329591
 31
0.0
  0
LINE
  5
BD
330
8F
100
AcDbEntity
  8
AM_9
100
AcDbLine
 10
37.45080206940077
 20
4.271838050363822
 30
0.0
 11
37.36696401903696
 21
4.188
 31
0.0
  0
LINE
  5
BF
330
8F
100
AcDbEntity
  8
AM_5
100
AcDbLine
 10
27.04163456597992
 20
5.0
 30
0.0
 11
37.36696401903691
 21
5.0
 31
0.0
  0
LINE
  5
C0
330
8F
100
AcDbEntity
  8
AM_5
100
AcDbLine
 10
27.04163456597992
 20
-5.0
 30
0.0
 11
37.36696401903691
 21
-5.0
 31
0.0
  0
LINE
  5
C1
330
8F
100
AcDbEntity
  8
AM_5
100
AcDbLine
 10
15.9598275300849
 20
-22.39495267264355
 30
0.0
 11
20.32350031543589
 21
-31.75287915966797
 31
0.0
  0
LINE
  5
C2
330
8F
100
AcDbEntity
  8
AM_5
100
AcDbLine
 10
6.896749659718399
 20
-26.62113529005054
 30
0.0
 11
11.26042244506939
 21
-35.97906177707497
 31
0.0
  0
LINE
  5
C5
330
8F
100
AcDbEntity
  8
AM_7
100
AcDbLine
 10
9.931759847544361
 20
-21.29872772589784
 30
0.0
 11
17.4997992584803
 21
-37.52844061733903
 31
0.0
  0
CIRCLE
  5
C7
330
8F
100
AcDbEntity
  8
AM_4
100
AcDbCircle
 10
0.0
 20
0.0
 30
0.0
 40
54.75755034731413
  0
CIRCLE
  5
C8
330
8F
100
AcDbEntity
  8
AM_4
100
AcDbCircle
 10
0.0
 20
0.0
 30
0.0
 40
54.15710346988021
  0
CIRCLE
  5
C9
330
8F
100
AcDbEntity
  8
AM_4
100
AcDbCircle
 10
0.0
 20
0.0
 30
0.0
 40
52.67597538503954
  0
CIRCLE
  5
CA
330
8F
100
AcDbEntity
  8
AM_4
100
AcDbCircle
 10
0.0
 20
0.0
 30
0.0
 40
51.71148383473064
  0
CIRCLE
  5
CB
330
8F
100
AcDbEntity
  8
AM_4
100
AcDbCircle
 10
0.0
 20
0.0
 30
0.0
 40
36.19200000000001
  0
CIRCLE
  5
CC
330
8F
100
AcDbEntity
  8
AM_4
100
AcDbCircle
 10
0.0
 20
0.0
 30
0.0
 40
37.69999999999997
  0
CIRCLE
  5
CD
330
8F
100
AcDbEntity
  8
AM_4
100
AcDbCircle
 10
0.0
 20
0.0
 30
0.0
 40
27.5
  0
CIRCLE
  5
CE
330
8F
100
AcDbEntity
  8
AM_4
100
AcDbCircle
 10
0.0
 20
0.0
 30
0.0
 40
29.00800000000002
  0
ENDBLK
  5
92
330
8F
100
AcDbEntity
  8
0
100
AcDbBlockEnd
  0
BLOCK
  5
D1
330
CF
100
AcDbEntity
  8
0
100
AcDbBlockBegin
  2
3_405016_Metric_0_in_125995_0
 70
     2
 10
0.0
 20
0.0
 30
0.0
  3
3_405016_Metric_0_in_125995_0
  1

  0
ATTDEF
  5
D3
330
CF
100
AcDbEntity
  8
AM_6
100
AcDbText
 10
-52.16888545090338
 20
-30.41490184921514
 30
0.0
 40
0.5
  1
405016 -Metric
100
AcDbAttributeDefinition
  3

  2
NN
 70
     8
280
     0
  0
ATTDEF
  5
D4
330
CF
100
AcDbEntity
  8
AM_6
100
AcDbText
 10
-52.16888545090338
 20
-30.91490184921514
 30
0.0
 40
0.5
  1
Grease Fitting
100
AcDbAttributeDefinition
  3

  2
NT
 70
     8
280
     0
  0
ATTDEF
  5
D5
330
CF
100
AcDbEntity
  8
AM_6
100
AcDbText
 10
-52.16888545090338
 20
-31.41490184921514
 30
0.0
 40
0.5
  1
405016-Metric
100
AcDbAttributeDefinition
  3

  2
NB
 70
     8
280
     0
  0
ATTDEF
  5
D6
330
CF
100
AcDbEntity
  8
AM_6
100
AcDbText
 10
-52.16888545090338
 20
-31.91490184921514
 30
0.0
 40
0.5
  1
$MN.-Metric
100
AcDbAttributeDefinition
  3

  2
NBSYN
 70
     8
280
     0
  0
ATTDEF
  5
D7
330
CF
100
AcDbEntity
  8
AM_6
100
AcDbText
 10
-52.16888545090338
 20
-32.41490184921514
 30
0.0
 40
0.5
  1
405016
100
AcDbAttributeDefinition
  3

  2
LINA
 70
     8
280
     0
  0
ATTDEF
  5
D8
330
CF
100
AcDbEntity
  8
AM_6
100
AcDbText
 10
-52.16888545090338
 20
-32.91490184921514
 30
0.0
 40
0.5
  1
405016
100
AcDbAttributeDefinition
  3

  2
MN
 70
     8
280
     0
  0
ATTDEF
  5
D9
330
CF
100
AcDbEntity
  8
AM_6
100
AcDbText
 10
-52.16888545090338
 20
-33.41490184921514
 30
0.0
 40
0.5
  1
7/16 HEX
100
AcDbAttributeDefinition
  3

  2
H
 70
     8
280
     0
  0
ATTDEF
  5
DA
330
CF
100
AcDbEntity
  8
AM_6
100
AcDbText
 10
-52.16888545090338
 20
-33.91490184921514
 30
0.0
 40
0.5
  1
9.728
100
AcDbAttributeDefinition
  3

  2
NDR
 70
     8
280
     0
  0
ATTDEF
  5
DB
330
CF
100
AcDbEntity
  8
AM_6
100
AcDbText
 10
-52.16888545090338
 20
-34.41490184921514
 30
0.0
 40
0.5
  1
8.560
100
AcDbAttributeDefinition
  3

  2
KDR
 70
     8
280
     0
  0
ATTDEF
  5
DC
330
CF
100
AcDbEntity
  8
AM_6
100
AcDbText
 10
-52.16888545090338
 20
-34.91490184921514
 30
0.0
 40
0.5
  1
4.0005
100
AcDbAttributeDefinition
  3

  2
BZE
 70
     8
280
     0
  0
ATTDEF
  5
DD
330
CF
100
AcDbEntity
  8
AM_6
100
AcDbText
 10
-52.16888545090338
 20
-35.41490184921514
 30
0.0
 40
0.5
  1
11.1125
100
AcDbAttributeDefinition
  3

  2
HEX
 70
     8
280
     0
  0
ATTDEF
  5
DE
330
CF
100
AcDbEntity
  8
AM_6
100
AcDbText
 10
-52.16888545090338
 20
-35.91490184921514
 30
0.0
 40
0.5
  1
7.143750
100
AcDbAttributeDefinition
  3

  2
HEX2
 70
     8
280
     0
  0
ATTDEF
  5
DF
330
CF
100
AcDbEntity
  8
AM_6
100
AcDbText
 10
-52.16888545090338
 20
-36.41490184921514
 30
0.0
 40
0.5
  1
baldor
100
AcDbAttributeDefinition
  3

  2
COMPANY
 70
     8
280
     0
  0
LINE
  5
E0
330
CF
100
AcDbEntity
  8
AM_9
100
AcDbLine
 10
-57.16888545090338
 20
-37.74808578695018
 30
0.0
 11
-61.27524396118486
 21
-30.63566421304982
 31
0.0
  0
LINE
  5
E1
330
CF
100
AcDbEntity
  8
AM_9
100
AcDbLine
 10
-61.27524396118486
 20
-30.63566421304982
 30
0.0
 11
-62.09914031941489
 21
-30.41490184921514
 31
0.0
  0
LINE
  5
E2
330
CF
100
AcDbEntity
  8
AM_9
100
AcDbLine
 10
-57.38964781473806
 20
-38.57198214518022
 30
0.0
 11
-57.16888545090338
 21
-37.74808578695018
 31
0.0
  0
ARC
  5
E3
330
CF
100
AcDbEntity
  8
AM_9
100
AcDbCircle
 10
-71.1829580640619
 20
-41.09749999999996
 30
0.0
 40
5.080000000000039
100
AcDbArc
 50
165.869084806084
 51
253.7733271055636
  0
LINE
  5
E4
330
CF
100
AcDbEntity
  8
AM_9
100
AcDbLine
 10
-57.38964781473806
 20
-38.57198214518022
 30
0.0
 11
-62.09914031941489
 21
-30.41490184921514
 31
0.0
  0
LINE
  5
E5
330
CF
100
AcDbEntity
  8
AM_9
100
AcDbLine
 10
-62.09914031941489
 20
-30.41490184921514
 30
0.0
 11
-66.46606091339824
 21
-32.75740551902643
 31
0.0
  0
LINE
  5
E6
330
CF
100
AcDbEntity
  8
AM_9
100
AcDbLine
 10
-61.60177579824459
 20
-41.18259448097358
 30
0.0
 11
-57.38964781473806
 21
-38.57198214518022
 31
0.0
  0
LINE
  5
E7
330
CF
100
AcDbEntity
  8
AM_9
100
AcDbLine
 10
-74.87636296029912
 20
-45.61113831106881
 30
0.0
 11
-75.16393092018559
 21
-45.77716575011958
 31
0.0
  0
LINE
  5
E8
330
CF
100
AcDbEntity
  8
AM_9
100
AcDbLine
 10
-76.93858595306081
 20
-42.03926331106881
 30
0.0
 11
-77.2261539129473
 21
-42.20529075011959
 31
0.0
  0
LWPOLYLINE
  5
E9
330
CF
100
AcDbEntity
  8
AM_9
100
AcDbPolyline
 90
        4
 70
     0
 43
0.0
 10
-76.93858595306081
 20
-42.03926331106881
 10
-76.10875640513721
 20
-43.27852718757703
 10
-75.34745284320499
 20
-44.63052124034202
 10
-74.87636296029912
 20
-45.61113831106881
  0
LINE
  5
EA
330
CF
100
AcDbEntity
  8
AM_9
100
AcDbLine
 10
-69.79171095642391
 20
-43.50721067631232
 30
0.0
 11
-72.58671549266823
 21
-38.66612081215169
 31
0.0
  0
ELLIPSE
  5
EB
330
CF
100
AcDbEntity
  8
AM_9
100
AcDbEllipse
 10
-72.9766079056425
 20
-42.13306421886847
 30
0.0
 11
-1.785937500000003
 21
3.093334489142542
 31
0.0
210
0.0
220
0.0
230
1.0
 40
0.9063077870366506
 41
5.859216366485143
 42
9.84874690146382
  0
LWPOLYLINE
  5
EC
330
CF
100
AcDbEntity
  8
AM_9
100
AcDbPolyline
 90
        4
 70
     0
 43
0.0
 10
-74.87636296029912
 20
-45.61113831106881
 10
-73.40117220447229
 20
-45.62086209670619
 10
-71.9666510155956
 20
-45.69142327771372
 10
-71.03652187092129
 20
-45.77545502447114
  0
LWPOLYLINE
  5
ED
330
CF
100
AcDbEntity
  8
AM_9
100
AcDbPolyline
 90
        4
 70
     0
 43
0.0
 10
-75.16096785644467
 20
-38.63170502447114
 10
-75.71095312150979
 20
-39.80100486283386
 10
-76.38684460097886
 20
-41.07892471870116
 10
-76.93858595306081
 20
-42.03926331106881
  0
LWPOLYLINE
  5
EE
330
CF
100
AcDbEntity
  8
AM_9
100
AcDbPolyline
 90
        3
 70
     0
 43
0.0
 10
-70.05090291938937
 20
-43.05827702754266
 10
-70.52648079755288
 20
-43.81169258101902
 10
-71.1137014040359
 20
-44.28374677865349
  0
LWPOLYLINE
  5
EF
330
CF
100
AcDbEntity
  8
AM_9
100
AcDbPolyline
 90
        8
 70
     0
 43
0.0
 10
-70.05090291938937
 20
-43.05827702754266
 10
-69.92505454339884
 20
-42.65201089390838
 10
-69.88370047957787
 20
-41.81829675767452
 10
-70.11824154454155
 20
-40.93132388347286
 10
-70.60654862727255
 20
-40.13171697599753
 10
-71.2878211301039
 20
-39.52259458609682
 10
-72.11602327475772
 20
-39.17226857346145
 10
-72.31501320873454
 20
-39.13672297245734
  0
LINE
  5
F0
330
CF
100
AcDbEntity
  8
AM_9
100
AcDbLine
 10
-73.9058084686984
 20
-39.44330510984832
 30
0.0
 11
-74.3736079056425
 21
-39.71338924069475
 31
0.0
  0
LINE
  5
F1
330
CF
100
AcDbEntity
  8
AM_9
100
AcDbLine
 10
-71.57960790564249
 20
-44.55273919704218
 30
0.0
 11
-71.11180806417548
 21
-44.28265483264434
 31
0.0
  0
LWPOLYLINE
  5
F2
330
CF
100
AcDbEntity
  8
AM_9
100
AcDbPolyline
 90
       12
 70
     0
 43
0.0
 10
-71.1137014040359
 20
-44.28374677865349
 10
-71.2258310541273
 20
-44.34450398452264
 10
-72.07070735849372
 20
-44.5966474248098
 10
-72.96512235184287
 20
-44.53897056608314
 10
-73.80704358902267
 20
-44.17844987254283
 10
-74.50126124365242
 20
-43.55713980143761
 10
-74.97039677925292
 20
-42.74617048344426
 10
-75.16284185118167
 20
-41.83682779519101
 10
-75.0574499419189
 20
-40.93043103280827
 10
-74.66539722512715
 20
-40.12795336822163
 10
-74.02944878143701
 20
-39.51968684955893
 10
-73.90778520844913
 20
-39.44444766089994
  0
LWPOLYLINE
  5
F3
330
CF
100
AcDbEntity
  8
AM_9
100
AcDbPolyline
 90
        3
 70
     0
 43
0.0
 10
-73.90778520844913
 20
-39.44444766089994
 10
-73.22033400243481
 20
-39.17524012688494
 10
-72.3150132087341
 20
-39.13672297245753
  0
ELLIPSE
  5
F4
330
CF
100
AcDbEntity
  8
AM_9
100
AcDbEllipse
 10
-72.97660790564262
 20
-42.13306421886845
 30
0.0
 11
-1.785937500000031
 21
3.093334489142683
 31
0.0
210
0.0
220
0.0
230
1.0
 40
0.9063077870366455
 41
3.764821264091974
 42
4.571432719802696
  0
ELLIPSE
  5
F5
330
CF
100
AcDbEntity
  8
AM_9
100
AcDbEllipse
 10
-72.97660790564254
 20
-42.13306421886858
 30
0.0
 11
-1.785937500000558
 21
3.093334489142371
 31
0.0
210
0.0
220
0.0
230
1.0
 40
0.9063077870366862
 41
4.853345240966575
 42
5.659956696677276
  0
LWPOLYLINE
  5
F6
330
CF
100
AcDbEntity
  8
AM_9
100
AcDbPolyline
 90
        3
 70
     0
 43
0.0
 10
-75.16393092018559
 20
-45.77716575011958
 10
-76.24999619607252
 20
-44.06453519314443
 10
-77.2261539129473
 20
-42.20529075011959
  0
LWPOLYLINE
  5
F7
330
CF
100
AcDbEntity
  8
AM_9
100
AcDbPolyline
 90
        4
 70
     0
 43
0.0
 10
-72.5981034503166
 20
-45.92971816343133
 10
-73.28857684404116
 20
-45.90578491330026
 10
-74.24771323526498
 20
-45.85137087674926
 10
-75.16393092018559
 20
-45.77716575011958
  0
LWPOLYLINE
  5
F8
330
CF
100
AcDbEntity
  8
AM_9
100
AcDbPolyline
 90
        3
 70
     0
 43
0.0
 10
-77.2261539129473
 20
-42.20529075011959
 10
-76.43097159968923
 20
-40.57674219793952
 10
-76.0573231554921
 20
-39.87376327957914
  0
ELLIPSE
  5
F9
330
CF
100
AcDbEntity
  8
AM_9
100
AcDbEllipse
 10
-73.44142555712125
 20
-42.4014268150738
 30
0.0
 11
-1.78593749999999
 21
3.093334489142535
 31
0.0
210
0.0
220
0.0
230
1.0
 40
0.9063077870366532
 41
0.2351303877495052
 42
2.89830073147034
  0
LWPOLYLINE
  5
FA
330
CF
100
AcDbEntity
  8
AM_9
100
AcDbPolyline
 90
       16
 70
     0
 43
0.0
 10
-71.86818573208134
 20
-42.7360301000508
 10
-71.82958779563795
 20
-43.18387843935628
 10
-71.86772946298558
 20
-43.64666005703718
 10
-71.98353254754943
 20
-44.07306763294834
 10
-72.17048358277823
 20
-44.45108417679494
 10
-72.42370509728232
 20
-44.77257611662057
 10
-72.74276488586477
 20
-45.03060861367991
 10
-73.12957185658438
 20
-45.21356057628928
 10
-73.57105302669437
 20
-45.30220240135028
 10
-73.98283093324929
 20
-45.29287382766589
 10
-74.44148361220756
 20
-45.18787501094278
 10
-74.88388917260535
 20
-44.98981953985889
 10
-75.29421425925044
 20
-44.70726736227567
 10
-75.65746459058624
 20
-44.35097339344342
 10
-75.94419848492147
 20
-43.95998743727534
 10
-75.99471887078487
 20
-43.87557139703758
  0
LWPOLYLINE
  5
FB
330
CF
100
AcDbEntity
  8
AM_9
100
AcDbPolyline
 90
       16
 70
     0
 43
0.0
 10
-75.99471887078487
 20
-43.87557139703758
 10
-76.098361039995
 20
-43.68048221218537
 10
-76.28271443715543
 20
-43.20669225296385
 10
-76.38393706141447
 20
-42.72033489440067
 10
-76.40067402620853
 20
-42.24198244450414
 10
-76.33600916523608
 20
-41.78970300430048
 10
-76.19582965873975
 20
-41.37826974713274
 10
-75.98647130821806
 20
-41.01829865173841
 10
-75.7115532097794
 20
-40.71705839024477
 10
-75.37000429900785
 20
-40.48228797805221
 10
-74.9617154971673
 20
-40.32837799793095
 10
-74.5587662290619
 20
-40.27521551151565
 10
-74.14503919841569
 20
-40.30556954857401
 10
-73.68898388267598
 20
-40.43251996736177
 10
-73.25261622270052
 20
-40.65074972012673
 10
-72.93145825883248
 20
-40.88251362865689
  0
ELLIPSE
  5
FC
330
CF
100
AcDbEntity
  8
AM_9
100
AcDbEllipse
 10
-74.73684848740398
 20
-43.14933959258695
 30
0.0
 11
1.691562466580847
 21
-2.929872136294563
 31
0.0
210
0.0
220
0.0
230
1.0
 40
0.9063077870366513
 41
0.0
 42
6.283185307179586
  0
LINE
  5
FD
330
CF
100
AcDbEntity
  8
AM_5
100
AcDbLine
 10
-60.98405382986507
 20
-40.11266864678881
 30
0.0
 11
-57.16888545090338
 21
-37.74808578695018
 31
0.0
  0
LINE
  5
FE
330
CF
100
AcDbEntity
  8
AM_5
100
AcDbLine
 10
-61.60177579824458
 20
-41.18259448097358
 30
0.0
 11
-60.98405382986508
 21
-40.11266864678881
 31
0.0
  0
LINE
  5
FF
330
CF
100
AcDbEntity
  8
AM_5
100
AcDbLine
 10
-65.23061697663923
 20
-32.75740551902643
 30
0.0
 11
-61.27524396118488
 21
-30.63566421304982
 31
0.0
  0
LINE
  5
100
330
CF
100
AcDbEntity
  8
AM_5
100
AcDbLine
 10
-66.46606091339824
 20
-32.75740551902642
 30
0.0
 11
-65.23061697663923
 21
-32.75740551902643
 31
0.0
  0
LINE
  5
101
330
CF
100
AcDbEntity
  8
AM_5
100
AcDbLine
 10
-65.5227595342903
 20
-32.25139976612162
 30
0.0
 11
-60.69191127221398
 21
-40.61867439969362
 31
0.0
  0
ELLIPSE
  5
102
330
CF
100
AcDbEntity
  8
AM_9
100
AcDbEllipse
 10
-72.97660790564248
 20
-42.13306421886844
 30
0.0
 11
-1.39700000000002
 21
2.419674978173731
 31
0.0
210
0.0
220
0.0
230
1.0
 40
0.9063077870366507
 41
0.0
 42
6.283185307179586
  0
LINE
  5
103
330
CF
100
AcDbEntity
  8
AM_7
100
AcDbLine
 10
-76.51695806406207
 20
-41.09749999999991
 30
0.0
 11
-65.84895806406186
 21
-41.09749999999991
 31
0.0
  0
LINE
  5
104
330
CF
100
AcDbEntity
  8
AM_7
100
AcDbLine
 10
-71.18295806406196
 20
-46.43150000000001
 30
0.0
 11
-71.18295806406196
 21
-35.76349999999982
 31
0.0
  0
LINE
  5
105
330
CF
100
AcDbEntity
  8
AM_4
100
AcDbLine
 10
-65.17401704206863
 20
-44.04404114977729
 30
0.0
 11
-64.54477920799293
 21
-44.673278983853
 31
0.0
  0
LINE
  5
106
330
CF
100
AcDbEntity
  8
AM_4
100
AcDbLine
 10
-65.17401704206863
 20
-44.04404114977729
 30
0.0
 11
-70.73026704206863
 21
-34.42033385022272
 31
0.0
  0
LINE
  5
107
330
CF
100
AcDbEntity
  8
AM_4
100
AcDbLine
 10
-70.96058407436263
 20
-33.560778983853
 30
0.0
 11
-70.73026704206863
 21
-34.42033385022272
 31
0.0
  0
LINE
  5
108
330
CF
100
AcDbEntity
  8
AM_4
100
AcDbLine
 10
-62.97431251645616
 20
-42.7740411497773
 30
0.0
 11
-68.53056251645616
 21
-33.15033385022272
 31
0.0
  0
LINE
  5
109
330
CF
100
AcDbEntity
  8
AM_4
100
AcDbLine
 10
-68.53056251645616
 20
-33.15033385022272
 30
0.0
 11
-69.15980035053187
 21
-32.52109601614701
 31
0.0
  0
LINE
  5
10A
330
CF
100
AcDbEntity
  8
AM_4
100
AcDbLine
 10
-62.74399548416215
 20
-43.63359601614701
 30
0.0
 11
-62.97431251645616
 21
-42.7740411497773
 31
0.0
  0
ARC
  5
10B
330
CF
100
AcDbEntity
  8
AM_4
100
AcDbCircle
 10
-71.18295806406198
 20
-41.0975
 30
0.0
 40
5.079999999999995
100
AcDbArc
 50
253.7733271055642
 51
300.0000000000002
  0
ARC
  5
10C
330
CF
100
AcDbEntity
  8
AM_4
100
AcDbCircle
 10
-71.1829580640619
 20
-41.09750000000004
 30
0.0
 40
5.080000000000057
100
AcDbArc
 50
120.0000000000003
 51
165.8690848060832
  0
LINE
  5
10D
330
CF
100
AcDbEntity
  8
AM_4
100
AcDbLine
 10
-72.58671549266823
 20
-38.66612081215169
 30
0.0
 11
-73.72295806406196
 21
-36.69809094877505
 31
0.0
  0
LINE
  5
10E
330
CF
100
AcDbEntity
  8
AM_4
100
AcDbLine
 10
-70.49214204206864
 20
-34.83277844877505
 30
0.0
 11
-73.72295806406196
 21
-36.69809094877505
 31
0.0
  0
LINE
  5
10F
330
CF
100
AcDbEntity
  8
AM_4
100
AcDbLine
 10
-68.64295806406196
 20
-45.49690905122495
 30
0.0
 11
-65.41214204206864
 21
-43.63159655122495
 31
0.0
  0
LINE
  5
110
330
CF
100
AcDbEntity
  8
AM_4
100
AcDbLine
 10
-68.64295806406196
 20
-45.49690905122495
 30
0.0
 11
-69.79171095642391
 21
-43.50721067631232
 31
0.0
  0
LINE
  5
111
330
CF
100
AcDbEntity
  8
AM_4
100
AcDbLine
 10
-66.5739183558214
 20
-32.57059094877506
 30
0.0
 11
-68.29243751645615
 21
-33.56277844877506
 31
0.0
  0
LINE
  5
112
330
CF
100
AcDbEntity
  8
AM_4
100
AcDbLine
 10
-63.21243751645615
 20
-42.36159655122495
 30
0.0
 11
-61.49391835582141
 21
-41.36940905122495
 31
0.0
  0
LINE
  5
113
330
CF
100
AcDbEntity
  8
AM_4
100
AcDbLine
 10
-70.96058407436263
 20
-33.560778983853
 30
0.0
 11
-69.15980035053187
 21
-32.52109601614701
 31
0.0
  0
LWPOLYLINE
  5
114
330
CF
100
AcDbEntity
  8
AM_4
100
AcDbPolyline
 90
        3
 70
     0
 43
0.0
 10
-70.35806886695728
 20
-35.065
 10
-70.70640936566183
 20
-34.34007281403007
 10
-70.96058407436263
 20
-33.560778983853
  0
LWPOLYLINE
  5
115
330
CF
100
AcDbEntity
  8
AM_4
100
AcDbPolyline
 90
        3
 70
     0
 43
0.0
 10
-69.35663285777021
 20
-36.338903983853
 10
-69.90216569907781
 20
-35.73198958265813
 10
-70.35806886695728
 20
-35.065
  0
LWPOLYLINE
  5
116
330
CF
100
AcDbEntity
  8
AM_4
100
AcDbPolyline
 90
        3
 70
     0
 43
0.0
 10
-68.1583643413448
 20
-33.795
 10
-67.81002384264023
 20
-34.51992718596994
 10
-67.55584913393943
 20
-35.29922101614701
  0
LWPOLYLINE
  5
117
330
CF
100
AcDbEntity
  8
AM_4
100
AcDbPolyline
 90
        3
 70
     0
 43
0.0
 10
-69.15980035053187
 20
-32.52109601614701
 10
-68.61426750922425
 20
-33.12801041734188
 10
-68.1583643413448
 20
-33.795
  0
LWPOLYLINE
  5
118
330
CF
100
AcDbEntity
  8
AM_4
100
AcDbPolyline
 90
        3
 70
     0
 43
0.0
 10
-65.54621521717999
 20
-43.39937500000001
 10
-65.89455571588455
 20
-42.67444781403006
 10
-66.14873042458535
 20
-41.89515398385301
  0
LWPOLYLINE
  5
119
330
CF
100
AcDbEntity
  8
AM_4
100
AcDbPolyline
 90
        3
 70
     0
 43
0.0
 10
-64.54477920799293
 20
-44.673278983853
 10
-65.09031204930054
 20
-44.06636458265812
 10
-65.54621521717999
 20
-43.39937500000001
  0
LINE
  5
11A
330
CF
100
AcDbEntity
  8
AM_4
100
AcDbLine
 10
-64.54477920799293
 20
-44.673278983853
 30
0.0
 11
-62.74399548416215
 21
-43.63359601614701
 31
0.0
  0
LWPOLYLINE
  5
11B
330
CF
100
AcDbEntity
  8
AM_4
100
AcDbPolyline
 90
        3
 70
     0
 43
0.0
 10
-63.34651069156751
 20
-42.129375
 10
-62.99817019286295
 20
-42.85430218596994
 10
-62.74399548416215
 20
-43.63359601614701
  0
LWPOLYLINE
  5
11C
330
CF
100
AcDbEntity
  8
AM_4
100
AcDbPolyline
 90
        3
 70
     0
 43
0.0
 10
-64.34794670075458
 20
-40.85547101614701
 10
-63.80241385944697
 20
-41.46238541734187
 10
-63.34651069156751
 20
-42.129375
  0
LINE
  5
11D
330
CF
100
AcDbEntity
  8
AM_4
100
AcDbLine
 10
-69.35663285777021
 20
-36.338903983853
 30
0.0
 11
-67.55584913393943
 21
-35.29922101614701
 31
0.0
  0
LWPOLYLINE
  5
11E
330
CF
100
AcDbEntity
  8
AM_4
100
AcDbPolyline
 90
        3
 70
     0
 43
0.0
 10
-67.95214204206863
 20
-39.2321875
 10
-69.06090049362071
 20
-37.03325497268395
 10
-69.35663285777021
 20
-36.338903983853
  0
LWPOLYLINE
  5
11F
330
CF
100
AcDbEntity
  8
AM_4
100
AcDbPolyline
 90
        3
 70
     0
 43
0.0
 10
-66.14873042458535
 20
-41.89515398385301
 10
-67.09344812089856
 20
-40.59683113217643
 10
-67.95214204206863
 20
-39.2321875
  0
LINE
  5
120
330
CF
100
AcDbEntity
  8
AM_4
100
AcDbLine
 10
-66.14873042458535
 20
-41.89515398385301
 30
0.0
 11
-64.34794670075458
 21
-40.85547101614701
 31
0.0
  0
LWPOLYLINE
  5
121
330
CF
100
AcDbEntity
  8
AM_4
100
AcDbPolyline
 90
        3
 70
     0
 43
0.0
 10
-65.75243751645615
 20
-37.9621875
 10
-65.00310921360348
 20
-39.38164593596995
 10
-64.34794670075458
 20
-40.85547101614701
  0
LWPOLYLINE
  5
122
330
CF
100
AcDbEntity
  8
AM_4
100
AcDbPolyline
 90
        3
 70
     0
 43
0.0
 10
-67.55584913393943
 20
-35.29922101614701
 10
-67.10238972054374
 20
-35.90250825063718
 10
-65.75243751645615
 20
-37.9621875
  0
LINE
  5
123
330
CF
100
AcDbEntity
  8
AM_4
100
AcDbLine
 10
-71.33337792489773
 20
-45.94684494714501
 30
0.0
 11
-72.5981034503166
 21
-45.92971816343133
 31
0.0
  0
LINE
  5
124
330
CF
100
AcDbEntity
  8
AM_4
100
AcDbLine
 10
-76.0573231554921
 20
-39.87376327957914
 30
0.0
 11
-75.45782391042113
 21
-38.80309494714501
 31
0.0
  0
LINE
  5
125
330
CF
100
AcDbEntity
  8
AM_4
100
AcDbLine
 10
-71.03652187092129
 20
-45.77545502447114
 30
0.0
 11
-70.19547860717158
 21
-44.28665993102582
 31
0.0
  0
LINE
  5
126
330
CF
100
AcDbEntity
  8
AM_4
100
AcDbLine
 10
-70.19547860717158
 20
-44.28665993102582
 30
0.0
 11
-69.89013174055366
 21
-43.70012942772722
 31
0.0
  0
LWPOLYLINE
  5
127
330
CF
100
AcDbEntity
  8
AM_4
100
AcDbPolyline
 90
        3
 70
     0
 43
0.0
 10
-69.89013174055366
 20
-43.70012942772722
 10
-69.6573410815091
 20
-43.22910892482295
 10
-69.25886482850136
 20
-42.36787425250316
  0
LINE
  5
128
330
CF
100
AcDbEntity
  8
AM_4
100
AcDbLine
 10
-70.66029625865029
 20
-44.55502252723112
 30
0.0
 11
-71.33337792489773
 21
-45.94684494714501
 31
0.0
  0
LINE
  5
129
330
CF
100
AcDbEntity
  8
AM_4
100
AcDbLine
 10
-71.03652187092129
 20
-45.77545502447114
 30
0.0
 11
-71.33337792489773
 21
-45.94684494714501
 31
0.0
  0
LINE
  5
12A
330
CF
100
AcDbEntity
  8
AM_4
100
AcDbLine
 10
-71.32108782126305
 20
-38.79599925250316
 30
0.0
 11
-72.79048810335652
 21
-38.67656484729698
 31
0.0
  0
LINE
  5
12B
330
CF
100
AcDbEntity
  8
AM_4
100
AcDbLine
 10
-72.79048810335652
 20
-38.67656484729698
 30
0.0
 11
-73.45111185261653
 21
-38.64773773910476
 31
0.0
  0
LWPOLYLINE
  5
12C
330
CF
100
AcDbEntity
  8
AM_4
100
AcDbPolyline
 90
        3
 70
     0
 43
0.0
 10
-73.45111185261653
 20
-38.64773773910476
 10
-74.03505873379945
 20
-38.63396339412864
 10
-75.16096785644467
 20
-38.63170502447114
  0
LINE
  5
12D
330
CF
100
AcDbEntity
  8
AM_4
100
AcDbLine
 10
-75.16096785644467
 20
-38.63170502447114
 30
0.0
 11
-75.45782391042113
 21
-38.80309494714501
 31
0.0
  0
LINE
  5
12E
330
CF
100
AcDbEntity
  8
AM_4
100
AcDbLine
 10
-75.45782391042113
 20
-38.80309494714501
 30
0.0
 11
-73.91592950409525
 21
-38.91610033531011
 31
0.0
  0
LINE
  5
12F
330
CF
100
AcDbEntity
  8
AM_4
100
AcDbLine
 10
-73.2553057548353
 20
-38.94492744350232
 30
0.0
 11
-71.62730131376189
 21
-38.97279169482685
 31
0.0
  0
LINE
  5
130
330
CF
100
AcDbEntity
  8
AM_4
100
AcDbLine
 10
-69.5650783210002
 20
-42.54466669482686
 30
0.0
 11
-70.35494939203242
 21
-43.9684920239326
 31
0.0
  0
LINE
  5
131
330
CF
100
AcDbEntity
  8
AM_4
100
AcDbLine
 10
-69.25886482850136
 20
-42.36787425250316
 30
0.0
 11
-69.94999344278318
 21
-40.96509077583033
 31
0.0
  0
LINE
  5
132
330
CF
100
AcDbEntity
  8
AM_4
100
AcDbLine
 10
-69.94999344278318
 20
-40.96509077583033
 30
0.0
 11
-70.45180600159618
 21
-40.09592592808983
 31
0.0
  0
LWPOLYLINE
  5
133
330
CF
100
AcDbEntity
  8
AM_4
100
AcDbPolyline
 90
        3
 70
     0
 43
0.0
 10
-70.45180600159618
 20
-40.09592592808983
 10
-70.6867213411091
 20
-39.72364633553605
 10
-71.32108782126305
 20
-38.79599925250316
  0
LINE
  5
134
330
CF
100
AcDbEntity
  8
AM_4
100
AcDbLine
 10
-71.32108782126305
 20
-38.79599925250316
 30
0.0
 11
-71.62730131376189
 21
-38.97279169482685
 31
0.0
  0
LINE
  5
135
330
CF
100
AcDbEntity
  8
AM_4
100
AcDbLine
 10
-71.62730131376189
 20
-38.97279169482685
 30
0.0
 11
-70.91662365307498
 21
-40.36428852429533
 31
0.0
  0
LINE
  5
136
330
CF
100
AcDbEntity
  8
AM_4
100
AcDbLine
 10
-70.41481109426195
 20
-41.23345337203565
 30
0.0
 11
-69.5650783210002
 21
-42.54466669482686
 31
0.0
  0
LINE
  5
137
330
CF
100
AcDbEntity
  8
AM_4
100
AcDbLine
 10
-69.25886482850136
 20
-42.36787425250316
 30
0.0
 11
-69.5650783210002
 21
-42.54466669482686
 31
0.0
  0
LINE
  5
138
330
CF
100
AcDbEntity
  8
AM_4
100
AcDbLine
 10
-73.91592950409525
 20
-38.91610033531011
 30
0.0
 11
-73.2553057548353
 21
-38.94492744350232
 31
0.0
  0
ELLIPSE
  5
139
330
CF
100
AcDbEntity
  8
AM_4
100
AcDbEllipse
 10
-73.44142555712128
 20
-42.40142681507382
 30
0.0
 11
-1.785937500000103
 21
3.093334489142492
 31
0.0
210
0.0
220
0.0
230
1.0
 40
0.9063077870366506
 41
2.89830073147031
 42
3.565561594284225
  0
ELLIPSE
  5
13A
330
CF
100
AcDbEntity
  8
AM_4
100
AcDbEllipse
 10
-73.44142555712115
 20
-42.40142681507397
 30
0.0
 11
-1.785937500000172
 21
3.093334489142649
 31
0.0
210
0.0
220
0.0
230
1.0
 40
0.9063077870366506
 41
5.859216366485125
 42
6.518315694929048
  0
LINE
  5
13B
330
CF
100
AcDbEntity
  8
AM_4
100
AcDbLine
 10
-70.35494939203242
 20
-43.9684920239326
 30
0.0
 11
-70.66029625865029
 21
-44.55502252723112
 31
0.0
  0
ELLIPSE
  5
13C
330
CF
100
AcDbEntity
  8
AM_4
100
AcDbEllipse
 10
-73.44142555712116
 20
-42.40142681507382
 30
0.0
 11
-1.78593749999996
 21
3.093334489142464
 31
0.0
210
0.0
220
0.0
230
1.0
 40
0.906307787036649
 41
3.764821264091925
 42
4.571432719802722
  0
LINE
  5
13D
330
CF
100
AcDbEntity
  8
AM_4
100
AcDbLine
 10
-70.91662365307498
 20
-40.36428852429533
 30
0.0
 11
-70.41481109426195
 21
-41.23345337203565
 31
0.0
  0
ELLIPSE
  5
13E
330
CF
100
AcDbEntity
  8
AM_4
100
AcDbEllipse
 10
-73.4414255571212
 20
-42.40142681507373
 30
0.0
 11
-1.78593749999996
 21
3.093334489142464
 31
0.0
210
0.0
220
0.0
230
1.0
 40
0.9063077870366465
 41
4.853345240966656
 42
5.65995669667745
  0
LWPOLYLINE
  5
13F
330
CF
100
AcDbEntity
  8
AM_4
100
AcDbPolyline
 90
        6
 70
     0
 43
0.0
 10
-78.23608055891445
 20
-42.33674697532119
 10
-78.29301722944786
 20
-42.80659121127763
 10
-78.27509128232977
 20
-43.41629904073272
 10
-78.15610002324813
 20
-44.02212061659778
 10
-77.93913284096949
 20
-44.60578278728041
 10
-77.78207164089937
 20
-44.90750000000001
  0
LWPOLYLINE
  5
140
330
CF
100
AcDbEntity
  8
AM_4
100
AcDbPolyline
 90
       30
 70
     0
 43
0.0
 10
-75.83278322037445
 20
-46.56815774144972
 10
-75.62951924904995
 20
-46.63561412395413
 10
-75.04124388585903
 20
-46.75568254786863
 10
-74.44939956179779
 20
-46.7682817706369
 10
-73.87270283494185
 20
-46.67351047329205
 10
-73.3290221893056
 20
-46.47514219344298
 10
-72.83461398908297
 20
-46.18015643877782
 10
-72.40372544814144
 20
-45.79812890371461
 10
-72.04862571055921
 20
-45.34095241497629
 10
-71.7790906878491
 20
-44.82197244721176
 10
-71.6027492965092
 20
-44.25602093703053
 10
-71.52491472614864
 20
-43.65934688477752
 10
-71.54827571491454
 20
-43.04938385716515
 10
-71.67261381828958
 20
-42.44428683656327
 10
-71.89467730874726
 20
-41.86231836283378
 10
-72.20823603809559
 20
-41.32121538339811
 10
-72.60425968193019
 20
-40.83762360327013
 10
-73.07104772517583
 20
-40.42668227479667
 10
-73.59463103373135
 20
-40.10137189457743
 10
-74.15900779280669
 20
-39.87214157257196
 10
-74.74656195343204
 20
-39.74639278244089
 10
-75.33869264094626
 20
-39.72801091852818
 10
-75.91666389243863
 20
-39.81710064786132
 10
-76.46253992746577
 20
-40.01007585058281
 10
-76.95996416323841
 20
-40.30011284505498
 10
-77.39459036074597
 20
-40.67777372382841
 10
-77.75401114711642
 20
-41.13125429663712
 10
-78.02833637304893
 20
-41.64729031993891
 10
-78.20981983881353
 20
-42.21112829961555
 10
-78.23608055891445
 20
-42.33674697532119
  0
LWPOLYLINE
  5
141
330
CF
100
AcDbEntity
  8
AM_4
100
AcDbPolyline
 90
        6
 70
     0
 43
0.0
 10
-77.78207164089937
 20
-44.90750000000001
 10
-77.5917957423717
 20
-45.2050661969359
 10
-77.19198201050345
 20
-45.68468927623381
 10
-76.72178251000192
 20
-46.09135522175738
 10
-76.19559440123527
 20
-46.41176363493791
 10
-75.83278322037445
 20
-46.56815774144972
  0
ELLIPSE
  5
142
330
CF
100
AcDbEntity
  8
AM_4
100
AcDbEllipse
 10
-75.71903204936712
 20
-43.71640353647999
 30
0.0
 11
1.314229537202296
 21
-2.276312331242103
 31
0.0
210
0.0
220
0.0
230
1.0
 40
0.9063077870366517
 41
0.0
 42
6.283185307179586
  0
ELLIPSE
  5
143
330
CF
100
AcDbEntity
  8
AM_4
100
AcDbEllipse
 10
-75.00799302955109
 20
-43.30588496698486
 30
0.0
 11
-1.76718666210725
 21
3.060857085227866
 31
0.0
210
0.0
220
0.0
230
1.0
 40
0.9063077870366495
 41
0.0
 42
6.283185307179586
  0
ENDBLK
  5
D2
330
CF
100
AcDbEntity
  8
0
100
AcDbBlockEnd
  0
BLOCK
  5
146
330
144
100
AcDbEntity
  8
0
100
AcDbBlockBegin
  2
4_125995H_0_in_125995_0
 70
     2
 10
0.0
 20
0.0
 30
0.0
  3
4_125995H_0_in_125995_0
  1

  0
ATTDEF
  5
148
330
144
100
AcDbEntity
  8
AM_6
100
AcDbText
 10
125.055
 20
74.7
 30
0.0
 40
0.5
  1
WSTU-SCM -Metric - housing
100
AcDbAttributeDefinition
  3

  2
NN
 70
     8
280
     0
  0
ATTDEF
  5
149
330
144
100
AcDbEntity
  8
AM_6
100
AcDbText
 10
125.055
 20
74.2
 30
0.0
 40
0.5
  1
SC Take-Up Bearings -Wide Slot -(Medium Duty)
100
AcDbAttributeDefinition
  3

  2
NT
 70
     8
280
     0
  0
ATTDEF
  5
14A
330
144
100
AcDbEntity
  8
AM_6
100
AcDbText
 10
125.055
 20
73.7
 30
0.0
 40
0.5
  1
125995H
100
AcDbAttributeDefinition
  3

  2
NB
 70
     8
280
     0
  0
ATTDEF
  5
14B
330
144
100
AcDbEntity
  8
AM_6
100
AcDbText
 10
125.055
 20
73.2
 30
0.0
 40
0.5
  1
$PN.H
100
AcDbAttributeDefinition
  3

  2
NBSYN
 70
     8
280
     0
  0
ATTDEF
  5
14C
330
144
100
AcDbEntity
  8
AM_6
100
AcDbText
 10
125.055
 20
72.7
 30
0.0
 40
0.5
  1
125995
100
AcDbAttributeDefinition
  3

  2
LINA
 70
     8
280
     0
  0
ATTDEF
  5
14D
330
144
100
AcDbEntity
  8
AM_6
100
AcDbText
 10
125.055
 20
72.2
 30
0.0
 40
0.5
  1
212
100
AcDbAttributeDefinition
  3

  2
SERIES
 70
     8
280
     0
  0
ATTDEF
  5
14E
330
144
100
AcDbEntity
  8
AM_6
100
AcDbText
 10
125.055
 20
71.7
 30
0.0
 40
0.5
  1
55
100
AcDbAttributeDefinition
  3

  2
SS
 70
     8
280
     0
  0
ATTDEF
  5
14F
330
144
100
AcDbEntity
  8
AM_6
100
AcDbText
 10
125.055
 20
71.2
 30
0.0
 40
0.5
  1
125995
100
AcDbAttributeDefinition
  3

  2
PN
 70
     8
280
     0
  0
ATTDEF
  5
150
330
144
100
AcDbEntity
  8
AM_6
100
AcDbText
 10
125.055
 20
70.7
 30
0.0
 40
0.5
  1
WSTU-SCM-55M
100
AcDbAttributeDefinition
  3

  2
DESCRIPTION
 70
     8
280
     0
  0
ATTDEF
  5
151
330
144
100
AcDbEntity
  8
AM_6
100
AcDbText
 10
125.055
 20
70.2
 30
0.0
 40
0.5
  1
5.1
100
AcDbAttributeDefinition
  3

  2
W
 70
     8
280
     0
  0
ATTDEF
  5
152
330
144
100
AcDbEntity
  8
AM_6
100
AcDbText
 10
125.055
 20
69.7
 30
0.0
 40
0.5
  1
WS502
100
AcDbAttributeDefinition
  3

  2
FS
 70
     8
280
     0
  0
ATTDEF
  5
153
330
144
100
AcDbEntity
  8
AM_6
100
AcDbText
 10
125.055
 20
69.2
 30
0.0
 40
0.5
  1
58.7
100
AcDbAttributeDefinition
  3

  2
A
 70
     8
280
     0
  0
ATTDEF
  5
154
330
144
100
AcDbEntity
  8
AM_6
100
AcDbText
 10
125.055
 20
68.7
 30
0.0
 40
0.5
  1
190.5
100
AcDbAttributeDefinition
  3

  2
B
 70
     8
280
     0
  0
ATTDEF
  5
155
330
144
100
AcDbEntity
  8
AM_6
100
AcDbText
 10
125.055
 20
68.2
 30
0.0
 40
0.5
  1
27.00
100
AcDbAttributeDefinition
  3

  2
C
 70
     8
280
     0
  0
ATTDEF
  5
156
330
144
100
AcDbEntity
  8
AM_6
100
AcDbText
 10
125.055
 20
67.7
 30
0.0
 40
0.5
  1
101.6
100
AcDbAttributeDefinition
  3

  2
D
 70
     8
280
     0
  0
ATTDEF
  5
157
330
144
100
AcDbEntity
  8
AM_6
100
AcDbText
 10
125.055
 20
67.2
 30
0.0
 40
0.5
  1
119.1
100
AcDbAttributeDefinition
  3

  2
E
 70
     8
280
     0
  0
ATTDEF
  5
158
330
144
100
AcDbEntity
  8
AM_6
100
AcDbText
 10
125.055
 20
66.7
 30
0.0
 40
0.5
  1
31.8
100
AcDbAttributeDefinition
  3

  2
F
 70
     8
280
     0
  0
ATTDEF
  5
159
330
144
100
AcDbEntity
  8
AM_6
100
AcDbText
 10
125.055
 20
66.2
 30
0.0
 40
0.5
  1
19.1
100
AcDbAttributeDefinition
  3

  2
G
 70
     8
280
     0
  0
ATTDEF
  5
15A
330
144
100
AcDbEntity
  8
AM_6
100
AcDbText
 10
125.055
 20
65.7
 30
0.0
 40
0.5
  1
31.8
100
AcDbAttributeDefinition
  3

  2
H
 70
     8
280
     0
  0
ATTDEF
  5
15B
330
144
100
AcDbEntity
  8
AM_6
100
AcDbText
 10
125.055
 20
65.2
 30
0.0
 40
0.5
  1
101.6
100
AcDbAttributeDefinition
  3

  2
J
 70
     8
280
     0
  0
ATTDEF
  5
15C
330
144
100
AcDbEntity
  8
AM_6
100
AcDbText
 10
125.055
 20
64.7
 30
0.0
 40
0.5
  1
63.5
100
AcDbAttributeDefinition
  3

  2
K
 70
     8
280
     0
  0
ATTDEF
  5
15D
330
144
100
AcDbEntity
  8
AM_6
100
AcDbText
 10
125.055
 20
64.2
 30
0.0
 40
0.5
  1
75.4
100
AcDbAttributeDefinition
  3

  2
L
 70
     8
280
     0
  0
ATTDEF
  5
15E
330
144
100
AcDbEntity
  8
AM_6
100
AcDbText
 10
125.055
 20
63.7
 30
0.0
 40
0.5
  1
129.79/130.56
100
AcDbAttributeDefinition
  3

  2
M
 70
     8
280
     0
  0
ATTDEF
  5
15F
330
144
100
AcDbEntity
  8
AM_6
100
AcDbText
 10
125.055
 20
63.2
 30
0.0
 40
0.5
  1
149.4
100
AcDbAttributeDefinition
  3

  2
N
 70
     8
280
     0
  0
ATTDEF
  5
160
330
144
100
AcDbEntity
  8
AM_6
100
AcDbText
 10
125.055
 20
62.7
 30
0.0
 40
0.5
  1
22.9
100
AcDbAttributeDefinition
  3

  2
R
 70
     8
280
     0
  0
ATTDEF
  5
161
330
144
100
AcDbEntity
  8
AM_6
100
AcDbText
 10
125.055
 20
62.2
 30
0.0
 40
0.5
  1
35.8
100
AcDbAttributeDefinition
  3

  2
S
 70
     8
280
     0
  0
ATTDEF
  5
162
330
144
100
AcDbEntity
  8
AM_6
100
AcDbText
 10
125.055
 20
61.7
 30
0.0
 40
0.5
  1
63.5
100
AcDbAttributeDefinition
  3

  2
T
 70
     8
280
     0
  0
ATTDEF
  5
163
330
144
100
AcDbEntity
  8
AM_6
100
AcDbText
 10
125.055
 20
61.2
 30
0.0
 40
0.5
  1
6955
100
AcDbAttributeDefinition
  3

  2
CAPS
 70
     8
280
     0
  0
ATTDEF
  5
164
330
144
100
AcDbEntity
  8
AM_6
100
AcDbText
 10
125.055
 20
60.7
 30
0.0
 40
0.5
  1
11791
100
AcDbAttributeDefinition
  3

  2
CAPD
 70
     8
280
     0
  0
ATTDEF
  5
165
330
144
100
AcDbEntity
  8
AM_6
100
AcDbText
 10
125.055
 20
60.2
 30
0.0
 40
0.5
  1
baldor
100
AcDbAttributeDefinition
  3

  2
COMPANY
 70
     8
280
     0
  0
LINE
  5
166
330
144
100
AcDbEntity
  8
AM_9
100
AcDbLine
 10
-62.03391835582141
 20
-40.43410161513776
 30
0.0
 11
-59.73945948805634
 21
-39.10939517018907
 31
0.0
  0
LINE
  5
167
330
144
100
AcDbEntity
  8
AM_9
100
AcDbLine
 10
-63.73710391652658
 20
-32.17983195005675
 30
0.0
 11
-66.03391835582141
 21
-33.50589838486225
 31
0.0
  0
ARC
  5
168
330
144
100
AcDbEntity
  8
AM_9
100
AcDbCircle
 10
-0.0000000000000124
 20
-0.0000000000000853
 30
0.0
 40
57.74999999999991
100
AcDbArc
 50
251.4905952102772
 51
288.5094047897229
  0
LINE
  5
169
330
144
100
AcDbEntity
  8
AM_9
100
AcDbLine
 10
18.33333315000001
 20
-54.76268250927002
 30
0.0
 11
18.33333315
 21
-51.8544973518316
 31
0.0
  0
LINE
  5
16A
330
144
100
AcDbEntity
  8
AM_9
100
AcDbLine
 10
-18.33333315
 20
-51.8544973518316
 30
0.0
 11
-18.33333315
 21
-54.76268250927004
 31
0.0
  0
ARC
  5
16B
330
144
100
AcDbEntity
  8
AM_9
100
AcDbCircle
 10
0.0000000000000071
 20
-0.0000000000000782
 30
0.0
 40
57.75000000000007
100
AcDbArc
 50
71.49059521027722
 51
108.5094047897228
  0
LINE
  5
16C
330
144
100
AcDbEntity
  8
AM_9
100
AcDbLine
 10
-18.33333315
 20
54.76268250927004
 30
0.0
 11
-18.33333315
 21
51.8544973518316
 31
0.0
  0
LINE
  5
16D
330
144
100
AcDbEntity
  8
AM_9
100
AcDbLine
 10
18.33333315
 20
51.8544973518316
 30
0.0
 11
18.33333315
 21
54.76268250927004
 31
0.0
  0
LINE
  5
16E
330
144
100
AcDbEntity
  8
AM_9
100
AcDbLine
 10
50.8
 20
65.28
 30
0.0
 11
-50.8
 21
65.28
 31
0.0
  0
LINE
  5
16F
330
144
100
AcDbEntity
  8
AM_9
100
AcDbLine
 10
50.8
 20
-65.28
 30
0.0
 11
-50.8
 21
-65.28
 31
0.0
  0
LINE
  5
170
330
144
100
AcDbEntity
  8
AM_9
100
AcDbLine
 10
100.0
 20
-15.9
 30
0.0
 11
119.1
 21
-15.9
 31
0.0
  0
LINE
  5
171
330
144
100
AcDbEntity
  8
AM_9
100
AcDbLine
 10
119.1
 20
15.9
 30
0.0
 11
100.0
 21
15.9
 31
0.0
  0
LINE
  5
172
330
144
100
AcDbEntity
  8
AM_7
100
AcDbLine
 10
-57.75
 20
0.0
 30
0.0
 11
57.75
 21
0.0
 31
0.0
  0
LINE
  5
173
330
144
100
AcDbEntity
  8
AM_7
100
AcDbLine
 10
0.0
 20
-57.75
 30
0.0
 11
-0.0000000000000107
 21
58.7525
 31
0.0
  0
LINE
  5
174
330
144
100
AcDbEntity
  8
AM_7
100
AcDbLine
 10
-76.40038223574903
 20
-44.10978125
 30
0.0
 11
-50.16927485569601
 21
-28.9652443429844
 31
0.0
  0
LINE
  5
175
330
144
100
AcDbEntity
  8
AM_7
100
AcDbLine
 10
120.055
 20
0.0
 30
0.0
 11
99.04499999999999
 21
0.0
 31
0.0
  0
LINE
  5
176
330
144
100
AcDbEntity
  8
AM_4
100
AcDbLine
 10
-68.47891835582142
 20
-29.27103416035633
 30
0.0
 11
-59.58891835675821
 21
-44.66896583802107
 31
0.0
  0
ARC
  5
177
330
144
100
AcDbEntity
  8
AM_4
100
AcDbCircle
 10
-57.38921383020892
 20
-43.39896583964362
 30
0.0
 40
2.540000000000045
100
AcDbArc
 50
210.0000000000004
 51
299.9999999999992
  0
ARC
  5
178
330
144
100
AcDbEntity
  8
AM_4
100
AcDbCircle
 10
-66.27921383020887
 20
-28.00103416035636
 30
0.0
 40
2.540000000000046
100
AcDbArc
 50
120.0000000000008
 51
209.9999999999992
  0
LINE
  5
179
330
144
100
AcDbEntity
  8
AM_4
100
AcDbLine
 10
-67.54921383020893
 20
-25.80132963474387
 30
0.0
 11
-56.11921383020893
 21
-45.59867036525613
 31
0.0
  0
LINE
  5
17A
330
144
100
AcDbEntity
  8
AM_4
100
AcDbLine
 10
-56.11921383020893
 20
-45.59867036525613
 30
0.0
 11
-55.32710405213623
 21
-45.14134557165811
 31
0.0
  0
LINE
  5
17B
330
144
100
AcDbEntity
  8
AM_4
100
AcDbLine
 10
-66.75294198385396
 20
-25.3416018699027
 30
0.0
 11
-67.54921383020893
 21
-25.80132963474387
 31
0.0
  0
ARC
  5
17C
330
144
100
AcDbEntity
  8
AM_4
100
AcDbCircle
 10
-0.0000000000000071
 20
-0.0000000000000036
 30
0.0
 40
71.4
100
AcDbArc
 50
135.3558346915213
 51
224.6441653084786
  0
LWPOLYLINE
  5
17D
330
144
100
AcDbEntity
  8
AM_4
100
AcDbPolyline
 90
       19
 70
     0
 43
0.0
 10
116.4
 20
-50.79999999999999
 10
116.6353205054186
 20
-50.78972568484771
 10
116.8688500797007
 20
-50.75898093313295
 10
117.0988114217768
 20
-50.70799973098048
 10
117.3234543869793
 20
-50.63717007612195
 10
117.5410693066999
 20
-50.54703102499894
 10
117.75
 20
-50.43826859021797
 10
117.9486563781478
 20
-50.31171051958027
 10
118.1355265461536
 20
-50.16831999642123
 10
118.3091883092036
 20
-50.00918830920367
 10
118.4683199964212
 20
-49.83552654615364
 10
118.6117105195802
 20
-49.64865637814781
 10
118.738268590218
 20
-49.44999999999999
 10
118.8470310249989
 20
-49.24106930669987
 10
118.9371700761219
 20
-49.02345438697929
 10
119.0079997309805
 20
-48.79881142177679
 10
119.0589809331329
 20
-48.5688500797007
 10
119.0897256848477
 20
-48.33532050541866
 10
119.1
 20
-48.09999999999998
  0
LINE
  5
17E
330
144
100
AcDbEntity
  8
AM_4
100
AcDbLine
 10
116.4
 20
-50.8
 30
0.0
 11
50.8
 21
-50.8
 31
0.0
  0
LWPOLYLINE
  5
17F
330
144
100
AcDbEntity
  8
AM_4
100
AcDbPolyline
 90
       19
 70
     0
 43
0.0
 10
119.1
 20
48.1
 10
119.0897256848477
 20
48.33532050541868
 10
119.058980933133
 20
48.56885007970072
 10
119.0079997309805
 20
48.7988114217768
 10
118.937170076122
 20
49.0234543869793
 10
118.847031024999
 20
49.24106930669988
 10
118.738268590218
 20
49.45
 10
118.6117105195803
 20
49.64865637814782
 10
118.4683199964213
 20
49.83552654615365
 10
118.3091883092037
 20
50.00918830920367
 10
118.1355265461537
 20
50.16831999642123
 10
117.9486563781478
 20
50.31171051958027
 10
117.75
 20
50.43826859021798
 10
117.5410693066999
 20
50.54703102499894
 10
117.3234543869793
 20
50.63717007612195
 10
117.0988114217768
 20
50.70799973098048
 10
116.8688500797007
 20
50.75898093313295
 10
116.6353205054187
 20
50.78972568484771
 10
116.4
 20
50.79999999999999
  0
LINE
  5
180
330
144
100
AcDbEntity
  8
AM_4
100
AcDbLine
 10
116.4
 20
50.8
 30
0.0
 11
50.8
 21
50.8
 31
0.0
  0
LINE
  5
181
330
144
100
AcDbEntity
  8
AM_4
100
AcDbLine
 10
119.1
 20
48.09999999999999
 30
0.0
 11
119.1
 21
-48.09999999999999
 31
0.0
  0
LINE
  5
182
330
144
100
AcDbEntity
  8
AM_4
100
AcDbLine
 10
100.0
 20
-29.04999999999997
 30
0.0
 11
100.0
 21
29.04999999999999
 31
0.0
  0
CIRCLE
  5
183
330
144
100
AcDbEntity
  8
AM_4
100
AcDbCircle
 10
0.0
 20
0.0
 30
0.0
 40
55.0
  0
LINE
  5
184
330
144
100
AcDbEntity
  8
AM_4
100
AcDbLine
 10
119.1
 20
48.09999999999999
 30
0.0
 11
50.8
 21
48.09999999999999
 31
0.0
  0
ARC
  5
185
330
144
100
AcDbEntity
  8
AM_4
100
AcDbCircle
 10
-0.0000000000000284
 20
0.0000000000000071
 30
0.0
 40
70.12999999999998
100
AcDbArc
 50
136.4163837622059
 51
223.5836162377941
  0
LINE
  5
186
330
144
100
AcDbEntity
  8
AM_4
100
AcDbLine
 10
119.1
 20
-48.09999999999999
 30
0.0
 11
50.8
 21
-48.09999999999999
 31
0.0
  0
ARC
  5
187
330
144
100
AcDbEntity
  8
AM_4
100
AcDbCircle
 10
97.29999999999994
 20
-29.04999999999997
 30
0.0
 40
2.700000000000031
100
AcDbArc
 50
270.0
 51
0.0
  0
LINE
  5
188
330
144
100
AcDbEntity
  8
AM_4
100
AcDbLine
 10
70.89999999999996
 20
-31.75
 30
0.0
 11
97.29999999999998
 21
-31.75
 31
0.0
  0
ARC
  5
189
330
144
100
AcDbEntity
  8
AM_4
100
AcDbCircle
 10
70.89999999999998
 20
-29.05000000000004
 30
0.0
 40
2.699999999999974
100
AcDbArc
 50
180.0
 51
270.0
  0
LINE
  5
18A
330
144
100
AcDbEntity
  8
AM_4
100
AcDbLine
 10
68.2
 20
29.05000000000003
 30
0.0
 11
68.2
 21
-29.05000000000003
 31
0.0
  0
ARC
  5
18B
330
144
100
AcDbEntity
  8
AM_4
100
AcDbCircle
 10
70.89999999999998
 20
29.05000000000004
 30
0.0
 40
2.69999999999996
100
AcDbArc
 50
90.0
 51
180.0
  0
LINE
  5
18C
330
144
100
AcDbEntity
  8
AM_4
100
AcDbLine
 10
97.29999999999998
 20
31.75
 30
0.0
 11
70.89999999999996
 21
31.75
 31
0.0
  0
ARC
  5
18D
330
144
100
AcDbEntity
  8
AM_4
100
AcDbCircle
 10
97.3
 20
29.05
 30
0.0
 40
2.699999999999989
100
AcDbArc
 50
0.0000008537736463
 51
90.0
  0
LWPOLYLINE
  5
18E
330
144
100
AcDbEntity
  8
AM_4
100
AcDbPolyline
 90
       19
 70
     0
 43
0.0
 10
-48.09999999999999
 20
74.7
 10
-48.33532050541867
 20
74.68972568484772
 10
-48.56885007970071
 20
74.65898093313297
 10
-48.7988114217768
 20
74.60799973098048
 10
-49.0234543869793
 20
74.53717007612195
 10
-49.24106930669988
 20
74.44703102499896
 10
-49.45
 20
74.33826859021798
 10
-49.64865637814782
 20
74.21171051958028
 10
-49.83552654615365
 20
74.06831999642124
 10
-50.00918830920367
 20
73.90918830920367
 10
-50.16831999642124
 20
73.73552654615366
 10
-50.31171051958027
 20
73.54865637814783
 10
-50.43826859021798
 20
73.35
 10
-50.54703102499895
 20
73.14106930669989
 10
-50.63717007612195
 20
72.9234543869793
 10
-50.70799973098048
 20
72.6988114217768
 10
-50.75898093313296
 20
72.4688500797007
 10
-50.78972568484771
 20
72.23532050541867
 10
-50.8
 20
72.0
  0
LWPOLYLINE
  5
18F
330
144
100
AcDbEntity
  8
AM_4
100
AcDbPolyline
 90
       19
 70
     0
 43
0.0
 10
50.79999999999999
 20
71.99999995976687
 10
50.78972568835425
 20
72.23532046533865
 10
50.75898094011936
 20
72.46885004007882
 10
50.70799974139358
 20
72.69881138291458
 10
50.63717008988249
 20
72.92345434917253
 10
50.5470310420022
 20
73.1410692702363
 10
50.43826861033454
 20
73.3499999651571
 10
50.31171054265705
 20
73.54865634519078
 10
50.16832002228259
 20
73.7355265153333
 10
50.00918833765279
 20
73.90918828075456
 10
49.83552657697402
 20
74.06831997055988
 10
49.64865641110487
 20
74.2117104965035
 10
49.45000003484291
 20
74.33826857010142
 10
49.24106934316349
 20
74.4470310079957
 10
49.02345442478608
 20
74.53717006236143
 10
48.79881146063902
 20
74.60799972056739
 10
48.56885011932261
 20
74.65898092614657
 10
48.33532054549871
 20
74.68972568134117
 10
48.10000004023313
 20
74.7
  0
LINE
  5
190
330
144
100
AcDbEntity
  8
AM_4
100
AcDbLine
 10
48.09999999999999
 20
74.7
 30
0.0
 11
-48.09999999999999
 21
74.7
 31
0.0
  0
LINE
  5
191
330
144
100
AcDbEntity
  8
AM_4
100
AcDbLine
 10
50.8
 20
60.57000000000002
 30
0.0
 11
-50.8
 21
60.57000000000002
 31
0.0
  0
LINE
  5
192
330
144
100
AcDbEntity
  8
AM_4
100
AcDbLine
 10
50.8
 20
72.00000000000001
 30
0.0
 11
50.8
 21
48.09999999999999
 31
0.0
  0
LINE
  5
193
330
144
100
AcDbEntity
  8
AM_4
100
AcDbLine
 10
-50.80000000000001
 20
71.99999999999999
 30
0.0
 11
-50.8
 21
48.34849428886076
 31
0.0
  0
LINE
  5
194
330
144
100
AcDbEntity
  8
AM_4
100
AcDbLine
 10
50.8
 20
64.62000000000002
 30
0.0
 11
-50.8
 21
64.62000000000002
 31
0.0
  0
LINE
  5
195
330
144
100
AcDbEntity
  8
AM_4
100
AcDbLine
 10
50.8
 20
72.00000000000001
 30
0.0
 11
-50.80000000000001
 21
71.99999999999999
 31
0.0
  0
LWPOLYLINE
  5
196
330
144
100
AcDbEntity
  8
AM_4
100
AcDbPolyline
 90
       19
 70
     0
 43
0.0
 10
-50.80000000000002
 20
-72.00000004023315
 10
-50.78972568134119
 20
-72.23532054549872
 10
-50.75898092614657
 20
-72.46885011932262
 10
-50.7079997205674
 20
-72.69881146063904
 10
-50.63717006236143
 20
-72.92345442478609
 10
-50.54703100799572
 20
-73.1410693431635
 10
-50.43826857010144
 20
-73.35000003484292
 10
-50.31171049650352
 20
-73.54865641110487
 10
-50.1683199705599
 20
-73.73552657697402
 10
-50.00918828075458
 20
-73.9091883376528
 10
-49.83552651533331
 20
-74.0683200222826
 10
-49.64865634519079
 20
-74.21171054265706
 10
-49.44999996515711
 20
-74.33826861033455
 10
-49.24106927023631
 20
-74.44703104200221
 10
-49.02345434917255
 20
-74.5371700898825
 10
-48.79881138291461
 20
-74.60799974139358
 10
-48.56885004007884
 20
-74.65898094011938
 10
-48.33532046533867
 20
-74.68972568835426
 10
-48.10000000000003
 20
-74.7
  0
LWPOLYLINE
  5
197
330
144
100
AcDbEntity
  8
AM_4
100
AcDbPolyline
 90
       19
 70
     0
 43
0.0
 10
48.10000000000001
 20
-74.70000000000002
 10
48.33532050541869
 20
-74.68972568484772
 10
48.56885007970072
 20
-74.65898093313298
 10
48.79881142177681
 20
-74.6079997309805
 10
49.02345438697931
 20
-74.53717007612197
 10
49.2410693066999
 20
-74.44703102499898
 10
49.45000000000001
 20
-74.338268590218
 10
49.64865637814783
 20
-74.2117105195803
 10
49.83552654615367
 20
-74.06831999642125
 10
50.00918830920369
 20
-73.90918830920369
 10
50.16831999642125
 20
-73.73552654615368
 10
50.31171051958029
 20
-73.54865637814785
 10
50.438268590218
 20
-73.35000000000002
 10
50.54703102499897
 20
-73.1410693066999
 10
50.63717007612197
 20
-72.92345438697932
 10
50.7079997309805
 20
-72.69881142177682
 10
50.75898093313298
 20
-72.46885007970073
 10
50.78972568484774
 20
-72.2353205054187
 10
50.80000000000002
 20
-72.00000000000003
  0
LINE
  5
198
330
144
100
AcDbEntity
  8
AM_4
100
AcDbLine
 10
48.09999999999999
 20
-74.7
 30
0.0
 11
-48.10000000000003
 21
-74.7
 31
0.0
  0
LINE
  5
199
330
144
100
AcDbEntity
  8
AM_4
100
AcDbLine
 10
-50.8
 20
-48.34849428886073
 30
0.0
 11
-50.8
 21
-72.00000000000001
 31
0.0
  0
LINE
  5
19A
330
144
100
AcDbEntity
  8
AM_4
100
AcDbLine
 10
50.8
 20
-48.09999999999999
 30
0.0
 11
50.80000000000001
 21
-72.00000000000001
 31
0.0
  0
LINE
  5
19B
330
144
100
AcDbEntity
  8
AM_4
100
AcDbLine
 10
50.80000000000001
 20
-72.00000000000001
 30
0.0
 11
-50.8
 21
-72.00000000000001
 31
0.0
  0
LINE
  5
19C
330
144
100
AcDbEntity
  8
AM_4
100
AcDbLine
 10
50.8
 20
-64.62
 30
0.0
 11
-50.8
 21
-64.62
 31
0.0
  0
LINE
  5
19D
330
144
100
AcDbEntity
  8
AM_4
100
AcDbLine
 10
50.8
 20
-60.57000000000002
 30
0.0
 11
-50.8
 21
-60.57000000000002
 31
0.0
  0
LINE
  5
19E
330
144
100
AcDbEntity
  8
AM_4
100
AcDbLine
 10
100.0
 20
21.93991795791406
 30
0.0
 11
119.1
 21
21.93991795791406
 31
0.0
  0
LINE
  5
19F
330
144
100
AcDbEntity
  8
AM_4
100
AcDbLine
 10
119.1
 20
-21.93991795791406
 30
0.0
 11
100.0
 21
-21.93991795791406
 31
0.0
  0
ENDBLK
  5
147
330
144
100
AcDbEntity
  8
0
100
AcDbBlockEnd
  0
ENDSEC
  0
SECTION
  2
ENTITIES
  0
INSERT
  5
6F
330
1F
100
AcDbEntity
  8
0
100
AcDbBlockReference
  2
1_125995_0
 10
0.0
 20
0.0
 30
0.0
  0
POINT
  5
1A1
330
1F
100
AcDbEntity
  8
ConnectionPoints
100
AcDbPoint
 10
-64.03391835582141
 20
-36.97
 30
0.0
  0
POINT
  5
1A2
330
1F
100
AcDbEntity
  8
ConnectionPoints
100
AcDbPoint
 10
-64.03391835582141
 20
-36.97
 30
0.0
  0
POINT
  5
1A3
330
1F
100
AcDbEntity
  8
ConnectionPoints
100
AcDbPoint
 10
0.0
 20
0.0
 30
35.8
  0
ENDSEC
  0
SECTION
  2
OBJECTS
  0
DICTIONARY
  5
C
330
0
100
AcDbDictionary
281
     1
  3
ACAD_DETAILVIEWSTYLE
350
1AB
  3
ACAD_GROUP
350
D
  3
ACAD_LAYOUT
350
1A
  3
ACAD_MATERIAL
350
43
  3
ACAD_MLEADERSTYLE
350
6B
  3
ACAD_MLINESTYLE
350
17
  3
ACAD_PLOTSETTINGS
350
19
  3
ACAD_PLOTSTYLENAME
350
E
  3
ACAD_SCALELIST
350
47
  3
ACAD_SECTIONVIEWSTYLE
350
1AC
  3
ACAD_TABLESTYLE
350
69
  3
ACAD_VISUALSTYLE
350
2A
  3
ACDB_RECOMPOSE_DATA
350
1A8
  3
AcDbVariableDictionary
350
1A4
  0
SUN
  5
6D
330
29
100
AcDbSun
 90
        1
290
     0
 63
     7
421
 16777215
 40
1.0
291
     1
 91
  2455826
 92
 54000000
292
     0
 70
     2
 71
   256
280
     1
  0
DICTIONARY
  5
1AB
102
{ACAD_REACTORS
330
C
102
}
330
C
100
AcDbDictionary
281
     1
  0
DICTIONARY
  5
D
102
{ACAD_REACTORS
330
C
102
}
330
C
100
AcDbDictionary
281
     1
  0
DICTIONARY
  5
1A
102
{ACAD_REACTORS
330
C
102
}
330
C
100
AcDbDictionary
281
     1
  3
Layout1
350
1E
  3
Layout2
350
26
  3
Model
350
22
  0
DICTIONARY
  5
43
102
{ACAD_REACTORS
330
C
102
}
330
C
100
AcDbDictionary
281
     1
  3
ByBlock
350
45
  3
ByLayer
350
44
  3
Global
350
46
  0
DICTIONARY
  5
6B
102
{ACAD_REACTORS
330
C
102
}
330
C
100
AcDbDictionary
281
     1
  3
Standard
350
6C
  0
DICTIONARY
  5
17
102
{ACAD_REACTORS
330
C
102
}
330
C
100
AcDbDictionary
281
     1
  3
Standard
350
18
  0
DICTIONARY
  5
19
102
{ACAD_REACTORS
330
C
102
}
330
C
100
AcDbDictionary
281
     1
  0
ACDBDICTIONARYWDFLT
  5
E
102
{ACAD_REACTORS
330
C
102
}
330
C
100
AcDbDictionary
281
     1
  3
Normal
350
F
100
AcDbDictionaryWithDefault
340
F
  0
DICTIONARY
  5
47
102
{ACAD_REACTORS
330
C
102
}
330
C
100
AcDbDictionary
281
     1
  3
A0
350
48
  3
A1
350
49
  3
A2
350
4A
  3
A3
350
4B
  3
A4
350
4C
  3
A5
350
4D
  3
A6
350
4E
  3
A7
350
4F
  3
A8
350
50
  3
A9
350
51
  3
B0
350
52
  3
B1
350
53
  3
B2
350
54
  3
B3
350
55
  3
B4
350
56
  3
B5
350
57
  3
B6
350
58
  3
B7
350
59
  3
B8
350
5A
  3
B9
350
5B
  3
C0
350
5C
  3
C1
350
5D
  3
C2
350
5E
  3
C3
350
5F
  3
C4
350
60
  3
C5
350
61
  3
C6
350
62
  3
C7
350
63
  3
C8
350
64
  3
C9
350
65
  3
D0
350
66
  3
D1
350
67
  3
D2
350
68
  0
DICTIONARY
  5
1AC
102
{ACAD_REACTORS
330
C
102
}
330
C
100
AcDbDictionary
281
     1
  0
DICTIONARY
  5
69
102
{ACAD_REACTORS
330
C
102
}
330
C
100
AcDbDictionary
281
     1
  3
Standard
350
6A
  0
DICTIONARY
  5
2A
102
{ACAD_REACTORS
330
C
102
}
330
C
100
AcDbDictionary
281
     1
  3
2dWireframe
350
2F
  3
Basic
350
32
  3
Brighten
350
36
  3
ColorChange
350
3A
  3
Conceptual
350
34
  3
Dim
350
35
  3
EdgeColorOff
350
3D
  3
Facepattern
350
39
  3
Flat
350
2B
  3
FlatWithEdges
350
2C
  3
Gouraud
350
2D
  3
GouraudWithEdges
350
2E
  3
Hidden
350
31
  3
JitterOff
350
3B
  3
Linepattern
350
38
  3
OverhangOff
350
3C
  3
Realistic
350
33
  3
Shaded
350
42
  3
Shaded with edges
350
41
  3
Shades of Gray
350
3E
  3
Sketchy
350
3F
  3
Thicken
350
37
  3
Wireframe
350
30
  3
X-Ray
350
40
  0
XRECORD
  5
1A8
102
{ACAD_REACTORS
330
C
102
}
330
C
100
AcDbXrecord
280
     1
 90
        1
330
6A
  0
DICTIONARY
  5
1A4
102
{ACAD_REACTORS
330
C
102
}
330
C
100
AcDbDictionary
281
     1
  3
CANNOSCALE
350
1A5
  3
CMLEADERSTYLE
350
1AA
  3
CTABLESTYLE
350
1A9
  0
LAYOUT
  5
1E
102
{ACAD_REACTORS
330
1A
102
}
330
1A
100
AcDbPlotSettings
  1

  2
none_device
  4

  6

 40
0.0
 41
0.0
 42
0.0
 43
0.0
 44
0.0
 45
0.0
 46
0.0
 47
0.0
 48
0.0
 49
0.0
140
0.0
141
0.0
142
1.0
143
1.0
 70
   688
 72
     1
 73
     0
 74
     5
  7

 75
    16
 76
     0
 77
     2
 78
   300
147
1.0
148
0.0
149
0.0
100
AcDbLayout
  1
Layout1
 70
     1
 71
     1
 10
0.0
 20
0.0
 11
420.0
 21
297.0
 12
0.0
 22
0.0
 32
0.0
 14
1.000000000000000E+20
 24
1.000000000000000E+20
 34
1.000000000000000E+20
 15
-1.000000000000000E+20
 25
-1.000000000000000E+20
 35
-1.000000000000000E+20
146
0.0
 13
0.0
 23
0.0
 33
0.0
 16
1.0
 26
0.0
 36
0.0
 17
0.0
 27
1.0
 37
0.0
 76
     0
330
1B
  0
LAYOUT
  5
26
102
{ACAD_REACTORS
330
1A
102
}
330
1A
100
AcDbPlotSettings
  1

  2
none_device
  4

  6

 40
0.0
 41
0.0
 42
0.0
 43
0.0
 44
0.0
 45
0.0
 46
0.0
 47
0.0
 48
0.0
 49
0.0
140
0.0
141
0.0
142
1.0
143
1.0
 70
   688
 72
     1
 73
     0
 74
     5
  7

 75
    16
 76
     0
 77
     2
 78
   300
147
1.0
148
0.0
149
0.0
100
AcDbLayout
  1
Layout2
 70
     1
 71
     2
 10
0.0
 20
0.0
 11
0.0
 21
0.0
 12
0.0
 22
0.0
 32
0.0
 14
0.0
 24
0.0
 34
0.0
 15
0.0
 25
0.0
 35
0.0
146
0.0
 13
0.0
 23
0.0
 33
0.0
 16
1.0
 26
0.0
 36
0.0
 17
0.0
 27
1.0
 37
0.0
 76
     0
330
23
  0
LAYOUT
  5
22
102
{ACAD_REACTORS
330
1A
102
}
330
1A
100
AcDbPlotSettings
  1

  2
none_device
  4
Letter_(8.50_x_11.00_Inches)
  6

 40
6.35
 41
6.35
 42
6.35000508
 43
6.35000508
 44
215.9
 45
279.4
 46
0.0
 47
0.0
 48
0.0
 49
0.0
140
0.0
141
0.0
142
1.0
143
1.0
 70
  1712
 72
     1
 73
     0
 74
     0
  7

 75
     0
 76
     0
 77
     2
 78
   300
147
1.0
148
0.0
149
0.0
100
AcDbLayout
  1
Model
 70
     1
 71
     0
 10
0.0
 20
0.0
 11
420.0
 21
297.0
 12
0.0
 22
0.0
 32
0.0
 14
1.000000000000000E+20
 24
1.000000000000000E+20
 34
1.000000000000000E+20
 15
-1.000000000000000E+20
 25
-1.000000000000000E+20
 35
-1.000000000000000E+20
146
0.0
 13
0.0
 23
0.0
 33
0.0
 16
1.0
 26
0.0
 36
0.0
 17
0.0
 27
1.0
 37
0.0
 76
     0
330
1F
331
29
  0
MATERIAL
  5
45
102
{ACAD_REACTORS
330
43
102
}
330
43
100
AcDbMaterial
  1
ByBlock
 72
     1
 94
      127
  0
MATERIAL
  5
44
102
{ACAD_REACTORS
330
43
102
}
330
43
100
AcDbMaterial
  1
ByLayer
 72
     1
 94
      127
  0
MATERIAL
  5
46
102
{ACAD_REACTORS
330
43
102
}
330
43
100
AcDbMaterial
  1
Global
 72
     1
 94
      127
  0
MLEADERSTYLE
  5
6C
102
{ACAD_REACTORS
330
6B
102
}
330
6B
100
AcDbMLeaderStyle
179
     2
170
     2
171
     1
172
     0
 90
        2
 40
0.0
 41
0.0
173
     1
 91
-1056964608
340
14
 92
       -2
290
     1
 42
2.0
291
     1
 43
8.0
  3
Standard
341
0
 44
4.0
300

342
11
174
     1
178
     6
175
     1
176
     0
 93
-1056964608
 45
4.0
292
     0
297
     0
 46
4.0
343
0
 94
-1056964608
 47
1.0
 49
1.0
140
1.0
293
     1
141
0.0
294
     1
177
     0
142
1.0
295
     0
296
     0
143
3.75
271
     0
272
     9
273
     9
298
     0
  0
MLINESTYLE
  5
18
102
{ACAD_REACTORS
330
17
102
}
330
17
100
AcDbMlineStyle
  2
Standard
 70
     0
  3

 62
   256
 51
90.0
 52
90.0
 71
     2
 49
0.5
 62
   256
  6
BYLAYER
 49
-0.5
 62
   256
  6
BYLAYER
  0
ACDBPLACEHOLDER
  5
F
102
{ACAD_REACTORS
330
E
102
}
330
E
  0
SCALE
  5
48
102
{ACAD_REACTORS
330
47
102
}
330
47
100
AcDbScale
 70
     0
300
1:1
140
1.0
141
1.0
290
     1
  0
SCALE
  5
49
102
{ACAD_REACTORS
330
47
102
}
330
47
100
AcDbScale
 70
     0
300
1:2
140
1.0
141
2.0
290
     0
  0
SCALE
  5
4A
102
{ACAD_REACTORS
330
47
102
}
330
47
100
AcDbScale
 70
     0
300
1:4
140
1.0
141
4.0
290
     0
  0
SCALE
  5
4B
102
{ACAD_REACTORS
330
47
102
}
330
47
100
AcDbScale
 70
     0
300
1:5
140
1.0
141
5.0
290
     0
  0
SCALE
  5
4C
102
{ACAD_REACTORS
330
47
102
}
330
47
100
AcDbScale
 70
     0
300
1:8
140
1.0
141
8.0
290
     0
  0
SCALE
  5
4D
102
{ACAD_REACTORS
330
47
102
}
330
47
100
AcDbScale
 70
     0
300
1:10
140
1.0
141
10.0
290
     0
  0
SCALE
  5
4E
102
{ACAD_REACTORS
330
47
102
}
330
47
100
AcDbScale
 70
     0
300
1:16
140
1.0
141
16.0
290
     0
  0
SCALE
  5
4F
102
{ACAD_REACTORS
330
47
102
}
330
47
100
AcDbScale
 70
     0
300
1:20
140
1.0
141
20.0
290
     0
  0
SCALE
  5
50
102
{ACAD_REACTORS
330
47
102
}
330
47
100
AcDbScale
 70
     0
300
1:30
140
1.0
141
30.0
290
     0
  0
SCALE
  5
51
102
{ACAD_REACTORS
330
47
102
}
330
47
100
AcDbScale
 70
     0
300
1:40
140
1.0
141
40.0
290
     0
  0
SCALE
  5
52
102
{ACAD_REACTORS
330
47
102
}
330
47
100
AcDbScale
 70
     0
300
1:50
140
1.0
141
50.0
290
     0
  0
SCALE
  5
53
102
{ACAD_REACTORS
330
47
102
}
330
47
100
AcDbScale
 70
     0
300
1:100
140
1.0
141
100.0
290
     0
  0
SCALE
  5
54
102
{ACAD_REACTORS
330
47
102
}
330
47
100
AcDbScale
 70
     0
300
2:1
140
2.0
141
1.0
290
     0
  0
SCALE
  5
55
102
{ACAD_REACTORS
330
47
102
}
330
47
100
AcDbScale
 70
     0
300
4:1
140
4.0
141
1.0
290
     0
  0
SCALE
  5
56
102
{ACAD_REACTORS
330
47
102
}
330
47
100
AcDbScale
 70
     0
300
8:1
140
8.0
141
1.0
290
     0
  0
SCALE
  5
57
102
{ACAD_REACTORS
330
47
102
}
330
47
100
AcDbScale
 70
     0
300
10:1
140
10.0
141
1.0
290
     0
  0
SCALE
  5
58
102
{ACAD_REACTORS
330
47
102
}
330
47
100
AcDbScale
 70
     0
300
100:1
140
100.0
141
1.0
290
     0
  0
SCALE
  5
59
102
{ACAD_REACTORS
330
47
102
}
330
47
100
AcDbScale
 70
     0
300
1/128" = 1'-0"
140
0.0078125
141
12.0
290
     0
  0
SCALE
  5
5A
102
{ACAD_REACTORS
330
47
102
}
330
47
100
AcDbScale
 70
     0
300
1/64" = 1'-0"
140
0.015625
141
12.0
290
     0
  0
SCALE
  5
5B
102
{ACAD_REACTORS
330
47
102
}
330
47
100
AcDbScale
 70
     0
300
1/32" = 1'-0"
140
0.03125
141
12.0
290
     0
  0
SCALE
  5
5C
102
{ACAD_REACTORS
330
47
102
}
330
47
100
AcDbScale
 70
     0
300
1/16" = 1'-0"
140
0.0625
141
12.0
290
     0
  0
SCALE
  5
5D
102
{ACAD_REACTORS
330
47
102
}
330
47
100
AcDbScale
 70
     0
300
3/32" = 1'-0"
140
0.09375
141
12.0
290
     0
  0
SCALE
  5
5E
102
{ACAD_REACTORS
330
47
102
}
330
47
100
AcDbScale
 70
     0
300
1/8" = 1'-0"
140
0.125
141
12.0
290
     0
  0
SCALE
  5
5F
102
{ACAD_REACTORS
330
47
102
}
330
47
100
AcDbScale
 70
     0
300
3/16" = 1'-0"
140
0.1875
141
12.0
290
     0
  0
SCALE
  5
60
102
{ACAD_REACTORS
330
47
102
}
330
47
100
AcDbScale
 70
     0
300
1/4" = 1'-0"
140
0.25
141
12.0
290
     0
  0
SCALE
  5
61
102
{ACAD_REACTORS
330
47
102
}
330
47
100
AcDbScale
 70
     0
300
3/8" = 1'-0"
140
0.375
141
12.0
290
     0
  0
SCALE
  5
62
102
{ACAD_REACTORS
330
47
102
}
330
47
100
AcDbScale
 70
     0
300
1/2" = 1'-0"
140
0.5
141
12.0
290
     0
  0
SCALE
  5
63
102
{ACAD_REACTORS
330
47
102
}
330
47
100
AcDbScale
 70
     0
300
3/4" = 1'-0"
140
0.75
141
12.0
290
     0
  0
SCALE
  5
64
102
{ACAD_REACTORS
330
47
102
}
330
47
100
AcDbScale
 70
     0
300
1" = 1'-0"
140
1.0
141
12.0
290
     0
  0
SCALE
  5
65
102
{ACAD_REACTORS
330
47
102
}
330
47
100
AcDbScale
 70
     0
300
1-1/2" = 1'-0"
140
1.5
141
12.0
290
     0
  0
SCALE
  5
66
102
{ACAD_REACTORS
330
47
102
}
330
47
100
AcDbScale
 70
     0
300
3" = 1'-0"
140
3.0
141
12.0
290
     0
  0
SCALE
  5
67
102
{ACAD_REACTORS
330
47
102
}
330
47
100
AcDbScale
 70
     0
300
6" = 1'-0"
140
6.0
141
12.0
290
     0
  0
SCALE
  5
68
102
{ACAD_REACTORS
330
47
102
}
330
47
100
AcDbScale
 70
     0
300
1'-0" = 1'-0"
140
12.0
141
12.0
290
     0
  0
TABLESTYLE
  5
6A
102
{ACAD_REACTORS
330
69
102
}
102
{ACAD_XDICTIONARY
360
1A6
102
}
330
69
100
AcDbTableStyle
  3
Standard
 70
     0
 71
     0
 40
0.06
 41
0.06
280
     0
281
     0
  7
Standard
140
4.5
170
     2
 62
     0
 63
   257
283
     0
 90
        4
 91
        0
  1

274
    -2
284
     1
 64
     0
275
    -2
285
     1
 65
     0
276
    -2
286
     1
 66
     0
277
    -2
287
     1
 67
     0
278
    -2
288
     1
 68
     0
279
    -2
289
     1
 69
     0
  7
Standard
140
6.0
170
     5
 62
     0
 63
   257
283
     0
 90
        4
 91
        0
  1

274
    -2
284
     1
 64
     0
275
    -2
285
     1
 65
     0
276
    -2
286
     1
 66
     0
277
    -2
287
     1
 67
     0
278
    -2
288
     1
 68
     0
279
    -2
289
     1
 69
     0
  7
Standard
140
4.5
170
     5
 62
     0
 63
   257
283
     0
 90
        4
 91
        0
  1

274
    -2
284
     1
 64
     0
275
    -2
285
     1
 65
     0
276
    -2
286
     1
 66
     0
277
    -2
287
     1
 67
     0
278
    -2
288
     1
 68
     0
279
    -2
289
     1
 69
     0
  0
VISUALSTYLE
  5
2F
102
{ACAD_REACTORS
330
2A
102
}
330
2A
100
AcDbVisualStyle
  2
2dWireframe
 70
     4
177
     3
291
     0
 70
    58
 90
        0
176
     1
 90
        2
176
     1
 90
        0
176
     1
 90
        0
176
     1
 40
0.6
176
     1
 40
30.0
176
     1
 62
     7
420
 16777215
176
     1
 90
        1
176
     1
 90
        4
176
     1
 62
     7
176
     1
 62
   257
176
     1
 90
        1
176
     1
 90
        1
176
     1
 40
1.0
176
     1
 90
        0
176
     1
 62
   257
176
     1
 40
1.0
176
     1
 90
        1
176
     1
 90
        6
176
     1
 90
        2
176
     1
 62
     7
176
     1
 90
        5
176
     1
 90
        0
176
     1
 90
        0
176
     1
290
     0
176
     1
 90
        1
176
     1
 40
0.0
176
     1
 90
        0
176
     1
290
     1
176
     1
290
     1
176
     1
290
     0
176
     1
290
     0
176
     1
290
     0
176
     1
290
     0
176
     1
290
     0
176
     1
290
     0
176
     1
290
     0
176
     1
 90
       50
176
     1
 40
0.0
176
     1
 40
1.0
176
     1
 90
        0
176
     1
 62
    18
420
        0
176
     1
 90
       50
176
     1
 90
        3
176
     1
 62
     5
420
      255
176
     1
290
     0
176
     1
 90
       50
176
     1
 90
       50
176
     1
 90
       50
176
     1
290
     0
176
     1
 90
       50
176
     1
 62
   256
176
     0
 40
1.0
176
     0
 90
        2
176
     1
  1
strokes_ogs.tif
176
     1
290
     0
176
     1
 40
1.0
176
     1
 40
1.0
176
     1
  0
VISUALSTYLE
  5
32
102
{ACAD_REACTORS
330
2A
102
}
330
2A
100
AcDbVisualStyle
  2
Basic
 70
     7
177
     3
291
     1
 70
    58
 90
        1
176
     1
 90
        0
176
     1
 90
        1
176
     1
 90
        0
176
     1
 40
0.6
176
     1
 40
30.0
176
     1
 62
     7
420
 16777215
176
     1
 90
        0
176
     1
 90
        4
176
     1
 62
     7
176
     1
 62
   257
176
     1
 90
        1
176
     1
 90
        1
176
     1
 40
1.0
176
     1
 90
        8
176
     1
 62
     7
176
     1
 40
1.0
176
     1
 90
        1
176
     1
 90
        6
176
     1
 90
        2
176
     1
 62
     7
176
     1
 90
        5
176
     1
 90
        0
176
     1
 90
        0
176
     1
290
     0
176
     1
 90
        1
176
     1
 40
0.0
176
     1
 90
        0
176
     1
290
     0
176
     1
290
     1
176
     1
290
     1
176
     1
290
     0
176
     1
290
     0
176
     1
290
     0
176
     1
290
     0
176
     1
290
     0
176
     1
290
     0
176
     1
 90
       50
176
     1
 40
0.0
176
     1
 40
1.0
176
     1
 90
        0
176
     1
 62
    18
420
        0
176
     1
 90
       50
176
     1
 90
        3
176
     1
 62
     5
420
      255
176
     1
290
     0
176
     1
 90
       50
176
     1
 90
       50
176
     1
 90
       50
176
     1
290
     0
176
     1
 90
       50
176
     1
 62
   256
176
     0
 40
1.0
176
     0
 90
        2
176
     1
  1
strokes_ogs.tif
176
     1
290
     0
176
     1
 40
1.0
176
     1
 40
1.0
176
     1
  0
VISUALSTYLE
  5
36
102
{ACAD_REACTORS
330
2A
102
}
330
2A
100
AcDbVisualStyle
  2
Brighten
 70
    12
177
     3
291
     1
 70
    58
 90
        2
176
     1
 90
        2
176
     1
 90
        0
176
     1
 90
        0
176
     1
 40
0.6
176
     1
 40
30.0
176
     1
 62
     7
420
 16777215
176
     1
 90
        1
176
     1
 90
        4
176
     1
 62
     7
176
     1
 62
   257
176
     1
 90
        1
176
     1
 90
        1
176
     1
 40
1.0
176
     1
 90
        8
176
     1
 62
     7
176
     1
 40
1.0
176
     1
 90
        1
176
     1
 90
        6
176
     1
 90
        2
176
     1
 62
     7
176
     1
 90
        5
176
     1
 90
        0
176
     1
 90
        0
176
     1
290
     0
176
     1
 90
        1
176
     1
 40
50.0
176
     1
 90
        0
176
     1
290
     0
176
     1
290
     1
176
     1
290
     1
176
     1
290
     0
176
     1
290
     0
176
     1
290
     0
176
     1
290
     0
176
     1
290
     0
176
     1
290
     0
176
     1
 90
       50
176
     1
 40
0.0
176
     1
 40
1.0
176
     1
 90
        0
176
     1
 62
    18
420
        0
176
     1
 90
       50
176
     1
 90
        3
176
     1
 62
     5
420
      255
176
     1
290
     0
176
     1
 90
       50
176
     1
 90
       50
176
     1
 90
       50
176
     1
290
     0
176
     1
 90
       50
176
     1
 62
   256
176
     0
 40
1.0
176
     0
 90
        2
176
     1
  1
strokes_ogs.tif
176
     1
290
     0
176
     1
 40
1.0
176
     1
 40
1.0
176
     1
  0
VISUALSTYLE
  5
3A
102
{ACAD_REACTORS
330
2A
102
}
330
2A
100
AcDbVisualStyle
  2
ColorChange
 70
    16
177
     3
291
     1
 70
    58
 90
        2
176
     1
 90
        2
176
     1
 90
        3
176
     1
 90
        0
176
     1
 40
0.6
176
     1
 40
30.0
176
     1
 62
     8
420
  8421504
176
     1
 90
        1
176
     1
 90
        4
176
     1
 62
     7
176
     1
 62
   257
176
     1
 90
        1
176
     1
 90
        1
176
     1
 40
1.0
176
     1
 90
        8
176
     1
 62
     8
420
  8421504
176
     1
 40
1.0
176
     1
 90
        1
176
     1
 90
        6
176
     1
 90
        2
176
     1
 62
     7
176
     1
 90
        5
176
     1
 90
        0
176
     1
 90
        0
176
     1
290
     0
176
     1
 90
        1
176
     1
 40
0.0
176
     1
 90
        0
176
     1
290
     0
176
     1
290
     1
176
     1
290
     1
176
     1
290
     0
176
     1
290
     0
176
     1
290
     0
176
     1
290
     0
176
     1
290
     0
176
     1
290
     0
176
     1
 90
       50
176
     1
 40
0.0
176
     1
 40
1.0
176
     1
 90
        0
176
     1
 62
    18
420
        0
176
     1
 90
       50
176
     1
 90
        3
176
     1
 62
     5
420
      255
176
     1
290
     0
176
     1
 90
       50
176
     1
 90
       50
176
     1
 90
       50
176
     1
290
     0
176
     1
 90
       50
176
     1
 62
   256
176
     0
 40
1.0
176
     0
 90
        2
176
     1
  1
strokes_ogs.tif
176
     1
290
     0
176
     1
 40
1.0
176
     1
 40
1.0
176
     1
  0
VISUALSTYLE
  5
34
102
{ACAD_REACTORS
330
2A
102
}
330
2A
100
AcDbVisualStyle
  2
Conceptual
 70
     9
177
     3
291
     0
 70
    58
 90
        3
176
     1
 90
        2
176
     1
 90
        0
176
     1
 90
        0
176
     1
 40
0.6
176
     1
 40
30.0
176
     1
 62
     7
420
 16777215
176
     1
 90
        2
176
     1
 90
        2
176
     1
 62
     7
176
     1
 62
   257
176
     1
 90
        1
176
     1
 90
        1
176
     1
 40
179.0
176
     1
 90
        8
176
     1
 62
     7
176
     1
 40
1.0
176
     1
 90
        1
176
     1
 90
        6
176
     1
 90
        2
176
     1
 62
     7
176
     1
 90
        3
176
     1
 90
        0
176
     1
 90
        0
176
     1
290
     0
176
     1
 90
        1
176
     1
 40
0.0
176
     1
 90
        0
176
     1
290
     0
176
     1
290
     1
176
     1
290
     1
176
     1
290
     0
176
     1
290
     0
176
     1
290
     0
176
     1
290
     0
176
     1
290
     0
176
     1
290
     0
176
     1
 90
       50
176
     1
 40
0.0
176
     1
 40
1.0
176
     1
 90
        0
176
     1
 62
    18
420
        0
176
     1
 90
       50
176
     1
 90
        3
176
     1
 62
     5
420
      255
176
     1
290
     0
176
     1
 90
       50
176
     1
 90
       50
176
     1
 90
       50
176
     1
290
     0
176
     1
 90
       50
176
     1
 62
   256
176
     0
 40
1.0
176
     0
 90
        2
176
     1
  1
strokes_ogs.tif
176
     1
290
     0
176
     1
 40
1.0
176
     1
 40
1.0
176
     1
  0
VISUALSTYLE
  5
35
102
{ACAD_REACTORS
330
2A
102
}
330
2A
100
AcDbVisualStyle
  2
Dim
 70
    11
177
     3
291
     1
 70
    58
 90
        2
176
     1
 90
        2
176
     1
 90
        0
176
     1
 90
        0
176
     1
 40
0.6
176
     1
 40
30.0
176
     1
 62
     7
420
 16777215
176
     1
 90
        1
176
     1
 90
        4
176
     1
 62
     7
176
     1
 62
   257
176
     1
 90
        1
176
     1
 90
        1
176
     1
 40
1.0
176
     1
 90
        8
176
     1
 62
     7
176
     1
 40
1.0
176
     1
 90
        1
176
     1
 90
        6
176
     1
 90
        2
176
     1
 62
     7
176
     1
 90
        5
176
     1
 90
        0
176
     1
 90
        0
176
     1
290
     0
176
     1
 90
        1
176
     1
 40
-50.0
176
     1
 90
        0
176
     1
290
     0
176
     1
290
     1
176
     1
290
     1
176
     1
290
     0
176
     1
290
     0
176
     1
290
     0
176
     1
290
     0
176
     1
290
     0
176
     1
290
     0
176
     1
 90
       50
176
     1
 40
0.0
176
     1
 40
1.0
176
     1
 90
        0
176
     1
 62
    18
420
        0
176
     1
 90
       50
176
     1
 90
        3
176
     1
 62
     5
420
      255
176
     1
290
     0
176
     1
 90
       50
176
     1
 90
       50
176
     1
 90
       50
176
     1
290
     0
176
     1
 90
       50
176
     1
 62
   256
176
     0
 40
1.0
176
     0
 90
        2
176
     1
  1
strokes_ogs.tif
176
     1
290
     0
176
     1
 40
1.0
176
     1
 40
1.0
176
     1
  0
VISUALSTYLE
  5
3D
102
{ACAD_REACTORS
330
2A
102
}
330
2A
100
AcDbVisualStyle
  2
EdgeColorOff
 70
    22
177
     3
291
     1
 70
    58
 90
        2
176
     0
 90
        2
176
     0
 90
        0
176
     0
 90
        0
176
     0
 40
0.6
176
     0
 40
30.0
176
     0
 62
     7
420
 16777215
176
     0
 90
        1
176
     0
 90
        4
176
     0
 62
     7
176
     0
 62
   257
176
     0
 90
        1
176
     0
 90
        1
176
     0
 40
1.0
176
     0
 90
        8
176
     2
 62
     7
176
     0
 40
1.0
176
     0
 90
        1
176
     0
 90
        6
176
     0
 90
        2
176
     0
 62
     7
176
     0
 90
        5
176
     0
 90
        0
176
     0
 90
        0
176
     0
290
     0
176
     0
 90
        1
176
     0
 40
0.0
176
     0
 90
        0
176
     0
290
     0
176
     0
290
     1
176
     0
290
     1
176
     0
290
     0
176
     0
290
     0
176
     0
290
     0
176
     0
290
     0
176
     0
290
     0
176
     0
290
     0
176
     0
 90
       50
176
     0
 40
0.0
176
     0
 40
1.0
176
     0
 90
        0
176
     0
 62
    18
420
        0
176
     0
 90
       50
176
     0
 90
        3
176
     0
 62
     5
420
      255
176
     0
290
     0
176
     0
 90
       50
176
     0
 90
       50
176
     0
 90
       50
176
     0
290
     0
176
     0
 90
       50
176
     0
 62
   256
176
     0
 40
1.0
176
     0
 90
        2
176
     0
  1
strokes_ogs.tif
176
     0
290
     0
176
     0
 40
1.0
176
     0
 40
1.0
176
     0
  0
VISUALSTYLE
  5
39
102
{ACAD_REACTORS
330
2A
102
}
330
2A
100
AcDbVisualStyle
  2
Facepattern
 70
    15
177
     3
291
     1
 70
    58
 90
        2
176
     1
 90
        2
176
     1
 90
        0
176
     1
 90
        0
176
     1
 40
0.6
176
     1
 40
30.0
176
     1
 62
     7
420
 16777215
176
     1
 90
        1
176
     1
 90
        4
176
     1
 62
     7
176
     1
 62
   257
176
     1
 90
        1
176
     1
 90
        1
176
     1
 40
1.0
176
     1
 90
        8
176
     1
 62
     7
176
     1
 40
1.0
176
     1
 90
        1
176
     1
 90
        6
176
     1
 90
        2
176
     1
 62
     7
176
     1
 90
        5
176
     1
 90
        0
176
     1
 90
        0
176
     1
290
     0
176
     1
 90
        1
176
     1
 40
0.0
176
     1
 90
        0
176
     1
290
     0
176
     1
290
     1
176
     1
290
     1
176
     1
290
     0
176
     1
290
     0
176
     1
290
     0
176
     1
290
     0
176
     1
290
     0
176
     1
290
     0
176
     1
 90
       50
176
     1
 40
0.0
176
     1
 40
1.0
176
     1
 90
        0
176
     1
 62
    18
420
        0
176
     1
 90
       50
176
     1
 90
        3
176
     1
 62
     5
420
      255
176
     1
290
     0
176
     1
 90
       50
176
     1
 90
       50
176
     1
 90
       50
176
     1
290
     0
176
     1
 90
       50
176
     1
 62
   256
176
     0
 40
1.0
176
     0
 90
        2
176
     1
  1
strokes_ogs.tif
176
     1
290
     0
176
     1
 40
1.0
176
     1
 40
1.0
176
     1
  0
VISUALSTYLE
  5
2B
102
{ACAD_REACTORS
330
2A
102
}
330
2A
100
AcDbVisualStyle
  2
Flat
 70
     0
177
     3
291
     1
 70
    58
 90
        2
176
     1
 90
        1
176
     1
 90
        1
176
     1
 90
        2
176
     1
 40
0.6
176
     1
 40
30.0
176
     1
 62
     7
420
 16777215
176
     1
 90
        0
176
     1
 90
        0
176
     1
 62
     7
176
     1
 62
   257
176
     1
 90
        1
176
     1
 90
        1
176
     1
 40
1.0
176
     1
 90
        8
176
     1
 62
     7
176
     1
 40
1.0
176
     1
 90
        1
176
     1
 90
        6
176
     1
 90
        2
176
     1
 62
     7
176
     1
 90
        5
176
     1
 90
        0
176
     1
 90
        0
176
     1
290
     0
176
     1
 90
       13
176
     1
 40
0.0
176
     1
 90
        0
176
     1
290
     0
176
     1
290
     1
176
     1
290
     1
176
     1
290
     0
176
     1
290
     0
176
     1
290
     0
176
     1
290
     0
176
     1
290
     0
176
     1
290
     0
176
     1
 90
       50
176
     1
 40
0.0
176
     1
 40
1.0
176
     1
 90
        0
176
     1
 62
    18
420
        0
176
     1
 90
       50
176
     1
 90
        3
176
     1
 62
     5
420
      255
176
     1
290
     0
176
     1
 90
       50
176
     1
 90
       50
176
     1
 90
       50
176
     1
290
     0
176
     1
 90
       50
176
     1
 62
   256
176
     0
 40
1.0
176
     0
 90
        2
176
     1
  1
strokes_ogs.tif
176
     1
290
     0
176
     1
 40
1.0
176
     1
 40
1.0
176
     1
  0
VISUALSTYLE
  5
2C
102
{ACAD_REACTORS
330
2A
102
}
330
2A
100
AcDbVisualStyle
  2
FlatWithEdges
 70
     1
177
     3
291
     1
 70
    58
 90
        2
176
     1
 90
        1
176
     1
 90
        1
176
     1
 90
        2
176
     1
 40
0.6
176
     1
 40
30.0
176
     1
 62
     7
420
 16777215
176
     1
 90
        1
176
     1
 90
        0
176
     1
 62
     7
176
     1
 62
   257
176
     1
 90
        1
176
     1
 90
        1
176
     1
 40
1.0
176
     1
 90
        0
176
     1
 62
   257
176
     1
 40
1.0
176
     1
 90
        1
176
     1
 90
        6
176
     1
 90
        2
176
     1
 62
     7
176
     1
 90
        5
176
     1
 90
        0
176
     1
 90
        0
176
     1
290
     0
176
     1
 90
       13
176
     1
 40
0.0
176
     1
 90
        0
176
     1
290
     0
176
     1
290
     1
176
     1
290
     1
176
     1
290
     0
176
     1
290
     0
176
     1
290
     0
176
     1
290
     0
176
     1
290
     0
176
     1
290
     0
176
     1
 90
       50
176
     1
 40
0.0
176
     1
 40
1.0
176
     1
 90
        0
176
     1
 62
    18
420
        0
176
     1
 90
       50
176
     1
 90
        3
176
     1
 62
     5
420
      255
176
     1
290
     0
176
     1
 90
       50
176
     1
 90
       50
176
     1
 90
       50
176
     1
290
     0
176
     1
 90
       50
176
     1
 62
   256
176
     0
 40
1.0
176
     0
 90
        2
176
     1
  1
strokes_ogs.tif
176
     1
290
     0
176
     1
 40
1.0
176
     1
 40
1.0
176
     1
  0
VISUALSTYLE
  5
2D
102
{ACAD_REACTORS
330
2A
102
}
330
2A
100
AcDbVisualStyle
  2
Gouraud
 70
     2
177
     3
291
     1
 70
    58
 90
        2
176
     1
 90
        2
176
     1
 90
        1
176
     1
 90
        2
176
     1
 40
0.6
176
     1
 40
30.0
176
     1
 62
     7
420
 16777215
176
     1
 90
        0
176
     1
 90
        0
176
     1
 62
     7
176
     1
 62
   257
176
     1
 90
        1
176
     1
 90
        1
176
     1
 40
1.0
176
     1
 90
        0
176
     1
 62
     7
176
     1
 40
1.0
176
     1
 90
        1
176
     1
 90
        6
176
     1
 90
        2
176
     1
 62
     7
176
     1
 90
        5
176
     1
 90
        0
176
     1
 90
        0
176
     1
290
     0
176
     1
 90
       13
176
     1
 40
0.0
176
     1
 90
        0
176
     1
290
     0
176
     1
290
     1
176
     1
290
     1
176
     1
290
     0
176
     1
290
     0
176
     1
290
     0
176
     1
290
     0
176
     1
290
     0
176
     1
290
     0
176
     1
 90
       50
176
     1
 40
0.0
176
     1
 40
1.0
176
     1
 90
        0
176
     1
 62
    18
420
        0
176
     1
 90
       50
176
     1
 90
        3
176
     1
 62
     5
420
      255
176
     1
290
     0
176
     1
 90
       50
176
     1
 90
       50
176
     1
 90
       50
176
     1
290
     0
176
     1
 90
       50
176
     1
 62
   256
176
     0
 40
1.0
176
     0
 90
        2
176
     1
  1
strokes_ogs.tif
176
     1
290
     0
176
     1
 40
1.0
176
     1
 40
1.0
176
     1
  0
VISUALSTYLE
  5
2E
102
{ACAD_REACTORS
330
2A
102
}
330
2A
100
AcDbVisualStyle
  2
GouraudWithEdges
 70
     3
177
     3
291
     1
 70
    58
 90
        2
176
     1
 90
        2
176
     1
 90
        1
176
     1
 90
        2
176
     1
 40
0.6
176
     1
 40
30.0
176
     1
 62
     7
420
 16777215
176
     1
 90
        1
176
     1
 90
        0
176
     1
 62
     7
176
     1
 62
   257
176
     1
 90
        1
176
     1
 90
        1
176
     1
 40
1.0
176
     1
 90
        0
176
     1
 62
   257
176
     1
 40
1.0
176
     1
 90
        1
176
     1
 90
        6
176
     1
 90
        2
176
     1
 62
     7
176
     1
 90
        5
176
     1
 90
        0
176
     1
 90
        0
176
     1
290
     0
176
     1
 90
       13
176
     1
 40
0.0
176
     1
 90
        0
176
     1
290
     0
176
     1
290
     1
176
     1
290
     1
176
     1
290
     0
176
     1
290
     0
176
     1
290
     0
176
     1
290
     0
176
     1
290
     0
176
     1
290
     0
176
     1
 90
       50
176
     1
 40
0.0
176
     1
 40
1.0
176
     1
 90
        0
176
     1
 62
    18
420
        0
176
     1
 90
       50
176
     1
 90
        3
176
     1
 62
     5
420
      255
176
     1
290
     0
176
     1
 90
       50
176
     1
 90
       50
176
     1
 90
       50
176
     1
290
     0
176
     1
 90
       50
176
     1
 62
   256
176
     0
 40
1.0
176
     0
 90
        2
176
     1
  1
strokes_ogs.tif
176
     1
290
     0
176
     1
 40
1.0
176
     1
 40
1.0
176
     1
  0
VISUALSTYLE
  5
31
102
{ACAD_REACTORS
330
2A
102
}
330
2A
100
AcDbVisualStyle
  2
Hidden
 70
     6
177
     3
291
     0
 70
    58
 90
        1
176
     1
 90
        2
176
     1
 90
        2
176
     1
 90
        0
176
     1
 40
0.6
176
     1
 40
30.0
176
     1
 62
     7
420
 16777215
176
     1
 90
        2
176
     1
 90
        2
176
     1
 62
     7
176
     1
 62
   257
176
     1
 90
        2
176
     1
 90
        1
176
     1
 40
40.0
176
     1
 90
        0
176
     1
 62
   257
176
     1
 40
1.0
176
     1
 90
        1
176
     1
 90
        6
176
     1
 90
        2
176
     1
 62
     7
176
     1
 90
        3
176
     1
 90
        0
176
     1
 90
        0
176
     1
290
     0
176
     1
 90
        1
176
     1
 40
0.0
176
     1
 90
        0
176
     1
290
     0
176
     1
290
     1
176
     1
290
     1
176
     1
290
     0
176
     1
290
     0
176
     1
290
     0
176
     1
290
     0
176
     1
290
     0
176
     1
290
     0
176
     1
 90
       50
176
     1
 40
0.0
176
     1
 40
1.0
176
     1
 90
        0
176
     1
 62
    18
420
        0
176
     1
 90
       50
176
     1
 90
        3
176
     1
 62
     5
420
      255
176
     1
290
     0
176
     1
 90
       50
176
     1
 90
       50
176
     1
 90
       50
176
     1
290
     0
176
     1
 90
       50
176
     1
 62
   256
176
     0
 40
1.0
176
     0
 90
        2
176
     1
  1
strokes_ogs.tif
176
     1
290
     0
176
     1
 40
1.0
176
     1
 40
1.0
176
     1
  0
VISUALSTYLE
  5
3B
102
{ACAD_REACTORS
330
2A
102
}
330
2A
100
AcDbVisualStyle
  2
JitterOff
 70
    20
177
     3
291
     1
 70
    58
 90
        2
176
     0
 90
        2
176
     0
 90
        0
176
     0
 90
        0
176
     0
 40
0.6
176
     0
 40
30.0
176
     0
 62
     7
420
 16777215
176
     0
 90
        1
176
     0
 90
        4
176
     0
 62
     7
176
     0
 62
   257
176
     0
 90
        1
176
     0
 90
        1
176
     0
 40
1.0
176
     0
 90
       10
176
     2
 62
     7
176
     0
 40
1.0
176
     0
 90
        1
176
     0
 90
        6
176
     0
 90
        2
176
     0
 62
     7
176
     0
 90
        5
176
     0
 90
        0
176
     0
 90
        0
176
     0
290
     0
176
     0
 90
        1
176
     0
 40
0.0
176
     0
 90
        0
176
     0
290
     0
176
     0
290
     1
176
     0
290
     1
176
     0
290
     0
176
     0
290
     0
176
     0
290
     0
176
     0
290
     0
176
     0
290
     0
176
     0
290
     0
176
     0
 90
       50
176
     0
 40
0.0
176
     0
 40
1.0
176
     0
 90
        0
176
     0
 62
    18
420
        0
176
     0
 90
       50
176
     0
 90
        3
176
     0
 62
     5
420
      255
176
     0
290
     0
176
     0
 90
       50
176
     0
 90
       50
176
     0
 90
       50
176
     0
290
     0
176
     0
 90
       50
176
     0
 62
   256
176
     0
 40
1.0
176
     0
 90
        2
176
     0
  1
strokes_ogs.tif
176
     0
290
     0
176
     0
 40
1.0
176
     0
 40
1.0
176
     0
  0
VISUALSTYLE
  5
38
102
{ACAD_REACTORS
330
2A
102
}
330
2A
100
AcDbVisualStyle
  2
Linepattern
 70
    14
177
     3
291
     1
 70
    58
 90
        2
176
     1
 90
        2
176
     1
 90
        0
176
     1
 90
        0
176
     1
 40
0.6
176
     1
 40
30.0
176
     1
 62
     7
420
 16777215
176
     1
 90
        1
176
     1
 90
        4
176
     1
 62
     7
176
     1
 62
   257
176
     1
 90
        7
176
     1
 90
        7
176
     1
 40
1.0
176
     1
 90
        8
176
     1
 62
     7
176
     1
 40
1.0
176
     1
 90
        1
176
     1
 90
        6
176
     1
 90
        2
176
     1
 62
     7
176
     1
 90
        5
176
     1
 90
        0
176
     1
 90
        0
176
     1
290
     0
176
     1
 90
        1
176
     1
 40
0.0
176
     1
 90
        0
176
     1
290
     0
176
     1
290
     1
176
     1
290
     1
176
     1
290
     0
176
     1
290
     0
176
     1
290
     0
176
     1
290
     0
176
     1
290
     0
176
     1
290
     0
176
     1
 90
       50
176
     1
 40
0.0
176
     1
 40
1.0
176
     1
 90
        0
176
     1
 62
    18
420
        0
176
     1
 90
       50
176
     1
 90
        3
176
     1
 62
     5
420
      255
176
     1
290
     0
176
     1
 90
       50
176
     1
 90
       50
176
     1
 90
       50
176
     1
290
     0
176
     1
 90
       50
176
     1
 62
   256
176
     0
 40
1.0
176
     0
 90
        2
176
     1
  1
strokes_ogs.tif
176
     1
290
     0
176
     1
 40
1.0
176
     1
 40
1.0
176
     1
  0
VISUALSTYLE
  5
3C
102
{ACAD_REACTORS
330
2A
102
}
330
2A
100
AcDbVisualStyle
  2
OverhangOff
 70
    21
177
     3
291
     1
 70
    58
 90
        2
176
     0
 90
        2
176
     0
 90
        0
176
     0
 90
        0
176
     0
 40
0.6
176
     0
 40
30.0
176
     0
 62
     7
420
 16777215
176
     0
 90
        1
176
     0
 90
        4
176
     0
 62
     7
176
     0
 62
   257
176
     0
 90
        1
176
     0
 90
        1
176
     0
 40
1.0
176
     0
 90
        9
176
     2
 62
     7
176
     0
 40
1.0
176
     0
 90
        1
176
     0
 90
        6
176
     0
 90
        2
176
     0
 62
     7
176
     0
 90
        5
176
     0
 90
        0
176
     0
 90
        0
176
     0
290
     0
176
     0
 90
        1
176
     0
 40
0.0
176
     0
 90
        0
176
     0
290
     0
176
     0
290
     1
176
     0
290
     1
176
     0
290
     0
176
     0
290
     0
176
     0
290
     0
176
     0
290
     0
176
     0
290
     0
176
     0
290
     0
176
     0
 90
       50
176
     0
 40
0.0
176
     0
 40
1.0
176
     0
 90
        0
176
     0
 62
    18
420
        0
176
     0
 90
       50
176
     0
 90
        3
176
     0
 62
     5
420
      255
176
     0
290
     0
176
     0
 90
       50
176
     0
 90
       50
176
     0
 90
       50
176
     0
290
     0
176
     0
 90
       50
176
     0
 62
   256
176
     0
 40
1.0
176
     0
 90
        2
176
     0
  1
strokes_ogs.tif
176
     0
290
     0
176
     0
 40
1.0
176
     0
 40
1.0
176
     0
  0
VISUALSTYLE
  5
33
102
{ACAD_REACTORS
330
2A
102
}
330
2A
100
AcDbVisualStyle
  2
Realistic
 70
     8
177
     3
291
     0
 70
    58
 90
        2
176
     1
 90
        3
176
     1
 90
        0
176
     1
 90
        2
176
     1
 40
0.6
176
     1
 40
30.0
176
     1
 62
     7
420
 16777215
176
     1
 90
        0
176
     1
 90
        0
176
     1
 62
     7
176
     1
 62
   257
176
     1
 90
        1
176
     1
 90
        1
176
     1
 40
1.0
176
     1
 90
        8
176
     1
 62
   257
176
     1
 40
1.0
176
     1
 90
        1
176
     1
 90
        6
176
     1
 90
        2
176
     1
 62
     7
176
     1
 90
        3
176
     1
 90
        0
176
     1
 90
        0
176
     1
290
     0
176
     1
 90
       13
176
     1
 40
0.0
176
     1
 90
        0
176
     1
290
     0
176
     1
290
     1
176
     1
290
     1
176
     1
290
     0
176
     1
290
     0
176
     1
290
     0
176
     1
290
     0
176
     1
290
     0
176
     1
290
     0
176
     1
 90
       50
176
     1
 40
0.0
176
     1
 40
1.0
176
     1
 90
        0
176
     1
 62
    18
420
        0
176
     1
 90
       50
176
     1
 90
        3
176
     1
 62
     5
420
      255
176
     1
290
     0
176
     1
 90
       50
176
     1
 90
       50
176
     1
 90
       50
176
     1
290
     0
176
     1
 90
       50
176
     1
 62
   256
176
     0
 40
1.0
176
     0
 90
        2
176
     1
  1
strokes_ogs.tif
176
     1
290
     0
176
     1
 40
1.0
176
     1
 40
1.0
176
     1
  0
VISUALSTYLE
  5
42
102
{ACAD_REACTORS
330
2A
102
}
330
2A
100
AcDbVisualStyle
  2
Shaded
 70
    27
177
     3
291
     0
 70
    58
 90
        2
176
     1
 90
        2
176
     1
 90
        1
176
     1
 90
        2
176
     1
 40
0.6
176
     1
 40
30.0
176
     1
 62
     7
420
 16777215
176
     1
 90
        0
176
     1
 90
        4
176
     1
 62
     7
176
     1
 62
   257
176
     1
 90
        1
176
     1
 90
        1
176
     1
 40
1.0
176
     1
 90
        8
176
     1
 62
   257
176
     1
 40
1.0
176
     1
 90
        1
176
     1
 90
        6
176
     1
 90
        2
176
     1
 62
     8
420
  7895160
176
     1
 90
        3
176
     1
 90
        0
176
     1
 90
        0
176
     1
290
     0
176
     1
 90
        5
176
     1
 40
0.0
176
     1
 90
        0
176
     1
290
     0
176
     1
290
     1
176
     1
290
     1
176
     1
290
     0
176
     1
290
     0
176
     1
290
     0
176
     1
290
     0
176
     1
290
     0
176
     1
290
     0
176
     1
 90
       50
176
     1
 40
0.0
176
     1
 40
1.0
176
     1
 90
        0
176
     1
 62
    18
420
        0
176
     1
 90
       50
176
     1
 90
        3
176
     1
 62
     5
420
      255
176
     1
290
     0
176
     1
 90
       50
176
     1
 90
       50
176
     1
 90
       50
176
     1
290
     0
176
     1
 90
       50
176
     1
 62
   256
176
     0
 40
1.0
176
     0
 90
        2
176
     1
  1
strokes_ogs.tif
176
     1
290
     0
176
     1
 40
1.0
176
     1
 40
1.0
176
     1
  0
VISUALSTYLE
  5
41
102
{ACAD_REACTORS
330
2A
102
}
330
2A
100
AcDbVisualStyle
  2
Shaded with edges
 70
    26
177
     3
291
     0
 70
    58
 90
        2
176
     1
 90
        2
176
     1
 90
        1
176
     1
 90
        2
176
     1
 40
0.6
176
     1
 40
30.0
176
     1
 62
     7
420
 16777215
176
     1
 90
        1
176
     1
 90
       10
176
     1
 62
     7
176
     1
 62
   257
176
     1
 90
        2
176
     1
 90
        1
176
     1
 40
1.0
176
     1
 90
        8
176
     1
 62
   257
176
     1
 40
1.0
176
     1
 90
        1
176
     1
 90
        6
176
     1
 90
        2
176
     1
 62
     7
176
     1
 90
        3
176
     1
 90
        0
176
     1
 90
        0
176
     1
290
     0
176
     1
 90
        5
176
     1
 40
0.0
176
     1
 90
        0
176
     1
290
     0
176
     1
290
     1
176
     1
290
     1
176
     1
290
     0
176
     1
290
     0
176
     1
290
     0
176
     1
290
     0
176
     1
290
     0
176
     1
290
     0
176
     1
 90
       50
176
     1
 40
0.0
176
     1
 40
1.0
176
     1
 90
        0
176
     1
 62
    18
420
        0
176
     1
 90
       50
176
     1
 90
        3
176
     1
 62
     5
420
      255
176
     1
290
     0
176
     1
 90
       50
176
     1
 90
       50
176
     1
 90
       50
176
     1
290
     0
176
     1
 90
       50
176
     1
 62
   256
176
     0
 40
1.0
176
     0
 90
        2
176
     1
  1
strokes_ogs.tif
176
     1
290
     0
176
     1
 40
1.0
176
     1
 40
1.0
176
     1
  0
VISUALSTYLE
  5
3E
102
{ACAD_REACTORS
330
2A
102
}
330
2A
100
AcDbVisualStyle
  2
Shades of Gray
 70
    23
177
     3
291
     0
 70
    58
 90
        2
176
     1
 90
        2
176
     1
 90
        3
176
     1
 90
        0
176
     1
 40
0.6
176
     1
 40
30.0
176
     1
 62
     7
420
 16777215
176
     1
 90
        2
176
     1
 90
        2
176
     1
 62
     7
176
     1
 62
     7
176
     1
 90
        1
176
     1
 90
        1
176
     1
 40
40.0
176
     1
 90
        8
176
     1
 62
     7
176
     1
 40
1.0
176
     1
 90
        1
176
     1
 90
        6
176
     1
 90
        2
176
     1
 62
     7
176
     1
 90
        3
176
     1
 90
        0
176
     1
 90
        0
176
     1
290
     0
176
     1
 90
        1
176
     1
 40
0.0
176
     1
 90
        0
176
     1
290
     0
176
     1
290
     1
176
     1
290
     1
176
     1
290
     0
176
     1
290
     0
176
     1
290
     0
176
     1
290
     0
176
     1
290
     0
176
     1
290
     0
176
     1
 90
       50
176
     1
 40
0.0
176
     1
 40
1.0
176
     1
 90
        0
176
     1
 62
    18
420
        0
176
     1
 90
       50
176
     1
 90
        3
176
     1
 62
     5
420
      255
176
     1
290
     0
176
     1
 90
       50
176
     1
 90
       50
176
     1
 90
       50
176
     1
290
     0
176
     1
 90
       50
176
     1
 62
   256
176
     0
 40
1.0
176
     0
 90
        2
176
     1
  1
strokes_ogs.tif
176
     1
290
     0
176
     1
 40
1.0
176
     1
 40
1.0
176
     1
  0
VISUALSTYLE
  5
3F
102
{ACAD_REACTORS
330
2A
102
}
330
2A
100
AcDbVisualStyle
  2
Sketchy
 70
    24
177
     3
291
     0
 70
    58
 90
        1
176
     1
 90
        2
176
     1
 90
        2
176
     1
 90
        0
176
     1
 40
0.6
176
     1
 40
30.0
176
     1
 62
     7
420
 16777215
176
     1
 90
        2
176
     1
 90
        2
176
     1
 62
     7
176
     1
 62
     7
176
     1
 90
        1
176
     1
 90
        1
176
     1
 40
40.0
176
     1
 90
       11
176
     1
 62
     7
176
     1
 40
1.0
176
     1
 90
        1
176
     1
 90
        6
176
     1
 90
        2
176
     1
 62
     7
176
     1
 90
        6
176
     1
 90
        0
176
     1
 90
        0
176
     1
290
     0
176
     1
 90
        1
176
     1
 40
0.0
176
     1
 90
        0
176
     1
290
     0
176
     1
290
     1
176
     1
290
     1
176
     1
290
     0
176
     1
290
     0
176
     1
290
     0
176
     1
290
     0
176
     1
290
     0
176
     1
290
     0
176
     1
 90
       50
176
     1
 40
0.0
176
     1
 40
1.0
176
     1
 90
        0
176
     1
 62
    18
420
        0
176
     1
 90
       50
176
     1
 90
        3
176
     1
 62
     5
420
      255
176
     1
290
     0
176
     1
 90
       50
176
     1
 90
       50
176
     1
 90
       50
176
     1
290
     0
176
     1
 90
       50
176
     1
 62
   256
176
     0
 40
1.0
176
     0
 90
        2
176
     1
  1
strokes_ogs.tif
176
     1
290
     0
176
     1
 40
1.0
176
     1
 40
1.0
176
     1
  0
VISUALSTYLE
  5
37
102
{ACAD_REACTORS
330
2A
102
}
330
2A
100
AcDbVisualStyle
  2
Thicken
 70
    13
177
     3
291
     1
 70
    58
 90
        2
176
     1
 90
        2
176
     1
 90
        0
176
     1
 90
        0
176
     1
 40
0.6
176
     1
 40
30.0
176
     1
 62
     7
420
 16777215
176
     1
 90
        1
176
     1
 90
        4
176
     1
 62
     7
176
     1
 62
   257
176
     1
 90
        1
176
     1
 90
        1
176
     1
 40
1.0
176
     1
 90
       12
176
     1
 62
     7
176
     1
 40
1.0
176
     1
 90
        1
176
     1
 90
        6
176
     1
 90
        2
176
     1
 62
     7
176
     1
 90
        5
176
     1
 90
        0
176
     1
 90
        0
176
     1
290
     0
176
     1
 90
        1
176
     1
 40
0.0
176
     1
 90
        0
176
     1
290
     0
176
     1
290
     1
176
     1
290
     1
176
     1
290
     0
176
     1
290
     0
176
     1
290
     0
176
     1
290
     0
176
     1
290
     0
176
     1
290
     0
176
     1
 90
       50
176
     1
 40
0.0
176
     1
 40
1.0
176
     1
 90
        0
176
     1
 62
    18
420
        0
176
     1
 90
       50
176
     1
 90
        3
176
     1
 62
     5
420
      255
176
     1
290
     0
176
     1
 90
       50
176
     1
 90
       50
176
     1
 90
       50
176
     1
290
     0
176
     1
 90
       50
176
     1
 62
   256
176
     0
 40
1.0
176
     0
 90
        2
176
     1
  1
strokes_ogs.tif
176
     1
290
     0
176
     1
 40
1.0
176
     1
 40
1.0
176
     1
  0
VISUALSTYLE
  5
30
102
{ACAD_REACTORS
330
2A
102
}
330
2A
100
AcDbVisualStyle
  2
Wireframe
 70
     5
177
     3
291
     0
 70
    58
 90
        0
176
     1
 90
        2
176
     1
 90
        0
176
     1
 90
        0
176
     1
 40
0.6
176
     1
 40
30.0
176
     1
 62
     7
420
 16777215
176
     1
 90
        1
176
     1
 90
        4
176
     1
 62
     7
176
     1
 62
   257
176
     1
 90
        1
176
     1
 90
        1
176
     1
 40
1.0
176
     1
 90
        0
176
     1
 62
   257
176
     1
 40
1.0
176
     1
 90
        1
176
     1
 90
        6
176
     1
 90
        2
176
     1
 62
     7
176
     1
 90
        3
176
     1
 90
        0
176
     1
 90
        0
176
     1
290
     0
176
     1
 90
        1
176
     1
 40
0.0
176
     1
 90
        0
176
     1
290
     0
176
     1
290
     1
176
     1
290
     1
176
     1
290
     0
176
     1
290
     0
176
     1
290
     0
176
     1
290
     0
176
     1
290
     0
176
     1
290
     0
176
     1
 90
       50
176
     1
 40
0.0
176
     1
 40
1.0
176
     1
 90
        0
176
     1
 62
    18
420
        0
176
     1
 90
       50
176
     1
 90
        3
176
     1
 62
     5
420
      255
176
     1
290
     0
176
     1
 90
       50
176
     1
 90
       50
176
     1
 90
       50
176
     1
290
     0
176
     1
 90
       50
176
     1
 62
   256
176
     0
 40
1.0
176
     0
 90
        2
176
     1
  1
strokes_ogs.tif
176
     1
290
     0
176
     1
 40
1.0
176
     1
 40
1.0
176
     1
  0
VISUALSTYLE
  5
40
102
{ACAD_REACTORS
330
2A
102
}
330
2A
100
AcDbVisualStyle
  2
X-Ray
 70
    25
177
     3
291
     0
 70
    58
 90
        2
176
     1
 90
        2
176
     1
 90
        1
176
     1
 90
        1
176
     1
 40
0.5
176
     1
 40
30.0
176
     1
 62
     7
420
 16777215
176
     1
 90
        1
176
     1
 90
        0
176
     1
 62
     7
176
     1
 62
   257
176
     1
 90
        1
176
     1
 90
        1
176
     1
 40
1.0
176
     1
 90
        8
176
     1
 62
     7
176
     1
 40
1.0
176
     1
 90
        1
176
     1
 90
        6
176
     1
 90
        2
176
     1
 62
     7
176
     1
 90
        3
176
     1
 90
        0
176
     1
 90
        0
176
     1
290
     0
176
     1
 90
       13
176
     1
 40
0.0
176
     1
 90
        0
176
     1
290
     0
176
     1
290
     1
176
     1
290
     1
176
     1
290
     0
176
     1
290
     0
176
     1
290
     0
176
     1
290
     0
176
     1
290
     0
176
     1
290
     0
176
     1
 90
       50
176
     1
 40
0.0
176
     1
 40
1.0
176
     1
 90
        0
176
     1
 62
    18
420
        0
176
     1
 90
       50
176
     1
 90
        3
176
     1
 62
     5
420
      255
176
     1
290
     0
176
     1
 90
       50
176
     1
 90
       50
176
     1
 90
       50
176
     1
290
     0
176
     1
 90
       50
176
     1
 62
   256
176
     0
 40
1.0
176
     0
 90
        2
176
     1
  1
strokes_ogs.tif
176
     1
290
     0
176
     1
 40
1.0
176
     1
 40
1.0
176
     1
  0
DICTIONARYVAR
  5
1A5
102
{ACAD_REACTORS
330
1A4
102
}
330
1A4
100
DictionaryVariables
280
     0
  1
1:1
  0
DICTIONARYVAR
  5
1AA
102
{ACAD_REACTORS
330
1A4
102
}
330
1A4
100
DictionaryVariables
280
     0
  1
Standard
  0
DICTIONARYVAR
  5
1A9
102
{ACAD_REACTORS
330
1A4
102
}
330
1A4
100
DictionaryVariables
280
     0
  1
Standard
  0
DICTIONARY
  5
1A6
330
6A
100
AcDbDictionary
280
     1
281
     1
  3
ACAD_ROUNDTRIP_2008_TABLESTYLE_CELLSTYLEMAP
360
1A7
  0
CELLSTYLEMAP
  5
1A7
102
{ACAD_REACTORS
330
1A6
102
}
330
1A6
100
AcDbCellStyleMap
 90
        3
300
CELLSTYLE
  1
TABLEFORMAT_BEGIN
 90
        5
170
     1
 91
        0
 92
    32768
 62
   257
 93
        1
300
CONTENTFORMAT
  1
CONTENTFORMAT_BEGIN
 90
        0
 91
        0
 92
        4
 93
        0
300

 40
0.0
140
1.0
 94
        5
 62
     0
340
11
144
6.0
309
CONTENTFORMAT_END
171
     1
301
MARGIN
  1
CELLMARGIN_BEGIN
 40
1.5
 40
1.5
 40
1.5
 40
1.5
 40
1.5
 40
1.5
309
CELLMARGIN_END
 94
        6
 95
        1
302
GRIDFORMAT
  1
GRIDFORMAT_BEGIN
 90
        0
 91
        1
 62
     0
 92
       -2
340
14
 93
        0
 40
0.045
309
GRIDFORMAT_END
 95
        2
302
GRIDFORMAT
  1
GRIDFORMAT_BEGIN
 90
        0
 91
        1
 62
     0
 92
       -2
340
14
 93
        0
 40
0.045
309
GRIDFORMAT_END
 95
        4
302
GRIDFORMAT
  1
GRIDFORMAT_BEGIN
 90
        0
 91
        1
 62
     0
 92
       -2
340
14
 93
        0
 40
0.045
309
GRIDFORMAT_END
 95
        8
302
GRIDFORMAT
  1
GRIDFORMAT_BEGIN
 90
        0
 91
        1
 62
     0
 92
       -2
340
14
 93
        0
 40
0.045
309
GRIDFORMAT_END
 95
       16
302
GRIDFORMAT
  1
GRIDFORMAT_BEGIN
 90
        0
 91
        1
 62
     0
 92
       -2
340
14
 93
        0
 40
0.045
309
GRIDFORMAT_END
 95
       32
302
GRIDFORMAT
  1
GRIDFORMAT_BEGIN
 90
        0
 91
        1
 62
     0
 92
       -2
340
14
 93
        0
 40
0.045
309
GRIDFORMAT_END
309
TABLEFORMAT_END
  1
CELLSTYLE_BEGIN
 90
        1
 91
        1
300
_TITLE
309
CELLSTYLE_END
300
CELLSTYLE
  1
TABLEFORMAT_BEGIN
 90
        5
170
     1
 91
        0
 92
        0
 62
   257
 93
        1
300
CONTENTFORMAT
  1
CONTENTFORMAT_BEGIN
 90
        0
 91
        0
 92
        4
 93
        0
300

 40
0.0
140
1.0
 94
        5
 62
     0
340
11
144
4.5
309
CONTENTFORMAT_END
171
     1
301
MARGIN
  1
CELLMARGIN_BEGIN
 40
1.5
 40
1.5
 40
1.5
 40
1.5
 40
1.5
 40
1.5
309
CELLMARGIN_END
 94
        6
 95
        1
302
GRIDFORMAT
  1
GRIDFORMAT_BEGIN
 90
        0
 91
        1
 62
     0
 92
       -2
340
14
 93
        0
 40
0.045
309
GRIDFORMAT_END
 95
        2
302
GRIDFORMAT
  1
GRIDFORMAT_BEGIN
 90
        0
 91
        1
 62
     0
 92
       -2
340
14
 93
        0
 40
0.045
309
GRIDFORMAT_END
 95
        4
302
GRIDFORMAT
  1
GRIDFORMAT_BEGIN
 90
        0
 91
        1
 62
     0
 92
       -2
340
14
 93
        0
 40
0.045
309
GRIDFORMAT_END
 95
        8
302
GRIDFORMAT
  1
GRIDFORMAT_BEGIN
 90
        0
 91
        1
 62
     0
 92
       -2
340
14
 93
        0
 40
0.045
309
GRIDFORMAT_END
 95
       16
302
GRIDFORMAT
  1
GRIDFORMAT_BEGIN
 90
        0
 91
        1
 62
     0
 92
       -2
340
14
 93
        0
 40
0.045
309
GRIDFORMAT_END
 95
       32
302
GRIDFORMAT
  1
GRIDFORMAT_BEGIN
 90
        0
 91
        1
 62
     0
 92
       -2
340
14
 93
        0
 40
0.045
309
GRIDFORMAT_END
309
TABLEFORMAT_END
  1
CELLSTYLE_BEGIN
 90
        2
 91
        1
300
_HEADER
309
CELLSTYLE_END
300
CELLSTYLE
  1
TABLEFORMAT_BEGIN
 90
        5
170
     1
 91
        0
 92
        0
 62
   257
 93
        1
300
CONTENTFORMAT
  1
CONTENTFORMAT_BEGIN
 90
        0
 91
        0
 92
        4
 93
        0
300

 40
0.0
140
1.0
 94
        2
 62
     0
340
11
144
4.5
309
CONTENTFORMAT_END
171
     1
301
MARGIN
  1
CELLMARGIN_BEGIN
 40
1.5
 40
1.5
 40
1.5
 40
1.5
 40
1.5
 40
1.5
309
CELLMARGIN_END
 94
        6
 95
        1
302
GRIDFORMAT
  1
GRIDFORMAT_BEGIN
 90
        0
 91
        1
 62
     0
 92
       -2
340
14
 93
        0
 40
0.045
309
GRIDFORMAT_END
 95
        2
302
GRIDFORMAT
  1
GRIDFORMAT_BEGIN
 90
        0
 91
        1
 62
     0
 92
       -2
340
14
 93
        0
 40
0.045
309
GRIDFORMAT_END
 95
        4
302
GRIDFORMAT
  1
GRIDFORMAT_BEGIN
 90
        0
 91
        1
 62
     0
 92
       -2
340
14
 93
        0
 40
0.045
309
GRIDFORMAT_END
 95
        8
302
GRIDFORMAT
  1
GRIDFORMAT_BEGIN
 90
        0
 91
        1
 62
     0
 92
       -2
340
14
 93
        0
 40
0.045
309
GRIDFORMAT_END
 95
       16
302
GRIDFORMAT
  1
GRIDFORMAT_BEGIN
 90
        0
 91
        1
 62
     0
 92
       -2
340
14
 93
        0
 40
0.045
309
GRIDFORMAT_END
 95
       32
302
GRIDFORMAT
  1
GRIDFORMAT_BEGIN
 90
        0
 91
        1
 62
     0
 92
       -2
340
14
 93
        0
 40
0.045
309
GRIDFORMAT_END
309
TABLEFORMAT_END
  1
CELLSTYLE_BEGIN
 90
        3
 91
        2
300
_DATA
309
CELLSTYLE_END
  0
ENDSEC
  0
EOF