0
SECTION
  2
HEADER
  9
$ACADVER
  1
AC1027
  9
$ACADMAINTVER
 70
     8
  9
$DWGCODEPAGE
  3
ANSI_1252
  9
$REQUIREDVERSIONS
160
                 0
  9
$COMMENTS
  1
File was created by Cadenas
  9
$CUSTOMPROPERTYTAG
  1
NN
  9
$CUSTOMPROPERTY
  1
Set Screw Medium Duty Wide Slot Take Up Metric Bore
  9
$CUSTOMPROPERTYTAG
  1
NT
  9
$CUSTOMPROPERTY
  1
SC Take-Up Bearings -Wide Slot -(Medium Duty)
  9
$CUSTOMPROPERTYTAG
  1
NB
  9
$CUSTOMPROPERTY
  1
125991
  9
$CUSTOMPROPERTYTAG
  1
NBSYN
  9
$CUSTOMPROPERTY
  1
$PN.
  9
$CUSTOMPROPERTYTAG
  1
LINA
  9
$CUSTOMPROPERTY
  1
125991
  9
$CUSTOMPROPERTYTAG
  1
SERIES
  9
$CUSTOMPROPERTY
  1
208
  9
$CUSTOMPROPERTYTAG
  1
SS
  9
$CUSTOMPROPERTY
  1
35
  9
$CUSTOMPROPERTYTAG
  1
PN
  9
$CUSTOMPROPERTY
  1
125991
  9
$CUSTOMPROPERTYTAG
  1
DESCRIPTION
  9
$CUSTOMPROPERTY
  1
WSTU-SCM-35M
  9
$CUSTOMPROPERTYTAG
  1
W
  9
$CUSTOMPROPERTY
  1
2.9
  9
$CUSTOMPROPERTYTAG
  1
FS
  9
$CUSTOMPROPERTY
  1
WS400
  9
$CUSTOMPROPERTYTAG
  1
A
  9
$CUSTOMPROPERTY
  1
49.3
  9
$CUSTOMPROPERTYTAG
  1
B
  9
$CUSTOMPROPERTY
  1
144.5
  9
$CUSTOMPROPERTYTAG
  1
C
  9
$CUSTOMPROPERTY
  1
17.48
  9
$CUSTOMPROPERTYTAG
  1
D
  9
$CUSTOMPROPERTY
  1
82.6
  9
$CUSTOMPROPERTYTAG
  1
E
  9
$CUSTOMPROPERTY
  1
88.9
  9
$CUSTOMPROPERTYTAG
  1
F
  9
$CUSTOMPROPERTY
  1
25.4
  9
$CUSTOMPROPERTYTAG
  1
G
  9
$CUSTOMPROPERTY
  1
16.0
  9
$CUSTOMPROPERTYTAG
  1
H
  9
$CUSTOMPROPERTY
  1
19.1
  9
$CUSTOMPROPERTYTAG
  1
J
  9
$CUSTOMPROPERTY
  1
82.6
  9
$CUSTOMPROPERTYTAG
  1
K
  9
$CUSTOMPROPERTY
  1
49.3
  9
$CUSTOMPROPERTYTAG
  1
L
  9
$CUSTOMPROPERTY
  1
52.1
  9
$CUSTOMPROPERTYTAG
  1
M
  9
$CUSTOMPROPERTY
  1
101.22/101.98
  9
$CUSTOMPROPERTYTAG
  1
N
  9
$CUSTOMPROPERTY
  1
114.3
  9
$CUSTOMPROPERTYTAG
  1
R
  9
$CUSTOMPROPERTY
  1
19.1
  9
$CUSTOMPROPERTYTAG
  1
S
  9
$CUSTOMPROPERTY
  1
30.2
  9
$CUSTOMPROPERTYTAG
  1
T
  9
$CUSTOMPROPERTY
  1
49.3
  9
$CUSTOMPROPERTYTAG
  1
COMPANY
  9
$CUSTOMPROPERTY
  1
baldor
  9
$INSBASE
 10
0.0
 20
0.0
 30
0.0
  9
$EXTMIN
 10
1.000000000000000E+20
 20
1.000000000000000E+20
 30
1.000000000000000E+20
  9
$EXTMAX
 10
-1.000000000000000E+20
 20
-1.000000000000000E+20
 30
-1.000000000000000E+20
  9
$LIMMIN
 10
0.0
 20
0.0
  9
$LIMMAX
 10
420.0
 20
297.0
  9
$ORTHOMODE
 70
     0
  9
$REGENMODE
 70
     1
  9
$FILLMODE
 70
     1
  9
$QTEXTMODE
 70
     0
  9
$MIRRTEXT
 70
     1
  9
$LTSCALE
 40
1.0
  9
$ATTMODE
 70
     1
  9
$TEXTSIZE
 40
2.5
  9
$TRACEWID
 40
1.0
  9
$TEXTSTYLE
  7
Standard
  9
$CLAYER
  8
0
  9
$CELTYPE
  6
ByLayer
  9
$CECOLOR
 62
   256
  9
$CELTSCALE
 40
1.0
  9
$DISPSILH
 70
     0
  9
$DIMSCALE
 40
1.0
  9
$DIMASZ
 40
2.5
  9
$DIMEXO
 40
0.625
  9
$DIMDLI
 40
3.75
  9
$DIMRND
 40
0.0
  9
$DIMDLE
 40
0.0
  9
$DIMEXE
 40
1.25
  9
$DIMTP
 40
0.0
  9
$DIMTM
 40
0.0
  9
$DIMTXT
 40
2.5
  9
$DIMCEN
 40
2.5
  9
$DIMTSZ
 40
0.0
  9
$DIMTOL
 70
     0
  9
$DIMLIM
 70
     0
  9
$DIMTIH
 70
     0
  9
$DIMTOH
 70
     0
  9
$DIMSE1
 70
     0
  9
$DIMSE2
 70
     0
  9
$DIMTAD
 70
     1
  9
$DIMZIN
 70
     8
  9
$DIMBLK
  1

  9
$DIMASO
 70
     1
  9
$DIMSHO
 70
     1
  9
$DIMPOST
  1

  9
$DIMAPOST
  1

  9
$DIMALT
 70
     0
  9
$DIMALTD
 70
     3
  9
$DIMALTF
 40
0.03937007874016
  9
$DIMLFAC
 40
1.0
  9
$DIMTOFL
 70
     1
  9
$DIMTVP
 40
0.0
  9
$DIMTIX
 70
     0
  9
$DIMSOXD
 70
     0
  9
$DIMSAH
 70
     0
  9
$DIMBLK1
  1

  9
$DIMBLK2
  1

  9
$DIMSTYLE
  2
ISO-25
  9
$DIMCLRD
 70
     0
  9
$DIMCLRE
 70
     0
  9
$DIMCLRT
 70
     0
  9
$DIMTFAC
 40
1.0
  9
$DIMGAP
 40
0.625
  9
$DIMJUST
 70
     0
  9
$DIMSD1
 70
     0
  9
$DIMSD2
 70
     0
  9
$DIMTOLJ
 70
     0
  9
$DIMTZIN
 70
     8
  9
$DIMALTZ
 70
     0
  9
$DIMALTTZ
 70
     0
  9
$DIMUPT
 70
     0
  9
$DIMDEC
 70
     2
  9
$DIMTDEC
 70
     2
  9
$DIMALTU
 70
     2
  9
$DIMALTTD
 70
     3
  9
$DIMTXSTY
  7
Standard
  9
$DIMAUNIT
 70
     0
  9
$DIMADEC
 70
     0
  9
$DIMALTRND
 40
0.0
  9
$DIMAZIN
 70
     0
  9
$DIMDSEP
 70
    44
  9
$DIMATFIT
 70
     3
  9
$DIMFRAC
 70
     0
  9
$DIMLDRBLK
  1

  9
$DIMLUNIT
 70
     2
  9
$DIMLWD
 70
    -2
  9
$DIMLWE
 70
    -2
  9
$DIMTMOVE
 70
     0
  9
$DIMFXL
 40
1.0
  9
$DIMFXLON
 70
     0
  9
$DIMJOGANG
 40
0.7853981633974483
  9
$DIMTFILL
 70
     0
  9
$DIMTFILLCLR
 70
     0
  9
$DIMARCSYM
 70
     0
  9
$DIMLTYPE
  6

  9
$DIMLTEX1
  6

  9
$DIMLTEX2
  6

  9
$DIMTXTDIRECTION
 70
     0
  9
$LUNITS
 70
     2
  9
$LUPREC
 70
     4
  9
$SKETCHINC
 40
1.0
  9
$FILLETRAD
 40
10.0
  9
$AUNITS
 70
     0
  9
$AUPREC
 70
     0
  9
$MENU
  1
.
  9
$ELEVATION
 40
0.0
  9
$PELEVATION
 40
0.0
  9
$THICKNESS
 40
0.0
  9
$LIMCHECK
 70
     0
  9
$CHAMFERA
 40
0.0
  9
$CHAMFERB
 40
0.0
  9
$CHAMFERC
 40
0.0
  9
$CHAMFERD
 40
0.0
  9
$SKPOLY
 70
     0
  9
$TDCREATE
 40
2458168.985971377
  9
$TDUCREATE
 40
2458168.944304711
  9
$TDUPDATE
 40
2458168.985971563
  9
$TDUUPDATE
 40
2458168.944304896
  9
$TDINDWG
 40
0.0000000116
  9
$TDUSRTIMER
 40
0.0000000116
  9
$USRTIMER
 70
     1
  9
$ANGBASE
 50
0.0
  9
$ANGDIR
 70
     0
  9
$PDMODE
 70
     0
  9
$PDSIZE
 40
0.0
  9
$PLINEWID
 40
0.0
  9
$SPLFRAME
 70
     0
  9
$SPLINETYPE
 70
     6
  9
$SPLINESEGS
 70
     8
  9
$HANDSEED
  5
1EC
  9
$SURFTAB1
 70
     6
  9
$SURFTAB2
 70
     6
  9
$SURFTYPE
 70
     6
  9
$SURFU
 70
     6
  9
$SURFV
 70
     6
  9
$UCSBASE
  2

  9
$UCSNAME
  2

  9
$UCSORG
 10
0.0
 20
0.0
 30
0.0
  9
$UCSXDIR
 10
1.0
 20
0.0
 30
0.0
  9
$UCSYDIR
 10
0.0
 20
1.0
 30
0.0
  9
$UCSORTHOREF
  2

  9
$UCSORTHOVIEW
 70
     0
  9
$UCSORGTOP
 10
0.0
 20
0.0
 30
0.0
  9
$UCSORGBOTTOM
 10
0.0
 20
0.0
 30
0.0
  9
$UCSORGLEFT
 10
0.0
 20
0.0
 30
0.0
  9
$UCSORGRIGHT
 10
0.0
 20
0.0
 30
0.0
  9
$UCSORGFRONT
 10
0.0
 20
0.0
 30
0.0
  9
$UCSORGBACK
 10
0.0
 20
0.0
 30
0.0
  9
$PUCSBASE
  2

  9
$PUCSNAME
  2

  9
$PUCSORG
 10
0.0
 20
0.0
 30
0.0
  9
$PUCSXDIR
 10
1.0
 20
0.0
 30
0.0
  9
$PUCSYDIR
 10
0.0
 20
1.0
 30
0.0
  9
$PUCSORTHOREF
  2

  9
$PUCSORTHOVIEW
 70
     0
  9
$PUCSORGTOP
 10
0.0
 20
0.0
 30
0.0
  9
$PUCSORGBOTTOM
 10
0.0
 20
0.0
 30
0.0
  9
$PUCSORGLEFT
 10
0.0
 20
0.0
 30
0.0
  9
$PUCSORGRIGHT
 10
0.0
 20
0.0
 30
0.0
  9
$PUCSORGFRONT
 10
0.0
 20
0.0
 30
0.0
  9
$PUCSORGBACK
 10
0.0
 20
0.0
 30
0.0
  9
$USERI1
 70
     0
  9
$USERI2
 70
     0
  9
$USERI3
 70
     0
  9
$USERI4
 70
     0
  9
$USERI5
 70
     0
  9
$USERR1
 40
0.0
  9
$USERR2
 40
0.0
  9
$USERR3
 40
0.0
  9
$USERR4
 40
0.0
  9
$USERR5
 40
0.0
  9
$WORLDVIEW
 70
     1
  9
$SHADEDGE
 70
     3
  9
$SHADEDIF
 70
    70
  9
$TILEMODE
 70
     1
  9
$MAXACTVP
 70
    64
  9
$PINSBASE
 10
0.0
 20
0.0
 30
0.0
  9
$PLIMCHECK
 70
     0
  9
$PEXTMIN
 10
1.000000000000000E+20
 20
1.000000000000000E+20
 30
1.000000000000000E+20
  9
$PEXTMAX
 10
-1.000000000000000E+20
 20
-1.000000000000000E+20
 30
-1.000000000000000E+20
  9
$PLIMMIN
 10
0.0
 20
0.0
  9
$PLIMMAX
 10
420.0
 20
297.0
  9
$UNITMODE
 70
     0
  9
$VISRETAIN
 70
     1
  9
$PLINEGEN
 70
     0
  9
$PSLTSCALE
 70
     1
  9
$TREEDEPTH
 70
  3020
  9
$CMLSTYLE
  2
Standard
  9
$CMLJUST
 70
     0
  9
$CMLSCALE
 40
20.0
  9
$PROXYGRAPHICS
 70
     1
  9
$MEASUREMENT
 70
     1
  9
$CELWEIGHT
370
    -1
  9
$ENDCAPS
280
     0
  9
$JOINSTYLE
280
     0
  9
$LWDISPLAY
290
     0
  9
$INSUNITS
 70
     4
  9
$HYPERLINKBASE
  1

  9
$STYLESHEET
  1

  9
$XEDIT
290
     1
  9
$CEPSNTYPE
380
     0
  9
$PSTYLEMODE
290
     1
  9
$FINGERPRINTGUID
  2
{1DBDA5D4-9341-4E97-8DEF-4D634DE940A3}
  9
$VERSIONGUID
  2
{FAEB1C32-E019-11D5-929B-00C0DF256EC4}
  9
$EXTNAMES
290
     1
  9
$PSVPSCALE
 40
0.0
  9
$OLESTARTUP
290
     0
  9
$SORTENTS
280
   127
  9
$INDEXCTL
280
     0
  9
$HIDETEXT
280
     1
  9
$XCLIPFRAME
280
     2
  9
$HALOGAP
280
     0
  9
$OBSCOLOR
 70
   257
  9
$OBSLTYPE
280
     0
  9
$INTERSECTIONDISPLAY
280
     0
  9
$INTERSECTIONCOLOR
 70
   257
  9
$DIMASSOC
280
     2
  9
$PROJECTNAME
  1

  9
$CAMERADISPLAY
290
     0
  9
$LENSLENGTH
 40
50.0
  9
$CAMERAHEIGHT
 40
0.0
  9
$STEPSPERSEC
 40
2.0
  9
$STEPSIZE
 40
6.0
  9
$3DDWFPREC
 40
2.0
  9
$PSOLWIDTH
 40
5.0
  9
$PSOLHEIGHT
 40
80.0
  9
$LOFTANG1
 40
1.570796326794897
  9
$LOFTANG2
 40
1.570796326794897
  9
$LOFTMAG1
 40
0.0
  9
$LOFTMAG2
 40
0.0
  9
$LOFTPARAM
 70
     7
  9
$LOFTNORMALS
280
     1
  9
$LATITUDE
 40
37.795
  9
$LONGITUDE
 40
-122.394
  9
$NORTHDIRECTION
 40
0.0
  9
$TIMEZONE
 70
 -8000
  9
$LIGHTGLYPHDISPLAY
280
     1
  9
$TILEMODELIGHTSYNCH
280
     1
  9
$CMATERIAL
347
44
  9
$SOLIDHIST
280
     0
  9
$SHOWHIST
280
     1
  9
$DWFFRAME
280
     2
  9
$DGNFRAME
280
     2
  9
$REALWORLDSCALE
290
     1
  9
$INTERFERECOLOR
 62
   256
  9
$CSHADOW
280
     0
  9
$SHADOWPLANELOCATION
 40
0.0
  0
ENDSEC
  0
SECTION
  2
CLASSES
  0
CLASS
  1
ACDBDICTIONARYWDFLT
  2
AcDbDictionaryWithDefault
  3
ObjectDBX Classes
 90
        0
 91
        4
280
     0
281
     0
  0
CLASS
  1
VISUALSTYLE
  2
AcDbVisualStyle
  3
ObjectDBX Classes
 90
     4095
 91
        4
280
     0
281
     0
  0
CLASS
  1
MATERIAL
  2
AcDbMaterial
  3
ObjectDBX Classes
 90
     1153
 91
        4
280
     0
281
     0
  0
CLASS
  1
SCALE
  2
AcDbScale
  3
ObjectDBX Classes
 90
     1153
 91
        4
280
     0
281
     0
  0
CLASS
  1
TABLESTYLE
  2
AcDbTableStyle
  3
ObjectDBX Classes
 90
     4095
 91
        4
280
     0
281
     0
  0
CLASS
  1
MLEADERSTYLE
  2
AcDbMLeaderStyle
  3
ACDB_MLEADERSTYLE_CLASS
 90
     4095
 91
        4
280
     0
281
     0
  0
CLASS
  1
SUN
  2
AcDbSun
  3
SCENEOE
 90
     1153
 91
        4
280
     0
281
     0
  0
CLASS
  1
DICTIONARYVAR
  2
AcDbDictionaryVar
  3
ObjectDBX Classes
 90
        0
 91
        4
280
     0
281
     0
  0
CLASS
  1
CELLSTYLEMAP
  2
AcDbCellStyleMap
  3
ObjectDBX Classes
 90
     1152
 91
        4
280
     0
281
     0
  0
ENDSEC
  0
SECTION
  2
TABLES
  0
TABLE
  2
VPORT
  5
8
330
0
100
AcDbSymbolTable
 70
     1
  0
VPORT
  5
29
330
8
100
AcDbSymbolTableRecord
100
AcDbViewportTableRecord
  2
*Active
 70
     0
 10
0.0
 20
0.0
 11
1.0
 21
1.0
 12
12.54252158931718
 22
-4.007500000000022
 13
0.0
 23
0.0
 14
10.0
 24
10.0
 15
10.0
 25
10.0
 16
0.0
 26
0.0
 36
1.0
 17
0.0
 27
0.0
 37
0.0
 40
58.46130000000002
 41
2.692400886702706
 42
50.0
 43
0.0
 44
0.0
 50
0.0
 51
0.0
 71
     0
 72
   100
 73
     1
 74
     3
 75
     0
 76
     0
 77
     0
 78
     0
281
     0
 65
     1
110
0.0
120
0.0
130
0.0
111
1.0
121
0.0
131
0.0
112
0.0
122
1.0
132
0.0
 79
     0
146
0.0
348
2F
 60
     3
 61
     5
292
     1
282
     1
141
0.0
142
0.0
 63
   250
361
6D
  0
ENDTAB
  0
TABLE
  2
LTYPE
  5
5
330
0
100
AcDbSymbolTable
 70
     3
  0
LTYPE
  5
14
330
5
100
AcDbSymbolTableRecord
100
AcDbLinetypeTableRecord
  2
ByBlock
 70
     0
  3

 72
    65
 73
     0
 40
0.0
  0
LTYPE
  5
15
330
5
100
AcDbSymbolTableRecord
100
AcDbLinetypeTableRecord
  2
ByLayer
 70
     0
  3

 72
    65
 73
     0
 40
0.0
  0
LTYPE
  5
16
330
5
100
AcDbSymbolTableRecord
100
AcDbLinetypeTableRecord
  2
Continuous
 70
     0
  3
Solid line
 72
    65
 73
     0
 40
0.0
  0
LTYPE
  5
A6
330
5
100
AcDbSymbolTableRecord
100
AcDbLinetypeTableRecord
  2
Dashed
 70
     0
  3

 72
    65
 73
     2
 40
2.0
 49
1.0
 74
     0
 49
-1.0
 74
     0
  0
LTYPE
  5
DC
330
5
100
AcDbSymbolTableRecord
100
AcDbLinetypeTableRecord
  2
Center
 70
     0
  3

 72
    65
 73
     4
 40
1.5
 49
0.45
 74
     0
 49
-0.5
 74
     0
 49
0.05
 74
     0
 49
-0.5
 74
     0
  0
ENDTAB
  0
TABLE
  2
LAYER
  5
2
330
0
100
AcDbSymbolTable
 70
     7
  0
LAYER
  5
10
330
2
100
AcDbSymbolTableRecord
100
AcDbLayerTableRecord
  2
0
 70
     0
 62
     7
  6
Continuous
370
    -3
390
F
347
46
348
0
  0
LAYER
  5
72
330
2
100
AcDbSymbolTableRecord
100
AcDbLayerTableRecord
  2
AM_6
 70
     0
 62
    -2
  6
Continuous
370
    35
390
F
347
46
348
0
  0
LAYER
  5
A7
330
2
100
AcDbSymbolTableRecord
100
AcDbLayerTableRecord
  2
AM_9
 70
     0
 62
     6
  6
Dashed
370
    25
390
F
347
46
348
0
  0
LAYER
  5
D8
330
2
100
AcDbSymbolTableRecord
100
AcDbLayerTableRecord
  2
AM_5
 70
     0
 62
     3
  6
Continuous
370
    25
390
F
347
46
348
0
  0
LAYER
  5
DD
330
2
100
AcDbSymbolTableRecord
100
AcDbLayerTableRecord
  2
AM_7
 70
     0
 62
     7
  6
Center
370
    25
390
F
347
46
348
0
  0
LAYER
  5
E1
330
2
100
AcDbSymbolTableRecord
100
AcDbLayerTableRecord
  2
AM_4
 70
     0
 62
     7
  6
Continuous
370
    50
390
F
347
46
348
0
  0
LAYER
  5
1DF
330
2
100
AcDbSymbolTableRecord
100
AcDbLayerTableRecord
  2
ConnectionPoints
 70
     0
 62
     7
  6
Continuous
370
    50
390
F
347
46
348
0
  0
ENDTAB
  0
TABLE
  2
STYLE
  5
3
330
0
100
AcDbSymbolTable
 70
     1
  0
STYLE
  5
11
330
3
100
AcDbSymbolTableRecord
100
AcDbTextStyleTableRecord
  2
Standard
 70
     0
 40
0.0
 41
1.0
 50
0.0
 71
     0
 42
2.5
  3
txt
  4

  0
ENDTAB
  0
TABLE
  2
VIEW
  5
6
330
0
100
AcDbSymbolTable
 70
     0
  0
ENDTAB
  0
TABLE
  2
UCS
  5
7
330
0
100
AcDbSymbolTable
 70
     0
  0
ENDTAB
  0
TABLE
  2
APPID
  5
9
330
0
100
AcDbSymbolTable
 70
     1
  0
APPID
  5
12
330
9
100
AcDbSymbolTableRecord
100
AcDbRegAppTableRecord
  2
ACAD
 70
     0
  0
ENDTAB
  0
TABLE
  2
DIMSTYLE
  5
A
330
0
100
AcDbSymbolTable
 70
     1
100
AcDbDimStyleTable
  0
DIMSTYLE
105
27
330
A
100
AcDbSymbolTableRecord
100
AcDbDimStyleTableRecord
  2
ISO-25
 70
     0
 41
2.5
 42
0.625
 43
3.75
 44
1.25
 73
     0
 74
     0
 77
     1
 78
     8
140
2.5
141
2.5
143
0.03937007874016
147
0.625
171
     3
172
     1
178
     0
271
     2
272
     2
274
     3
278
    44
283
     0
284
     8
340
11
  0
ENDTAB
  0
TABLE
  2
BLOCK_RECORD
  5
1
330
0
100
AcDbSymbolTable
 70
     5
  0
BLOCK_RECORD
  5
1F
330
1
100
AcDbSymbolTableRecord
100
AcDbBlockTableRecord
  2
*Model_Space
340
22
 70
     0
280
     1
281
     0
  0
BLOCK_RECORD
  5
1B
330
1
100
AcDbSymbolTableRecord
100
AcDbBlockTableRecord
  2
*Paper_Space
340
1E
 70
     0
280
     1
281
     0
  0
BLOCK_RECORD
  5
23
330
1
100
AcDbSymbolTableRecord
100
AcDbBlockTableRecord
  2
*Paper_Space0
340
26
 70
     0
280
     1
281
     0
  0
BLOCK_RECORD
  5
6E
330
1
100
AcDbSymbolTableRecord
100
AcDbBlockTableRecord
  2
1_125991_4
340
0
102
{BLKREFS
331
6F
102
}
 70
     0
280
     1
281
     0
  0
BLOCK_RECORD
  5
8F
330
1
100
AcDbSymbolTableRecord
100
AcDbBlockTableRecord
  2
2_125828_0_in_125991_4
340
0
102
{BLKREFS
331
90
102
}
 70
     0
280
     1
281
     0
  0
BLOCK_RECORD
  5
F0
330
1
100
AcDbSymbolTableRecord
100
AcDbBlockTableRecord
  2
3_405016_Metric_0_in_125991_4
340
0
102
{BLKREFS
331
F1
102
}
 70
     0
280
     1
281
     0
  0
BLOCK_RECORD
  5
17F
330
1
100
AcDbSymbolTableRecord
100
AcDbBlockTableRecord
  2
4_125991H_0_in_125991_4
340
0
102
{BLKREFS
331
180
102
}
 70
     0
280
     1
281
     0
  0
ENDTAB
  0
ENDSEC
  0
SECTION
  2
BLOCKS
  0
BLOCK
  5
20
330
1F
100
AcDbEntity
  8
0
100
AcDbBlockBegin
  2
*Model_Space
 70
     0
 10
0.0
 20
0.0
 30
0.0
  3
*Model_Space
  1

  0
ENDBLK
  5
21
330
1F
100
AcDbEntity
  8
0
100
AcDbBlockEnd
  0
BLOCK
  5
1C
330
1B
100
AcDbEntity
 67
     1
  8
0
100
AcDbBlockBegin
  2
*Paper_Space
 70
     0
 10
0.0
 20
0.0
 30
0.0
  3
*Paper_Space
  1

  0
ENDBLK
  5
1D
330
1B
100
AcDbEntity
 67
     1
  8
0
100
AcDbBlockEnd
  0
BLOCK
  5
24
330
23
100
AcDbEntity
  8
0
100
AcDbBlockBegin
  2
*Paper_Space0
 70
     0
 10
0.0
 20
0.0
 30
0.0
  3
*Paper_Space0
  1

  0
ENDBLK
  5
25
330
23
100
AcDbEntity
  8
0
100
AcDbBlockEnd
  0
BLOCK
  5
70
330
6E
100
AcDbEntity
  8
0
100
AcDbBlockBegin
  2
1_125991_4
 70
     2
 10
0.0
 20
0.0
 30
0.0
  3
1_125991_4
  1

  0
ATTDEF
  5
73
330
6E
100
AcDbEntity
  8
AM_6
100
AcDbText
 10
94.7
 20
24.65
 30
0.0
 40
0.5
  1
Set Screw Medium Duty Wide Slot Take Up Metric Bore
100
AcDbAttributeDefinition
  3

  2
NN
 70
     8
280
     0
  0
ATTDEF
  5
74
330
6E
100
AcDbEntity
  8
AM_6
100
AcDbText
 10
94.7
 20
24.15
 30
0.0
 40
0.5
  1
SC Take-Up Bearings -Wide Slot -(Medium Duty)
100
AcDbAttributeDefinition
  3

  2
NT
 70
     8
280
     0
  0
ATTDEF
  5
75
330
6E
100
AcDbEntity
  8
AM_6
100
AcDbText
 10
94.7
 20
23.65
 30
0.0
 40
0.5
  1
125991
100
AcDbAttributeDefinition
  3

  2
NB
 70
     8
280
     0
  0
ATTDEF
  5
76
330
6E
100
AcDbEntity
  8
AM_6
100
AcDbText
 10
94.7
 20
23.15
 30
0.0
 40
0.5
  1
$PN.
100
AcDbAttributeDefinition
  3

  2
NBSYN
 70
     8
280
     0
  0
ATTDEF
  5
77
330
6E
100
AcDbEntity
  8
AM_6
100
AcDbText
 10
94.7
 20
22.65
 30
0.0
 40
0.5
  1
125991
100
AcDbAttributeDefinition
  3

  2
LINA
 70
     8
280
     0
  0
ATTDEF
  5
78
330
6E
100
AcDbEntity
  8
AM_6
100
AcDbText
 10
94.7
 20
22.15
 30
0.0
 40
0.5
  1
208
100
AcDbAttributeDefinition
  3

  2
SERIES
 70
     8
280
     0
  0
ATTDEF
  5
79
330
6E
100
AcDbEntity
  8
AM_6
100
AcDbText
 10
94.7
 20
21.65
 30
0.0
 40
0.5
  1
35
100
AcDbAttributeDefinition
  3

  2
SS
 70
     8
280
     0
  0
ATTDEF
  5
7A
330
6E
100
AcDbEntity
  8
AM_6
100
AcDbText
 10
94.7
 20
21.15
 30
0.0
 40
0.5
  1
125991
100
AcDbAttributeDefinition
  3

  2
PN
 70
     8
280
     0
  0
ATTDEF
  5
7B
330
6E
100
AcDbEntity
  8
AM_6
100
AcDbText
 10
94.7
 20
20.65
 30
0.0
 40
0.5
  1
WSTU-SCM-35M
100
AcDbAttributeDefinition
  3

  2
DESCRIPTION
 70
     8
280
     0
  0
ATTDEF
  5
7C
330
6E
100
AcDbEntity
  8
AM_6
100
AcDbText
 10
94.7
 20
20.15
 30
0.0
 40
0.5
  1
2.9
100
AcDbAttributeDefinition
  3

  2
W
 70
     8
280
     0
  0
ATTDEF
  5
7D
330
6E
100
AcDbEntity
  8
AM_6
100
AcDbText
 10
94.7
 20
19.65
 30
0.0
 40
0.5
  1
WS400
100
AcDbAttributeDefinition
  3

  2
FS
 70
     8
280
     0
  0
ATTDEF
  5
7E
330
6E
100
AcDbEntity
  8
AM_6
100
AcDbText
 10
94.7
 20
19.15
 30
0.0
 40
0.5
  1
49.3
100
AcDbAttributeDefinition
  3

  2
A
 70
     8
280
     0
  0
ATTDEF
  5
7F
330
6E
100
AcDbEntity
  8
AM_6
100
AcDbText
 10
94.7
 20
18.65
 30
0.0
 40
0.5
  1
144.5
100
AcDbAttributeDefinition
  3

  2
B
 70
     8
280
     0
  0
ATTDEF
  5
80
330
6E
100
AcDbEntity
  8
AM_6
100
AcDbText
 10
94.7
 20
18.15
 30
0.0
 40
0.5
  1
17.48
100
AcDbAttributeDefinition
  3

  2
C
 70
     8
280
     0
  0
ATTDEF
  5
81
330
6E
100
AcDbEntity
  8
AM_6
100
AcDbText
 10
94.7
 20
17.65
 30
0.0
 40
0.5
  1
82.6
100
AcDbAttributeDefinition
  3

  2
D
 70
     8
280
     0
  0
ATTDEF
  5
82
330
6E
100
AcDbEntity
  8
AM_6
100
AcDbText
 10
94.7
 20
17.15
 30
0.0
 40
0.5
  1
88.9
100
AcDbAttributeDefinition
  3

  2
E
 70
     8
280
     0
  0
ATTDEF
  5
83
330
6E
100
AcDbEntity
  8
AM_6
100
AcDbText
 10
94.7
 20
16.65
 30
0.0
 40
0.5
  1
25.4
100
AcDbAttributeDefinition
  3

  2
F
 70
     8
280
     0
  0
ATTDEF
  5
84
330
6E
100
AcDbEntity
  8
AM_6
100
AcDbText
 10
94.7
 20
16.15
 30
0.0
 40
0.5
  1
16.0
100
AcDbAttributeDefinition
  3

  2
G
 70
     8
280
     0
  0
ATTDEF
  5
85
330
6E
100
AcDbEntity
  8
AM_6
100
AcDbText
 10
94.7
 20
15.65
 30
0.0
 40
0.5
  1
19.1
100
AcDbAttributeDefinition
  3

  2
H
 70
     8
280
     0
  0
ATTDEF
  5
86
330
6E
100
AcDbEntity
  8
AM_6
100
AcDbText
 10
94.7
 20
15.15
 30
0.0
 40
0.5
  1
82.6
100
AcDbAttributeDefinition
  3

  2
J
 70
     8
280
     0
  0
ATTDEF
  5
87
330
6E
100
AcDbEntity
  8
AM_6
100
AcDbText
 10
94.7
 20
14.65
 30
0.0
 40
0.5
  1
49.3
100
AcDbAttributeDefinition
  3

  2
K
 70
     8
280
     0
  0
ATTDEF
  5
88
330
6E
100
AcDbEntity
  8
AM_6
100
AcDbText
 10
94.7
 20
14.15
 30
0.0
 40
0.5
  1
52.1
100
AcDbAttributeDefinition
  3

  2
L
 70
     8
280
     0
  0
ATTDEF
  5
89
330
6E
100
AcDbEntity
  8
AM_6
100
AcDbText
 10
94.7
 20
13.65
 30
0.0
 40
0.5
  1
101.22/101.98
100
AcDbAttributeDefinition
  3

  2
M
 70
     8
280
     0
  0
ATTDEF
  5
8A
330
6E
100
AcDbEntity
  8
AM_6
100
AcDbText
 10
94.7
 20
13.15
 30
0.0
 40
0.5
  1
114.3
100
AcDbAttributeDefinition
  3

  2
N
 70
     8
280
     0
  0
ATTDEF
  5
8B
330
6E
100
AcDbEntity
  8
AM_6
100
AcDbText
 10
94.7
 20
12.65
 30
0.0
 40
0.5
  1
19.1
100
AcDbAttributeDefinition
  3

  2
R
 70
     8
280
     0
  0
ATTDEF
  5
8C
330
6E
100
AcDbEntity
  8
AM_6
100
AcDbText
 10
94.7
 20
12.15
 30
0.0
 40
0.5
  1
30.2
100
AcDbAttributeDefinition
  3

  2
S
 70
     8
280
     0
  0
ATTDEF
  5
8D
330
6E
100
AcDbEntity
  8
AM_6
100
AcDbText
 10
94.7
 20
11.65
 30
0.0
 40
0.5
  1
49.3
100
AcDbAttributeDefinition
  3

  2
T
 70
     8
280
     0
  0
ATTDEF
  5
8E
330
6E
100
AcDbEntity
  8
AM_6
100
AcDbText
 10
94.7
 20
11.15
 30
0.0
 40
0.5
  1
baldor
100
AcDbAttributeDefinition
  3

  2
COMPANY
 70
     8
280
     0
  0
INSERT
  5
90
330
6E
100
AcDbEntity
  8
0
100
AcDbBlockReference
  2
2_125828_0_in_125991_4
 10
0.0
 20
0.0
 30
0.0
  0
INSERT
  5
F1
330
6E
100
AcDbEntity
  8
0
100
AcDbBlockReference
  2
3_405016_Metric_0_in_125991_4
 10
0.0
 20
0.0
 30
0.0
  0
INSERT
  5
180
330
6E
100
AcDbEntity
  8
0
100
AcDbBlockReference
  2
4_125991H_0_in_125991_4
 10
0.0
 20
0.0
 30
0.0
  0
ENDBLK
  5
71
330
6E
100
AcDbEntity
  8
0
100
AcDbBlockEnd
  0
BLOCK
  5
91
330
8F
100
AcDbEntity
  8
0
100
AcDbBlockBegin
  2
2_125828_0_in_125991_4
 70
     2
 10
0.0
 20
0.0
 30
0.0
  3
2_125828_0_in_125991_4
  1

  0
ATTDEF
  5
93
330
8F
100
AcDbEntity
  8
AM_6
100
AcDbText
 10
44.97534100810548
 20
21.565
 30
0.0
 40
0.5
  1
Set Screw Medium Duty Insert Metric Bore
100
AcDbAttributeDefinition
  3

  2
NN
 70
     8
280
     0
  0
ATTDEF
  5
94
330
8F
100
AcDbEntity
  8
AM_6
100
AcDbText
 10
44.97534100810548
 20
21.065
 30
0.0
 40
0.5
  1
SC Medium Duty Bearing Inserts
100
AcDbAttributeDefinition
  3

  2
NT
 70
     8
280
     0
  0
ATTDEF
  5
95
330
8F
100
AcDbEntity
  8
AM_6
100
AcDbText
 10
44.97534100810548
 20
20.565
 30
0.0
 40
0.5
  1
125828
100
AcDbAttributeDefinition
  3

  2
NB
 70
     8
280
     0
  0
ATTDEF
  5
96
330
8F
100
AcDbEntity
  8
AM_6
100
AcDbText
 10
44.97534100810548
 20
20.065
 30
0.0
 40
0.5
  1
$PN.
100
AcDbAttributeDefinition
  3

  2
NBSYN
 70
     8
280
     0
  0
ATTDEF
  5
97
330
8F
100
AcDbEntity
  8
AM_6
100
AcDbText
 10
44.97534100810548
 20
19.565
 30
0.0
 40
0.5
  1
125828
100
AcDbAttributeDefinition
  3

  2
LINA
 70
     8
280
     0
  0
ATTDEF
  5
98
330
8F
100
AcDbEntity
  8
AM_6
100
AcDbText
 10
44.97534100810548
 20
19.065
 30
0.0
 40
0.5
  1
208
100
AcDbAttributeDefinition
  3

  2
SERIES
 70
     8
280
     0
  0
ATTDEF
  5
99
330
8F
100
AcDbEntity
  8
AM_6
100
AcDbText
 10
44.97534100810548
 20
18.565
 30
0.0
 40
0.5
  1
35
100
AcDbAttributeDefinition
  3

  2
SS
 70
     8
280
     0
  0
ATTDEF
  5
9A
330
8F
100
AcDbEntity
  8
AM_6
100
AcDbText
 10
44.97534100810548
 20
18.065
 30
0.0
 40
0.5
  1
125828
100
AcDbAttributeDefinition
  3

  2
PN
 70
     8
280
     0
  0
ATTDEF
  5
9B
330
8F
100
AcDbEntity
  8
AM_6
100
AcDbText
 10
44.97534100810548
 20
17.565
 30
0.0
 40
0.5
  1
INS-SCM-35M
100
AcDbAttributeDefinition
  3

  2
DESCRIPTION
 70
     8
280
     0
  0
ATTDEF
  5
9C
330
8F
100
AcDbEntity
  8
AM_6
100
AcDbText
 10
44.97534100810548
 20
17.065
 30
0.0
 40
0.5
  1
0.60
100
AcDbAttributeDefinition
  3

  2
WEIGHT
 70
     8
280
     0
  0
ATTDEF
  5
9D
330
8F
100
AcDbEntity
  8
AM_6
100
AcDbText
 10
44.97534100810548
 20
16.565
 30
0.0
 40
0.5
  1
49.3
100
AcDbAttributeDefinition
  3

  2
A
 70
     8
280
     0
  0
ATTDEF
  5
9E
330
8F
100
AcDbEntity
  8
AM_6
100
AcDbText
 10
44.97534100810548
 20
16.065
 30
0.0
 40
0.5
  1
22.1
100
AcDbAttributeDefinition
  3

  2
C
 70
     8
280
     0
  0
ATTDEF
  5
9F
330
8F
100
AcDbEntity
  8
AM_6
100
AcDbText
 10
44.97534100810548
 20
15.565
 30
0.0
 40
0.5
  1
80.0
100
AcDbAttributeDefinition
  3

  2
D
 70
     8
280
     0
  0
ATTDEF
  5
A0
330
8F
100
AcDbEntity
  8
AM_6
100
AcDbText
 10
44.97534100810548
 20
15.065
 30
0.0
 40
0.5
  1
5.6
100
AcDbAttributeDefinition
  3

  2
J
 70
     8
280
     0
  0
ATTDEF
  5
A1
330
8F
100
AcDbEntity
  8
AM_6
100
AcDbText
 10
44.97534100810548
 20
14.565
 30
0.0
 40
0.5
  1
52.1
100
AcDbAttributeDefinition
  3

  2
L
 70
     8
280
     0
  0
ATTDEF
  5
A2
330
8F
100
AcDbEntity
  8
AM_6
100
AcDbText
 10
44.97534100810548
 20
14.065
 30
0.0
 40
0.5
  1
M8 x 1.25
100
AcDbAttributeDefinition
  3

  2
N
 70
     8
280
     0
  0
ATTDEF
  5
A3
330
8F
100
AcDbEntity
  8
AM_6
100
AcDbText
 10
44.97534100810548
 20
13.565
 30
0.0
 40
0.5
  1
19.1
100
AcDbAttributeDefinition
  3

  2
W
 70
     8
280
     0
  0
ATTDEF
  5
A4
330
8F
100
AcDbEntity
  8
AM_6
100
AcDbText
 10
44.97534100810548
 20
13.065
 30
0.0
 40
0.5
  1
30.2
100
AcDbAttributeDefinition
  3

  2
Y
 70
     8
280
     0
  0
ATTDEF
  5
A5
330
8F
100
AcDbEntity
  8
AM_6
100
AcDbText
 10
44.97534100810548
 20
12.565
 30
0.0
 40
0.5
  1
baldor
100
AcDbAttributeDefinition
  3

  2
COMPANY
 70
     8
280
     0
  0
LINE
  5
A8
330
8F
100
AcDbEntity
  8
AM_9
100
AcDbLine
 10
7.394919114344497
 20
-23.9485
 30
0.0
 11
10.87864474216974
 21
-23.9485
 31
0.0
  0
LINE
  5
A9
330
8F
100
AcDbEntity
  8
AM_9
100
AcDbLine
 10
10.87864474216974
 20
-17.3015
 30
0.0
 11
7.395470011642093
 21
-17.3015
 31
0.0
  0
LWPOLYLINE
  5
AA
330
8F
100
AcDbEntity
  8
AM_9
100
AcDbPolyline
 90
        4
 70
     0
 43
0.0
 10
6.427607729447717
 20
-17.4728922798539
 10
6.832571318911842
 20
-17.35951431095775
 10
7.343143823502714
 20
-17.30200746466648
 10
7.395557472471822
 20
-17.30150001258288
  0
LWPOLYLINE
  5
AB
330
8F
100
AcDbEntity
  8
AM_9
100
AcDbPolyline
 90
       19
 70
     0
 43
0.0
 10
7.396047874384705
 20
-23.94849999045416
 10
7.071429528108761
 20
-23.92935313630725
 10
6.573444371156949
 20
-23.82493281256785
 10
6.09201092770561
 20
-23.63364458867844
 10
5.639220468984701
 20
-23.35812482335528
 10
5.231140296634241
 20
-23.008029204015
 10
4.876028076880062
 20
-22.58484772250669
 10
4.591601937411097
 20
-22.10594936824621
 10
4.388573733287419
 20
-21.58285295853302
 10
4.273788716539168
 20
-21.03178432130261
 10
4.252719706082007
 20
-20.47729353119316
 10
4.322269182787392
 20
-19.92702658584057
 10
4.479434109859822
 20
-19.40134418993576
 10
4.717479713046514
 20
-18.90952783028502
 10
5.03340211611736
 20
-18.46033830761047
 10
5.413411891222686
 20
-18.07115078434193
 10
5.852508659301247
 20
-17.74947228804777
 10
6.331328053783738
 20
-17.50927906002824
 10
6.427607729447717
 20
-17.4728922798539
  0
LWPOLYLINE
  5
AC
330
8F
100
AcDbEntity
  8
AM_9
100
AcDbPolyline
 90
        9
 70
     0
 43
0.0
 10
8.34852993544975
 20
-17.47721973395378
 10
8.760661343076197
 20
-17.67888265047118
 10
9.161830616095319
 20
-17.97226491429297
 10
9.515454138224861
 20
-18.34425254573687
 10
9.808311539660583
 20
-18.77999052577509
 10
10.03506421878418
 20
-19.27321475636097
 10
10.18863199966517
 20
-19.80572491737523
 10
10.25201163999081
 20
-20.21207015954334
 10
10.27333458141207
 20
-20.625
  0
LWPOLYLINE
  5
AD
330
8F
100
AcDbEntity
  8
AM_9
100
AcDbPolyline
 90
        4
 70
     0
 43
0.0
 10
7.395557472471822
 20
-17.30150001258288
 10
7.839789564052775
 20
-17.33863210888946
 10
8.316907280292861
 20
-17.46528653267585
 10
8.34852993544975
 20
-17.47721973395378
  0
LINE
  5
AE
330
8F
100
AcDbEntity
  8
AM_9
100
AcDbLine
 10
17.5
 20
-23.9485
 30
0.0
 11
25.74106641147565
 21
-23.9485
 31
0.0
  0
LINE
  5
AF
330
8F
100
AcDbEntity
  8
AM_9
100
AcDbLine
 10
25.74106641147565
 20
-17.3015
 30
0.0
 11
17.49838197605221
 21
-17.3015
 31
0.0
  0
LINE
  5
B0
330
8F
100
AcDbEntity
  8
AM_9
100
AcDbLine
 10
25.74106641147565
 20
-23.9485
 30
0.0
 11
26.05
 21
-24.25743358852435
 31
0.0
  0
LINE
  5
B1
330
8F
100
AcDbEntity
  8
AM_9
100
AcDbLine
 10
26.05
 20
-16.99256641147565
 30
0.0
 11
25.74106641147565
 21
-17.3015
 31
0.0
  0
LINE
  5
B2
330
8F
100
AcDbEntity
  8
AM_9
100
AcDbLine
 10
25.74106641147565
 20
-17.3015
 30
0.0
 11
25.74106641147565
 21
-23.9485
 31
0.0
  0
LWPOLYLINE
  5
B3
330
8F
100
AcDbEntity
  8
AM_9
100
AcDbPolyline
 90
       11
 70
     0
 43
0.0
 10
10.27333458141207
 20
-20.625
 10
10.2349494668974
 20
-21.17725334681741
 10
10.12167372895292
 20
-21.71380144741377
 10
9.935227927859804
 20
-22.21889560799568
 10
9.680479424521709
 20
-22.67967502471486
 10
9.357950894606375
 20
-23.08741102507236
 10
8.977907914930764
 20
-23.42632251121018
 10
8.544520793329854
 20
-23.68768773011107
 10
8.071858336617364
 20
-23.86195830946554
 10
7.577932429789413
 20
-23.94203100487007
 10
7.396047874384705
 20
-23.94849999045416
  0
LINE
  5
B4
330
8F
100
AcDbEntity
  8
AM_9
100
AcDbLine
 10
17.5
 20
-29.158
 30
0.0
 11
17.5
 21
-23.9485
 31
0.0
  0
LINE
  5
B5
330
8F
100
AcDbEntity
  8
AM_9
100
AcDbLine
 10
17.5
 20
-17.31005729796565
 30
0.0
 11
17.5
 21
18.05799999999999
 31
0.0
  0
LINE
  5
B6
330
8F
100
AcDbEntity
  8
AM_9
100
AcDbLine
 10
-17.5
 20
18.05799999999999
 30
0.0
 11
-17.5
 21
-29.158
 31
0.0
  0
LWPOLYLINE
  5
B7
330
8F
100
AcDbEntity
  8
AM_9
100
AcDbPolyline
 90
       21
 70
     0
 43
0.0
 10
17.49999999999558
 20
-17.30150000002328
 10
17.49944566644804
 20
-17.3044200983914
 10
17.48608662871155
 20
-17.37555730365887
 10
17.45765464776306
 20
-17.53220869592483
 10
17.41568045776261
 20
-17.77867288301319
 10
17.36627224922351
 20
-18.09852734347857
 10
17.31261391330228
 20
-18.49844109861312
 10
17.26274716862672
 20
-18.95225015082058
 10
17.22039278147403
 20
-19.4684621501037
 10
17.19285095974648
 20
-20.0006792698816
 10
17.18160849463083
 20
-20.56735702323602
 10
17.18837225791018
 20
-21.1105853441944
 10
17.21238639088329
 20
-21.6554841187831
 10
17.24955883318036
 20
-22.15566397009617
 10
17.29772279978509
 20
-22.62671584102358
 10
17.34991880197507
 20
-23.036500504899
 10
17.40244257532057
 20
-23.38917435002389
 10
17.4470937124873
 20
-23.65761129429965
 10
17.48079902093418
 20
-23.84586737701094
 10
17.49504561304527
 20
-23.92231303526593
 10
17.5
 20
-23.9485
  0
LINE
  5
B8
330
8F
100
AcDbEntity
  8
AM_9
100
AcDbLine
 10
17.5
 20
18.05799999999999
 30
0.0
 11
18.542
 21
19.1
 31
0.0
  0
LINE
  5
B9
330
8F
100
AcDbEntity
  8
AM_9
100
AcDbLine
 10
-18.542
 20
19.1
 30
0.0
 11
-17.5
 21
18.05799999999999
 31
0.0
  0
LINE
  5
BA
330
8F
100
AcDbEntity
  8
AM_9
100
AcDbLine
 10
-17.5
 20
-29.158
 30
0.0
 11
-18.542
 21
-30.2
 31
0.0
  0
LINE
  5
BB
330
8F
100
AcDbEntity
  8
AM_9
100
AcDbLine
 10
18.542
 20
-30.2
 30
0.0
 11
17.5
 21
-29.158
 31
0.0
  0
LINE
  5
BC
330
8F
100
AcDbEntity
  8
AM_9
100
AcDbLine
 10
26.05
 20
11.05
 30
0.0
 11
26.05
 21
17.47999999999999
 31
0.0
  0
LINE
  5
BD
330
8F
100
AcDbEntity
  8
AM_9
100
AcDbLine
 10
-26.05
 20
17.47999999999999
 30
0.0
 11
-26.05
 21
11.05
 31
0.0
  0
LINE
  5
BE
330
8F
100
AcDbEntity
  8
AM_9
100
AcDbLine
 10
25.99463433866745
 20
-17.47636071345518
 30
0.0
 11
26.04999999999996
 21
-16.99256641147596
 31
0.0
  0
LWPOLYLINE
  5
BF
330
8F
100
AcDbEntity
  8
AM_9
100
AcDbPolyline
 90
       38
 70
     0
 43
0.0
 10
10.86169075507694
 20
-16.99671189095328
 10
10.3717471145399
 20
-17.07037697518833
 10
9.895586060216722
 20
-17.23209910945322
 10
9.448820583585126
 20
-17.4757191837455
 10
9.040474624182027
 20
-17.792294249108
 10
8.664168541313591
 20
-18.19353273368281
 10
8.349874356613219
 20
-18.65251232864505
 10
8.092305184427989
 20
-19.1907562313822
 10
7.918781007296548
 20
-19.76542473692219
 10
7.832631816497107
 20
-20.39025721046227
 10
7.84507877219256
 20
-21.0214731635702
 10
7.960282374193683
 20
-21.65363890819549
 10
8.17463594221249
 20
-22.25640465344996
 10
8.481237227670267
 20
-22.80717245712584
 10
8.871654843337573
 20
-23.29334698266469
 10
9.31701965207485
 20
-23.68282553562571
 10
9.816248807142061
 20
-23.98156171129135
 10
10.31841396536663
 20
-24.16595094551891
 10
10.8377942030457
 20
-24.25183786339903
 10
11.3278676945764
 20
-24.23748328034317
 10
11.80420625767567
 20
-24.13270175926199
 10
12.24811917239189
 20
-23.94319885850561
 10
12.65565937308314
 20
-23.67625641736405
 10
13.03081634257457
 20
-23.32554160519089
 10
13.3509177595927
 20
-22.91163584545436
 10
13.62454010068292
 20
-22.4146087556136
 10
13.82626527035544
 20
-21.87321487137738
 10
13.95732273651069
 20
-21.26919137972199
 10
14.0036345229394
 20
-20.64800841766469
 10
13.96120790820014
 20
-20.00852324830932
 10
13.82908101037338
 20
-19.38640418131215
 10
13.60768769003398
 20
-18.79921481899011
 10
13.30176120363211
 20
-18.26554865607648
 10
12.92714909321946
 20
-17.81573675338024
 10
12.48543919999233
 20
-17.44974066243821
 10
12.0165972683476
 20
-17.19643965428406
 10
11.51027121375431
 20
-17.04131015144364
 10
10.86169069093654
 20
-16.99671181958415
  0
LINE
  5
C0
330
8F
100
AcDbEntity
  8
AM_9
100
AcDbLine
 10
26.05
 20
-16.993698095814
 30
0.0
 11
26.05
 21
-11.05
 31
0.0
  0
LINE
  5
C1
330
8F
100
AcDbEntity
  8
AM_9
100
AcDbLine
 10
-26.05
 20
-11.05
 30
0.0
 11
-26.05
 21
-17.48000000000001
 31
0.0
  0
LINE
  5
C2
330
8F
100
AcDbEntity
  8
AM_9
100
AcDbLine
 10
25.93687361297676
 20
-18.07462042157093
 30
0.0
 11
25.91243583233398
 21
-18.37423501145127
 31
0.0
  0
LINE
  5
C3
330
8F
100
AcDbEntity
  8
AM_9
100
AcDbLine
 10
37.78999999999996
 20
-6.513333333333333
 30
0.0
 11
37.78999999999996
 21
-3.566666666666662
 31
0.0
  0
LINE
  5
C4
330
8F
100
AcDbEntity
  8
AM_9
100
AcDbLine
 10
-37.78999999999996
 20
-3.566666666666662
 30
0.0
 11
-37.78999999999996
 21
-6.513333333333333
 31
0.0
  0
LINE
  5
C5
330
8F
100
AcDbEntity
  8
AM_9
100
AcDbLine
 10
-37.19396883195165
 20
-11.04999999999999
 30
0.0
 11
37.19396883195165
 21
-11.04999999999999
 31
0.0
  0
ARC
  5
C6
330
8F
100
AcDbEntity
  8
AM_9
100
AcDbCircle
 10
37.19396883195164
 20
-10.166
 30
0.0
 40
0.8839999999999968
100
AcDbArc
 50
270.0
 51
338.5875329531149
  0
ARC
  5
C7
330
8F
100
AcDbEntity
  8
AM_9
100
AcDbCircle
 10
-37.19396883195164
 20
-10.166
 30
0.0
 40
0.8839999999999958
100
AcDbArc
 50
201.4124670468851
 51
270.0
  0
LINE
  5
C8
330
8F
100
AcDbEntity
  8
AM_9
100
AcDbLine
 10
-37.19396883195164
 20
11.05
 30
0.0
 11
37.19396883195164
 21
11.05
 31
0.0
  0
ARC
  5
C9
330
8F
100
AcDbEntity
  8
AM_9
100
AcDbCircle
 10
37.19396883195164
 20
10.166
 30
0.0
 40
0.8839999999999997
100
AcDbArc
 50
21.41246363223971
 51
90.0
  0
ARC
  5
CA
330
8F
100
AcDbEntity
  8
AM_9
100
AcDbCircle
 10
-37.19396883195164
 20
10.166
 30
0.0
 40
0.8839999999999986
100
AcDbArc
 50
90.0
 51
158.5875363677603
  0
LINE
  5
CB
330
8F
100
AcDbEntity
  8
AM_9
100
AcDbLine
 10
-38.01695196947391
 20
-10.48873015873017
 30
0.0
 11
38.01695196947391
 21
-10.48873015873017
 31
0.0
  0
LINE
  5
CC
330
8F
100
AcDbEntity
  8
AM_9
100
AcDbLine
 10
-39.25194755353689
 20
-6.513333333333333
 30
0.0
 11
39.25194755353689
 21
-6.513333333333333
 31
0.0
  0
ARC
  5
CD
330
8F
100
AcDbEntity
  8
AM_9
100
AcDbCircle
 10
11.26999999999644
 20
0.0000000000011724
 30
0.0
 40
28.73000000000374
100
AcDbArc
 50
338.5875329531164
 51
346.8966393604118
  0
ARC
  5
CE
330
8F
100
AcDbEntity
  8
AM_9
100
AcDbCircle
 10
-11.27000000000016
 20
0.0000000000000009
 30
0.0
 40
28.72999999999985
100
AcDbArc
 50
193.1033606395876
 51
201.4124670468842
  0
LINE
  5
CF
330
8F
100
AcDbEntity
  8
AM_9
100
AcDbLine
 10
-39.77774962863413
 20
-3.566666666666662
 30
0.0
 11
39.77774962863413
 21
-3.566666666666662
 31
0.0
  0
LINE
  5
D0
330
8F
100
AcDbEntity
  8
AM_9
100
AcDbLine
 10
-38.01695198870759
 20
10.48873010968301
 30
0.0
 11
38.01695198870759
 21
10.48873010968301
 31
0.0
  0
ARC
  5
D1
330
8F
100
AcDbEntity
  8
AM_9
100
AcDbCircle
 10
11.27000000000049
 20
0.0000000000000493
 30
0.0
 40
28.72999999999953
100
AcDbArc
 50
352.8686552534195
 51
21.41246694181835
  0
ARC
  5
D2
330
8F
100
AcDbEntity
  8
AM_9
100
AcDbCircle
 10
-11.27000000000307
 20
0.0000000000003713
 30
0.0
 40
28.729999999997
100
AcDbArc
 50
158.5875330581804
 51
187.1313447465818
  0
ARC
  5
D3
330
8F
100
AcDbEntity
  8
AM_9
100
AcDbCircle
 10
-0.0000000000000056
 20
5.600000000000002
 30
0.0
 40
2.210000000000005
100
AcDbArc
 50
301.7864323813418
 51
238.2135676176907
  0
LWPOLYLINE
  5
D4
330
8F
100
AcDbEntity
  8
AM_9
100
AcDbPolyline
 90
        3
 70
     0
 43
0.0
 10
-1.164127503507972
 20
3.721461430905305
 10
-0.8429793556108025
 20
3.557316504607998
 10
-0.8408340849599392
 20
3.556434946172041
  0
LWPOLYLINE
  5
D5
330
8F
100
AcDbEntity
  8
AM_9
100
AcDbPolyline
 90
        3
 70
     0
 43
0.0
 10
0.939151922108685
 20
3.599605055285672
 10
0.9495429107468514
 20
3.604506353648883
 10
1.16412750347635
 20
3.721461430885721
  0
LWPOLYLINE
  5
D6
330
8F
100
AcDbEntity
  8
AM_9
100
AcDbPolyline
 90
        6
 70
     0
 43
0.0
 10
-0.8408340849599392
 20
3.556434946172041
 10
-0.488508408258356
 20
3.445274161969087
 10
-0.129319779668935
 20
3.39461498152757
 10
0.2439040284159761
 20
3.404284039939567
 10
0.6002364798322173
 20
3.473569828591444
 10
0.939151922108685
 20
3.599605055285672
  0
CIRCLE
  5
D7
330
8F
100
AcDbEntity
  8
AM_9
100
AcDbCircle
 10
-0.0000000000000026
 20
5.600000000000002
 30
0.0
 40
0.2009090909090881
  0
LINE
  5
D9
330
8F
100
AcDbEntity
  8
AM_5
100
AcDbLine
 10
17.5
 20
-16.625
 30
0.0
 11
26.05
 21
-16.625
 31
0.0
  0
LINE
  5
DA
330
8F
100
AcDbEntity
  8
AM_5
100
AcDbLine
 10
17.5
 20
-24.625
 30
0.0
 11
26.05
 21
-24.625
 31
0.0
  0
ELLIPSE
  5
DB
330
8F
100
AcDbEntity
  8
AM_9
100
AcDbEllipse
 10
10.87864474216974
 20
-20.625
 30
0.0
 11
-6.105170455449341E-16
 21
-3.323499999999999
 31
0.0
210
0.0
220
0.0
230
1.0
 40
0.9063077870366498
 41
0.0
 42
6.283185307179586
  0
LINE
  5
DE
330
8F
100
AcDbEntity
  8
AM_7
100
AcDbLine
 10
0.0
 20
-32.66500000000001
 30
0.0
 11
0.0
 21
21.565
 31
0.0
  0
LINE
  5
DF
330
8F
100
AcDbEntity
  8
AM_7
100
AcDbLine
 10
27.44543348017939
 20
-20.625
 30
0.0
 11
15.83235796869708
 21
-20.625
 31
0.0
  0
LINE
  5
E0
330
8F
100
AcDbEntity
  8
AM_7
100
AcDbLine
 10
-2.320500000000012
 20
5.600000000000002
 30
0.0
 11
2.3205
 21
5.600000000000002
 31
0.0
  0
LINE
  5
E2
330
8F
100
AcDbEntity
  8
AM_4
100
AcDbLine
 10
-25.00799999999999
 20
19.1
 30
0.0
 11
25.00799999999999
 21
19.1
 31
0.0
  0
LINE
  5
E3
330
8F
100
AcDbEntity
  8
AM_4
100
AcDbLine
 10
-25.00799999999999
 20
19.1
 30
0.0
 11
-26.04999999999999
 21
18.058
 31
0.0
  0
LINE
  5
E4
330
8F
100
AcDbEntity
  8
AM_4
100
AcDbLine
 10
26.04999999999999
 20
18.058
 30
0.0
 11
25.00799999999999
 21
19.1
 31
0.0
  0
LINE
  5
E5
330
8F
100
AcDbEntity
  8
AM_4
100
AcDbLine
 10
-26.05
 20
18.058
 30
0.0
 11
26.05
 21
18.058
 31
0.0
  0
LINE
  5
E6
330
8F
100
AcDbEntity
  8
AM_4
100
AcDbLine
 10
26.05
 20
17.47999999999999
 30
0.0
 11
26.05
 21
18.058
 31
0.0
  0
LINE
  5
E7
330
8F
100
AcDbEntity
  8
AM_4
100
AcDbLine
 10
-26.05
 20
18.058
 30
0.0
 11
-26.05
 21
17.47999999999999
 31
0.0
  0
LINE
  5
E8
330
8F
100
AcDbEntity
  8
AM_4
100
AcDbLine
 10
-25.00799999999999
 20
-30.2
 30
0.0
 11
25.00799999999999
 21
-30.2
 31
0.0
  0
LINE
  5
E9
330
8F
100
AcDbEntity
  8
AM_4
100
AcDbLine
 10
25.00799999999999
 20
-30.2
 30
0.0
 11
26.04999999999999
 21
-29.158
 31
0.0
  0
LINE
  5
EA
330
8F
100
AcDbEntity
  8
AM_4
100
AcDbLine
 10
-26.04999999999999
 20
-29.158
 30
0.0
 11
-25.00799999999999
 21
-30.2
 31
0.0
  0
LINE
  5
EB
330
8F
100
AcDbEntity
  8
AM_4
100
AcDbLine
 10
-26.05
 20
-29.158
 30
0.0
 11
26.05
 21
-29.158
 31
0.0
  0
LINE
  5
EC
330
8F
100
AcDbEntity
  8
AM_4
100
AcDbLine
 10
25.93454887198817
 20
-18.10161124257563
 30
0.0
 11
25.99463433866745
 21
-17.47636071345518
 31
0.0
  0
LINE
  5
ED
330
8F
100
AcDbEntity
  8
AM_4
100
AcDbLine
 10
26.05
 20
-29.158
 30
0.0
 11
26.05
 21
-24.24608652575558
 31
0.0
  0
LINE
  5
EE
330
8F
100
AcDbEntity
  8
AM_4
100
AcDbLine
 10
-26.05
 20
-17.48000000000001
 30
0.0
 11
-26.05
 21
-29.158
 31
0.0
  0
LWPOLYLINE
  5
EF
330
8F
100
AcDbEntity
  8
AM_4
100
AcDbPolyline
 90
       16
 70
     0
 43
0.0
 10
26.0499999999995
 20
-24.25743358852032
 10
26.049307359264
 20
-24.2517693901389
 10
26.04023873315714
 20
-24.17680067431927
 10
26.02091150744756
 20
-24.01165492176011
 10
25.99418191462895
 20
-23.76938735976019
 10
25.96158042267482
 20
-23.446558674667
 10
25.92616693298949
 20
-23.04861495638328
 10
25.89139921748257
 20
-22.58192815482508
 10
25.86070132862255
 20
-22.0492721881355
 10
25.83813300289297
 20
-21.4657692201238
 10
25.82690527050812
 20
-20.84889128502344
 10
25.82901167274674
 20
-20.2087035172658
 10
25.84449700236383
 20
-19.58606853933563
 10
25.87250819426325
 20
-18.97551432723087
 10
25.90150651498869
 20
-18.52181708097741
 10
25.93454887198817
 20
-18.10161124257563
  0
ENDBLK
  5
92
330
8F
100
AcDbEntity
  8
0
100
AcDbBlockEnd
  0
BLOCK
  5
F2
330
F0
100
AcDbEntity
  8
0
100
AcDbBlockBegin
  2
3_405016_Metric_0_in_125991_4
 70
     2
 10
0.0
 20
0.0
 30
0.0
  3
3_405016_Metric_0_in_125991_4
  1

  0
ATTDEF
  5
F4
330
F0
100
AcDbEntity
  8
AM_6
100
AcDbText
 10
-38.48568407110924
 20
5.556249999999999
 30
0.0
 40
0.5
  1
405016 -Metric
100
AcDbAttributeDefinition
  3

  2
NN
 70
     8
280
     0
  0
ATTDEF
  5
F5
330
F0
100
AcDbEntity
  8
AM_6
100
AcDbText
 10
-38.48568407110924
 20
5.056249999999999
 30
0.0
 40
0.5
  1
Grease Fitting
100
AcDbAttributeDefinition
  3

  2
NT
 70
     8
280
     0
  0
ATTDEF
  5
F6
330
F0
100
AcDbEntity
  8
AM_6
100
AcDbText
 10
-38.48568407110924
 20
4.556249999999999
 30
0.0
 40
0.5
  1
405016-Metric
100
AcDbAttributeDefinition
  3

  2
NB
 70
     8
280
     0
  0
ATTDEF
  5
F7
330
F0
100
AcDbEntity
  8
AM_6
100
AcDbText
 10
-38.48568407110924
 20
4.056249999999999
 30
0.0
 40
0.5
  1
$MN.-Metric
100
AcDbAttributeDefinition
  3

  2
NBSYN
 70
     8
280
     0
  0
ATTDEF
  5
F8
330
F0
100
AcDbEntity
  8
AM_6
100
AcDbText
 10
-38.48568407110924
 20
3.556249999999999
 30
0.0
 40
0.5
  1
405016
100
AcDbAttributeDefinition
  3

  2
LINA
 70
     8
280
     0
  0
ATTDEF
  5
F9
330
F0
100
AcDbEntity
  8
AM_6
100
AcDbText
 10
-38.48568407110924
 20
3.056249999999999
 30
0.0
 40
0.5
  1
405016
100
AcDbAttributeDefinition
  3

  2
MN
 70
     8
280
     0
  0
ATTDEF
  5
FA
330
F0
100
AcDbEntity
  8
AM_6
100
AcDbText
 10
-38.48568407110924
 20
2.556249999999999
 30
0.0
 40
0.5
  1
7/16 HEX
100
AcDbAttributeDefinition
  3

  2
H
 70
     8
280
     0
  0
ATTDEF
  5
FB
330
F0
100
AcDbEntity
  8
AM_6
100
AcDbText
 10
-38.48568407110924
 20
2.056249999999999
 30
0.0
 40
0.5
  1
9.728
100
AcDbAttributeDefinition
  3

  2
NDR
 70
     8
280
     0
  0
ATTDEF
  5
FC
330
F0
100
AcDbEntity
  8
AM_6
100
AcDbText
 10
-38.48568407110924
 20
1.556249999999999
 30
0.0
 40
0.5
  1
8.560
100
AcDbAttributeDefinition
  3

  2
KDR
 70
     8
280
     0
  0
ATTDEF
  5
FD
330
F0
100
AcDbEntity
  8
AM_6
100
AcDbText
 10
-38.48568407110924
 20
1.056249999999999
 30
0.0
 40
0.5
  1
4.0005
100
AcDbAttributeDefinition
  3

  2
BZE
 70
     8
280
     0
  0
ATTDEF
  5
FE
330
F0
100
AcDbEntity
  8
AM_6
100
AcDbText
 10
-38.48568407110924
 20
0.5562499999999995
 30
0.0
 40
0.5
  1
11.1125
100
AcDbAttributeDefinition
  3

  2
HEX
 70
     8
280
     0
  0
ATTDEF
  5
FF
330
F0
100
AcDbEntity
  8
AM_6
100
AcDbText
 10
-38.48568407110924
 20
0.0562499999999995
 30
0.0
 40
0.5
  1
7.143750
100
AcDbAttributeDefinition
  3

  2
HEX2
 70
     8
280
     0
  0
ATTDEF
  5
100
330
F0
100
AcDbEntity
  8
AM_6
100
AcDbText
 10
-38.48568407110924
 20
-0.4437500000000005
 30
0.0
 40
0.5
  1
baldor
100
AcDbAttributeDefinition
  3

  2
COMPANY
 70
     8
280
     0
  0
LINE
  5
101
330
F0
100
AcDbEntity
  8
AM_9
100
AcDbLine
 10
-61.19316158050497
 20
-3.837282897828231
 30
0.0
 11
-61.48072954039145
 21
-4.549376881905936
 31
0.0
  0
LINE
  5
102
330
F0
100
AcDbEntity
  8
AM_9
100
AcDbLine
 10
-57.35332049112714
 20
-5.333905179049321
 30
0.0
 11
-57.65017654510358
 21
-6.068998929608747
 31
0.0
  0
LWPOLYLINE
  5
103
330
F0
100
AcDbEntity
  8
AM_9
100
AcDbPolyline
 90
        3
 70
     0
 43
0.0
 10
-50.86157782819877
 20
-0.0000000000000028
 10
-51.40711066950639
 20
-1.382816900963401
 10
-51.86301383738584
 20
-2.778125000000002
  0
LWPOLYLINE
  5
104
330
F0
100
AcDbEntity
  8
AM_9
100
AcDbPolyline
 90
        3
 70
     0
 43
0.0
 10
-51.86301383738584
 20
2.778124999999997
 10
-51.40937872779418
 20
1.389062499999997
 10
-50.86157782819877
 20
-0.0000000000000028
  0
LWPOLYLINE
  5
105
330
F0
100
AcDbEntity
  8
AM_9
100
AcDbPolyline
 90
        3
 70
     0
 43
0.0
 10
-55.88187694120605
 20
-7.58869625231989
 10
-56.28541396910871
 20
-7.397029361446425
 10
-56.67174801223828
 20
-7.147354260923539
  0
LWPOLYLINE
  5
106
330
F0
100
AcDbEntity
  8
AM_9
100
AcDbPolyline
 90
        3
 70
     0
 43
0.0
 10
-49.66330931177337
 20
-2.778125000000002
 10
-49.31496881306881
 20
-1.389062500000002
 10
-49.06079410436801
 20
-0.0000000000000031
  0
LWPOLYLINE
  5
107
330
F0
100
AcDbEntity
  8
AM_9
100
AcDbPolyline
 90
        3
 70
     0
 43
0.0
 10
-49.06079410436801
 20
-0.0000000000000031
 10
-49.31363097307158
 20
1.382816900963397
 10
-49.66330931177337
 20
2.778124999999998
  0
LINE
  5
108
330
F0
100
AcDbEntity
  8
AM_9
100
AcDbLine
 10
-55.5985211760179
 20
-6.792577459924286
 30
0.0
 11
-55.57566344870721
 21
-6.830431020205951
 31
0.0
  0
LWPOLYLINE
  5
109
330
F0
100
AcDbEntity
  8
AM_9
100
AcDbPolyline
 90
        3
 70
     0
 43
0.0
 10
-52.4655290447912
 20
5.556249999999999
 10
-52.21269217608763
 20
4.173433099036599
 10
-51.86301383738584
 20
2.778124999999997
  0
LINE
  5
10A
330
F0
100
AcDbEntity
  8
AM_9
100
AcDbLine
 10
-50.86157782819877
 20
-0.0000000000000028
 30
0.0
 11
-49.06079410436801
 21
-0.0000000000000031
 31
0.0
  0
LWPOLYLINE
  5
10B
330
F0
100
AcDbEntity
  8
AM_9
100
AcDbPolyline
 90
        3
 70
     0
 43
0.0
 10
-51.86301383738584
 20
-2.778125000000002
 10
-52.2113543360904
 20
-4.167187500000002
 10
-52.4655290447912
 20
-5.556250000000003
  0
LINE
  5
10C
330
F0
100
AcDbEntity
  8
AM_9
100
AcDbLine
 10
-55.57566344870721
 20
-6.830431020205951
 30
0.0
 11
-55.59912653658728
 21
-6.818516214812173
 31
0.0
  0
LINE
  5
10D
330
F0
100
AcDbEntity
  8
AM_9
100
AcDbLine
 10
-55.57566344870721
 20
-6.830431020205951
 30
0.0
 11
-55.60000000000001
 21
-6.890694728915514
 31
0.0
  0
ELLIPSE
  5
10E
330
F0
100
AcDbEntity
  8
AM_9
100
AcDbEllipse
 10
-62.03583066957295
 20
-11.90625
 30
0.0
 11
-2.437227270755863
 21
0.9842359150649257
 31
0.0
210
0.0
220
0.0
230
1.0
 40
0.2113091308703527
 41
3.040609649696544
 42
6.384168311072839
  0
ELLIPSE
  5
10F
330
F0
100
AcDbEntity
  8
AM_9
100
AcDbEllipse
 10
-61.32479164975688
 20
-10.14553017344
 30
0.0
 11
-3.277232327750504
 21
1.323458750723529
 31
0.0
210
0.0
220
0.0
230
1.0
 40
0.211309130870352
 41
3.036278112694981
 42
5.801105639492169
  0
ELLIPSE
  5
110
330
F0
100
AcDbEntity
  8
AM_9
100
AcDbEllipse
 10
-61.05364710760997
 20
-9.474104895899671
 30
0.0
 11
-3.136987913476738
 21
1.266823248949832
 31
0.0
210
0.0
220
0.0
230
1.0
 40
0.2113091308703363
 41
3.381626279659457
 42
6.024964755858623
  0
LWPOLYLINE
  5
111
330
F0
100
AcDbEntity
  8
AM_9
100
AcDbPolyline
 90
        5
 70
     0
 43
0.0
 10
-61.48072954039145
 20
-4.549376881905936
 10
-62.03603420825654
 20
-4.680053692952522
 10
-62.56679481627837
 20
-4.730040525586979
 10
-63.07270235297307
 20
-4.684077415975232
 10
-63.54295253315315
 20
-4.549376881905936
  0
LWPOLYLINE
  5
112
330
F0
100
AcDbEntity
  8
AM_9
100
AcDbPolyline
 90
        5
 70
     0
 43
0.0
 10
-57.65017654510358
 20
-6.068998929608747
 10
-58.63674527776429
 20
-5.830160733401207
 10
-59.60537546424702
 20
-5.503852774457659
 10
-60.56089284102108
 20
-5.070861224918887
 10
-61.48072954039145
 20
-4.549376881905936
  0
LWPOLYLINE
  5
113
330
F0
100
AcDbEntity
  8
AM_9
100
AcDbPolyline
 90
        3
 70
     0
 43
0.0
 10
-56.97709487885616
 20
-6.887292896806422
 10
-57.32596839407631
 20
-6.507011440078409
 10
-57.65017654510358
 20
-6.068998929608747
  0
ELLIPSE
  5
114
330
F0
100
AcDbEntity
  8
AM_9
100
AcDbEllipse
 10
-59.75822417732664
 20
-6.266296641271174
 30
0.0
 11
-3.312005593887541
 21
1.337501387545751
 31
0.0
210
0.0
220
0.0
230
1.0
 40
0.2113091308703352
 41
3.80634037200308
 42
6.919181903097247
  0
LINE
  5
115
330
F0
100
AcDbEntity
  8
AM_9
100
AcDbLine
 10
-50.46816156359063
 20
5.081049061129096
 30
0.0
 11
-50.66474532096043
 21
5.556249999999999
 31
0.0
  0
LWPOLYLINE
  5
116
330
F0
100
AcDbEntity
  8
AM_9
100
AcDbPolyline
 90
        3
 70
     0
 43
0.0
 10
-50.03405144741076
 20
3.935117020113599
 10
-50.11694442136502
 20
4.167187499999998
 10
-50.46816156359063
 20
5.081049061129096
  0
LINE
  5
117
330
F0
100
AcDbEntity
  8
AM_9
100
AcDbLine
 10
-49.66330931177337
 20
2.778124999999998
 30
0.0
 11
-50.03405144741076
 21
3.935117020113599
 31
0.0
  0
LINE
  5
118
330
F0
100
AcDbEntity
  8
AM_9
100
AcDbLine
 10
-50.03443327966852
 20
-3.93620379325198
 30
0.0
 11
-49.66330931177337
 21
-2.778125000000002
 31
0.0
  0
LWPOLYLINE
  5
119
330
F0
100
AcDbEntity
  8
AM_9
100
AcDbPolyline
 90
        3
 70
     0
 43
0.0
 10
-50.46815846270871
 20
-5.081041392296855
 10
-50.11921247965282
 20
-4.173433099036602
 10
-50.03443327966852
 20
-3.93620379325198
  0
LINE
  5
11A
330
F0
100
AcDbEntity
  8
AM_9
100
AcDbLine
 10
-50.66474532096043
 20
-5.556250000000003
 30
0.0
 11
-50.46815846270871
 21
-5.081041392296855
 31
0.0
  0
LINE
  5
11B
330
F0
100
AcDbEntity
  8
AM_9
100
AcDbLine
 10
-61.47598552214298
 20
-3.058387021916507
 30
0.0
 11
-61.50355582488167
 21
-3.126658350638854
 31
0.0
  0
LINE
  5
11C
330
F0
100
AcDbEntity
  8
AM_9
100
AcDbLine
 10
-56.26593172012576
 20
-5.080000000000001
 30
0.0
 11
-56.19815234477029
 21
-4.912160420603781
 31
0.0
  0
ELLIPSE
  5
11D
330
F0
100
AcDbEntity
  8
AM_9
100
AcDbEllipse
 10
-59.29340652584846
 20
-5.115285751734302
 30
0.0
 11
-2.590724375662645
 21
1.046223307591025
 31
0.0
210
0.0
220
0.0
230
1.0
 40
0.2113091308703464
 41
3.141592653589793
 42
6.283185307179586
  0
LWPOLYLINE
  5
11E
330
F0
100
AcDbEntity
  8
AM_9
100
AcDbPolyline
 90
        4
 70
     0
 43
0.0
 10
-61.47610565538047
 20
-3.058684545841784
 10
-61.47964047138752
 20
-3.069253891791883
 10
-61.46496983887651
 20
-3.162573084305298
 10
-61.41650169224832
 20
-3.235042756066509
  0
LWPOLYLINE
  5
11F
330
F0
100
AcDbEntity
  8
AM_9
100
AcDbPolyline
 90
        5
 70
     0
 43
0.0
 10
-56.19812836205248
 20
-4.912101024934069
 10
-56.20049909978373
 20
-4.917691338485696
 10
-56.28217373838073
 20
-5.008516140987742
 10
-56.43504016474741
 20
-5.065126856945112
 10
-56.60938501749066
 20
-5.079999999236803
  0
LWPOLYLINE
  5
120
330
F0
100
AcDbEntity
  8
AM_9
100
AcDbPolyline
 90
        3
 70
     0
 43
0.0
 10
-58.9791321502866
 20
-4.434184386909876
 10
-58.28344963580145
 20
-4.766969289547203
 10
-57.35332049112714
 20
-5.333905179049321
  0
LWPOLYLINE
  5
121
330
F0
100
AcDbEntity
  8
AM_9
100
AcDbPolyline
 90
        3
 70
     0
 43
0.0
 10
-61.19316158050497
 20
-3.837282897828231
 10
-60.45136455001708
 20
-3.973124856539688
 10
-59.72313387688277
 20
-4.163853732670687
  0
LWPOLYLINE
  5
122
330
F0
100
AcDbEntity
  8
AM_9
100
AcDbPolyline
 90
        3
 70
     0
 43
0.0
 10
-57.35332049112714
 20
-5.333905179049321
 10
-56.92218895985567
 20
-5.49523760296716
 10
-56.51227722737743
 20
-5.736282007269851
  0
LWPOLYLINE
  5
123
330
F0
100
AcDbEntity
  8
AM_9
100
AcDbPolyline
 90
        4
 70
     0
 43
0.0
 10
-62.13069794125515
 20
-3.60574614931637
 10
-62.03226990732551
 20
-3.608061141866097
 10
-61.66425146341084
 20
-3.660719790057628
 10
-61.19316158050497
 20
-3.837282897828231
  0
ELLIPSE
  5
124
330
F0
100
AcDbEntity
  8
AM_9
100
AcDbEllipse
 10
-59.29340652584833
 20
-5.115285751734379
 30
0.0
 11
-3.312005593887
 21
1.337501387545435
 31
0.0
210
0.0
220
0.0
230
1.0
 40
0.2113091308703478
 41
3.814164134970072
 42
4.68202466949653
  0
ELLIPSE
  5
125
330
F0
100
AcDbEntity
  8
AM_9
100
AcDbEllipse
 10
-59.29340652584834
 20
-5.115285751734408
 30
0.0
 11
-3.31200559388708
 21
1.337501387545463
 31
0.0
210
0.0
220
0.0
230
1.0
 40
0.211309130870354
 41
-1.283515054064443
 42
-0.6725714813802872
  0
LINE
  5
126
330
F0
100
AcDbEntity
  8
AM_9
100
AcDbLine
 10
-56.67174801223828
 20
-7.147354260923539
 30
0.0
 11
-56.97709487885616
 21
-6.887292896806422
 31
0.0
  0
ELLIPSE
  5
127
330
F0
100
AcDbEntity
  8
AM_9
100
AcDbEllipse
 10
-59.75822417732706
 20
-6.266296641270962
 30
0.0
 11
-3.312005593886993
 21
1.33750138754541
 31
0.0
210
0.0
220
0.0
230
1.0
 40
0.2113091308703498
 41
2.800469246484355
 42
3.607080702195142
  0
ELLIPSE
  5
128
330
F0
100
AcDbEntity
  8
AM_9
100
AcDbEllipse
 10
-59.75822417736361
 20
-6.266296641270729
 30
0.0
 11
-3.312005593931979
 21
1.337501387546544
 31
0.0
210
0.0
220
0.0
230
1.0
 40
0.2113091308672414
 41
-3.777589249508378
 42
-3.764628581860237
  0
LWPOLYLINE
  5
129
330
F0
100
AcDbEntity
  8
AM_9
100
AcDbPolyline
 90
       17
 70
     0
 43
0.0
 10
-56.36770153959522
 20
-4.547549295794519
 10
-56.57007515253051
 20
-4.404185730898368
 10
-56.84327941775872
 20
-4.243653641815979
 10
-57.1644129264288
 20
-4.079360450144661
 10
-57.54262967433316
 20
-3.906600444275934
 10
-57.94653734522792
 20
-3.739733627290439
 10
-58.38750597869957
 20
-3.574110867010545
 10
-58.82833509780779
 20
-3.423743718108895
 10
-59.28192097204872
 20
-3.284291520882655
 10
-59.70939691415062
 20
-3.167739146394208
 10
-60.12384220922852
 20
-3.070557447853723
 10
-60.4895781010683
 20
-3.001126812430812
 10
-60.81805986385828
 20
-2.957268343506164
 10
-61.08119695911466
 20
-2.942714645652546
 10
-61.28719539945877
 20
-2.956956816676946
 10
-61.41868208570614
 20
-2.998748603033094
 10
-61.47610565538047
 20
-3.058684545841784
  0
LWPOLYLINE
  5
12A
330
F0
100
AcDbEntity
  8
AM_9
100
AcDbPolyline
 90
        4
 70
     0
 43
0.0
 10
-56.36770153959522
 20
-4.547549295794528
 10
-56.24185316360469
 20
-4.680277139818005
 10
-56.18831289814942
 20
-4.804994146739736
 10
-56.19812836205248
 20
-4.912101024934069
  0
LINE
  5
12B
330
F0
100
AcDbEntity
  8
AM_9
100
AcDbLine
 10
-54.26894066227449
 20
5.079999999999997
 30
0.0
 11
-55.86124892926591
 21
5.079999999999997
 31
0.0
  0
LINE
  5
12C
330
F0
100
AcDbEntity
  8
AM_9
100
AcDbLine
 10
-55.86131608908527
 20
-5.080000000000001
 30
0.0
 11
-54.26894066227449
 21
-5.080000000000001
 31
0.0
  0
LINE
  5
12D
330
F0
100
AcDbEntity
  8
AM_9
100
AcDbLine
 10
-50.35071697602726
 20
5.079999999999997
 30
0.0
 11
-52.06923613666201
 21
5.079999999999997
 31
0.0
  0
LINE
  5
12E
330
F0
100
AcDbEntity
  8
AM_9
100
AcDbLine
 10
-52.06923613666201
 20
-5.080000000000001
 30
0.0
 11
-50.35071697602726
 21
-5.080000000000001
 31
0.0
  0
LINE
  5
12F
330
F0
100
AcDbEntity
  8
AM_9
100
AcDbLine
 10
-55.60000000000001
 20
5.556249999999999
 30
0.0
 11
-50.66474532096043
 21
5.556249999999999
 31
0.0
  0
LWPOLYLINE
  5
130
330
F0
100
AcDbEntity
  8
AM_9
100
AcDbPolyline
 90
        3
 70
     0
 43
0.0
 10
-53.88726818102045
 20
5.462772159254216
 10
-54.12548462284887
 20
4.173433099036599
 10
-54.47516296155065
 20
2.778124999999999
  0
LINE
  5
131
330
F0
100
AcDbEntity
  8
AM_9
100
AcDbLine
 10
-53.87264775414529
 20
5.556249999999999
 30
0.0
 11
-53.88726818102045
 21
5.462772159254216
 31
0.0
  0
LWPOLYLINE
  5
132
330
F0
100
AcDbEntity
  8
AM_9
100
AcDbPolyline
 90
        3
 70
     0
 43
0.0
 10
-54.58954186190053
 20
2.395968572957862
 10
-54.92879807114231
 20
1.389062499999999
 10
-55.47659897073772
 20
-0.0000000000000006
  0
LINE
  5
133
330
F0
100
AcDbEntity
  8
AM_9
100
AcDbLine
 10
-54.47516296155065
 20
2.778124999999999
 30
0.0
 11
-54.58954186190053
 21
2.395968572957862
 31
0.0
  0
LINE
  5
134
330
F0
100
AcDbEntity
  8
AM_9
100
AcDbLine
 10
-55.60000000000001
 20
-0.0000000000000006
 30
0.0
 11
-55.47659897073772
 21
-0.0000000000000006
 31
0.0
  0
LINE
  5
135
330
F0
100
AcDbEntity
  8
AM_9
100
AcDbLine
 10
-55.60000000000001
 20
-5.556250000000002
 30
0.0
 11
-50.66474532096043
 21
-5.556250000000003
 31
0.0
  0
LINE
  5
136
330
F0
100
AcDbEntity
  8
AM_9
100
AcDbLine
 10
-53.88908755302893
 20
-5.451281695039491
 30
0.0
 11
-53.87264775414529
 21
-5.556250000000002
 31
0.0
  0
LWPOLYLINE
  5
137
330
F0
100
AcDbEntity
  8
AM_9
100
AcDbPolyline
 90
        3
 70
     0
 43
0.0
 10
-54.47516296155065
 20
-2.778125000000001
 10
-54.12682246284609
 20
-4.167187500000002
 10
-53.88908755302893
 20
-5.451281695039491
  0
LINE
  5
138
330
F0
100
AcDbEntity
  8
AM_9
100
AcDbLine
 10
-54.58627564492757
 20
-2.406518445093521
 30
0.0
 11
-54.47516296155065
 21
-2.778125000000001
 31
0.0
  0
LWPOLYLINE
  5
139
330
F0
100
AcDbEntity
  8
AM_9
100
AcDbPolyline
 90
        3
 70
     0
 43
0.0
 10
-55.47659897073772
 20
-0.0000000000000006
 10
-54.93106612943011
 20
-1.382816900963401
 10
-54.58627564492757
 20
-2.406518445093521
  0
LINE
  5
13A
330
F0
100
AcDbEntity
  8
AM_9
100
AcDbLine
 10
-46.01870577091653
 20
4.708725846697615
 30
0.0
 11
-50.30683359057507
 21
4.863493258495418
 31
0.0
  0
LINE
  5
13B
330
F0
100
AcDbEntity
  8
AM_9
100
AcDbLine
 10
-50.30683359057507
 20
-4.863493258495422
 30
0.0
 11
-46.01870577091653
 21
-4.708725846697618
 31
0.0
  0
LINE
  5
13C
330
F0
100
AcDbEntity
  8
AM_9
100
AcDbLine
 10
-44.35345973059991
 20
3.352827683708302
 30
0.0
 11
-44.70167930462149
 21
3.845284527973389
 31
0.0
  0
LINE
  5
13D
330
F0
100
AcDbEntity
  8
AM_9
100
AcDbLine
 10
-44.70167930462149
 20
-3.845284527973393
 30
0.0
 11
-44.35345973059991
 21
-3.352827683708306
 31
0.0
  0
ELLIPSE
  5
13E
330
F0
100
AcDbEntity
  8
AM_9
100
AcDbEllipse
 10
-54.2689406622745
 20
-0.0000000000000007
 30
0.0
 11
3.402221888881227E-16
 21
5.556249999999978
 31
0.0
210
0.0
220
0.0
230
1.0
 40
0.4999999999999999
 41
0.0
 42
6.283185307179586
  0
ELLIPSE
  5
13F
330
F0
100
AcDbEntity
  8
AM_9
100
AcDbEllipse
 10
-54.26894066227448
 20
0.0000000000000142
 30
0.0
 11
3.110602869834287E-16
 21
5.080000000000016
 31
0.0
210
0.0
220
0.0
230
1.0
 40
0.4999999999999997
 41
0.0
 42
6.283185307179586
  0
ELLIPSE
  5
140
330
F0
100
AcDbEntity
  8
AM_9
100
AcDbEllipse
 10
-52.06923613666199
 20
-0.0000000000000089
 30
0.0
 11
3.110602869834272E-16
 21
5.079999999999991
 31
0.0
210
0.0
220
0.0
230
1.0
 40
0.4999999999999979
 41
0.0
 42
6.283185307179586
  0
ELLIPSE
  5
141
330
F0
100
AcDbEntity
  8
AM_9
100
AcDbEllipse
 10
-50.35071697602713
 20
0.000000000000079
 30
0.0
 11
3.110602869834227E-16
 21
5.079999999999918
 31
0.0
210
0.0
220
0.0
230
1.0
 40
0.4999999999999995
 41
0.0
 42
6.283185307179586
  0
ELLIPSE
  5
142
330
F0
100
AcDbEntity
  8
AM_9
100
AcDbEllipse
 10
-52.06923613666203
 20
0.0000000000000009
 30
0.0
 11
3.402221888881233E-16
 21
5.556249999999988
 31
0.0
210
0.0
220
0.0
230
1.0
 40
0.4999999999999965
 41
0.0
 42
6.283185307179586
  0
ELLIPSE
  5
143
330
F0
100
AcDbEntity
  8
AM_9
100
AcDbEllipse
 10
-50.35071697602724
 20
-0.0000000000000293
 30
0.0
 11
2.978515598206538E-16
 21
4.864285115153686
 31
0.0
210
0.0
220
0.0
230
1.0
 40
0.5000000000000006
 41
0.0
 42
6.283185307179586
  0
ELLIPSE
  5
144
330
F0
100
AcDbEntity
  8
AM_9
100
AcDbEllipse
 10
-46.06119268728231
 20
-0.000000000000008
 30
0.0
 11
2.883732460730458E-16
 21
4.709492504676818
 31
0.0
210
0.0
220
0.0
230
1.0
 40
0.4999999999999954
 41
0.0
 42
6.283185307179586
  0
ELLIPSE
  5
145
330
F0
100
AcDbEntity
  8
AM_9
100
AcDbEllipse
 10
-45.53886332624997
 20
0.0000000000000093
 30
0.0
 11
2.514419402883873E-16
 21
4.106358510281511
 31
0.0
210
0.0
220
0.0
230
1.0
 40
0.4999999999999928
 41
0.0
 42
6.283185307179586
  0
LWPOLYLINE
  5
146
330
F0
100
AcDbEntity
  8
AM_4
100
AcDbPolyline
 90
        3
 70
     0
 43
0.0
 10
-56.20693036075951
 20
-5.996343371387007
 10
-55.97413970171495
 20
-6.253713524124906
 10
-55.5985211760179
 20
-6.792577459924286
  0
LWPOLYLINE
  5
147
330
F0
100
AcDbEntity
  8
AM_4
100
AcDbPolyline
 90
        3
 70
     0
 43
0.0
 10
-55.59912653658728
 20
-6.818516214812173
 10
-55.90575900008733
 20
-6.691143549353728
 10
-56.26679206298903
 20
-6.609853898455522
  0
LWPOLYLINE
  5
148
330
F0
100
AcDbEntity
  8
AM_4
100
AcDbPolyline
 90
        3
 70
     0
 43
0.0
 10
-56.7316097144678
 20
-7.76086478799207
 10
-56.31550806714576
 20
-7.69811432306444
 10
-55.88187694120605
 20
-7.58869625231989
  0
LINE
  5
149
330
F0
100
AcDbEntity
  8
AM_4
100
AcDbLine
 10
-55.60000000000001
 20
-6.890694728915514
 30
0.0
 11
-55.88187694120605
 21
-7.58869625231989
 31
0.0
  0
LINE
  5
14A
330
F0
100
AcDbEntity
  8
AM_4
100
AcDbLine
 10
-59.63198630604077
 20
-12.93739051932093
 30
0.0
 11
-58.09244784925227
 21
-11.53205948275794
 31
0.0
  0
LINE
  5
14B
330
F0
100
AcDbEntity
  8
AM_4
100
AcDbLine
 10
-64.6135210986691
 20
-8.898626575676335
 30
0.0
 11
-64.48160817248454
 21
-10.9789469745965
 31
0.0
  0
ELLIPSE
  5
14C
330
F0
100
AcDbEntity
  8
AM_4
100
AcDbEllipse
 10
-62.03583066957297
 20
-11.90625
 30
0.0
 11
-2.437227270755876
 21
0.98423591506493
 31
0.0
210
0.0
220
0.0
230
1.0
 40
0.2113091308703423
 41
0.1009830038932495
 42
3.04060964969654
  0
LINE
  5
14D
330
F0
100
AcDbEntity
  8
AM_4
100
AcDbLine
 10
-63.25538457326667
 20
-3.837282897828231
 30
0.0
 11
-63.54295253315315
 21
-4.549376881905936
 31
0.0
  0
LWPOLYLINE
  5
14E
330
F0
100
AcDbEntity
  8
AM_4
100
AcDbPolyline
 90
        9
 70
     0
 43
0.0
 10
-64.00076777609978
 20
-8.074486373837825
 10
-64.05233999795608
 20
-8.091282727540895
 10
-64.19860813245688
 20
-8.15671547844679
 10
-64.33010730935955
 20
-8.246001791763348
 10
-64.44363806216602
 20
-8.360631169635264
 10
-64.53261837417483
 20
-8.498415529785747
 10
-64.59372246836308
 20
-8.665282489120521
 10
-64.61495682136561
 20
-8.830565317760813
 10
-64.61242484738915
 20
-8.91369833104199
  0
LWPOLYLINE
  5
14F
330
F0
100
AcDbEntity
  8
AM_4
100
AcDbPolyline
 90
        9
 70
     0
 43
0.0
 10
-58.10300493602136
 20
-11.54152897706613
 10
-58.03756445266553
 20
-11.47686784610665
 10
-57.94137818457748
 20
-11.34478779937642
 10
-57.87006599141404
 20
-11.17906000604533
 10
-57.83993644292526
 20
-11.01237191203518
 10
-57.84461596897204
 20
-10.85379596938816
 10
-57.87717476703954
 20
-10.70566494081611
 10
-57.93320810720589
 20
-10.56628522276046
 10
-57.96065342140572
 20
-10.51425804346167
  0
ELLIPSE
  5
150
330
F0
100
AcDbEntity
  8
AM_4
100
AcDbEllipse
 10
-61.3247916497569
 20
-10.14553017343999
 30
0.0
 11
-3.277232327750504
 21
1.323458750723529
 31
0.0
210
0.0
220
0.0
230
1.0
 40
0.2113091308703457
 41
0.1056140169363493
 42
3.036278112694977
  0
LWPOLYLINE
  5
151
330
F0
100
AcDbEntity
  8
AM_4
100
AcDbPolyline
 90
        3
 70
     0
 43
0.0
 10
-57.94409993396775
 20
-7.58869625231989
 10
-57.60035499025785
 20
-7.697739397127513
 10
-57.25594916078322
 20
-7.758592464327528
  0
LINE
  5
152
330
F0
100
AcDbEntity
  8
AM_4
100
AcDbLine
 10
-57.26165567493675
 20
-7.757990703186896
 30
0.0
 11
-57.23342227328083
 21
-7.76086478799207
 31
0.0
  0
ELLIPSE
  5
153
330
F0
100
AcDbEntity
  8
AM_4
100
AcDbEllipse
 10
-59.75822417732711
 20
-6.266296641270917
 30
0.0
 11
-3.312005593887037
 21
1.337501387545445
 31
0.0
210
0.0
220
0.0
230
1.0
 40
0.2113091308703521
 41
1.71194526960963
 42
2.505596057672106
  0
LWPOLYLINE
  5
154
330
F0
100
AcDbEntity
  8
AM_4
100
AcDbPolyline
 90
        4
 70
     0
 43
0.0
 10
-63.54295253315315
 20
-4.549376881905935
 10
-63.16507373485902
 20
-5.05042200837363
 10
-62.74777021989508
 20
-5.477080537076166
 10
-62.60814594716697
 20
-5.592268783583251
  0
LINE
  5
155
330
F0
100
AcDbEntity
  8
AM_4
100
AcDbLine
 10
-62.61063887392847
 20
-5.590323799250987
 30
0.0
 11
-62.59054111258422
 21
-5.606004100241778
 31
0.0
  0
LWPOLYLINE
  5
156
330
F0
100
AcDbEntity
  8
AM_4
100
AcDbPolyline
 90
        3
 70
     0
 43
0.0
 10
-62.60814594716697
 20
-5.592268783583251
 10
-62.27945669856183
 20
-5.817773758536458
 10
-61.774622530627
 20
-6.068998929608745
  0
LWPOLYLINE
  5
157
330
F0
100
AcDbEntity
  8
AM_4
100
AcDbPolyline
 90
        4
 70
     0
 43
0.0
 10
-56.76860462180204
 20
-6.609853898455276
 10
-57.00351996131496
 20
-6.646959991776583
 10
-57.31587690453567
 20
-6.724401268817782
 10
-57.6378864414689
 20
-6.830431020205951
  0
LINE
  5
158
330
F0
100
AcDbEntity
  8
AM_4
100
AcDbLine
 10
-61.50355582488167
 20
-3.126658350638854
 30
0.0
 11
-61.88413090151111
 21
-4.069062444143282
 31
0.0
  0
LINE
  5
159
330
F0
100
AcDbEntity
  8
AM_4
100
AcDbLine
 10
-56.7026821501856
 20
-6.161509059325487
 30
0.0
 11
-56.26593172012576
 21
-5.080000000000001
 31
0.0
  0
ELLIPSE
  5
15A
330
F0
100
AcDbEntity
  8
AM_4
100
AcDbEllipse
 10
-59.29340652584835
 20
-5.115285751734385
 30
0.0
 11
-2.590724375662752
 21
1.046223307591104
 31
0.0
210
0.0
220
0.0
230
1.0
 40
0.2113091308703499
 41
0.0
 42
3.141592653589793
  0
LWPOLYLINE
  5
15B
330
F0
100
AcDbEntity
  8
AM_4
100
AcDbPolyline
 90
        4
 70
     0
 43
0.0
 10
-63.25538457326667
 20
-3.837282897828232
 10
-62.83334218678343
 20
-3.705296695971724
 10
-62.42555502534306
 20
-3.624930539193417
 10
-62.13069794125515
 20
-3.60574614931637
  0
LWPOLYLINE
  5
15C
330
F0
100
AcDbEntity
  8
AM_4
100
AcDbPolyline
 90
        6
 70
     0
 43
0.0
 10
-61.47776647665053
 20
-5.333905179049321
 10
-61.7396185401267
 20
-4.936675458173813
 10
-62.02775174171564
 20
-4.585948207644054
 10
-62.35068669596654
 20
-4.290054100087518
 10
-62.70364322118471
 20
-4.060772684155615
 10
-63.25538457326667
 20
-3.837282897828231
  0
LINE
  5
15D
330
F0
100
AcDbEntity
  8
AM_4
100
AcDbLine
 10
-62.09691966126728
 20
-3.605746148079322
 30
0.0
 11
-62.13345696813037
 21
-3.605746148079322
 31
0.0
  0
ELLIPSE
  5
15E
330
F0
100
AcDbEntity
  8
AM_4
100
AcDbEllipse
 10
-59.29340652588077
 20
-5.115285751927191
 30
0.0
 11
-3.312005593898022
 21
1.337501387374411
 31
0.0
210
0.0
220
0.0
230
1.0
 40
0.2113091309046891
 41
3.806340371993103
 42
3.814164134960455
  0
ELLIPSE
  5
15F
330
F0
100
AcDbEntity
  8
AM_4
100
AcDbEllipse
 10
-59.29340652584808
 20
-5.115285751734532
 30
0.0
 11
-3.312005593887377
 21
1.337501387545577
 31
0.0
210
0.0
220
0.0
230
1.0
 40
0.2113091308703484
 41
5.610613825799311
 42
7.79587090698143
  0
ELLIPSE
  5
160
330
F0
100
AcDbEntity
  8
AM_4
100
AcDbEllipse
 10
-59.75822417732707
 20
-6.266296641270923
 30
0.0
 11
-3.312005593887093
 21
1.337501387545463
 31
0.0
210
0.0
220
0.0
230
1.0
 40
0.2113091308703518
 41
0.6359965959176943
 42
1.512685599801935
  0
LWPOLYLINE
  5
161
330
F0
100
AcDbEntity
  8
AM_4
100
AcDbPolyline
 90
        3
 70
     0
 43
0.0
 10
-57.23342227328083
 20
-7.76086478799207
 10
-56.9933872215686
 20
-7.784509761460651
 10
-56.7316097144678
 20
-7.76086478799207
  0
LWPOLYLINE
  5
162
330
F0
100
AcDbEntity
  8
AM_4
100
AcDbPolyline
 90
       17
 70
     0
 43
0.0
 10
-57.94931353885294
 20
-10.53475158660589
 10
-58.01100663282379
 20
-10.39980691203207
 10
-58.07105439458405
 20
-10.22585596595523
 10
-58.11870568058405
 20
-10.01708473646514
 10
-58.14416689629316
 20
-9.780381760943392
 10
-58.13989007673937
 20
-9.52605057997455
 10
-58.1017448897933
 20
-9.26470950287276
 10
-58.0199560447095
 20
-8.981857776148322
 10
-57.90204457965989
 20
-8.719974031135893
 10
-57.75539916109584
 20
-8.486247998632896
 10
-57.58800220658501
 20
-8.28447103342934
 10
-57.40870894068185
 20
-8.116873599339225
 10
-57.22771199002354
 20
-7.984424277145668
 10
-57.05607394516539
 20
-7.886175892835939
 10
-56.90376840957529
 20
-7.818565524273333
 10
-56.77741412970239
 20
-7.775799656980571
 10
-56.6853947014949
 20
-7.752539850383392
  0
LWPOLYLINE
  5
163
330
F0
100
AcDbEntity
  8
AM_4
100
AcDbPolyline
 90
       18
 70
     0
 43
0.0
 10
-62.99753018985213
 20
-5.207721434360449
 10
-62.9944985197069
 20
-5.212303595636521
 10
-62.93892116702378
 20
-5.304664527559077
 10
-62.8767218977947
 20
-5.430711950197251
 10
-62.81479375998211
 20
-5.592961774761814
 10
-62.762085274327
 20
-5.79112755285705
 10
-62.72857333060782
 20
-6.019941804014518
 10
-62.72274903340511
 20
-6.269837197206305
 10
-62.7498383128912
 20
-6.530031186423831
 10
-62.82022452170892
 20
-6.817239707963443
 10
-62.92857204597005
 20
-7.086176289193316
 10
-63.06781653508082
 20
-7.328448141041681
 10
-63.23014050245249
 20
-7.539621404564305
 10
-63.40701664459081
 20
-7.717137749559972
 10
-63.58864096792512
 20
-7.859624628762508
 10
-63.76406553952027
 20
-7.967393561592902
 10
-63.92273929369981
 20
-8.043233372042181
 10
-64.02565360131587
 20
-8.082173904667107
  0
ELLIPSE
  5
164
330
F0
100
AcDbEntity
  8
AM_4
100
AcDbEllipse
 10
-61.05364710760984
 20
-9.474104895899876
 30
0.0
 11
-3.136987913476894
 21
1.266823248950025
 31
0.0
210
0.0
220
0.0
230
1.0
 40
0.211309130870351
 41
6.042366885722678
 42
9.664811586839392
  0
ELLIPSE
  5
165
330
F0
100
AcDbEntity
  8
AM_4
100
AcDbEllipse
 10
-61.05364710768634
 20
-9.474104895873039
 30
0.0
 11
-3.136987913396147
 21
1.266823248926459
 31
0.0
210
0.0
220
0.0
230
1.0
 40
0.2113091308709129
 41
-0.2582205513205116
 42
-0.2408184214560265
  0
ELLIPSE
  5
166
330
F0
100
AcDbEntity
  8
AM_4
100
AcDbEllipse
 10
-59.29340652584838
 20
-5.115285751734342
 30
0.0
 11
-3.312005593887257
 21
1.337501387545125
 31
0.0
210
0.0
220
0.0
230
1.0
 40
0.2113091308703675
 41
1.711945269609626
 42
2.518556725320333
  0
LINE
  5
167
330
F0
100
AcDbEntity
  8
AM_4
100
AcDbLine
 10
-56.26679206298903
 20
-6.609853898455522
 30
0.0
 11
-56.76860462180204
 21
-6.609853898455276
 31
0.0
  0
ELLIPSE
  5
168
330
F0
100
AcDbEntity
  8
AM_4
100
AcDbEllipse
 10
-59.29340652584842
 20
-5.115285751734358
 30
0.0
 11
-3.312005593887093
 21
1.33750138754547
 31
0.0
210
0.0
220
0.0
230
1.0
 40
0.2113091308703491
 41
2.800469246484381
 42
3.607080702195122
  0
LINE
  5
169
330
F0
100
AcDbEntity
  8
AM_4
100
AcDbLine
 10
-56.51227722737743
 20
-5.736282007269851
 30
0.0
 11
-56.20693036075951
 21
-5.996343371387007
 31
0.0
  0
LWPOLYLINE
  5
16A
330
F0
100
AcDbEntity
  8
AM_4
100
AcDbPolyline
 90
        3
 70
     0
 43
0.0
 10
-57.6378864414689
 20
-6.830431020205951
 10
-58.35066886067754
 20
-6.382400080731244
 10
-59.10728672356237
 20
-5.996343371387013
  0
LINE
  5
16B
330
F0
100
AcDbEntity
  8
AM_4
100
AcDbLine
 10
-59.10728672356237
 20
-5.996343371387013
 30
0.0
 11
-59.76791047282238
 21
-5.736282007269859
 31
0.0
  0
LWPOLYLINE
  5
16C
330
F0
100
AcDbEntity
  8
AM_4
100
AcDbPolyline
 90
        4
 70
     0
 43
0.0
 10
-59.76791047282238
 20
-5.736282007269859
 10
-60.35185735400529
 20
-5.560509266840902
 10
-60.91080644846669
 20
-5.432128708591388
 10
-61.47776647665053
 20
-5.333905179049321
  0
LINE
  5
16D
330
F0
100
AcDbEntity
  8
AM_4
100
AcDbLine
 10
-61.47776647665053
 20
-5.333905179049321
 30
0.0
 11
-61.77462253062697
 21
-6.068998929608747
 31
0.0
  0
LWPOLYLINE
  5
16E
330
F0
100
AcDbEntity
  8
AM_4
100
AcDbPolyline
 90
        3
 70
     0
 43
0.0
 10
-61.77462253062697
 20
-6.068998929608747
 10
-61.0207550712884
 20
-6.504786871533986
 10
-60.2327281243011
 20
-6.887292896806422
  0
LINE
  5
16F
330
F0
100
AcDbEntity
  8
AM_4
100
AcDbLine
 10
-60.2327281243011
 20
-6.887292896806422
 30
0.0
 11
-59.57210437504117
 21
-7.14735426092354
 31
0.0
  0
LWPOLYLINE
  5
170
330
F0
100
AcDbEntity
  8
AM_4
100
AcDbPolyline
 90
        3
 70
     0
 43
0.0
 10
-59.57210437504117
 20
-7.14735426092354
 10
-58.76818038334895
 20
-7.395910919975459
 10
-57.94409993396775
 20
-7.58869625231989
  0
LINE
  5
171
330
F0
100
AcDbEntity
  8
AM_4
100
AcDbLine
 10
-57.6378864414689
 20
-6.830431020205951
 30
0.0
 11
-57.94409993396775
 21
-7.58869625231989
 31
0.0
  0
ARC
  5
172
330
F0
100
AcDbEntity
  8
AM_4
100
AcDbCircle
 10
-57.49975668426785
 20
0.0000000000000235
 30
0.0
 40
5.079999999999973
100
AcDbArc
 50
90.0
 51
219.6396968456465
  0
LWPOLYLINE
  5
173
330
F0
100
AcDbEntity
  8
AM_4
100
AcDbPolyline
 90
       10
 70
     0
 43
0.0
 10
-61.41650169224832
 20
-3.235042756066509
 10
-61.37424856212476
 20
-3.281280336792629
 10
-61.21479886152611
 20
-3.41561366815326
 10
-60.982195845333
 20
-3.569173128090977
 10
-60.69527264061792
 20
-3.729407788863488
 10
-60.34624740164286
 20
-3.900563582124101
 10
-59.96368556226003
 20
-4.068570560479343
 10
-59.53713262264067
 20
-4.237973131810882
 10
-59.09518948432918
 20
-4.397035613753721
 10
-58.63181182893996
 20
-4.547549295795372
  0
ELLIPSE
  5
174
330
F0
100
AcDbEntity
  8
AM_4
100
AcDbEllipse
 10
-57.4997566842678
 20
0.0000000000000036
 30
0.0
 11
3.110602869834275E-16
 21
5.079999999999996
 31
0.0
210
0.0
220
0.0
230
1.0
 40
0.5000000000000003
 41
0.0
 42
2.679646633022825
  0
LINE
  5
175
330
F0
100
AcDbEntity
  8
AM_4
100
AcDbLine
 10
-55.86124892926591
 20
5.079999999999997
 30
0.0
 11
-57.49975668426781
 21
5.079999999999997
 31
0.0
  0
LINE
  5
176
330
F0
100
AcDbEntity
  8
AM_4
100
AcDbLine
 10
-56.61313873685411
 20
-5.080000000000001
 30
0.0
 11
-55.86131608908527
 21
-5.080000000000001
 31
0.0
  0
LWPOLYLINE
  5
177
330
F0
100
AcDbEntity
  8
AM_4
100
AcDbPolyline
 90
        8
 70
     0
 43
0.0
 10
-56.60938501749066
 20
-5.079999999236803
 10
-56.64715779536897
 20
-5.079458245572024
 10
-56.9233472474784
 20
-5.050335633392995
 10
-57.23826461901355
 20
-4.982589552160019
 10
-57.60461975030974
 20
-4.878563523460394
 10
-57.99864943877451
 20
-4.752207997638139
 10
-58.43282189496357
 20
-4.610115106939384
 10
-58.63181182894039
 20
-4.547549295794528
  0
LINE
  5
178
330
F0
100
AcDbEntity
  8
AM_4
100
AcDbLine
 10
-55.67343147797606
 20
5.556249999999999
 30
0.0
 11
-55.60000000000001
 21
5.556249999999999
 31
0.0
  0
LWPOLYLINE
  5
179
330
F0
100
AcDbEntity
  8
AM_4
100
AcDbPolyline
 90
        3
 70
     0
 43
0.0
 10
-56.67486748716313
 20
2.778124999999998
 10
-56.22123237757147
 20
4.167187499999998
 10
-55.67343147797606
 20
5.556249999999999
  0
LWPOLYLINE
  5
17A
330
F0
100
AcDbEntity
  8
AM_4
100
AcDbPolyline
 90
        3
 70
     0
 43
0.0
 10
-57.27738269456849
 20
-0.0000000000000007
 10
-57.02454582586491
 20
1.382816900963398
 10
-56.67486748716313
 20
2.778124999999998
  0
LINE
  5
17B
330
F0
100
AcDbEntity
  8
AM_4
100
AcDbLine
 10
-57.27738269456849
 20
-0.0000000000000007
 30
0.0
 11
-55.60000000000001
 21
-0.0000000000000006
 31
0.0
  0
LWPOLYLINE
  5
17C
330
F0
100
AcDbEntity
  8
AM_4
100
AcDbPolyline
 90
        3
 70
     0
 43
0.0
 10
-56.67486748716313
 20
-2.778125000000001
 10
-57.02320798586769
 20
-1.389062500000001
 10
-57.27738269456849
 20
-0.0000000000000007
  0
LWPOLYLINE
  5
17D
330
F0
100
AcDbEntity
  8
AM_4
100
AcDbPolyline
 90
        3
 70
     0
 43
0.0
 10
-55.67343147797606
 20
-5.556250000000002
 10
-56.21896431928367
 20
-4.173433099036602
 10
-56.67486748716313
 20
-2.778125000000001
  0
LINE
  5
17E
330
F0
100
AcDbEntity
  8
AM_4
100
AcDbLine
 10
-55.67343147797606
 20
-5.556250000000002
 30
0.0
 11
-55.60000000000001
 21
-5.556250000000002
 31
0.0
  0
ENDBLK
  5
F3
330
F0
100
AcDbEntity
  8
0
100
AcDbBlockEnd
  0
BLOCK
  5
181
330
17F
100
AcDbEntity
  8
0
100
AcDbBlockBegin
  2
4_125991H_0_in_125991_4
 70
     2
 10
0.0
 20
0.0
 30
0.0
  3
4_125991H_0_in_125991_4
  1

  0
ATTDEF
  5
183
330
17F
100
AcDbEntity
  8
AM_6
100
AcDbText
 10
94.7
 20
24.65
 30
0.0
 40
0.5
  1
WSTU-SCM -Metric - housing
100
AcDbAttributeDefinition
  3

  2
NN
 70
     8
280
     0
  0
ATTDEF
  5
184
330
17F
100
AcDbEntity
  8
AM_6
100
AcDbText
 10
94.7
 20
24.15
 30
0.0
 40
0.5
  1
SC Take-Up Bearings -Wide Slot -(Medium Duty)
100
AcDbAttributeDefinition
  3

  2
NT
 70
     8
280
     0
  0
ATTDEF
  5
185
330
17F
100
AcDbEntity
  8
AM_6
100
AcDbText
 10
94.7
 20
23.65
 30
0.0
 40
0.5
  1
125991H
100
AcDbAttributeDefinition
  3

  2
NB
 70
     8
280
     0
  0
ATTDEF
  5
186
330
17F
100
AcDbEntity
  8
AM_6
100
AcDbText
 10
94.7
 20
23.15
 30
0.0
 40
0.5
  1
$PN.H
100
AcDbAttributeDefinition
  3

  2
NBSYN
 70
     8
280
     0
  0
ATTDEF
  5
187
330
17F
100
AcDbEntity
  8
AM_6
100
AcDbText
 10
94.7
 20
22.65
 30
0.0
 40
0.5
  1
125991
100
AcDbAttributeDefinition
  3

  2
LINA
 70
     8
280
     0
  0
ATTDEF
  5
188
330
17F
100
AcDbEntity
  8
AM_6
100
AcDbText
 10
94.7
 20
22.15
 30
0.0
 40
0.5
  1
208
100
AcDbAttributeDefinition
  3

  2
SERIES
 70
     8
280
     0
  0
ATTDEF
  5
189
330
17F
100
AcDbEntity
  8
AM_6
100
AcDbText
 10
94.7
 20
21.65
 30
0.0
 40
0.5
  1
35
100
AcDbAttributeDefinition
  3

  2
SS
 70
     8
280
     0
  0
ATTDEF
  5
18A
330
17F
100
AcDbEntity
  8
AM_6
100
AcDbText
 10
94.7
 20
21.15
 30
0.0
 40
0.5
  1
125991
100
AcDbAttributeDefinition
  3

  2
PN
 70
     8
280
     0
  0
ATTDEF
  5
18B
330
17F
100
AcDbEntity
  8
AM_6
100
AcDbText
 10
94.7
 20
20.65
 30
0.0
 40
0.5
  1
WSTU-SCM-35M
100
AcDbAttributeDefinition
  3

  2
DESCRIPTION
 70
     8
280
     0
  0
ATTDEF
  5
18C
330
17F
100
AcDbEntity
  8
AM_6
100
AcDbText
 10
94.7
 20
20.15
 30
0.0
 40
0.5
  1
2.9
100
AcDbAttributeDefinition
  3

  2
W
 70
     8
280
     0
  0
ATTDEF
  5
18D
330
17F
100
AcDbEntity
  8
AM_6
100
AcDbText
 10
94.7
 20
19.65
 30
0.0
 40
0.5
  1
WS400
100
AcDbAttributeDefinition
  3

  2
FS
 70
     8
280
     0
  0
ATTDEF
  5
18E
330
17F
100
AcDbEntity
  8
AM_6
100
AcDbText
 10
94.7
 20
19.15
 30
0.0
 40
0.5
  1
49.3
100
AcDbAttributeDefinition
  3

  2
A
 70
     8
280
     0
  0
ATTDEF
  5
18F
330
17F
100
AcDbEntity
  8
AM_6
100
AcDbText
 10
94.7
 20
18.65
 30
0.0
 40
0.5
  1
144.5
100
AcDbAttributeDefinition
  3

  2
B
 70
     8
280
     0
  0
ATTDEF
  5
190
330
17F
100
AcDbEntity
  8
AM_6
100
AcDbText
 10
94.7
 20
18.15
 30
0.0
 40
0.5
  1
17.48
100
AcDbAttributeDefinition
  3

  2
C
 70
     8
280
     0
  0
ATTDEF
  5
191
330
17F
100
AcDbEntity
  8
AM_6
100
AcDbText
 10
94.7
 20
17.65
 30
0.0
 40
0.5
  1
82.6
100
AcDbAttributeDefinition
  3

  2
D
 70
     8
280
     0
  0
ATTDEF
  5
192
330
17F
100
AcDbEntity
  8
AM_6
100
AcDbText
 10
94.7
 20
17.15
 30
0.0
 40
0.5
  1
88.9
100
AcDbAttributeDefinition
  3

  2
E
 70
     8
280
     0
  0
ATTDEF
  5
193
330
17F
100
AcDbEntity
  8
AM_6
100
AcDbText
 10
94.7
 20
16.65
 30
0.0
 40
0.5
  1
25.4
100
AcDbAttributeDefinition
  3

  2
F
 70
     8
280
     0
  0
ATTDEF
  5
194
330
17F
100
AcDbEntity
  8
AM_6
100
AcDbText
 10
94.7
 20
16.15
 30
0.0
 40
0.5
  1
16.0
100
AcDbAttributeDefinition
  3

  2
G
 70
     8
280
     0
  0
ATTDEF
  5
195
330
17F
100
AcDbEntity
  8
AM_6
100
AcDbText
 10
94.7
 20
15.65
 30
0.0
 40
0.5
  1
19.1
100
AcDbAttributeDefinition
  3

  2
H
 70
     8
280
     0
  0
ATTDEF
  5
196
330
17F
100
AcDbEntity
  8
AM_6
100
AcDbText
 10
94.7
 20
15.15
 30
0.0
 40
0.5
  1
82.6
100
AcDbAttributeDefinition
  3

  2
J
 70
     8
280
     0
  0
ATTDEF
  5
197
330
17F
100
AcDbEntity
  8
AM_6
100
AcDbText
 10
94.7
 20
14.65
 30
0.0
 40
0.5
  1
49.3
100
AcDbAttributeDefinition
  3

  2
K
 70
     8
280
     0
  0
ATTDEF
  5
198
330
17F
100
AcDbEntity
  8
AM_6
100
AcDbText
 10
94.7
 20
14.15
 30
0.0
 40
0.5
  1
52.1
100
AcDbAttributeDefinition
  3

  2
L
 70
     8
280
     0
  0
ATTDEF
  5
199
330
17F
100
AcDbEntity
  8
AM_6
100
AcDbText
 10
94.7
 20
13.65
 30
0.0
 40
0.5
  1
101.22/101.98
100
AcDbAttributeDefinition
  3

  2
M
 70
     8
280
     0
  0
ATTDEF
  5
19A
330
17F
100
AcDbEntity
  8
AM_6
100
AcDbText
 10
94.7
 20
13.15
 30
0.0
 40
0.5
  1
114.3
100
AcDbAttributeDefinition
  3

  2
N
 70
     8
280
     0
  0
ATTDEF
  5
19B
330
17F
100
AcDbEntity
  8
AM_6
100
AcDbText
 10
94.7
 20
12.65
 30
0.0
 40
0.5
  1
19.1
100
AcDbAttributeDefinition
  3

  2
R
 70
     8
280
     0
  0
ATTDEF
  5
19C
330
17F
100
AcDbEntity
  8
AM_6
100
AcDbText
 10
94.7
 20
12.15
 30
0.0
 40
0.5
  1
30.2
100
AcDbAttributeDefinition
  3

  2
S
 70
     8
280
     0
  0
ATTDEF
  5
19D
330
17F
100
AcDbEntity
  8
AM_6
100
AcDbText
 10
94.7
 20
11.65
 30
0.0
 40
0.5
  1
49.3
100
AcDbAttributeDefinition
  3

  2
T
 70
     8
280
     0
  0
ATTDEF
  5
19E
330
17F
100
AcDbEntity
  8
AM_6
100
AcDbText
 10
94.7
 20
11.15
 30
0.0
 40
0.5
  1
4005
100
AcDbAttributeDefinition
  3

  2
CAPS
 70
     8
280
     0
  0
ATTDEF
  5
19F
330
17F
100
AcDbEntity
  8
AM_6
100
AcDbText
 10
94.7
 20
10.65
 30
0.0
 40
0.5
  1
7332
100
AcDbAttributeDefinition
  3

  2
CAPD
 70
     8
280
     0
  0
ATTDEF
  5
1A0
330
17F
100
AcDbEntity
  8
AM_6
100
AcDbText
 10
94.7
 20
10.15
 30
0.0
 40
0.5
  1
baldor
100
AcDbAttributeDefinition
  3

  2
COMPANY
 70
     8
280
     0
  0
LWPOLYLINE
  5
1A1
330
17F
100
AcDbEntity
  8
AM_9
100
AcDbPolyline
 90
       11
 70
     0
 43
0.0
 10
-50.02624282618827
 20
-0.0000000000000015
 10
-50.00215475950394
 20
-0.6610401278567842
 10
-49.92748679596525
 20
-1.322080255713567
 10
-49.80770280787495
 20
-1.927584856211199
 10
-49.63804319340156
 20
-2.495081409855168
 10
-49.4307438121178
 20
-2.977885068423273
 10
-49.17827659141546
 20
-3.388934734348851
 10
-48.89980368952974
 20
-3.694057868876285
 10
-48.58604264074329
 20
-3.90150649724691
 10
-48.26299403074796
 20
-3.993680941352408
 10
-48.15120192656347
 20
-3.999999982049182
  0
LINE
  5
1A2
330
17F
100
AcDbEntity
  8
AM_9
100
AcDbLine
 10
-50.35071697602726
 20
-4.0
 30
0.0
 11
-48.15021115781042
 21
-4.0
 31
0.0
  0
LINE
  5
1A3
330
17F
100
AcDbEntity
  8
AM_9
100
AcDbLine
 10
-48.1508767666298
 20
3.999999999999996
 30
0.0
 11
-50.35071697602726
 21
3.999999999999996
 31
0.0
  0
LWPOLYLINE
  5
1A4
330
17F
100
AcDbEntity
  8
AM_9
100
AcDbPolyline
 90
       20
 70
     0
 43
0.0
 10
-48.15120192656347
 20
-3.999999982049182
 10
-47.92028960687948
 20
-3.973672721878548
 10
-47.58749306327068
 20
-3.843503418437104
 10
-47.25506556510544
 20
-3.599553584816292
 10
-46.95169239968136
 20
-3.261934940749613
 10
-46.6705150709884
 20
-2.821169126864275
 10
-46.43622542135438
 20
-2.312862249995794
 10
-46.24453761583706
 20
-1.72323515160526
 10
-46.11307598306682
 20
-1.10171266444945
 10
-46.03929653602123
 20
-0.4303315453323631
 10
-46.03005688022751
 20
0.2328234561603552
 10
-46.08494219715316
 20
0.9083955127677763
 10
-46.19868415536934
 20
1.538968048067063
 10
-46.37349056009013
 20
2.143443411269972
 10
-46.59374468746005
 20
2.672222617397996
 10
-46.86377742957762
 20
3.139416306280968
 10
-47.15985492665502
 20
3.50655160719775
 10
-47.4884229275008
 20
3.783235043480887
 10
-47.82024852893507
 20
3.946032667606037
 10
-48.15109912622666
 20
3.999999996243668
  0
LWPOLYLINE
  5
1A5
330
17F
100
AcDbEntity
  8
AM_9
100
AcDbPolyline
 90
       12
 70
     0
 43
0.0
 10
-48.15109912622666
 20
3.999999996243668
 10
-48.16439195768334
 20
3.999910418700108
 10
-48.49085211746956
 20
3.940556746235888
 10
-48.8101508211616
 20
3.766547270558291
 10
-49.09635855072023
 20
3.492528713532189
 10
-49.35908050865113
 20
3.110685985334767
 10
-49.57843483438828
 20
2.65182941539278
 10
-49.76190542709453
 20
2.103492343357118
 10
-49.89588981581255
 20
1.510956192750837
 10
-49.98547802395615
 20
0.857590951692982
 10
-50.01591363745528
 20
0.433849150979056
 10
-50.02624282618827
 20
-0.0000000000000015
  0
ELLIPSE
  5
1A6
330
17F
100
AcDbEntity
  8
AM_9
100
AcDbEllipse
 10
-50.35071697602726
 20
-0.0000000000000018
 30
0.0
 11
4.976964591734845E-16
 21
8.128000000000004
 31
0.0
210
0.0
220
0.0
230
1.0
 40
0.4999999999999998
 41
0.0
 42
6.283185307179586
  0
LINE
  5
1A7
330
17F
100
AcDbEntity
  8
AM_9
100
AcDbLine
 10
-48.2176163642527
 20
-10.66751484708545
 30
0.0
 11
-48.14960911940939
 21
-10.66799978463058
 31
0.0
  0
LWPOLYLINE
  5
1A8
330
17F
100
AcDbEntity
  8
AM_9
100
AcDbPolyline
 90
       27
 70
     0
 43
0.0
 10
-54.75501245041478
 20
-0.0000000000000013
 10
-54.75184574451453
 20
-0.3449735689745267
 10
-54.72905190956217
 20
-0.9866544772384499
 10
-54.68427014356101
 20
-1.625230966241669
 10
-54.61748636694697
 20
-2.258770012146195
 10
-54.52865177405727
 20
-2.885451455060859
 10
-54.41767198209964
 20
-3.503492969964146
 10
-54.28439097145591
 20
-4.111150772850661
 10
-54.12857244727793
 20
-4.706711224235293
 10
-53.94988138945117
 20
-5.28846800177751
 10
-53.74787163410065
 20
-5.854677416768792
 10
-53.52199069434619
 20
-6.403482518455776
 10
-53.27162124235918
 20
-6.932797045312317
 10
-52.996188248492
 20
-7.440148384306507
 10
-52.69536387081661
 20
-7.922504157891299
 10
-52.36994528383082
 20
-8.37542558507776
 10
-52.02143655223269
 20
-8.794520102947523
 10
-51.6523274085641
 20
-9.175530242608446
 10
-51.26584082329322
 20
-9.514986071768787
 10
-50.86540144581797
 20
-9.810707137019607
 10
-50.45417355633415
 20
-10.06182918164627
 10
-50.03488783751861
 20
-10.26844954474854
 10
-49.60991694277348
 20
-10.43119047997297
 10
-49.18143362011973
 20
-10.55088906462171
 10
-48.75152702942151
 20
-10.62844851695242
 10
-48.32223851323661
 20
-10.66479295490526
 10
-48.2176163642527
 20
-10.66751484708545
  0
LWPOLYLINE
  5
1A9
330
17F
100
AcDbEntity
  8
AM_9
100
AcDbPolyline
 90
       27
 70
     0
 43
0.0
 10
-48.15117426371589
 20
10.66799999713653
 10
-48.55905385338115
 20
10.64976736419548
 10
-48.9790470925931
 20
10.59260432690556
 10
-49.39185564727646
 20
10.49751459414448
 10
-49.79631081435077
 20
10.36537264696545
 10
-50.19153525095159
 20
10.19680597063967
 10
-50.57690655253938
 20
9.992119429017132
 10
-50.9519703825539
 20
9.751255649566547
 10
-51.31630118513633
 20
9.473828540097843
 10
-51.66931988675988
 20
9.159271885288282
 10
-52.01010106891787
 20
8.807131896608011
 10
-52.33723572312572
 20
8.417480875668666
 10
-52.64883895733798
 20
7.991332713905464
 10
-52.94275953771201
 20
7.530855318758426
 10
-53.21693697755498
 20
7.039219017702917
 10
-53.4697379313577
 20
6.520131648140649
 10
-53.69988668898945
 20
5.977886906556835
 10
-53.90700989381355
 20
5.415738445482481
 10
-54.0911002152393
 20
4.836406087153645
 10
-54.25230895773078
 20
4.242251833065635
 10
-54.39083859383391
 20
3.6353953401216
 10
-54.50688421612345
 20
3.01781407039344
 10
-54.60060855439004
 20
2.391414482313159
 10
-54.67213605997217
 20
1.758076200015706
 10
-54.7215560002921
 20
1.119675588486183
 10
-54.74892849785412
 20
0.4780950796910691
 10
-54.75501245041478
 20
-0.0000000000000013
  0
LINE
  5
1AA
330
17F
100
AcDbEntity
  8
AM_9
100
AcDbLine
 10
72.9
 20
-12.7
 30
0.0
 11
88.9
 21
-12.7
 31
0.0
  0
LINE
  5
1AB
330
17F
100
AcDbEntity
  8
AM_9
100
AcDbLine
 10
88.9
 20
12.7
 30
0.0
 11
72.9
 21
12.7
 31
0.0
  0
LINE
  5
1AC
330
17F
100
AcDbEntity
  8
AM_9
100
AcDbLine
 10
71.152
 20
-14.858
 30
0.0
 11
71.152
 21
14.858
 31
0.0
  0
LINE
  5
1AD
330
17F
100
AcDbEntity
  8
AM_9
100
AcDbLine
 10
72.9
 20
-14.858
 30
0.0
 11
72.9
 21
14.858
 31
0.0
  0
LINE
  5
1AE
330
17F
100
AcDbEntity
  8
AM_9
100
AcDbLine
 10
55.54800000000002
 20
-14.858
 30
0.0
 11
55.548
 21
14.858
 31
0.0
  0
LINE
  5
1AF
330
17F
100
AcDbEntity
  8
AM_9
100
AcDbLine
 10
53.8
 20
-14.858
 30
0.0
 11
53.8
 21
14.858
 31
0.0
  0
LWPOLYLINE
  5
1B0
330
17F
100
AcDbEntity
  8
AM_9
100
AcDbPolyline
 90
       29
 70
     0
 43
0.0
 10
-48.15101245041479
 20
10.668
 10
-47.54800871127237
 20
10.60126611728335
 10
-46.92950579992612
 20
10.40370888969447
 10
-46.30836605359923
 20
10.07929494807493
 10
-45.69238489587637
 20
9.629945994971328
 10
-45.08947929051055
 20
9.061682448467252
 10
-44.51348798761963
 20
8.385115536751407
 10
-43.96734303384787
 20
7.595816677221185
 10
-43.46579049695484
 20
6.70926427519985
 10
-43.02166823432227
 20
5.741528321375724
 10
-42.64083269113546
 20
4.691252976732572
 10
-42.33323279187859
 20
3.57682076337347
 10
-42.10778623986499
 20
2.419369988588477
 10
-41.97180166489806
 20
1.244122809036552
 10
-41.92319666069449
 20
0.0490078036153325
 10
-41.9634411752147
 20
-1.142887250943436
 10
-42.09097607257963
 20
-2.303627436380049
 10
-42.30159524497313
 20
-3.439156109277248
 10
-42.58929878402667
 20
-4.528607475994008
 10
-42.9524280394853
 20
-5.567774859363174
 10
-43.38170587408312
 20
-6.541260884702305
 10
-43.8659366521487
 20
-7.431776483753375
 10
-44.40705501526401
 20
-8.242796574814903
 10
-44.98825634925918
 20
-8.95268225027097
 10
-45.59533250569688
 20
-9.548135074151888
 10
-46.22040082889519
 20
-10.02222717557081
 10
-46.85410350705801
 20
-10.37092547470444
 10
-47.48218573229256
 20
-10.58715296921231
 10
-48.15101245041479
 20
-10.668
  0
LWPOLYLINE
  5
1B1
330
17F
100
AcDbEntity
  8
AM_9
100
AcDbPolyline
 90
       29
 70
     0
 43
0.0
 10
-48.15101245041479
 20
-10.668
 10
-48.70312482900124
 20
-10.60844263255856
 10
-49.22965492926665
 20
-10.43122297215138
 10
-49.74694753668861
 20
-10.12113030455324
 10
-50.22780638941254
 20
-9.687762326240328
 10
-50.66591835938432
 20
-9.139350421431125
 10
-51.06380110822052
 20
-8.471464946909656
 10
-51.41682879335652
 20
-7.697379504891516
 10
-51.72225838514294
 20
-6.831098692200782
 10
-51.98371934262052
 20
-5.865253578014766
 10
-52.19838421764207
 20
-4.821191851484987
 10
-52.36547351680903
 20
-3.718325730783701
 10
-52.48530319566868
 20
-2.572140131314945
 10
-52.56011917331669
 20
-1.388780464579874
 10
-52.5898123138975
 20
-0.1911581249372049
 10
-52.57501423927358
 20
0.9890225842930189
 10
-52.51671545407347
 20
2.160406573549412
 10
-52.41499166611722
 20
3.300967531746589
 10
-52.26909512721456
 20
4.397364191520889
 10
-52.0781504265758
 20
5.442731842583256
 10
-51.84274059432357
 20
6.418429415332484
 10
-51.55636901406817
 20
7.328468752100732
 10
-51.22185711451412
 20
8.149850187194177
 10
-50.84158556573146
 20
8.867632029200893
 10
-50.41048535141088
 20
9.478715306311267
 10
-49.93328661739073
 20
9.97157328439486
 10
-49.41621659579202
 20
10.3364508091854
 10
-48.8021980775823
 20
10.58440194423474
 10
-48.15101245041479
 20
10.668
  0
LINE
  5
1B2
330
17F
100
AcDbEntity
  8
AM_9
100
AcDbLine
 10
40.0
 20
-14.858
 30
0.0
 11
40.0
 21
14.858
 31
0.0
  0
LINE
  5
1B3
330
17F
100
AcDbEntity
  8
AM_9
100
AcDbLine
 10
-40.0
 20
14.858
 30
0.0
 11
-40.0
 21
-14.858
 31
0.0
  0
LINE
  5
1B4
330
17F
100
AcDbEntity
  8
AM_9
100
AcDbLine
 10
11.66666655
 20
-7.865999999999996
 30
0.0
 11
11.66666655
 21
14.858
 31
0.0
  0
LINE
  5
1B5
330
17F
100
AcDbEntity
  8
AM_9
100
AcDbLine
 10
-11.66666655
 20
-7.865999999999996
 30
0.0
 11
-11.66666655
 21
14.858
 31
0.0
  0
LINE
  5
1B6
330
17F
100
AcDbEntity
  8
AM_9
100
AcDbLine
 10
11.66666655
 20
-7.865999999999996
 30
0.0
 11
-11.66666655
 21
-7.865999999999996
 31
0.0
  0
LINE
  5
1B7
330
17F
100
AcDbEntity
  8
AM_9
100
AcDbLine
 10
41.3
 20
14.858
 30
0.0
 11
-41.3
 21
14.858
 31
0.0
  0
LINE
  5
1B8
330
17F
100
AcDbEntity
  8
AM_9
100
AcDbLine
 10
41.3
 20
-14.858
 30
0.0
 11
-41.3
 21
-14.858
 31
0.0
  0
ELLIPSE
  5
1B9
330
17F
100
AcDbEntity
  8
AM_9
100
AcDbEllipse
 10
-50.35071697602727
 20
0.000000000000008
 30
0.0
 11
-7.347880794884131E-16
 21
-4.000000000000006
 31
0.0
210
0.0
220
0.0
230
1.0
 40
0.4999999999999992
 41
0.0
 42
6.283185307179586
  0
ELLIPSE
  5
1BA
330
17F
100
AcDbEntity
  8
AM_9
100
AcDbEllipse
 10
-48.15101245041482
 20
0.0000000000000018
 30
0.0
 11
-1.959679807995597E-15
 21
-10.66800000000002
 31
0.0
210
0.0
220
0.0
230
1.0
 40
0.4999999999999996
 41
0.0
 42
6.283185307179586
  0
LINE
  5
1BB
330
17F
100
AcDbEntity
  8
AM_7
100
AcDbLine
 10
89.7
 20
0.0
 30
0.0
 11
72.10000000000001
 21
0.0
 31
0.0
  0
LINE
  5
1BC
330
17F
100
AcDbEntity
  8
AM_4
100
AcDbLine
 10
72.9
 20
-14.858
 30
0.0
 11
72.9
 21
-24.65
 31
0.0
  0
LINE
  5
1BD
330
17F
100
AcDbEntity
  8
AM_4
100
AcDbLine
 10
72.9
 20
-24.65
 30
0.0
 11
88.9
 21
-24.65
 31
0.0
  0
LINE
  5
1BE
330
17F
100
AcDbEntity
  8
AM_4
100
AcDbLine
 10
88.9
 20
24.65
 30
0.0
 11
72.9
 21
24.65
 31
0.0
  0
LINE
  5
1BF
330
17F
100
AcDbEntity
  8
AM_4
100
AcDbLine
 10
72.9
 20
24.65
 30
0.0
 11
72.9
 21
14.858
 31
0.0
  0
LINE
  5
1C0
330
17F
100
AcDbEntity
  8
AM_4
100
AcDbLine
 10
88.9
 20
24.65
 30
0.0
 11
88.9
 21
-24.65
 31
0.0
  0
LINE
  5
1C1
330
17F
100
AcDbEntity
  8
AM_4
100
AcDbLine
 10
-55.6
 20
-13.87199999999999
 30
0.0
 11
-54.614
 21
-14.858
 31
0.0
  0
LINE
  5
1C2
330
17F
100
AcDbEntity
  8
AM_4
100
AcDbLine
 10
-54.614
 20
-14.858
 30
0.0
 11
-41.29999999999999
 21
-14.858
 31
0.0
  0
LINE
  5
1C3
330
17F
100
AcDbEntity
  8
AM_4
100
AcDbLine
 10
-55.6
 20
13.872
 30
0.0
 11
-55.60000000000001
 21
-13.87199999999999
 31
0.0
  0
LINE
  5
1C4
330
17F
100
AcDbEntity
  8
AM_4
100
AcDbLine
 10
-55.60000000000001
 20
-13.87199999999999
 30
0.0
 11
-41.3
 21
-13.87199999999999
 31
0.0
  0
LINE
  5
1C5
330
17F
100
AcDbEntity
  8
AM_4
100
AcDbLine
 10
-54.614
 20
14.85800000000001
 30
0.0
 11
-55.6
 21
13.872
 31
0.0
  0
LINE
  5
1C6
330
17F
100
AcDbEntity
  8
AM_4
100
AcDbLine
 10
-55.6
 20
13.872
 30
0.0
 11
-41.3
 21
13.872
 31
0.0
  0
LINE
  5
1C7
330
17F
100
AcDbEntity
  8
AM_4
100
AcDbLine
 10
-54.614
 20
14.85800000000001
 30
0.0
 11
-41.29999999999998
 21
14.858
 31
0.0
  0
LINE
  5
1C8
330
17F
100
AcDbEntity
  8
AM_4
100
AcDbLine
 10
88.9
 20
-14.858
 30
0.0
 11
41.3
 21
-14.858
 31
0.0
  0
LINE
  5
1C9
330
17F
100
AcDbEntity
  8
AM_4
100
AcDbLine
 10
88.9
 20
-14.85799999999999
 30
0.0
 11
87.152
 21
-13.11
 31
0.0
  0
LINE
  5
1CA
330
17F
100
AcDbEntity
  8
AM_4
100
AcDbLine
 10
87.152
 20
-13.10999999999999
 30
0.0
 11
41.3
 21
-13.10999999999999
 31
0.0
  0
LINE
  5
1CB
330
17F
100
AcDbEntity
  8
AM_4
100
AcDbLine
 10
87.152
 20
-13.10999999999999
 30
0.0
 11
87.152
 21
13.11
 31
0.0
  0
LINE
  5
1CC
330
17F
100
AcDbEntity
  8
AM_4
100
AcDbLine
 10
88.9
 20
14.858
 30
0.0
 11
41.3
 21
14.858
 31
0.0
  0
LINE
  5
1CD
330
17F
100
AcDbEntity
  8
AM_4
100
AcDbLine
 10
87.152
 20
13.11
 30
0.0
 11
41.3
 21
13.11
 31
0.0
  0
LINE
  5
1CE
330
17F
100
AcDbEntity
  8
AM_4
100
AcDbLine
 10
87.152
 20
13.11
 30
0.0
 11
88.9
 21
14.858
 31
0.0
  0
LINE
  5
1CF
330
17F
100
AcDbEntity
  8
AM_4
100
AcDbLine
 10
41.3
 20
17.47999999999999
 30
0.0
 11
41.3
 21
-17.48
 31
0.0
  0
LINE
  5
1D0
330
17F
100
AcDbEntity
  8
AM_4
100
AcDbLine
 10
-41.3
 20
-8.739999999999998
 30
0.0
 11
41.3
 21
-8.739999999999998
 31
0.0
  0
LINE
  5
1D1
330
17F
100
AcDbEntity
  8
AM_4
100
AcDbLine
 10
41.3
 20
8.73999999999998
 30
0.0
 11
-41.3
 21
8.740000000000006
 31
0.0
  0
LINE
  5
1D2
330
17F
100
AcDbEntity
  8
AM_4
100
AcDbLine
 10
-41.3
 20
17.48000000000001
 30
0.0
 11
-41.3
 21
-17.48
 31
0.0
  0
LINE
  5
1D3
330
17F
100
AcDbEntity
  8
AM_4
100
AcDbLine
 10
-39.552
 20
-15.73199999999997
 30
0.0
 11
-41.30000000000001
 21
-17.47999999999999
 31
0.0
  0
LINE
  5
1D4
330
17F
100
AcDbEntity
  8
AM_4
100
AcDbLine
 10
41.3
 20
-17.48
 30
0.0
 11
-41.3
 21
-17.48
 31
0.0
  0
LINE
  5
1D5
330
17F
100
AcDbEntity
  8
AM_4
100
AcDbLine
 10
41.3
 20
-17.48
 30
0.0
 11
39.55200008638888
 21
-15.73200008638888
 31
0.0
  0
LINE
  5
1D6
330
17F
100
AcDbEntity
  8
AM_4
100
AcDbLine
 10
-39.55199999999998
 20
-15.732
 30
0.0
 11
-39.55199999999999
 21
-8.739999999999998
 31
0.0
  0
LINE
  5
1D7
330
17F
100
AcDbEntity
  8
AM_4
100
AcDbLine
 10
39.55199999999999
 20
-15.73199999999999
 30
0.0
 11
-39.55199999999998
 21
-15.732
 31
0.0
  0
LINE
  5
1D8
330
17F
100
AcDbEntity
  8
AM_4
100
AcDbLine
 10
39.55199999999999
 20
-15.73199999999999
 30
0.0
 11
39.55199999999999
 21
-8.740000000000007
 31
0.0
  0
LINE
  5
1D9
330
17F
100
AcDbEntity
  8
AM_4
100
AcDbLine
 10
39.55199999999999
 20
8.740000000000007
 30
0.0
 11
39.55199999999999
 21
15.73199999999997
 31
0.0
  0
LINE
  5
1DA
330
17F
100
AcDbEntity
  8
AM_4
100
AcDbLine
 10
-39.55199999999999
 20
8.740000000000006
 30
0.0
 11
-39.55199999999998
 21
15.73199999999997
 31
0.0
  0
LINE
  5
1DB
330
17F
100
AcDbEntity
  8
AM_4
100
AcDbLine
 10
41.3
 20
17.47999999999999
 30
0.0
 11
-41.3
 21
17.48000000000001
 31
0.0
  0
LINE
  5
1DC
330
17F
100
AcDbEntity
  8
AM_4
100
AcDbLine
 10
-41.30000000000001
 20
17.47999999999999
 30
0.0
 11
-39.55200011353727
 21
15.73200011353724
 31
0.0
  0
LINE
  5
1DD
330
17F
100
AcDbEntity
  8
AM_4
100
AcDbLine
 10
39.55199999999999
 20
15.73199999999997
 30
0.0
 11
-39.55199999999998
 21
15.73199999999997
 31
0.0
  0
LINE
  5
1DE
330
17F
100
AcDbEntity
  8
AM_4
100
AcDbLine
 10
39.55199999999998
 20
15.73199999999998
 30
0.0
 11
41.3
 21
17.48
 31
0.0
  0
ENDBLK
  5
182
330
17F
100
AcDbEntity
  8
0
100
AcDbBlockEnd
  0
ENDSEC
  0
SECTION
  2
ENTITIES
  0
INSERT
  5
6F
330
1F
100
AcDbEntity
  8
0
100
AcDbBlockReference
  2
1_125991_4
 10
0.0
 20
0.0
 30
0.0
  0
POINT
  5
1E0
330
1F
100
AcDbEntity
  8
ConnectionPoints
100
AcDbPoint
 10
-50.35071697602726
 20
-0.0000000000000018
 30
-29.07
  0
POINT
  5
1E1
330
1F
100
AcDbEntity
  8
ConnectionPoints
100
AcDbPoint
 10
-50.35071697602726
 20
-0.0000000000000018
 30
-29.07
  0
POINT
  5
1E2
330
1F
100
AcDbEntity
  8
ConnectionPoints
100
AcDbPoint
 10
0.0
 20
-30.2
 30
0.0000000000000018
  0
ENDSEC
  0
SECTION
  2
OBJECTS
  0
DICTIONARY
  5
C
330
0
100
AcDbDictionary
281
     1
  3
ACAD_DETAILVIEWSTYLE
350
1EA
  3
ACAD_GROUP
350
D
  3
ACAD_LAYOUT
350
1A
  3
ACAD_MATERIAL
350
43
  3
ACAD_MLEADERSTYLE
350
6B
  3
ACAD_MLINESTYLE
350
17
  3
ACAD_PLOTSETTINGS
350
19
  3
ACAD_PLOTSTYLENAME
350
E
  3
ACAD_SCALELIST
350
47
  3
ACAD_SECTIONVIEWSTYLE
350
1EB
  3
ACAD_TABLESTYLE
350
69
  3
ACAD_VISUALSTYLE
350
2A
  3
ACDB_RECOMPOSE_DATA
350
1E7
  3
AcDbVariableDictionary
350
1E3
  0
SUN
  5
6D
330
29
100
AcDbSun
 90
        1
290
     0
 63
     7
421
 16777215
 40
1.0
291
     1
 91
  2455826
 92
 54000000
292
     0
 70
     2
 71
   256
280
     1
  0
DICTIONARY
  5
1EA
102
{ACAD_REACTORS
330
C
102
}
330
C
100
AcDbDictionary
281
     1
  0
DICTIONARY
  5
D
102
{ACAD_REACTORS
330
C
102
}
330
C
100
AcDbDictionary
281
     1
  0
DICTIONARY
  5
1A
102
{ACAD_REACTORS
330
C
102
}
330
C
100
AcDbDictionary
281
     1
  3
Layout1
350
1E
  3
Layout2
350
26
  3
Model
350
22
  0
DICTIONARY
  5
43
102
{ACAD_REACTORS
330
C
102
}
330
C
100
AcDbDictionary
281
     1
  3
ByBlock
350
45
  3
ByLayer
350
44
  3
Global
350
46
  0
DICTIONARY
  5
6B
102
{ACAD_REACTORS
330
C
102
}
330
C
100
AcDbDictionary
281
     1
  3
Standard
350
6C
  0
DICTIONARY
  5
17
102
{ACAD_REACTORS
330
C
102
}
330
C
100
AcDbDictionary
281
     1
  3
Standard
350
18
  0
DICTIONARY
  5
19
102
{ACAD_REACTORS
330
C
102
}
330
C
100
AcDbDictionary
281
     1
  0
ACDBDICTIONARYWDFLT
  5
E
102
{ACAD_REACTORS
330
C
102
}
330
C
100
AcDbDictionary
281
     1
  3
Normal
350
F
100
AcDbDictionaryWithDefault
340
F
  0
DICTIONARY
  5
47
102
{ACAD_REACTORS
330
C
102
}
330
C
100
AcDbDictionary
281
     1
  3
A0
350
48
  3
A1
350
49
  3
A2
350
4A
  3
A3
350
4B
  3
A4
350
4C
  3
A5
350
4D
  3
A6
350
4E
  3
A7
350
4F
  3
A8
350
50
  3
A9
350
51
  3
B0
350
52
  3
B1
350
53
  3
B2
350
54
  3
B3
350
55
  3
B4
350
56
  3
B5
350
57
  3
B6
350
58
  3
B7
350
59
  3
B8
350
5A
  3
B9
350
5B
  3
C0
350
5C
  3
C1
350
5D
  3
C2
350
5E
  3
C3
350
5F
  3
C4
350
60
  3
C5
350
61
  3
C6
350
62
  3
C7
350
63
  3
C8
350
64
  3
C9
350
65
  3
D0
350
66
  3
D1
350
67
  3
D2
350
68
  0
DICTIONARY
  5
1EB
102
{ACAD_REACTORS
330
C
102
}
330
C
100
AcDbDictionary
281
     1
  0
DICTIONARY
  5
69
102
{ACAD_REACTORS
330
C
102
}
330
C
100
AcDbDictionary
281
     1
  3
Standard
350
6A
  0
DICTIONARY
  5
2A
102
{ACAD_REACTORS
330
C
102
}
330
C
100
AcDbDictionary
281
     1
  3
2dWireframe
350
2F
  3
Basic
350
32
  3
Brighten
350
36
  3
ColorChange
350
3A
  3
Conceptual
350
34
  3
Dim
350
35
  3
EdgeColorOff
350
3D
  3
Facepattern
350
39
  3
Flat
350
2B
  3
FlatWithEdges
350
2C
  3
Gouraud
350
2D
  3
GouraudWithEdges
350
2E
  3
Hidden
350
31
  3
JitterOff
350
3B
  3
Linepattern
350
38
  3
OverhangOff
350
3C
  3
Realistic
350
33
  3
Shaded
350
42
  3
Shaded with edges
350
41
  3
Shades of Gray
350
3E
  3
Sketchy
350
3F
  3
Thicken
350
37
  3
Wireframe
350
30
  3
X-Ray
350
40
  0
XRECORD
  5
1E7
102
{ACAD_REACTORS
330
C
102
}
330
C
100
AcDbXrecord
280
     1
 90
        1
330
6A
  0
DICTIONARY
  5
1E3
102
{ACAD_REACTORS
330
C
102
}
330
C
100
AcDbDictionary
281
     1
  3
CANNOSCALE
350
1E4
  3
CMLEADERSTYLE
350
1E9
  3
CTABLESTYLE
350
1E8
  0
LAYOUT
  5
1E
102
{ACAD_REACTORS
330
1A
102
}
330
1A
100
AcDbPlotSettings
  1

  2
none_device
  4

  6

 40
0.0
 41
0.0
 42
0.0
 43
0.0
 44
0.0
 45
0.0
 46
0.0
 47
0.0
 48
0.0
 49
0.0
140
0.0
141
0.0
142
1.0
143
1.0
 70
   688
 72
     1
 73
     0
 74
     5
  7

 75
    16
 76
     0
 77
     2
 78
   300
147
1.0
148
0.0
149
0.0
100
AcDbLayout
  1
Layout1
 70
     1
 71
     1
 10
0.0
 20
0.0
 11
420.0
 21
297.0
 12
0.0
 22
0.0
 32
0.0
 14
1.000000000000000E+20
 24
1.000000000000000E+20
 34
1.000000000000000E+20
 15
-1.000000000000000E+20
 25
-1.000000000000000E+20
 35
-1.000000000000000E+20
146
0.0
 13
0.0
 23
0.0
 33
0.0
 16
1.0
 26
0.0
 36
0.0
 17
0.0
 27
1.0
 37
0.0
 76
     0
330
1B
  0
LAYOUT
  5
26
102
{ACAD_REACTORS
330
1A
102
}
330
1A
100
AcDbPlotSettings
  1

  2
none_device
  4

  6

 40
0.0
 41
0.0
 42
0.0
 43
0.0
 44
0.0
 45
0.0
 46
0.0
 47
0.0
 48
0.0
 49
0.0
140
0.0
141
0.0
142
1.0
143
1.0
 70
   688
 72
     1
 73
     0
 74
     5
  7

 75
    16
 76
     0
 77
     2
 78
   300
147
1.0
148
0.0
149
0.0
100
AcDbLayout
  1
Layout2
 70
     1
 71
     2
 10
0.0
 20
0.0
 11
0.0
 21
0.0
 12
0.0
 22
0.0
 32
0.0
 14
0.0
 24
0.0
 34
0.0
 15
0.0
 25
0.0
 35
0.0
146
0.0
 13
0.0
 23
0.0
 33
0.0
 16
1.0
 26
0.0
 36
0.0
 17
0.0
 27
1.0
 37
0.0
 76
     0
330
23
  0
LAYOUT
  5
22
102
{ACAD_REACTORS
330
1A
102
}
330
1A
100
AcDbPlotSettings
  1

  2
none_device
  4
Letter_(8.50_x_11.00_Inches)
  6

 40
6.35
 41
6.35
 42
6.35000508
 43
6.35000508
 44
215.9
 45
279.4
 46
0.0
 47
0.0
 48
0.0
 49
0.0
140
0.0
141
0.0
142
1.0
143
1.0
 70
  1712
 72
     1
 73
     0
 74
     0
  7

 75
     0
 76
     0
 77
     2
 78
   300
147
1.0
148
0.0
149
0.0
100
AcDbLayout
  1
Model
 70
     1
 71
     0
 10
0.0
 20
0.0
 11
420.0
 21
297.0
 12
0.0
 22
0.0
 32
0.0
 14
1.000000000000000E+20
 24
1.000000000000000E+20
 34
1.000000000000000E+20
 15
-1.000000000000000E+20
 25
-1.000000000000000E+20
 35
-1.000000000000000E+20
146
0.0
 13
0.0
 23
0.0
 33
0.0
 16
1.0
 26
0.0
 36
0.0
 17
0.0
 27
1.0
 37
0.0
 76
     0
330
1F
331
29
  0
MATERIAL
  5
45
102
{ACAD_REACTORS
330
43
102
}
330
43
100
AcDbMaterial
  1
ByBlock
 72
     1
 94
      127
  0
MATERIAL
  5
44
102
{ACAD_REACTORS
330
43
102
}
330
43
100
AcDbMaterial
  1
ByLayer
 72
     1
 94
      127
  0
MATERIAL
  5
46
102
{ACAD_REACTORS
330
43
102
}
330
43
100
AcDbMaterial
  1
Global
 72
     1
 94
      127
  0
MLEADERSTYLE
  5
6C
102
{ACAD_REACTORS
330
6B
102
}
330
6B
100
AcDbMLeaderStyle
179
     2
170
     2
171
     1
172
     0
 90
        2
 40
0.0
 41
0.0
173
     1
 91
-1056964608
340
14
 92
       -2
290
     1
 42
2.0
291
     1
 43
8.0
  3
Standard
341
0
 44
4.0
300

342
11
174
     1
178
     6
175
     1
176
     0
 93
-1056964608
 45
4.0
292
     0
297
     0
 46
4.0
343
0
 94
-1056964608
 47
1.0
 49
1.0
140
1.0
293
     1
141
0.0
294
     1
177
     0
142
1.0
295
     0
296
     0
143
3.75
271
     0
272
     9
273
     9
298
     0
  0
MLINESTYLE
  5
18
102
{ACAD_REACTORS
330
17
102
}
330
17
100
AcDbMlineStyle
  2
Standard
 70
     0
  3

 62
   256
 51
90.0
 52
90.0
 71
     2
 49
0.5
 62
   256
  6
BYLAYER
 49
-0.5
 62
   256
  6
BYLAYER
  0
ACDBPLACEHOLDER
  5
F
102
{ACAD_REACTORS
330
E
102
}
330
E
  0
SCALE
  5
48
102
{ACAD_REACTORS
330
47
102
}
330
47
100
AcDbScale
 70
     0
300
1:1
140
1.0
141
1.0
290
     1
  0
SCALE
  5
49
102
{ACAD_REACTORS
330
47
102
}
330
47
100
AcDbScale
 70
     0
300
1:2
140
1.0
141
2.0
290
     0
  0
SCALE
  5
4A
102
{ACAD_REACTORS
330
47
102
}
330
47
100
AcDbScale
 70
     0
300
1:4
140
1.0
141
4.0
290
     0
  0
SCALE
  5
4B
102
{ACAD_REACTORS
330
47
102
}
330
47
100
AcDbScale
 70
     0
300
1:5
140
1.0
141
5.0
290
     0
  0
SCALE
  5
4C
102
{ACAD_REACTORS
330
47
102
}
330
47
100
AcDbScale
 70
     0
300
1:8
140
1.0
141
8.0
290
     0
  0
SCALE
  5
4D
102
{ACAD_REACTORS
330
47
102
}
330
47
100
AcDbScale
 70
     0
300
1:10
140
1.0
141
10.0
290
     0
  0
SCALE
  5
4E
102
{ACAD_REACTORS
330
47
102
}
330
47
100
AcDbScale
 70
     0
300
1:16
140
1.0
141
16.0
290
     0
  0
SCALE
  5
4F
102
{ACAD_REACTORS
330
47
102
}
330
47
100
AcDbScale
 70
     0
300
1:20
140
1.0
141
20.0
290
     0
  0
SCALE
  5
50
102
{ACAD_REACTORS
330
47
102
}
330
47
100
AcDbScale
 70
     0
300
1:30
140
1.0
141
30.0
290
     0
  0
SCALE
  5
51
102
{ACAD_REACTORS
330
47
102
}
330
47
100
AcDbScale
 70
     0
300
1:40
140
1.0
141
40.0
290
     0
  0
SCALE
  5
52
102
{ACAD_REACTORS
330
47
102
}
330
47
100
AcDbScale
 70
     0
300
1:50
140
1.0
141
50.0
290
     0
  0
SCALE
  5
53
102
{ACAD_REACTORS
330
47
102
}
330
47
100
AcDbScale
 70
     0
300
1:100
140
1.0
141
100.0
290
     0
  0
SCALE
  5
54
102
{ACAD_REACTORS
330
47
102
}
330
47
100
AcDbScale
 70
     0
300
2:1
140
2.0
141
1.0
290
     0
  0
SCALE
  5
55
102
{ACAD_REACTORS
330
47
102
}
330
47
100
AcDbScale
 70
     0
300
4:1
140
4.0
141
1.0
290
     0
  0
SCALE
  5
56
102
{ACAD_REACTORS
330
47
102
}
330
47
100
AcDbScale
 70
     0
300
8:1
140
8.0
141
1.0
290
     0
  0
SCALE
  5
57
102
{ACAD_REACTORS
330
47
102
}
330
47
100
AcDbScale
 70
     0
300
10:1
140
10.0
141
1.0
290
     0
  0
SCALE
  5
58
102
{ACAD_REACTORS
330
47
102
}
330
47
100
AcDbScale
 70
     0
300
100:1
140
100.0
141
1.0
290
     0
  0
SCALE
  5
59
102
{ACAD_REACTORS
330
47
102
}
330
47
100
AcDbScale
 70
     0
300
1/128" = 1'-0"
140
0.0078125
141
12.0
290
     0
  0
SCALE
  5
5A
102
{ACAD_REACTORS
330
47
102
}
330
47
100
AcDbScale
 70
     0
300
1/64" = 1'-0"
140
0.015625
141
12.0
290
     0
  0
SCALE
  5
5B
102
{ACAD_REACTORS
330
47
102
}
330
47
100
AcDbScale
 70
     0
300
1/32" = 1'-0"
140
0.03125
141
12.0
290
     0
  0
SCALE
  5
5C
102
{ACAD_REACTORS
330
47
102
}
330
47
100
AcDbScale
 70
     0
300
1/16" = 1'-0"
140
0.0625
141
12.0
290
     0
  0
SCALE
  5
5D
102
{ACAD_REACTORS
330
47
102
}
330
47
100
AcDbScale
 70
     0
300
3/32" = 1'-0"
140
0.09375
141
12.0
290
     0
  0
SCALE
  5
5E
102
{ACAD_REACTORS
330
47
102
}
330
47
100
AcDbScale
 70
     0
300
1/8" = 1'-0"
140
0.125
141
12.0
290
     0
  0
SCALE
  5
5F
102
{ACAD_REACTORS
330
47
102
}
330
47
100
AcDbScale
 70
     0
300
3/16" = 1'-0"
140
0.1875
141
12.0
290
     0
  0
SCALE
  5
60
102
{ACAD_REACTORS
330
47
102
}
330
47
100
AcDbScale
 70
     0
300
1/4" = 1'-0"
140
0.25
141
12.0
290
     0
  0
SCALE
  5
61
102
{ACAD_REACTORS
330
47
102
}
330
47
100
AcDbScale
 70
     0
300
3/8" = 1'-0"
140
0.375
141
12.0
290
     0
  0
SCALE
  5
62
102
{ACAD_REACTORS
330
47
102
}
330
47
100
AcDbScale
 70
     0
300
1/2" = 1'-0"
140
0.5
141
12.0
290
     0
  0
SCALE
  5
63
102
{ACAD_REACTORS
330
47
102
}
330
47
100
AcDbScale
 70
     0
300
3/4" = 1'-0"
140
0.75
141
12.0
290
     0
  0
SCALE
  5
64
102
{ACAD_REACTORS
330
47
102
}
330
47
100
AcDbScale
 70
     0
300
1" = 1'-0"
140
1.0
141
12.0
290
     0
  0
SCALE
  5
65
102
{ACAD_REACTORS
330
47
102
}
330
47
100
AcDbScale
 70
     0
300
1-1/2" = 1'-0"
140
1.5
141
12.0
290
     0
  0
SCALE
  5
66
102
{ACAD_REACTORS
330
47
102
}
330
47
100
AcDbScale
 70
     0
300
3" = 1'-0"
140
3.0
141
12.0
290
     0
  0
SCALE
  5
67
102
{ACAD_REACTORS
330
47
102
}
330
47
100
AcDbScale
 70
     0
300
6" = 1'-0"
140
6.0
141
12.0
290
     0
  0
SCALE
  5
68
102
{ACAD_REACTORS
330
47
102
}
330
47
100
AcDbScale
 70
     0
300
1'-0" = 1'-0"
140
12.0
141
12.0
290
     0
  0
TABLESTYLE
  5
6A
102
{ACAD_REACTORS
330
69
102
}
102
{ACAD_XDICTIONARY
360
1E5
102
}
330
69
100
AcDbTableStyle
  3
Standard
 70
     0
 71
     0
 40
0.06
 41
0.06
280
     0
281
     0
  7
Standard
140
4.5
170
     2
 62
     0
 63
   257
283
     0
 90
        4
 91
        0
  1

274
    -2
284
     1
 64
     0
275
    -2
285
     1
 65
     0
276
    -2
286
     1
 66
     0
277
    -2
287
     1
 67
     0
278
    -2
288
     1
 68
     0
279
    -2
289
     1
 69
     0
  7
Standard
140
6.0
170
     5
 62
     0
 63
   257
283
     0
 90
        4
 91
        0
  1

274
    -2
284
     1
 64
     0
275
    -2
285
     1
 65
     0
276
    -2
286
     1
 66
     0
277
    -2
287
     1
 67
     0
278
    -2
288
     1
 68
     0
279
    -2
289
     1
 69
     0
  7
Standard
140
4.5
170
     5
 62
     0
 63
   257
283
     0
 90
        4
 91
        0
  1

274
    -2
284
     1
 64
     0
275
    -2
285
     1
 65
     0
276
    -2
286
     1
 66
     0
277
    -2
287
     1
 67
     0
278
    -2
288
     1
 68
     0
279
    -2
289
     1
 69
     0
  0
VISUALSTYLE
  5
2F
102
{ACAD_REACTORS
330
2A
102
}
330
2A
100
AcDbVisualStyle
  2
2dWireframe
 70
     4
177
     3
291
     0
 70
    58
 90
        0
176
     1
 90
        2
176
     1
 90
        0
176
     1
 90
        0
176
     1
 40
0.6
176
     1
 40
30.0
176
     1
 62
     7
420
 16777215
176
     1
 90
        1
176
     1
 90
        4
176
     1
 62
     7
176
     1
 62
   257
176
     1
 90
        1
176
     1
 90
        1
176
     1
 40
1.0
176
     1
 90
        0
176
     1
 62
   257
176
     1
 40
1.0
176
     1
 90
        1
176
     1
 90
        6
176
     1
 90
        2
176
     1
 62
     7
176
     1
 90
        5
176
     1
 90
        0
176
     1
 90
        0
176
     1
290
     0
176
     1
 90
        1
176
     1
 40
0.0
176
     1
 90
        0
176
     1
290
     1
176
     1
290
     1
176
     1
290
     0
176
     1
290
     0
176
     1
290
     0
176
     1
290
     0
176
     1
290
     0
176
     1
290
     0
176
     1
290
     0
176
     1
 90
       50
176
     1
 40
0.0
176
     1
 40
1.0
176
     1
 90
        0
176
     1
 62
    18
420
        0
176
     1
 90
       50
176
     1
 90
        3
176
     1
 62
     5
420
      255
176
     1
290
     0
176
     1
 90
       50
176
     1
 90
       50
176
     1
 90
       50
176
     1
290
     0
176
     1
 90
       50
176
     1
 62
   256
176
     0
 40
1.0
176
     0
 90
        2
176
     1
  1
strokes_ogs.tif
176
     1
290
     0
176
     1
 40
1.0
176
     1
 40
1.0
176
     1
  0
VISUALSTYLE
  5
32
102
{ACAD_REACTORS
330
2A
102
}
330
2A
100
AcDbVisualStyle
  2
Basic
 70
     7
177
     3
291
     1
 70
    58
 90
        1
176
     1
 90
        0
176
     1
 90
        1
176
     1
 90
        0
176
     1
 40
0.6
176
     1
 40
30.0
176
     1
 62
     7
420
 16777215
176
     1
 90
        0
176
     1
 90
        4
176
     1
 62
     7
176
     1
 62
   257
176
     1
 90
        1
176
     1
 90
        1
176
     1
 40
1.0
176
     1
 90
        8
176
     1
 62
     7
176
     1
 40
1.0
176
     1
 90
        1
176
     1
 90
        6
176
     1
 90
        2
176
     1
 62
     7
176
     1
 90
        5
176
     1
 90
        0
176
     1
 90
        0
176
     1
290
     0
176
     1
 90
        1
176
     1
 40
0.0
176
     1
 90
        0
176
     1
290
     0
176
     1
290
     1
176
     1
290
     1
176
     1
290
     0
176
     1
290
     0
176
     1
290
     0
176
     1
290
     0
176
     1
290
     0
176
     1
290
     0
176
     1
 90
       50
176
     1
 40
0.0
176
     1
 40
1.0
176
     1
 90
        0
176
     1
 62
    18
420
        0
176
     1
 90
       50
176
     1
 90
        3
176
     1
 62
     5
420
      255
176
     1
290
     0
176
     1
 90
       50
176
     1
 90
       50
176
     1
 90
       50
176
     1
290
     0
176
     1
 90
       50
176
     1
 62
   256
176
     0
 40
1.0
176
     0
 90
        2
176
     1
  1
strokes_ogs.tif
176
     1
290
     0
176
     1
 40
1.0
176
     1
 40
1.0
176
     1
  0
VISUALSTYLE
  5
36
102
{ACAD_REACTORS
330
2A
102
}
330
2A
100
AcDbVisualStyle
  2
Brighten
 70
    12
177
     3
291
     1
 70
    58
 90
        2
176
     1
 90
        2
176
     1
 90
        0
176
     1
 90
        0
176
     1
 40
0.6
176
     1
 40
30.0
176
     1
 62
     7
420
 16777215
176
     1
 90
        1
176
     1
 90
        4
176
     1
 62
     7
176
     1
 62
   257
176
     1
 90
        1
176
     1
 90
        1
176
     1
 40
1.0
176
     1
 90
        8
176
     1
 62
     7
176
     1
 40
1.0
176
     1
 90
        1
176
     1
 90
        6
176
     1
 90
        2
176
     1
 62
     7
176
     1
 90
        5
176
     1
 90
        0
176
     1
 90
        0
176
     1
290
     0
176
     1
 90
        1
176
     1
 40
50.0
176
     1
 90
        0
176
     1
290
     0
176
     1
290
     1
176
     1
290
     1
176
     1
290
     0
176
     1
290
     0
176
     1
290
     0
176
     1
290
     0
176
     1
290
     0
176
     1
290
     0
176
     1
 90
       50
176
     1
 40
0.0
176
     1
 40
1.0
176
     1
 90
        0
176
     1
 62
    18
420
        0
176
     1
 90
       50
176
     1
 90
        3
176
     1
 62
     5
420
      255
176
     1
290
     0
176
     1
 90
       50
176
     1
 90
       50
176
     1
 90
       50
176
     1
290
     0
176
     1
 90
       50
176
     1
 62
   256
176
     0
 40
1.0
176
     0
 90
        2
176
     1
  1
strokes_ogs.tif
176
     1
290
     0
176
     1
 40
1.0
176
     1
 40
1.0
176
     1
  0
VISUALSTYLE
  5
3A
102
{ACAD_REACTORS
330
2A
102
}
330
2A
100
AcDbVisualStyle
  2
ColorChange
 70
    16
177
     3
291
     1
 70
    58
 90
        2
176
     1
 90
        2
176
     1
 90
        3
176
     1
 90
        0
176
     1
 40
0.6
176
     1
 40
30.0
176
     1
 62
     8
420
  8421504
176
     1
 90
        1
176
     1
 90
        4
176
     1
 62
     7
176
     1
 62
   257
176
     1
 90
        1
176
     1
 90
        1
176
     1
 40
1.0
176
     1
 90
        8
176
     1
 62
     8
420
  8421504
176
     1
 40
1.0
176
     1
 90
        1
176
     1
 90
        6
176
     1
 90
        2
176
     1
 62
     7
176
     1
 90
        5
176
     1
 90
        0
176
     1
 90
        0
176
     1
290
     0
176
     1
 90
        1
176
     1
 40
0.0
176
     1
 90
        0
176
     1
290
     0
176
     1
290
     1
176
     1
290
     1
176
     1
290
     0
176
     1
290
     0
176
     1
290
     0
176
     1
290
     0
176
     1
290
     0
176
     1
290
     0
176
     1
 90
       50
176
     1
 40
0.0
176
     1
 40
1.0
176
     1
 90
        0
176
     1
 62
    18
420
        0
176
     1
 90
       50
176
     1
 90
        3
176
     1
 62
     5
420
      255
176
     1
290
     0
176
     1
 90
       50
176
     1
 90
       50
176
     1
 90
       50
176
     1
290
     0
176
     1
 90
       50
176
     1
 62
   256
176
     0
 40
1.0
176
     0
 90
        2
176
     1
  1
strokes_ogs.tif
176
     1
290
     0
176
     1
 40
1.0
176
     1
 40
1.0
176
     1
  0
VISUALSTYLE
  5
34
102
{ACAD_REACTORS
330
2A
102
}
330
2A
100
AcDbVisualStyle
  2
Conceptual
 70
     9
177
     3
291
     0
 70
    58
 90
        3
176
     1
 90
        2
176
     1
 90
        0
176
     1
 90
        0
176
     1
 40
0.6
176
     1
 40
30.0
176
     1
 62
     7
420
 16777215
176
     1
 90
        2
176
     1
 90
        2
176
     1
 62
     7
176
     1
 62
   257
176
     1
 90
        1
176
     1
 90
        1
176
     1
 40
179.0
176
     1
 90
        8
176
     1
 62
     7
176
     1
 40
1.0
176
     1
 90
        1
176
     1
 90
        6
176
     1
 90
        2
176
     1
 62
     7
176
     1
 90
        3
176
     1
 90
        0
176
     1
 90
        0
176
     1
290
     0
176
     1
 90
        1
176
     1
 40
0.0
176
     1
 90
        0
176
     1
290
     0
176
     1
290
     1
176
     1
290
     1
176
     1
290
     0
176
     1
290
     0
176
     1
290
     0
176
     1
290
     0
176
     1
290
     0
176
     1
290
     0
176
     1
 90
       50
176
     1
 40
0.0
176
     1
 40
1.0
176
     1
 90
        0
176
     1
 62
    18
420
        0
176
     1
 90
       50
176
     1
 90
        3
176
     1
 62
     5
420
      255
176
     1
290
     0
176
     1
 90
       50
176
     1
 90
       50
176
     1
 90
       50
176
     1
290
     0
176
     1
 90
       50
176
     1
 62
   256
176
     0
 40
1.0
176
     0
 90
        2
176
     1
  1
strokes_ogs.tif
176
     1
290
     0
176
     1
 40
1.0
176
     1
 40
1.0
176
     1
  0
VISUALSTYLE
  5
35
102
{ACAD_REACTORS
330
2A
102
}
330
2A
100
AcDbVisualStyle
  2
Dim
 70
    11
177
     3
291
     1
 70
    58
 90
        2
176
     1
 90
        2
176
     1
 90
        0
176
     1
 90
        0
176
     1
 40
0.6
176
     1
 40
30.0
176
     1
 62
     7
420
 16777215
176
     1
 90
        1
176
     1
 90
        4
176
     1
 62
     7
176
     1
 62
   257
176
     1
 90
        1
176
     1
 90
        1
176
     1
 40
1.0
176
     1
 90
        8
176
     1
 62
     7
176
     1
 40
1.0
176
     1
 90
        1
176
     1
 90
        6
176
     1
 90
        2
176
     1
 62
     7
176
     1
 90
        5
176
     1
 90
        0
176
     1
 90
        0
176
     1
290
     0
176
     1
 90
        1
176
     1
 40
-50.0
176
     1
 90
        0
176
     1
290
     0
176
     1
290
     1
176
     1
290
     1
176
     1
290
     0
176
     1
290
     0
176
     1
290
     0
176
     1
290
     0
176
     1
290
     0
176
     1
290
     0
176
     1
 90
       50
176
     1
 40
0.0
176
     1
 40
1.0
176
     1
 90
        0
176
     1
 62
    18
420
        0
176
     1
 90
       50
176
     1
 90
        3
176
     1
 62
     5
420
      255
176
     1
290
     0
176
     1
 90
       50
176
     1
 90
       50
176
     1
 90
       50
176
     1
290
     0
176
     1
 90
       50
176
     1
 62
   256
176
     0
 40
1.0
176
     0
 90
        2
176
     1
  1
strokes_ogs.tif
176
     1
290
     0
176
     1
 40
1.0
176
     1
 40
1.0
176
     1
  0
VISUALSTYLE
  5
3D
102
{ACAD_REACTORS
330
2A
102
}
330
2A
100
AcDbVisualStyle
  2
EdgeColorOff
 70
    22
177
     3
291
     1
 70
    58
 90
        2
176
     0
 90
        2
176
     0
 90
        0
176
     0
 90
        0
176
     0
 40
0.6
176
     0
 40
30.0
176
     0
 62
     7
420
 16777215
176
     0
 90
        1
176
     0
 90
        4
176
     0
 62
     7
176
     0
 62
   257
176
     0
 90
        1
176
     0
 90
        1
176
     0
 40
1.0
176
     0
 90
        8
176
     2
 62
     7
176
     0
 40
1.0
176
     0
 90
        1
176
     0
 90
        6
176
     0
 90
        2
176
     0
 62
     7
176
     0
 90
        5
176
     0
 90
        0
176
     0
 90
        0
176
     0
290
     0
176
     0
 90
        1
176
     0
 40
0.0
176
     0
 90
        0
176
     0
290
     0
176
     0
290
     1
176
     0
290
     1
176
     0
290
     0
176
     0
290
     0
176
     0
290
     0
176
     0
290
     0
176
     0
290
     0
176
     0
290
     0
176
     0
 90
       50
176
     0
 40
0.0
176
     0
 40
1.0
176
     0
 90
        0
176
     0
 62
    18
420
        0
176
     0
 90
       50
176
     0
 90
        3
176
     0
 62
     5
420
      255
176
     0
290
     0
176
     0
 90
       50
176
     0
 90
       50
176
     0
 90
       50
176
     0
290
     0
176
     0
 90
       50
176
     0
 62
   256
176
     0
 40
1.0
176
     0
 90
        2
176
     0
  1
strokes_ogs.tif
176
     0
290
     0
176
     0
 40
1.0
176
     0
 40
1.0
176
     0
  0
VISUALSTYLE
  5
39
102
{ACAD_REACTORS
330
2A
102
}
330
2A
100
AcDbVisualStyle
  2
Facepattern
 70
    15
177
     3
291
     1
 70
    58
 90
        2
176
     1
 90
        2
176
     1
 90
        0
176
     1
 90
        0
176
     1
 40
0.6
176
     1
 40
30.0
176
     1
 62
     7
420
 16777215
176
     1
 90
        1
176
     1
 90
        4
176
     1
 62
     7
176
     1
 62
   257
176
     1
 90
        1
176
     1
 90
        1
176
     1
 40
1.0
176
     1
 90
        8
176
     1
 62
     7
176
     1
 40
1.0
176
     1
 90
        1
176
     1
 90
        6
176
     1
 90
        2
176
     1
 62
     7
176
     1
 90
        5
176
     1
 90
        0
176
     1
 90
        0
176
     1
290
     0
176
     1
 90
        1
176
     1
 40
0.0
176
     1
 90
        0
176
     1
290
     0
176
     1
290
     1
176
     1
290
     1
176
     1
290
     0
176
     1
290
     0
176
     1
290
     0
176
     1
290
     0
176
     1
290
     0
176
     1
290
     0
176
     1
 90
       50
176
     1
 40
0.0
176
     1
 40
1.0
176
     1
 90
        0
176
     1
 62
    18
420
        0
176
     1
 90
       50
176
     1
 90
        3
176
     1
 62
     5
420
      255
176
     1
290
     0
176
     1
 90
       50
176
     1
 90
       50
176
     1
 90
       50
176
     1
290
     0
176
     1
 90
       50
176
     1
 62
   256
176
     0
 40
1.0
176
     0
 90
        2
176
     1
  1
strokes_ogs.tif
176
     1
290
     0
176
     1
 40
1.0
176
     1
 40
1.0
176
     1
  0
VISUALSTYLE
  5
2B
102
{ACAD_REACTORS
330
2A
102
}
330
2A
100
AcDbVisualStyle
  2
Flat
 70
     0
177
     3
291
     1
 70
    58
 90
        2
176
     1
 90
        1
176
     1
 90
        1
176
     1
 90
        2
176
     1
 40
0.6
176
     1
 40
30.0
176
     1
 62
     7
420
 16777215
176
     1
 90
        0
176
     1
 90
        0
176
     1
 62
     7
176
     1
 62
   257
176
     1
 90
        1
176
     1
 90
        1
176
     1
 40
1.0
176
     1
 90
        8
176
     1
 62
     7
176
     1
 40
1.0
176
     1
 90
        1
176
     1
 90
        6
176
     1
 90
        2
176
     1
 62
     7
176
     1
 90
        5
176
     1
 90
        0
176
     1
 90
        0
176
     1
290
     0
176
     1
 90
       13
176
     1
 40
0.0
176
     1
 90
        0
176
     1
290
     0
176
     1
290
     1
176
     1
290
     1
176
     1
290
     0
176
     1
290
     0
176
     1
290
     0
176
     1
290
     0
176
     1
290
     0
176
     1
290
     0
176
     1
 90
       50
176
     1
 40
0.0
176
     1
 40
1.0
176
     1
 90
        0
176
     1
 62
    18
420
        0
176
     1
 90
       50
176
     1
 90
        3
176
     1
 62
     5
420
      255
176
     1
290
     0
176
     1
 90
       50
176
     1
 90
       50
176
     1
 90
       50
176
     1
290
     0
176
     1
 90
       50
176
     1
 62
   256
176
     0
 40
1.0
176
     0
 90
        2
176
     1
  1
strokes_ogs.tif
176
     1
290
     0
176
     1
 40
1.0
176
     1
 40
1.0
176
     1
  0
VISUALSTYLE
  5
2C
102
{ACAD_REACTORS
330
2A
102
}
330
2A
100
AcDbVisualStyle
  2
FlatWithEdges
 70
     1
177
     3
291
     1
 70
    58
 90
        2
176
     1
 90
        1
176
     1
 90
        1
176
     1
 90
        2
176
     1
 40
0.6
176
     1
 40
30.0
176
     1
 62
     7
420
 16777215
176
     1
 90
        1
176
     1
 90
        0
176
     1
 62
     7
176
     1
 62
   257
176
     1
 90
        1
176
     1
 90
        1
176
     1
 40
1.0
176
     1
 90
        0
176
     1
 62
   257
176
     1
 40
1.0
176
     1
 90
        1
176
     1
 90
        6
176
     1
 90
        2
176
     1
 62
     7
176
     1
 90
        5
176
     1
 90
        0
176
     1
 90
        0
176
     1
290
     0
176
     1
 90
       13
176
     1
 40
0.0
176
     1
 90
        0
176
     1
290
     0
176
     1
290
     1
176
     1
290
     1
176
     1
290
     0
176
     1
290
     0
176
     1
290
     0
176
     1
290
     0
176
     1
290
     0
176
     1
290
     0
176
     1
 90
       50
176
     1
 40
0.0
176
     1
 40
1.0
176
     1
 90
        0
176
     1
 62
    18
420
        0
176
     1
 90
       50
176
     1
 90
        3
176
     1
 62
     5
420
      255
176
     1
290
     0
176
     1
 90
       50
176
     1
 90
       50
176
     1
 90
       50
176
     1
290
     0
176
     1
 90
       50
176
     1
 62
   256
176
     0
 40
1.0
176
     0
 90
        2
176
     1
  1
strokes_ogs.tif
176
     1
290
     0
176
     1
 40
1.0
176
     1
 40
1.0
176
     1
  0
VISUALSTYLE
  5
2D
102
{ACAD_REACTORS
330
2A
102
}
330
2A
100
AcDbVisualStyle
  2
Gouraud
 70
     2
177
     3
291
     1
 70
    58
 90
        2
176
     1
 90
        2
176
     1
 90
        1
176
     1
 90
        2
176
     1
 40
0.6
176
     1
 40
30.0
176
     1
 62
     7
420
 16777215
176
     1
 90
        0
176
     1
 90
        0
176
     1
 62
     7
176
     1
 62
   257
176
     1
 90
        1
176
     1
 90
        1
176
     1
 40
1.0
176
     1
 90
        0
176
     1
 62
     7
176
     1
 40
1.0
176
     1
 90
        1
176
     1
 90
        6
176
     1
 90
        2
176
     1
 62
     7
176
     1
 90
        5
176
     1
 90
        0
176
     1
 90
        0
176
     1
290
     0
176
     1
 90
       13
176
     1
 40
0.0
176
     1
 90
        0
176
     1
290
     0
176
     1
290
     1
176
     1
290
     1
176
     1
290
     0
176
     1
290
     0
176
     1
290
     0
176
     1
290
     0
176
     1
290
     0
176
     1
290
     0
176
     1
 90
       50
176
     1
 40
0.0
176
     1
 40
1.0
176
     1
 90
        0
176
     1
 62
    18
420
        0
176
     1
 90
       50
176
     1
 90
        3
176
     1
 62
     5
420
      255
176
     1
290
     0
176
     1
 90
       50
176
     1
 90
       50
176
     1
 90
       50
176
     1
290
     0
176
     1
 90
       50
176
     1
 62
   256
176
     0
 40
1.0
176
     0
 90
        2
176
     1
  1
strokes_ogs.tif
176
     1
290
     0
176
     1
 40
1.0
176
     1
 40
1.0
176
     1
  0
VISUALSTYLE
  5
2E
102
{ACAD_REACTORS
330
2A
102
}
330
2A
100
AcDbVisualStyle
  2
GouraudWithEdges
 70
     3
177
     3
291
     1
 70
    58
 90
        2
176
     1
 90
        2
176
     1
 90
        1
176
     1
 90
        2
176
     1
 40
0.6
176
     1
 40
30.0
176
     1
 62
     7
420
 16777215
176
     1
 90
        1
176
     1
 90
        0
176
     1
 62
     7
176
     1
 62
   257
176
     1
 90
        1
176
     1
 90
        1
176
     1
 40
1.0
176
     1
 90
        0
176
     1
 62
   257
176
     1
 40
1.0
176
     1
 90
        1
176
     1
 90
        6
176
     1
 90
        2
176
     1
 62
     7
176
     1
 90
        5
176
     1
 90
        0
176
     1
 90
        0
176
     1
290
     0
176
     1
 90
       13
176
     1
 40
0.0
176
     1
 90
        0
176
     1
290
     0
176
     1
290
     1
176
     1
290
     1
176
     1
290
     0
176
     1
290
     0
176
     1
290
     0
176
     1
290
     0
176
     1
290
     0
176
     1
290
     0
176
     1
 90
       50
176
     1
 40
0.0
176
     1
 40
1.0
176
     1
 90
        0
176
     1
 62
    18
420
        0
176
     1
 90
       50
176
     1
 90
        3
176
     1
 62
     5
420
      255
176
     1
290
     0
176
     1
 90
       50
176
     1
 90
       50
176
     1
 90
       50
176
     1
290
     0
176
     1
 90
       50
176
     1
 62
   256
176
     0
 40
1.0
176
     0
 90
        2
176
     1
  1
strokes_ogs.tif
176
     1
290
     0
176
     1
 40
1.0
176
     1
 40
1.0
176
     1
  0
VISUALSTYLE
  5
31
102
{ACAD_REACTORS
330
2A
102
}
330
2A
100
AcDbVisualStyle
  2
Hidden
 70
     6
177
     3
291
     0
 70
    58
 90
        1
176
     1
 90
        2
176
     1
 90
        2
176
     1
 90
        0
176
     1
 40
0.6
176
     1
 40
30.0
176
     1
 62
     7
420
 16777215
176
     1
 90
        2
176
     1
 90
        2
176
     1
 62
     7
176
     1
 62
   257
176
     1
 90
        2
176
     1
 90
        1
176
     1
 40
40.0
176
     1
 90
        0
176
     1
 62
   257
176
     1
 40
1.0
176
     1
 90
        1
176
     1
 90
        6
176
     1
 90
        2
176
     1
 62
     7
176
     1
 90
        3
176
     1
 90
        0
176
     1
 90
        0
176
     1
290
     0
176
     1
 90
        1
176
     1
 40
0.0
176
     1
 90
        0
176
     1
290
     0
176
     1
290
     1
176
     1
290
     1
176
     1
290
     0
176
     1
290
     0
176
     1
290
     0
176
     1
290
     0
176
     1
290
     0
176
     1
290
     0
176
     1
 90
       50
176
     1
 40
0.0
176
     1
 40
1.0
176
     1
 90
        0
176
     1
 62
    18
420
        0
176
     1
 90
       50
176
     1
 90
        3
176
     1
 62
     5
420
      255
176
     1
290
     0
176
     1
 90
       50
176
     1
 90
       50
176
     1
 90
       50
176
     1
290
     0
176
     1
 90
       50
176
     1
 62
   256
176
     0
 40
1.0
176
     0
 90
        2
176
     1
  1
strokes_ogs.tif
176
     1
290
     0
176
     1
 40
1.0
176
     1
 40
1.0
176
     1
  0
VISUALSTYLE
  5
3B
102
{ACAD_REACTORS
330
2A
102
}
330
2A
100
AcDbVisualStyle
  2
JitterOff
 70
    20
177
     3
291
     1
 70
    58
 90
        2
176
     0
 90
        2
176
     0
 90
        0
176
     0
 90
        0
176
     0
 40
0.6
176
     0
 40
30.0
176
     0
 62
     7
420
 16777215
176
     0
 90
        1
176
     0
 90
        4
176
     0
 62
     7
176
     0
 62
   257
176
     0
 90
        1
176
     0
 90
        1
176
     0
 40
1.0
176
     0
 90
       10
176
     2
 62
     7
176
     0
 40
1.0
176
     0
 90
        1
176
     0
 90
        6
176
     0
 90
        2
176
     0
 62
     7
176
     0
 90
        5
176
     0
 90
        0
176
     0
 90
        0
176
     0
290
     0
176
     0
 90
        1
176
     0
 40
0.0
176
     0
 90
        0
176
     0
290
     0
176
     0
290
     1
176
     0
290
     1
176
     0
290
     0
176
     0
290
     0
176
     0
290
     0
176
     0
290
     0
176
     0
290
     0
176
     0
290
     0
176
     0
 90
       50
176
     0
 40
0.0
176
     0
 40
1.0
176
     0
 90
        0
176
     0
 62
    18
420
        0
176
     0
 90
       50
176
     0
 90
        3
176
     0
 62
     5
420
      255
176
     0
290
     0
176
     0
 90
       50
176
     0
 90
       50
176
     0
 90
       50
176
     0
290
     0
176
     0
 90
       50
176
     0
 62
   256
176
     0
 40
1.0
176
     0
 90
        2
176
     0
  1
strokes_ogs.tif
176
     0
290
     0
176
     0
 40
1.0
176
     0
 40
1.0
176
     0
  0
VISUALSTYLE
  5
38
102
{ACAD_REACTORS
330
2A
102
}
330
2A
100
AcDbVisualStyle
  2
Linepattern
 70
    14
177
     3
291
     1
 70
    58
 90
        2
176
     1
 90
        2
176
     1
 90
        0
176
     1
 90
        0
176
     1
 40
0.6
176
     1
 40
30.0
176
     1
 62
     7
420
 16777215
176
     1
 90
        1
176
     1
 90
        4
176
     1
 62
     7
176
     1
 62
   257
176
     1
 90
        7
176
     1
 90
        7
176
     1
 40
1.0
176
     1
 90
        8
176
     1
 62
     7
176
     1
 40
1.0
176
     1
 90
        1
176
     1
 90
        6
176
     1
 90
        2
176
     1
 62
     7
176
     1
 90
        5
176
     1
 90
        0
176
     1
 90
        0
176
     1
290
     0
176
     1
 90
        1
176
     1
 40
0.0
176
     1
 90
        0
176
     1
290
     0
176
     1
290
     1
176
     1
290
     1
176
     1
290
     0
176
     1
290
     0
176
     1
290
     0
176
     1
290
     0
176
     1
290
     0
176
     1
290
     0
176
     1
 90
       50
176
     1
 40
0.0
176
     1
 40
1.0
176
     1
 90
        0
176
     1
 62
    18
420
        0
176
     1
 90
       50
176
     1
 90
        3
176
     1
 62
     5
420
      255
176
     1
290
     0
176
     1
 90
       50
176
     1
 90
       50
176
     1
 90
       50
176
     1
290
     0
176
     1
 90
       50
176
     1
 62
   256
176
     0
 40
1.0
176
     0
 90
        2
176
     1
  1
strokes_ogs.tif
176
     1
290
     0
176
     1
 40
1.0
176
     1
 40
1.0
176
     1
  0
VISUALSTYLE
  5
3C
102
{ACAD_REACTORS
330
2A
102
}
330
2A
100
AcDbVisualStyle
  2
OverhangOff
 70
    21
177
     3
291
     1
 70
    58
 90
        2
176
     0
 90
        2
176
     0
 90
        0
176
     0
 90
        0
176
     0
 40
0.6
176
     0
 40
30.0
176
     0
 62
     7
420
 16777215
176
     0
 90
        1
176
     0
 90
        4
176
     0
 62
     7
176
     0
 62
   257
176
     0
 90
        1
176
     0
 90
        1
176
     0
 40
1.0
176
     0
 90
        9
176
     2
 62
     7
176
     0
 40
1.0
176
     0
 90
        1
176
     0
 90
        6
176
     0
 90
        2
176
     0
 62
     7
176
     0
 90
        5
176
     0
 90
        0
176
     0
 90
        0
176
     0
290
     0
176
     0
 90
        1
176
     0
 40
0.0
176
     0
 90
        0
176
     0
290
     0
176
     0
290
     1
176
     0
290
     1
176
     0
290
     0
176
     0
290
     0
176
     0
290
     0
176
     0
290
     0
176
     0
290
     0
176
     0
290
     0
176
     0
 90
       50
176
     0
 40
0.0
176
     0
 40
1.0
176
     0
 90
        0
176
     0
 62
    18
420
        0
176
     0
 90
       50
176
     0
 90
        3
176
     0
 62
     5
420
      255
176
     0
290
     0
176
     0
 90
       50
176
     0
 90
       50
176
     0
 90
       50
176
     0
290
     0
176
     0
 90
       50
176
     0
 62
   256
176
     0
 40
1.0
176
     0
 90
        2
176
     0
  1
strokes_ogs.tif
176
     0
290
     0
176
     0
 40
1.0
176
     0
 40
1.0
176
     0
  0
VISUALSTYLE
  5
33
102
{ACAD_REACTORS
330
2A
102
}
330
2A
100
AcDbVisualStyle
  2
Realistic
 70
     8
177
     3
291
     0
 70
    58
 90
        2
176
     1
 90
        3
176
     1
 90
        0
176
     1
 90
        2
176
     1
 40
0.6
176
     1
 40
30.0
176
     1
 62
     7
420
 16777215
176
     1
 90
        0
176
     1
 90
        0
176
     1
 62
     7
176
     1
 62
   257
176
     1
 90
        1
176
     1
 90
        1
176
     1
 40
1.0
176
     1
 90
        8
176
     1
 62
   257
176
     1
 40
1.0
176
     1
 90
        1
176
     1
 90
        6
176
     1
 90
        2
176
     1
 62
     7
176
     1
 90
        3
176
     1
 90
        0
176
     1
 90
        0
176
     1
290
     0
176
     1
 90
       13
176
     1
 40
0.0
176
     1
 90
        0
176
     1
290
     0
176
     1
290
     1
176
     1
290
     1
176
     1
290
     0
176
     1
290
     0
176
     1
290
     0
176
     1
290
     0
176
     1
290
     0
176
     1
290
     0
176
     1
 90
       50
176
     1
 40
0.0
176
     1
 40
1.0
176
     1
 90
        0
176
     1
 62
    18
420
        0
176
     1
 90
       50
176
     1
 90
        3
176
     1
 62
     5
420
      255
176
     1
290
     0
176
     1
 90
       50
176
     1
 90
       50
176
     1
 90
       50
176
     1
290
     0
176
     1
 90
       50
176
     1
 62
   256
176
     0
 40
1.0
176
     0
 90
        2
176
     1
  1
strokes_ogs.tif
176
     1
290
     0
176
     1
 40
1.0
176
     1
 40
1.0
176
     1
  0
VISUALSTYLE
  5
42
102
{ACAD_REACTORS
330
2A
102
}
330
2A
100
AcDbVisualStyle
  2
Shaded
 70
    27
177
     3
291
     0
 70
    58
 90
        2
176
     1
 90
        2
176
     1
 90
        1
176
     1
 90
        2
176
     1
 40
0.6
176
     1
 40
30.0
176
     1
 62
     7
420
 16777215
176
     1
 90
        0
176
     1
 90
        4
176
     1
 62
     7
176
     1
 62
   257
176
     1
 90
        1
176
     1
 90
        1
176
     1
 40
1.0
176
     1
 90
        8
176
     1
 62
   257
176
     1
 40
1.0
176
     1
 90
        1
176
     1
 90
        6
176
     1
 90
        2
176
     1
 62
     8
420
  7895160
176
     1
 90
        3
176
     1
 90
        0
176
     1
 90
        0
176
     1
290
     0
176
     1
 90
        5
176
     1
 40
0.0
176
     1
 90
        0
176
     1
290
     0
176
     1
290
     1
176
     1
290
     1
176
     1
290
     0
176
     1
290
     0
176
     1
290
     0
176
     1
290
     0
176
     1
290
     0
176
     1
290
     0
176
     1
 90
       50
176
     1
 40
0.0
176
     1
 40
1.0
176
     1
 90
        0
176
     1
 62
    18
420
        0
176
     1
 90
       50
176
     1
 90
        3
176
     1
 62
     5
420
      255
176
     1
290
     0
176
     1
 90
       50
176
     1
 90
       50
176
     1
 90
       50
176
     1
290
     0
176
     1
 90
       50
176
     1
 62
   256
176
     0
 40
1.0
176
     0
 90
        2
176
     1
  1
strokes_ogs.tif
176
     1
290
     0
176
     1
 40
1.0
176
     1
 40
1.0
176
     1
  0
VISUALSTYLE
  5
41
102
{ACAD_REACTORS
330
2A
102
}
330
2A
100
AcDbVisualStyle
  2
Shaded with edges
 70
    26
177
     3
291
     0
 70
    58
 90
        2
176
     1
 90
        2
176
     1
 90
        1
176
     1
 90
        2
176
     1
 40
0.6
176
     1
 40
30.0
176
     1
 62
     7
420
 16777215
176
     1
 90
        1
176
     1
 90
       10
176
     1
 62
     7
176
     1
 62
   257
176
     1
 90
        2
176
     1
 90
        1
176
     1
 40
1.0
176
     1
 90
        8
176
     1
 62
   257
176
     1
 40
1.0
176
     1
 90
        1
176
     1
 90
        6
176
     1
 90
        2
176
     1
 62
     7
176
     1
 90
        3
176
     1
 90
        0
176
     1
 90
        0
176
     1
290
     0
176
     1
 90
        5
176
     1
 40
0.0
176
     1
 90
        0
176
     1
290
     0
176
     1
290
     1
176
     1
290
     1
176
     1
290
     0
176
     1
290
     0
176
     1
290
     0
176
     1
290
     0
176
     1
290
     0
176
     1
290
     0
176
     1
 90
       50
176
     1
 40
0.0
176
     1
 40
1.0
176
     1
 90
        0
176
     1
 62
    18
420
        0
176
     1
 90
       50
176
     1
 90
        3
176
     1
 62
     5
420
      255
176
     1
290
     0
176
     1
 90
       50
176
     1
 90
       50
176
     1
 90
       50
176
     1
290
     0
176
     1
 90
       50
176
     1
 62
   256
176
     0
 40
1.0
176
     0
 90
        2
176
     1
  1
strokes_ogs.tif
176
     1
290
     0
176
     1
 40
1.0
176
     1
 40
1.0
176
     1
  0
VISUALSTYLE
  5
3E
102
{ACAD_REACTORS
330
2A
102
}
330
2A
100
AcDbVisualStyle
  2
Shades of Gray
 70
    23
177
     3
291
     0
 70
    58
 90
        2
176
     1
 90
        2
176
     1
 90
        3
176
     1
 90
        0
176
     1
 40
0.6
176
     1
 40
30.0
176
     1
 62
     7
420
 16777215
176
     1
 90
        2
176
     1
 90
        2
176
     1
 62
     7
176
     1
 62
     7
176
     1
 90
        1
176
     1
 90
        1
176
     1
 40
40.0
176
     1
 90
        8
176
     1
 62
     7
176
     1
 40
1.0
176
     1
 90
        1
176
     1
 90
        6
176
     1
 90
        2
176
     1
 62
     7
176
     1
 90
        3
176
     1
 90
        0
176
     1
 90
        0
176
     1
290
     0
176
     1
 90
        1
176
     1
 40
0.0
176
     1
 90
        0
176
     1
290
     0
176
     1
290
     1
176
     1
290
     1
176
     1
290
     0
176
     1
290
     0
176
     1
290
     0
176
     1
290
     0
176
     1
290
     0
176
     1
290
     0
176
     1
 90
       50
176
     1
 40
0.0
176
     1
 40
1.0
176
     1
 90
        0
176
     1
 62
    18
420
        0
176
     1
 90
       50
176
     1
 90
        3
176
     1
 62
     5
420
      255
176
     1
290
     0
176
     1
 90
       50
176
     1
 90
       50
176
     1
 90
       50
176
     1
290
     0
176
     1
 90
       50
176
     1
 62
   256
176
     0
 40
1.0
176
     0
 90
        2
176
     1
  1
strokes_ogs.tif
176
     1
290
     0
176
     1
 40
1.0
176
     1
 40
1.0
176
     1
  0
VISUALSTYLE
  5
3F
102
{ACAD_REACTORS
330
2A
102
}
330
2A
100
AcDbVisualStyle
  2
Sketchy
 70
    24
177
     3
291
     0
 70
    58
 90
        1
176
     1
 90
        2
176
     1
 90
        2
176
     1
 90
        0
176
     1
 40
0.6
176
     1
 40
30.0
176
     1
 62
     7
420
 16777215
176
     1
 90
        2
176
     1
 90
        2
176
     1
 62
     7
176
     1
 62
     7
176
     1
 90
        1
176
     1
 90
        1
176
     1
 40
40.0
176
     1
 90
       11
176
     1
 62
     7
176
     1
 40
1.0
176
     1
 90
        1
176
     1
 90
        6
176
     1
 90
        2
176
     1
 62
     7
176
     1
 90
        6
176
     1
 90
        0
176
     1
 90
        0
176
     1
290
     0
176
     1
 90
        1
176
     1
 40
0.0
176
     1
 90
        0
176
     1
290
     0
176
     1
290
     1
176
     1
290
     1
176
     1
290
     0
176
     1
290
     0
176
     1
290
     0
176
     1
290
     0
176
     1
290
     0
176
     1
290
     0
176
     1
 90
       50
176
     1
 40
0.0
176
     1
 40
1.0
176
     1
 90
        0
176
     1
 62
    18
420
        0
176
     1
 90
       50
176
     1
 90
        3
176
     1
 62
     5
420
      255
176
     1
290
     0
176
     1
 90
       50
176
     1
 90
       50
176
     1
 90
       50
176
     1
290
     0
176
     1
 90
       50
176
     1
 62
   256
176
     0
 40
1.0
176
     0
 90
        2
176
     1
  1
strokes_ogs.tif
176
     1
290
     0
176
     1
 40
1.0
176
     1
 40
1.0
176
     1
  0
VISUALSTYLE
  5
37
102
{ACAD_REACTORS
330
2A
102
}
330
2A
100
AcDbVisualStyle
  2
Thicken
 70
    13
177
     3
291
     1
 70
    58
 90
        2
176
     1
 90
        2
176
     1
 90
        0
176
     1
 90
        0
176
     1
 40
0.6
176
     1
 40
30.0
176
     1
 62
     7
420
 16777215
176
     1
 90
        1
176
     1
 90
        4
176
     1
 62
     7
176
     1
 62
   257
176
     1
 90
        1
176
     1
 90
        1
176
     1
 40
1.0
176
     1
 90
       12
176
     1
 62
     7
176
     1
 40
1.0
176
     1
 90
        1
176
     1
 90
        6
176
     1
 90
        2
176
     1
 62
     7
176
     1
 90
        5
176
     1
 90
        0
176
     1
 90
        0
176
     1
290
     0
176
     1
 90
        1
176
     1
 40
0.0
176
     1
 90
        0
176
     1
290
     0
176
     1
290
     1
176
     1
290
     1
176
     1
290
     0
176
     1
290
     0
176
     1
290
     0
176
     1
290
     0
176
     1
290
     0
176
     1
290
     0
176
     1
 90
       50
176
     1
 40
0.0
176
     1
 40
1.0
176
     1
 90
        0
176
     1
 62
    18
420
        0
176
     1
 90
       50
176
     1
 90
        3
176
     1
 62
     5
420
      255
176
     1
290
     0
176
     1
 90
       50
176
     1
 90
       50
176
     1
 90
       50
176
     1
290
     0
176
     1
 90
       50
176
     1
 62
   256
176
     0
 40
1.0
176
     0
 90
        2
176
     1
  1
strokes_ogs.tif
176
     1
290
     0
176
     1
 40
1.0
176
     1
 40
1.0
176
     1
  0
VISUALSTYLE
  5
30
102
{ACAD_REACTORS
330
2A
102
}
330
2A
100
AcDbVisualStyle
  2
Wireframe
 70
     5
177
     3
291
     0
 70
    58
 90
        0
176
     1
 90
        2
176
     1
 90
        0
176
     1
 90
        0
176
     1
 40
0.6
176
     1
 40
30.0
176
     1
 62
     7
420
 16777215
176
     1
 90
        1
176
     1
 90
        4
176
     1
 62
     7
176
     1
 62
   257
176
     1
 90
        1
176
     1
 90
        1
176
     1
 40
1.0
176
     1
 90
        0
176
     1
 62
   257
176
     1
 40
1.0
176
     1
 90
        1
176
     1
 90
        6
176
     1
 90
        2
176
     1
 62
     7
176
     1
 90
        3
176
     1
 90
        0
176
     1
 90
        0
176
     1
290
     0
176
     1
 90
        1
176
     1
 40
0.0
176
     1
 90
        0
176
     1
290
     0
176
     1
290
     1
176
     1
290
     1
176
     1
290
     0
176
     1
290
     0
176
     1
290
     0
176
     1
290
     0
176
     1
290
     0
176
     1
290
     0
176
     1
 90
       50
176
     1
 40
0.0
176
     1
 40
1.0
176
     1
 90
        0
176
     1
 62
    18
420
        0
176
     1
 90
       50
176
     1
 90
        3
176
     1
 62
     5
420
      255
176
     1
290
     0
176
     1
 90
       50
176
     1
 90
       50
176
     1
 90
       50
176
     1
290
     0
176
     1
 90
       50
176
     1
 62
   256
176
     0
 40
1.0
176
     0
 90
        2
176
     1
  1
strokes_ogs.tif
176
     1
290
     0
176
     1
 40
1.0
176
     1
 40
1.0
176
     1
  0
VISUALSTYLE
  5
40
102
{ACAD_REACTORS
330
2A
102
}
330
2A
100
AcDbVisualStyle
  2
X-Ray
 70
    25
177
     3
291
     0
 70
    58
 90
        2
176
     1
 90
        2
176
     1
 90
        1
176
     1
 90
        1
176
     1
 40
0.5
176
     1
 40
30.0
176
     1
 62
     7
420
 16777215
176
     1
 90
        1
176
     1
 90
        0
176
     1
 62
     7
176
     1
 62
   257
176
     1
 90
        1
176
     1
 90
        1
176
     1
 40
1.0
176
     1
 90
        8
176
     1
 62
     7
176
     1
 40
1.0
176
     1
 90
        1
176
     1
 90
        6
176
     1
 90
        2
176
     1
 62
     7
176
     1
 90
        3
176
     1
 90
        0
176
     1
 90
        0
176
     1
290
     0
176
     1
 90
       13
176
     1
 40
0.0
176
     1
 90
        0
176
     1
290
     0
176
     1
290
     1
176
     1
290
     1
176
     1
290
     0
176
     1
290
     0
176
     1
290
     0
176
     1
290
     0
176
     1
290
     0
176
     1
290
     0
176
     1
 90
       50
176
     1
 40
0.0
176
     1
 40
1.0
176
     1
 90
        0
176
     1
 62
    18
420
        0
176
     1
 90
       50
176
     1
 90
        3
176
     1
 62
     5
420
      255
176
     1
290
     0
176
     1
 90
       50
176
     1
 90
       50
176
     1
 90
       50
176
     1
290
     0
176
     1
 90
       50
176
     1
 62
   256
176
     0
 40
1.0
176
     0
 90
        2
176
     1
  1
strokes_ogs.tif
176
     1
290
     0
176
     1
 40
1.0
176
     1
 40
1.0
176
     1
  0
DICTIONARYVAR
  5
1E4
102
{ACAD_REACTORS
330
1E3
102
}
330
1E3
100
DictionaryVariables
280
     0
  1
1:1
  0
DICTIONARYVAR
  5
1E9
102
{ACAD_REACTORS
330
1E3
102
}
330
1E3
100
DictionaryVariables
280
     0
  1
Standard
  0
DICTIONARYVAR
  5
1E8
102
{ACAD_REACTORS
330
1E3
102
}
330
1E3
100
DictionaryVariables
280
     0
  1
Standard
  0
DICTIONARY
  5
1E5
330
6A
100
AcDbDictionary
280
     1
281
     1
  3
ACAD_ROUNDTRIP_2008_TABLESTYLE_CELLSTYLEMAP
360
1E6
  0
CELLSTYLEMAP
  5
1E6
102
{ACAD_REACTORS
330
1E5
102
}
330
1E5
100
AcDbCellStyleMap
 90
        3
300
CELLSTYLE
  1
TABLEFORMAT_BEGIN
 90
        5
170
     1
 91
        0
 92
    32768
 62
   257
 93
        1
300
CONTENTFORMAT
  1
CONTENTFORMAT_BEGIN
 90
        0
 91
        0
 92
        4
 93
        0
300

 40
0.0
140
1.0
 94
        5
 62
     0
340
11
144
6.0
309
CONTENTFORMAT_END
171
     1
301
MARGIN
  1
CELLMARGIN_BEGIN
 40
1.5
 40
1.5
 40
1.5
 40
1.5
 40
1.5
 40
1.5
309
CELLMARGIN_END
 94
        6
 95
        1
302
GRIDFORMAT
  1
GRIDFORMAT_BEGIN
 90
        0
 91
        1
 62
     0
 92
       -2
340
14
 93
        0
 40
0.045
309
GRIDFORMAT_END
 95
        2
302
GRIDFORMAT
  1
GRIDFORMAT_BEGIN
 90
        0
 91
        1
 62
     0
 92
       -2
340
14
 93
        0
 40
0.045
309
GRIDFORMAT_END
 95
        4
302
GRIDFORMAT
  1
GRIDFORMAT_BEGIN
 90
        0
 91
        1
 62
     0
 92
       -2
340
14
 93
        0
 40
0.045
309
GRIDFORMAT_END
 95
        8
302
GRIDFORMAT
  1
GRIDFORMAT_BEGIN
 90
        0
 91
        1
 62
     0
 92
       -2
340
14
 93
        0
 40
0.045
309
GRIDFORMAT_END
 95
       16
302
GRIDFORMAT
  1
GRIDFORMAT_BEGIN
 90
        0
 91
        1
 62
     0
 92
       -2
340
14
 93
        0
 40
0.045
309
GRIDFORMAT_END
 95
       32
302
GRIDFORMAT
  1
GRIDFORMAT_BEGIN
 90
        0
 91
        1
 62
     0
 92
       -2
340
14
 93
        0
 40
0.045
309
GRIDFORMAT_END
309
TABLEFORMAT_END
  1
CELLSTYLE_BEGIN
 90
        1
 91
        1
300
_TITLE
309
CELLSTYLE_END
300
CELLSTYLE
  1
TABLEFORMAT_BEGIN
 90
        5
170
     1
 91
        0
 92
        0
 62
   257
 93
        1
300
CONTENTFORMAT
  1
CONTENTFORMAT_BEGIN
 90
        0
 91
        0
 92
        4
 93
        0
300

 40
0.0
140
1.0
 94
        5
 62
     0
340
11
144
4.5
309
CONTENTFORMAT_END
171
     1
301
MARGIN
  1
CELLMARGIN_BEGIN
 40
1.5
 40
1.5
 40
1.5
 40
1.5
 40
1.5
 40
1.5
309
CELLMARGIN_END
 94
        6
 95
        1
302
GRIDFORMAT
  1
GRIDFORMAT_BEGIN
 90
        0
 91
        1
 62
     0
 92
       -2
340
14
 93
        0
 40
0.045
309
GRIDFORMAT_END
 95
        2
302
GRIDFORMAT
  1
GRIDFORMAT_BEGIN
 90
        0
 91
        1
 62
     0
 92
       -2
340
14
 93
        0
 40
0.045
309
GRIDFORMAT_END
 95
        4
302
GRIDFORMAT
  1
GRIDFORMAT_BEGIN
 90
        0
 91
        1
 62
     0
 92
       -2
340
14
 93
        0
 40
0.045
309
GRIDFORMAT_END
 95
        8
302
GRIDFORMAT
  1
GRIDFORMAT_BEGIN
 90
        0
 91
        1
 62
     0
 92
       -2
340
14
 93
        0
 40
0.045
309
GRIDFORMAT_END
 95
       16
302
GRIDFORMAT
  1
GRIDFORMAT_BEGIN
 90
        0
 91
        1
 62
     0
 92
       -2
340
14
 93
        0
 40
0.045
309
GRIDFORMAT_END
 95
       32
302
GRIDFORMAT
  1
GRIDFORMAT_BEGIN
 90
        0
 91
        1
 62
     0
 92
       -2
340
14
 93
        0
 40
0.045
309
GRIDFORMAT_END
309
TABLEFORMAT_END
  1
CELLSTYLE_BEGIN
 90
        2
 91
        1
300
_HEADER
309
CELLSTYLE_END
300
CELLSTYLE
  1
TABLEFORMAT_BEGIN
 90
        5
170
     1
 91
        0
 92
        0
 62
   257
 93
        1
300
CONTENTFORMAT
  1
CONTENTFORMAT_BEGIN
 90
        0
 91
        0
 92
        4
 93
        0
300

 40
0.0
140
1.0
 94
        2
 62
     0
340
11
144
4.5
309
CONTENTFORMAT_END
171
     1
301
MARGIN
  1
CELLMARGIN_BEGIN
 40
1.5
 40
1.5
 40
1.5
 40
1.5
 40
1.5
 40
1.5
309
CELLMARGIN_END
 94
        6
 95
        1
302
GRIDFORMAT
  1
GRIDFORMAT_BEGIN
 90
        0
 91
        1
 62
     0
 92
       -2
340
14
 93
        0
 40
0.045
309
GRIDFORMAT_END
 95
        2
302
GRIDFORMAT
  1
GRIDFORMAT_BEGIN
 90
        0
 91
        1
 62
     0
 92
       -2
340
14
 93
        0
 40
0.045
309
GRIDFORMAT_END
 95
        4
302
GRIDFORMAT
  1
GRIDFORMAT_BEGIN
 90
        0
 91
        1
 62
     0
 92
       -2
340
14
 93
        0
 40
0.045
309
GRIDFORMAT_END
 95
        8
302
GRIDFORMAT
  1
GRIDFORMAT_BEGIN
 90
        0
 91
        1
 62
     0
 92
       -2
340
14
 93
        0
 40
0.045
309
GRIDFORMAT_END
 95
       16
302
GRIDFORMAT
  1
GRIDFORMAT_BEGIN
 90
        0
 91
        1
 62
     0
 92
       -2
340
14
 93
        0
 40
0.045
309
GRIDFORMAT_END
 95
       32
302
GRIDFORMAT
  1
GRIDFORMAT_BEGIN
 90
        0
 91
        1
 62
     0
 92
       -2
340
14
 93
        0
 40
0.045
309
GRIDFORMAT_END
309
TABLEFORMAT_END
  1
CELLSTYLE_BEGIN
 90
        3
 91
        2
300
_DATA
309
CELLSTYLE_END
  0
ENDSEC
  0
EOF