0
SECTION
  2
HEADER
  9
$ACADVER
  1
AC1027
  9
$ACADMAINTVER
 70
     8
  9
$DWGCODEPAGE
  3
ANSI_1252
  9
$REQUIREDVERSIONS
160
                 0
  9
$COMMENTS
  1
File was created by Cadenas
  9
$CUSTOMPROPERTYTAG
  1
NN
  9
$CUSTOMPROPERTY
  1
Set Screw Medium Duty Narrow Slot Take Up Metric Bore
  9
$CUSTOMPROPERTYTAG
  1
NT
  9
$CUSTOMPROPERTY
  1
SC Take-Up Bearings -Narrow Slot -(Medium Duty)
  9
$CUSTOMPROPERTYTAG
  1
NB
  9
$CUSTOMPROPERTY
  1
125980
  9
$CUSTOMPROPERTYTAG
  1
NBSYN
  9
$CUSTOMPROPERTY
  1
$PN.
  9
$CUSTOMPROPERTYTAG
  1
LINA
  9
$CUSTOMPROPERTY
  1
125980
  9
$CUSTOMPROPERTYTAG
  1
SERIES
  9
$CUSTOMPROPERTY
  1
206
  9
$CUSTOMPROPERTYTAG
  1
SS
  9
$CUSTOMPROPERTY
  1
25
  9
$CUSTOMPROPERTYTAG
  1
PN
  9
$CUSTOMPROPERTY
  1
125980
  9
$CUSTOMPROPERTYTAG
  1
DESCRIPTION
  9
$CUSTOMPROPERTY
  1
NSTU-SCM-25M
  9
$CUSTOMPROPERTYTAG
  1
W
  9
$CUSTOMPROPERTY
  1
1.2
  9
$CUSTOMPROPERTYTAG
  1
FS
  9
$CUSTOMPROPERTY
  1
NS308
  9
$CUSTOMPROPERTYTAG
  1
A
  9
$CUSTOMPROPERTY
  1
38.6
  9
$CUSTOMPROPERTYTAG
  1
B
  9
$CUSTOMPROPERTY
  1
109.5
  9
$CUSTOMPROPERTYTAG
  1
C
  9
$CUSTOMPROPERTY
  1
6.35
  9
$CUSTOMPROPERTYTAG
  1
D
  9
$CUSTOMPROPERTY
  1
63.5
  9
$CUSTOMPROPERTYTAG
  1
E
  9
$CUSTOMPROPERTY
  1
68.3
  9
$CUSTOMPROPERTYTAG
  1
F
  9
$CUSTOMPROPERTY
  1
19.1
  9
$CUSTOMPROPERTYTAG
  1
G
  9
$CUSTOMPROPERTY
  1
12.7
  9
$CUSTOMPROPERTYTAG
  1
H
  9
$CUSTOMPROPERTY
  1
23.9
  9
$CUSTOMPROPERTYTAG
  1
J
  9
$CUSTOMPROPERTY
  1
35.1
  9
$CUSTOMPROPERTYTAG
  1
L
  9
$CUSTOMPROPERTY
  1
39.9
  9
$CUSTOMPROPERTYTAG
  1
M
  9
$CUSTOMPROPERTY
  1
89.15/88.39
  9
$CUSTOMPROPERTYTAG
  1
N
  9
$CUSTOMPROPERTY
  1
104.9
  9
$CUSTOMPROPERTYTAG
  1
P
  9
$CUSTOMPROPERTY
  1
8.1
  9
$CUSTOMPROPERTYTAG
  1
R
  9
$CUSTOMPROPERTY
  1
14.7
  9
$CUSTOMPROPERTYTAG
  1
S
  9
$CUSTOMPROPERTY
  1
23.9
  9
$CUSTOMPROPERTYTAG
  1
COMPANY
  9
$CUSTOMPROPERTY
  1
baldor
  9
$INSBASE
 10
0.0
 20
0.0
 30
0.0
  9
$EXTMIN
 10
1.000000000000000E+20
 20
1.000000000000000E+20
 30
1.000000000000000E+20
  9
$EXTMAX
 10
-1.000000000000000E+20
 20
-1.000000000000000E+20
 30
-1.000000000000000E+20
  9
$LIMMIN
 10
0.0
 20
0.0
  9
$LIMMAX
 10
420.0
 20
297.0
  9
$ORTHOMODE
 70
     0
  9
$REGENMODE
 70
     1
  9
$FILLMODE
 70
     1
  9
$QTEXTMODE
 70
     0
  9
$MIRRTEXT
 70
     1
  9
$LTSCALE
 40
1.0
  9
$ATTMODE
 70
     1
  9
$TEXTSIZE
 40
2.5
  9
$TRACEWID
 40
1.0
  9
$TEXTSTYLE
  7
Standard
  9
$CLAYER
  8
0
  9
$CELTYPE
  6
ByLayer
  9
$CECOLOR
 62
   256
  9
$CELTSCALE
 40
1.0
  9
$DISPSILH
 70
     0
  9
$DIMSCALE
 40
1.0
  9
$DIMASZ
 40
2.5
  9
$DIMEXO
 40
0.625
  9
$DIMDLI
 40
3.75
  9
$DIMRND
 40
0.0
  9
$DIMDLE
 40
0.0
  9
$DIMEXE
 40
1.25
  9
$DIMTP
 40
0.0
  9
$DIMTM
 40
0.0
  9
$DIMTXT
 40
2.5
  9
$DIMCEN
 40
2.5
  9
$DIMTSZ
 40
0.0
  9
$DIMTOL
 70
     0
  9
$DIMLIM
 70
     0
  9
$DIMTIH
 70
     0
  9
$DIMTOH
 70
     0
  9
$DIMSE1
 70
     0
  9
$DIMSE2
 70
     0
  9
$DIMTAD
 70
     1
  9
$DIMZIN
 70
     8
  9
$DIMBLK
  1

  9
$DIMASO
 70
     1
  9
$DIMSHO
 70
     1
  9
$DIMPOST
  1

  9
$DIMAPOST
  1

  9
$DIMALT
 70
     0
  9
$DIMALTD
 70
     3
  9
$DIMALTF
 40
0.03937007874016
  9
$DIMLFAC
 40
1.0
  9
$DIMTOFL
 70
     1
  9
$DIMTVP
 40
0.0
  9
$DIMTIX
 70
     0
  9
$DIMSOXD
 70
     0
  9
$DIMSAH
 70
     0
  9
$DIMBLK1
  1

  9
$DIMBLK2
  1

  9
$DIMSTYLE
  2
ISO-25
  9
$DIMCLRD
 70
     0
  9
$DIMCLRE
 70
     0
  9
$DIMCLRT
 70
     0
  9
$DIMTFAC
 40
1.0
  9
$DIMGAP
 40
0.625
  9
$DIMJUST
 70
     0
  9
$DIMSD1
 70
     0
  9
$DIMSD2
 70
     0
  9
$DIMTOLJ
 70
     0
  9
$DIMTZIN
 70
     8
  9
$DIMALTZ
 70
     0
  9
$DIMALTTZ
 70
     0
  9
$DIMUPT
 70
     0
  9
$DIMDEC
 70
     2
  9
$DIMTDEC
 70
     2
  9
$DIMALTU
 70
     2
  9
$DIMALTTD
 70
     3
  9
$DIMTXSTY
  7
Standard
  9
$DIMAUNIT
 70
     0
  9
$DIMADEC
 70
     0
  9
$DIMALTRND
 40
0.0
  9
$DIMAZIN
 70
     0
  9
$DIMDSEP
 70
    44
  9
$DIMATFIT
 70
     3
  9
$DIMFRAC
 70
     0
  9
$DIMLDRBLK
  1

  9
$DIMLUNIT
 70
     2
  9
$DIMLWD
 70
    -2
  9
$DIMLWE
 70
    -2
  9
$DIMTMOVE
 70
     0
  9
$DIMFXL
 40
1.0
  9
$DIMFXLON
 70
     0
  9
$DIMJOGANG
 40
0.7853981633974483
  9
$DIMTFILL
 70
     0
  9
$DIMTFILLCLR
 70
     0
  9
$DIMARCSYM
 70
     0
  9
$DIMLTYPE
  6

  9
$DIMLTEX1
  6

  9
$DIMLTEX2
  6

  9
$DIMTXTDIRECTION
 70
     0
  9
$LUNITS
 70
     2
  9
$LUPREC
 70
     4
  9
$SKETCHINC
 40
1.0
  9
$FILLETRAD
 40
10.0
  9
$AUNITS
 70
     0
  9
$AUPREC
 70
     0
  9
$MENU
  1
.
  9
$ELEVATION
 40
0.0
  9
$PELEVATION
 40
0.0
  9
$THICKNESS
 40
0.0
  9
$LIMCHECK
 70
     0
  9
$CHAMFERA
 40
0.0
  9
$CHAMFERB
 40
0.0
  9
$CHAMFERC
 40
0.0
  9
$CHAMFERD
 40
0.0
  9
$SKPOLY
 70
     0
  9
$TDCREATE
 40
2458168.962206076
  9
$TDUCREATE
 40
2458168.92053941
  9
$TDUPDATE
 40
2458168.962206262
  9
$TDUUPDATE
 40
2458168.920539595
  9
$TDINDWG
 40
0.0000000116
  9
$TDUSRTIMER
 40
0.0000000116
  9
$USRTIMER
 70
     1
  9
$ANGBASE
 50
0.0
  9
$ANGDIR
 70
     0
  9
$PDMODE
 70
     0
  9
$PDSIZE
 40
0.0
  9
$PLINEWID
 40
0.0
  9
$SPLFRAME
 70
     0
  9
$SPLINETYPE
 70
     6
  9
$SPLINESEGS
 70
     8
  9
$HANDSEED
  5
1A7
  9
$SURFTAB1
 70
     6
  9
$SURFTAB2
 70
     6
  9
$SURFTYPE
 70
     6
  9
$SURFU
 70
     6
  9
$SURFV
 70
     6
  9
$UCSBASE
  2

  9
$UCSNAME
  2

  9
$UCSORG
 10
0.0
 20
0.0
 30
0.0
  9
$UCSXDIR
 10
1.0
 20
0.0
 30
0.0
  9
$UCSYDIR
 10
0.0
 20
1.0
 30
0.0
  9
$UCSORTHOREF
  2

  9
$UCSORTHOVIEW
 70
     0
  9
$UCSORGTOP
 10
0.0
 20
0.0
 30
0.0
  9
$UCSORGBOTTOM
 10
0.0
 20
0.0
 30
0.0
  9
$UCSORGLEFT
 10
0.0
 20
0.0
 30
0.0
  9
$UCSORGRIGHT
 10
0.0
 20
0.0
 30
0.0
  9
$UCSORGFRONT
 10
0.0
 20
0.0
 30
0.0
  9
$UCSORGBACK
 10
0.0
 20
0.0
 30
0.0
  9
$PUCSBASE
  2

  9
$PUCSNAME
  2

  9
$PUCSORG
 10
0.0
 20
0.0
 30
0.0
  9
$PUCSXDIR
 10
1.0
 20
0.0
 30
0.0
  9
$PUCSYDIR
 10
0.0
 20
1.0
 30
0.0
  9
$PUCSORTHOREF
  2

  9
$PUCSORTHOVIEW
 70
     0
  9
$PUCSORGTOP
 10
0.0
 20
0.0
 30
0.0
  9
$PUCSORGBOTTOM
 10
0.0
 20
0.0
 30
0.0
  9
$PUCSORGLEFT
 10
0.0
 20
0.0
 30
0.0
  9
$PUCSORGRIGHT
 10
0.0
 20
0.0
 30
0.0
  9
$PUCSORGFRONT
 10
0.0
 20
0.0
 30
0.0
  9
$PUCSORGBACK
 10
0.0
 20
0.0
 30
0.0
  9
$USERI1
 70
     0
  9
$USERI2
 70
     0
  9
$USERI3
 70
     0
  9
$USERI4
 70
     0
  9
$USERI5
 70
     0
  9
$USERR1
 40
0.0
  9
$USERR2
 40
0.0
  9
$USERR3
 40
0.0
  9
$USERR4
 40
0.0
  9
$USERR5
 40
0.0
  9
$WORLDVIEW
 70
     1
  9
$SHADEDGE
 70
     3
  9
$SHADEDIF
 70
    70
  9
$TILEMODE
 70
     1
  9
$MAXACTVP
 70
    64
  9
$PINSBASE
 10
0.0
 20
0.0
 30
0.0
  9
$PLIMCHECK
 70
     0
  9
$PEXTMIN
 10
1.000000000000000E+20
 20
1.000000000000000E+20
 30
1.000000000000000E+20
  9
$PEXTMAX
 10
-1.000000000000000E+20
 20
-1.000000000000000E+20
 30
-1.000000000000000E+20
  9
$PLIMMIN
 10
0.0
 20
0.0
  9
$PLIMMAX
 10
420.0
 20
297.0
  9
$UNITMODE
 70
     0
  9
$VISRETAIN
 70
     1
  9
$PLINEGEN
 70
     0
  9
$PSLTSCALE
 70
     1
  9
$TREEDEPTH
 70
  3020
  9
$CMLSTYLE
  2
Standard
  9
$CMLJUST
 70
     0
  9
$CMLSCALE
 40
20.0
  9
$PROXYGRAPHICS
 70
     1
  9
$MEASUREMENT
 70
     1
  9
$CELWEIGHT
370
    -1
  9
$ENDCAPS
280
     0
  9
$JOINSTYLE
280
     0
  9
$LWDISPLAY
290
     0
  9
$INSUNITS
 70
     4
  9
$HYPERLINKBASE
  1

  9
$STYLESHEET
  1

  9
$XEDIT
290
     1
  9
$CEPSNTYPE
380
     0
  9
$PSTYLEMODE
290
     1
  9
$FINGERPRINTGUID
  2
{ECFEABE6-FB26-40EF-A757-133CACADCAAA}
  9
$VERSIONGUID
  2
{FAEB1C32-E019-11D5-929B-00C0DF256EC4}
  9
$EXTNAMES
290
     1
  9
$PSVPSCALE
 40
0.0
  9
$OLESTARTUP
290
     0
  9
$SORTENTS
280
   127
  9
$INDEXCTL
280
     0
  9
$HIDETEXT
280
     1
  9
$XCLIPFRAME
280
     2
  9
$HALOGAP
280
     0
  9
$OBSCOLOR
 70
   257
  9
$OBSLTYPE
280
     0
  9
$INTERSECTIONDISPLAY
280
     0
  9
$INTERSECTIONCOLOR
 70
   257
  9
$DIMASSOC
280
     2
  9
$PROJECTNAME
  1

  9
$CAMERADISPLAY
290
     0
  9
$LENSLENGTH
 40
50.0
  9
$CAMERAHEIGHT
 40
0.0
  9
$STEPSPERSEC
 40
2.0
  9
$STEPSIZE
 40
6.0
  9
$3DDWFPREC
 40
2.0
  9
$PSOLWIDTH
 40
5.0
  9
$PSOLHEIGHT
 40
80.0
  9
$LOFTANG1
 40
1.570796326794897
  9
$LOFTANG2
 40
1.570796326794897
  9
$LOFTMAG1
 40
0.0
  9
$LOFTMAG2
 40
0.0
  9
$LOFTPARAM
 70
     7
  9
$LOFTNORMALS
280
     1
  9
$LATITUDE
 40
37.795
  9
$LONGITUDE
 40
-122.394
  9
$NORTHDIRECTION
 40
0.0
  9
$TIMEZONE
 70
 -8000
  9
$LIGHTGLYPHDISPLAY
280
     1
  9
$TILEMODELIGHTSYNCH
280
     1
  9
$CMATERIAL
347
44
  9
$SOLIDHIST
280
     0
  9
$SHOWHIST
280
     1
  9
$DWFFRAME
280
     2
  9
$DGNFRAME
280
     2
  9
$REALWORLDSCALE
290
     1
  9
$INTERFERECOLOR
 62
   256
  9
$CSHADOW
280
     0
  9
$SHADOWPLANELOCATION
 40
0.0
  0
ENDSEC
  0
SECTION
  2
CLASSES
  0
CLASS
  1
ACDBDICTIONARYWDFLT
  2
AcDbDictionaryWithDefault
  3
ObjectDBX Classes
 90
        0
 91
        4
280
     0
281
     0
  0
CLASS
  1
VISUALSTYLE
  2
AcDbVisualStyle
  3
ObjectDBX Classes
 90
     4095
 91
        4
280
     0
281
     0
  0
CLASS
  1
MATERIAL
  2
AcDbMaterial
  3
ObjectDBX Classes
 90
     1153
 91
        4
280
     0
281
     0
  0
CLASS
  1
SCALE
  2
AcDbScale
  3
ObjectDBX Classes
 90
     1153
 91
        4
280
     0
281
     0
  0
CLASS
  1
TABLESTYLE
  2
AcDbTableStyle
  3
ObjectDBX Classes
 90
     4095
 91
        4
280
     0
281
     0
  0
CLASS
  1
MLEADERSTYLE
  2
AcDbMLeaderStyle
  3
ACDB_MLEADERSTYLE_CLASS
 90
     4095
 91
        4
280
     0
281
     0
  0
CLASS
  1
SUN
  2
AcDbSun
  3
SCENEOE
 90
     1153
 91
        4
280
     0
281
     0
  0
CLASS
  1
DICTIONARYVAR
  2
AcDbDictionaryVar
  3
ObjectDBX Classes
 90
        0
 91
        4
280
     0
281
     0
  0
CLASS
  1
CELLSTYLEMAP
  2
AcDbCellStyleMap
  3
ObjectDBX Classes
 90
     1152
 91
        4
280
     0
281
     0
  0
ENDSEC
  0
SECTION
  2
TABLES
  0
TABLE
  2
VPORT
  5
8
330
0
100
AcDbSymbolTable
 70
     1
  0
VPORT
  5
29
330
8
100
AcDbSymbolTableRecord
100
AcDbViewportTableRecord
  2
*Active
 70
     0
 10
0.0
 20
0.0
 11
1.0
 21
1.0
 12
10.04726790854932
 22
0.0
 13
0.0
 23
0.0
 14
10.0
 24
10.0
 15
10.0
 25
10.0
 16
0.0
 26
0.0
 36
1.0
 17
0.0
 27
0.0
 37
0.0
 40
106.998
 41
1.143769915947582
 42
50.0
 43
0.0
 44
0.0
 50
0.0
 51
0.0
 71
     0
 72
   100
 73
     1
 74
     3
 75
     0
 76
     0
 77
     0
 78
     0
281
     0
 65
     1
110
0.0
120
0.0
130
0.0
111
1.0
121
0.0
131
0.0
112
0.0
122
1.0
132
0.0
 79
     0
146
0.0
348
2F
 60
     3
 61
     5
292
     1
282
     1
141
0.0
142
0.0
 63
   250
361
6D
  0
ENDTAB
  0
TABLE
  2
LTYPE
  5
5
330
0
100
AcDbSymbolTable
 70
     3
  0
LTYPE
  5
14
330
5
100
AcDbSymbolTableRecord
100
AcDbLinetypeTableRecord
  2
ByBlock
 70
     0
  3

 72
    65
 73
     0
 40
0.0
  0
LTYPE
  5
15
330
5
100
AcDbSymbolTableRecord
100
AcDbLinetypeTableRecord
  2
ByLayer
 70
     0
  3

 72
    65
 73
     0
 40
0.0
  0
LTYPE
  5
16
330
5
100
AcDbSymbolTableRecord
100
AcDbLinetypeTableRecord
  2
Continuous
 70
     0
  3
Solid line
 72
    65
 73
     0
 40
0.0
  0
LTYPE
  5
9F
330
5
100
AcDbSymbolTableRecord
100
AcDbLinetypeTableRecord
  2
Dashed
 70
     0
  3

 72
    65
 73
     2
 40
2.0
 49
1.0
 74
     0
 49
-1.0
 74
     0
  0
LTYPE
  5
C7
330
5
100
AcDbSymbolTableRecord
100
AcDbLinetypeTableRecord
  2
Center
 70
     0
  3

 72
    65
 73
     4
 40
1.5
 49
0.45
 74
     0
 49
-0.5
 74
     0
 49
0.05
 74
     0
 49
-0.5
 74
     0
  0
ENDTAB
  0
TABLE
  2
LAYER
  5
2
330
0
100
AcDbSymbolTable
 70
     7
  0
LAYER
  5
10
330
2
100
AcDbSymbolTableRecord
100
AcDbLayerTableRecord
  2
0
 70
     0
 62
     7
  6
Continuous
370
    -3
390
F
347
46
348
0
  0
LAYER
  5
72
330
2
100
AcDbSymbolTableRecord
100
AcDbLayerTableRecord
  2
AM_6
 70
     0
 62
    -2
  6
Continuous
370
    35
390
F
347
46
348
0
  0
LAYER
  5
A0
330
2
100
AcDbSymbolTableRecord
100
AcDbLayerTableRecord
  2
AM_9
 70
     0
 62
     6
  6
Dashed
370
    25
390
F
347
46
348
0
  0
LAYER
  5
C0
330
2
100
AcDbSymbolTableRecord
100
AcDbLayerTableRecord
  2
AM_5
 70
     0
 62
     3
  6
Continuous
370
    25
390
F
347
46
348
0
  0
LAYER
  5
C8
330
2
100
AcDbSymbolTableRecord
100
AcDbLayerTableRecord
  2
AM_7
 70
     0
 62
     7
  6
Center
370
    25
390
F
347
46
348
0
  0
LAYER
  5
CC
330
2
100
AcDbSymbolTableRecord
100
AcDbLayerTableRecord
  2
AM_4
 70
     0
 62
     7
  6
Continuous
370
    50
390
F
347
46
348
0
  0
LAYER
  5
19A
330
2
100
AcDbSymbolTableRecord
100
AcDbLayerTableRecord
  2
ConnectionPoints
 70
     0
 62
     7
  6
Continuous
370
    50
390
F
347
46
348
0
  0
ENDTAB
  0
TABLE
  2
STYLE
  5
3
330
0
100
AcDbSymbolTable
 70
     1
  0
STYLE
  5
11
330
3
100
AcDbSymbolTableRecord
100
AcDbTextStyleTableRecord
  2
Standard
 70
     0
 40
0.0
 41
1.0
 50
0.0
 71
     0
 42
2.5
  3
txt
  4

  0
ENDTAB
  0
TABLE
  2
VIEW
  5
6
330
0
100
AcDbSymbolTable
 70
     0
  0
ENDTAB
  0
TABLE
  2
UCS
  5
7
330
0
100
AcDbSymbolTable
 70
     0
  0
ENDTAB
  0
TABLE
  2
APPID
  5
9
330
0
100
AcDbSymbolTable
 70
     1
  0
APPID
  5
12
330
9
100
AcDbSymbolTableRecord
100
AcDbRegAppTableRecord
  2
ACAD
 70
     0
  0
ENDTAB
  0
TABLE
  2
DIMSTYLE
  5
A
330
0
100
AcDbSymbolTable
 70
     1
100
AcDbDimStyleTable
  0
DIMSTYLE
105
27
330
A
100
AcDbSymbolTableRecord
100
AcDbDimStyleTableRecord
  2
ISO-25
 70
     0
 41
2.5
 42
0.625
 43
3.75
 44
1.25
 73
     0
 74
     0
 77
     1
 78
     8
140
2.5
141
2.5
143
0.03937007874016
147
0.625
171
     3
172
     1
178
     0
271
     2
272
     2
274
     3
278
    44
283
     0
284
     8
340
11
  0
ENDTAB
  0
TABLE
  2
BLOCK_RECORD
  5
1
330
0
100
AcDbSymbolTable
 70
     5
  0
BLOCK_RECORD
  5
1F
330
1
100
AcDbSymbolTableRecord
100
AcDbBlockTableRecord
  2
*Model_Space
340
22
 70
     0
280
     1
281
     0
  0
BLOCK_RECORD
  5
1B
330
1
100
AcDbSymbolTableRecord
100
AcDbBlockTableRecord
  2
*Paper_Space
340
1E
 70
     0
280
     1
281
     0
  0
BLOCK_RECORD
  5
23
330
1
100
AcDbSymbolTableRecord
100
AcDbBlockTableRecord
  2
*Paper_Space0
340
26
 70
     0
280
     1
281
     0
  0
BLOCK_RECORD
  5
6E
330
1
100
AcDbSymbolTableRecord
100
AcDbBlockTableRecord
  2
1_125980_0
340
0
102
{BLKREFS
331
6F
102
}
 70
     0
280
     1
281
     0
  0
BLOCK_RECORD
  5
8E
330
1
100
AcDbSymbolTableRecord
100
AcDbBlockTableRecord
  2
2_405016_Metric_0_in_125980_0
340
0
102
{BLKREFS
331
8F
102
}
 70
     0
280
     1
281
     0
  0
BLOCK_RECORD
  5
10E
330
1
100
AcDbSymbolTableRecord
100
AcDbBlockTableRecord
  2
3_125825_0_in_125980_0
340
0
102
{BLKREFS
331
10F
102
}
 70
     0
280
     1
281
     0
  0
BLOCK_RECORD
  5
149
330
1
100
AcDbSymbolTableRecord
100
AcDbBlockTableRecord
  2
4_125980H_0_in_125980_0
340
0
102
{BLKREFS
331
14A
102
}
 70
     0
280
     1
281
     0
  0
ENDTAB
  0
ENDSEC
  0
SECTION
  2
BLOCKS
  0
BLOCK
  5
20
330
1F
100
AcDbEntity
  8
0
100
AcDbBlockBegin
  2
*Model_Space
 70
     0
 10
0.0
 20
0.0
 30
0.0
  3
*Model_Space
  1

  0
ENDBLK
  5
21
330
1F
100
AcDbEntity
  8
0
100
AcDbBlockEnd
  0
BLOCK
  5
1C
330
1B
100
AcDbEntity
 67
     1
  8
0
100
AcDbBlockBegin
  2
*Paper_Space
 70
     0
 10
0.0
 20
0.0
 30
0.0
  3
*Paper_Space
  1

  0
ENDBLK
  5
1D
330
1B
100
AcDbEntity
 67
     1
  8
0
100
AcDbBlockEnd
  0
BLOCK
  5
24
330
23
100
AcDbEntity
  8
0
100
AcDbBlockBegin
  2
*Paper_Space0
 70
     0
 10
0.0
 20
0.0
 30
0.0
  3
*Paper_Space0
  1

  0
ENDBLK
  5
25
330
23
100
AcDbEntity
  8
0
100
AcDbBlockEnd
  0
BLOCK
  5
70
330
6E
100
AcDbEntity
  8
0
100
AcDbBlockBegin
  2
1_125980_0
 70
     2
 10
0.0
 20
0.0
 30
0.0
  3
1_125980_0
  1

  0
ATTDEF
  5
73
330
6E
100
AcDbEntity
  8
AM_6
100
AcDbText
 10
75.03800000000001
 20
52.45
 30
0.0
 40
0.5
  1
Set Screw Medium Duty Narrow Slot Take Up Metric Bore
100
AcDbAttributeDefinition
  3

  2
NN
 70
     8
280
     0
  0
ATTDEF
  5
74
330
6E
100
AcDbEntity
  8
AM_6
100
AcDbText
 10
75.03800000000001
 20
51.95
 30
0.0
 40
0.5
  1
SC Take-Up Bearings -Narrow Slot -(Medium Duty)
100
AcDbAttributeDefinition
  3

  2
NT
 70
     8
280
     0
  0
ATTDEF
  5
75
330
6E
100
AcDbEntity
  8
AM_6
100
AcDbText
 10
75.03800000000001
 20
51.45
 30
0.0
 40
0.5
  1
125980
100
AcDbAttributeDefinition
  3

  2
NB
 70
     8
280
     0
  0
ATTDEF
  5
76
330
6E
100
AcDbEntity
  8
AM_6
100
AcDbText
 10
75.03800000000001
 20
50.95
 30
0.0
 40
0.5
  1
$PN.
100
AcDbAttributeDefinition
  3

  2
NBSYN
 70
     8
280
     0
  0
ATTDEF
  5
77
330
6E
100
AcDbEntity
  8
AM_6
100
AcDbText
 10
75.03800000000001
 20
50.45
 30
0.0
 40
0.5
  1
125980
100
AcDbAttributeDefinition
  3

  2
LINA
 70
     8
280
     0
  0
ATTDEF
  5
78
330
6E
100
AcDbEntity
  8
AM_6
100
AcDbText
 10
75.03800000000001
 20
49.95
 30
0.0
 40
0.5
  1
206
100
AcDbAttributeDefinition
  3

  2
SERIES
 70
     8
280
     0
  0
ATTDEF
  5
79
330
6E
100
AcDbEntity
  8
AM_6
100
AcDbText
 10
75.03800000000001
 20
49.45
 30
0.0
 40
0.5
  1
25
100
AcDbAttributeDefinition
  3

  2
SS
 70
     8
280
     0
  0
ATTDEF
  5
7A
330
6E
100
AcDbEntity
  8
AM_6
100
AcDbText
 10
75.03800000000001
 20
48.95
 30
0.0
 40
0.5
  1
125980
100
AcDbAttributeDefinition
  3

  2
PN
 70
     8
280
     0
  0
ATTDEF
  5
7B
330
6E
100
AcDbEntity
  8
AM_6
100
AcDbText
 10
75.03800000000001
 20
48.45
 30
0.0
 40
0.5
  1
NSTU-SCM-25M
100
AcDbAttributeDefinition
  3

  2
DESCRIPTION
 70
     8
280
     0
  0
ATTDEF
  5
7C
330
6E
100
AcDbEntity
  8
AM_6
100
AcDbText
 10
75.03800000000001
 20
47.95
 30
0.0
 40
0.5
  1
1.2
100
AcDbAttributeDefinition
  3

  2
W
 70
     8
280
     0
  0
ATTDEF
  5
7D
330
6E
100
AcDbEntity
  8
AM_6
100
AcDbText
 10
75.03800000000001
 20
47.45
 30
0.0
 40
0.5
  1
NS308
100
AcDbAttributeDefinition
  3

  2
FS
 70
     8
280
     0
  0
ATTDEF
  5
7E
330
6E
100
AcDbEntity
  8
AM_6
100
AcDbText
 10
75.03800000000001
 20
46.95
 30
0.0
 40
0.5
  1
38.6
100
AcDbAttributeDefinition
  3

  2
A
 70
     8
280
     0
  0
ATTDEF
  5
7F
330
6E
100
AcDbEntity
  8
AM_6
100
AcDbText
 10
75.03800000000001
 20
46.45
 30
0.0
 40
0.5
  1
109.5
100
AcDbAttributeDefinition
  3

  2
B
 70
     8
280
     0
  0
ATTDEF
  5
80
330
6E
100
AcDbEntity
  8
AM_6
100
AcDbText
 10
75.03800000000001
 20
45.95
 30
0.0
 40
0.5
  1
6.35
100
AcDbAttributeDefinition
  3

  2
C
 70
     8
280
     0
  0
ATTDEF
  5
81
330
6E
100
AcDbEntity
  8
AM_6
100
AcDbText
 10
75.03800000000001
 20
45.45
 30
0.0
 40
0.5
  1
63.5
100
AcDbAttributeDefinition
  3

  2
D
 70
     8
280
     0
  0
ATTDEF
  5
82
330
6E
100
AcDbEntity
  8
AM_6
100
AcDbText
 10
75.03800000000001
 20
44.95
 30
0.0
 40
0.5
  1
68.3
100
AcDbAttributeDefinition
  3

  2
E
 70
     8
280
     0
  0
ATTDEF
  5
83
330
6E
100
AcDbEntity
  8
AM_6
100
AcDbText
 10
75.03800000000001
 20
44.45
 30
0.0
 40
0.5
  1
19.1
100
AcDbAttributeDefinition
  3

  2
F
 70
     8
280
     0
  0
ATTDEF
  5
84
330
6E
100
AcDbEntity
  8
AM_6
100
AcDbText
 10
75.03800000000001
 20
43.95
 30
0.0
 40
0.5
  1
12.7
100
AcDbAttributeDefinition
  3

  2
G
 70
     8
280
     0
  0
ATTDEF
  5
85
330
6E
100
AcDbEntity
  8
AM_6
100
AcDbText
 10
75.03800000000001
 20
43.45
 30
0.0
 40
0.5
  1
23.9
100
AcDbAttributeDefinition
  3

  2
H
 70
     8
280
     0
  0
ATTDEF
  5
86
330
6E
100
AcDbEntity
  8
AM_6
100
AcDbText
 10
75.03800000000001
 20
42.95
 30
0.0
 40
0.5
  1
35.1
100
AcDbAttributeDefinition
  3

  2
J
 70
     8
280
     0
  0
ATTDEF
  5
87
330
6E
100
AcDbEntity
  8
AM_6
100
AcDbText
 10
75.03800000000001
 20
42.45
 30
0.0
 40
0.5
  1
39.9
100
AcDbAttributeDefinition
  3

  2
L
 70
     8
280
     0
  0
ATTDEF
  5
88
330
6E
100
AcDbEntity
  8
AM_6
100
AcDbText
 10
75.03800000000001
 20
41.95
 30
0.0
 40
0.5
  1
89.15/88.39
100
AcDbAttributeDefinition
  3

  2
M
 70
     8
280
     0
  0
ATTDEF
  5
89
330
6E
100
AcDbEntity
  8
AM_6
100
AcDbText
 10
75.03800000000001
 20
41.45
 30
0.0
 40
0.5
  1
104.9
100
AcDbAttributeDefinition
  3

  2
N
 70
     8
280
     0
  0
ATTDEF
  5
8A
330
6E
100
AcDbEntity
  8
AM_6
100
AcDbText
 10
75.03800000000001
 20
40.95
 30
0.0
 40
0.5
  1
8.1
100
AcDbAttributeDefinition
  3

  2
P
 70
     8
280
     0
  0
ATTDEF
  5
8B
330
6E
100
AcDbEntity
  8
AM_6
100
AcDbText
 10
75.03800000000001
 20
40.45
 30
0.0
 40
0.5
  1
14.7
100
AcDbAttributeDefinition
  3

  2
R
 70
     8
280
     0
  0
ATTDEF
  5
8C
330
6E
100
AcDbEntity
  8
AM_6
100
AcDbText
 10
75.03800000000001
 20
39.95
 30
0.0
 40
0.5
  1
23.9
100
AcDbAttributeDefinition
  3

  2
S
 70
     8
280
     0
  0
ATTDEF
  5
8D
330
6E
100
AcDbEntity
  8
AM_6
100
AcDbText
 10
75.03800000000001
 20
39.45
 30
0.0
 40
0.5
  1
baldor
100
AcDbAttributeDefinition
  3

  2
COMPANY
 70
     8
280
     0
  0
INSERT
  5
8F
330
6E
100
AcDbEntity
  8
0
100
AcDbBlockReference
  2
2_405016_Metric_0_in_125980_0
 10
0.0
 20
0.0
 30
0.0
  0
INSERT
  5
10F
330
6E
100
AcDbEntity
  8
0
100
AcDbBlockReference
  2
3_125825_0_in_125980_0
 10
0.0
 20
0.0
 30
0.0
  0
INSERT
  5
14A
330
6E
100
AcDbEntity
  8
0
100
AcDbBlockReference
  2
4_125980H_0_in_125980_0
 10
0.0
 20
0.0
 30
0.0
  0
ENDBLK
  5
71
330
6E
100
AcDbEntity
  8
0
100
AcDbBlockEnd
  0
BLOCK
  5
90
330
8E
100
AcDbEntity
  8
0
100
AcDbBlockBegin
  2
2_405016_Metric_0_in_125980_0
 70
     2
 10
0.0
 20
0.0
 30
0.0
  3
2_405016_Metric_0_in_125980_0
  1

  0
ATTDEF
  5
92
330
8E
100
AcDbEntity
  8
AM_6
100
AcDbText
 10
-23.81521373100085
 20
-14.04490184921513
 30
0.0
 40
0.5
  1
405016 -Metric
100
AcDbAttributeDefinition
  3

  2
NN
 70
     8
280
     0
  0
ATTDEF
  5
93
330
8E
100
AcDbEntity
  8
AM_6
100
AcDbText
 10
-23.81521373100085
 20
-14.54490184921513
 30
0.0
 40
0.5
  1
Grease Fitting
100
AcDbAttributeDefinition
  3

  2
NT
 70
     8
280
     0
  0
ATTDEF
  5
94
330
8E
100
AcDbEntity
  8
AM_6
100
AcDbText
 10
-23.81521373100085
 20
-15.04490184921513
 30
0.0
 40
0.5
  1
405016-Metric
100
AcDbAttributeDefinition
  3

  2
NB
 70
     8
280
     0
  0
ATTDEF
  5
95
330
8E
100
AcDbEntity
  8
AM_6
100
AcDbText
 10
-23.81521373100085
 20
-15.54490184921513
 30
0.0
 40
0.5
  1
$MN.-Metric
100
AcDbAttributeDefinition
  3

  2
NBSYN
 70
     8
280
     0
  0
ATTDEF
  5
96
330
8E
100
AcDbEntity
  8
AM_6
100
AcDbText
 10
-23.81521373100085
 20
-16.04490184921513
 30
0.0
 40
0.5
  1
405016
100
AcDbAttributeDefinition
  3

  2
LINA
 70
     8
280
     0
  0
ATTDEF
  5
97
330
8E
100
AcDbEntity
  8
AM_6
100
AcDbText
 10
-23.81521373100085
 20
-16.54490184921513
 30
0.0
 40
0.5
  1
405016
100
AcDbAttributeDefinition
  3

  2
MN
 70
     8
280
     0
  0
ATTDEF
  5
98
330
8E
100
AcDbEntity
  8
AM_6
100
AcDbText
 10
-23.81521373100085
 20
-17.04490184921513
 30
0.0
 40
0.5
  1
7/16 HEX
100
AcDbAttributeDefinition
  3

  2
H
 70
     8
280
     0
  0
ATTDEF
  5
99
330
8E
100
AcDbEntity
  8
AM_6
100
AcDbText
 10
-23.81521373100085
 20
-17.54490184921513
 30
0.0
 40
0.5
  1
9.728
100
AcDbAttributeDefinition
  3

  2
NDR
 70
     8
280
     0
  0
ATTDEF
  5
9A
330
8E
100
AcDbEntity
  8
AM_6
100
AcDbText
 10
-23.81521373100085
 20
-18.04490184921513
 30
0.0
 40
0.5
  1
8.560
100
AcDbAttributeDefinition
  3

  2
KDR
 70
     8
280
     0
  0
ATTDEF
  5
9B
330
8E
100
AcDbEntity
  8
AM_6
100
AcDbText
 10
-23.81521373100085
 20
-18.54490184921513
 30
0.0
 40
0.5
  1
4.0005
100
AcDbAttributeDefinition
  3

  2
BZE
 70
     8
280
     0
  0
ATTDEF
  5
9C
330
8E
100
AcDbEntity
  8
AM_6
100
AcDbText
 10
-23.81521373100085
 20
-19.04490184921513
 30
0.0
 40
0.5
  1
11.1125
100
AcDbAttributeDefinition
  3

  2
HEX
 70
     8
280
     0
  0
ATTDEF
  5
9D
330
8E
100
AcDbEntity
  8
AM_6
100
AcDbText
 10
-23.81521373100085
 20
-19.54490184921513
 30
0.0
 40
0.5
  1
7.143750
100
AcDbAttributeDefinition
  3

  2
HEX2
 70
     8
280
     0
  0
ATTDEF
  5
9E
330
8E
100
AcDbEntity
  8
AM_6
100
AcDbText
 10
-23.81521373100085
 20
-20.04490184921513
 30
0.0
 40
0.5
  1
baldor
100
AcDbAttributeDefinition
  3

  2
COMPANY
 70
     8
280
     0
  0
LINE
  5
A1
330
8E
100
AcDbEntity
  8
AM_9
100
AcDbLine
 10
-28.81521373100085
 20
-21.37808578695018
 30
0.0
 11
-32.92157224128233
 21
-14.26566421304981
 31
0.0
  0
LINE
  5
A2
330
8E
100
AcDbEntity
  8
AM_9
100
AcDbLine
 10
-32.92157224128233
 20
-14.26566421304981
 30
0.0
 11
-33.74546859951236
 21
-14.04490184921513
 31
0.0
  0
LINE
  5
A3
330
8E
100
AcDbEntity
  8
AM_9
100
AcDbLine
 10
-29.03597609483553
 20
-22.20198214518022
 30
0.0
 11
-28.81521373100085
 21
-21.37808578695018
 31
0.0
  0
ARC
  5
A4
330
8E
100
AcDbEntity
  8
AM_9
100
AcDbCircle
 10
-42.82928634425581
 20
-24.72750000005562
 30
0.0
 40
5.079999999919859
100
AcDbArc
 50
166.0572702398107
 51
253.9215659306509
  0
LINE
  5
A5
330
8E
100
AcDbEntity
  8
AM_9
100
AcDbLine
 10
-29.03597609483553
 20
-22.20198214518022
 30
0.0
 11
-33.74546859951236
 21
-14.04490184921513
 31
0.0
  0
LINE
  5
A6
330
8E
100
AcDbEntity
  8
AM_9
100
AcDbLine
 10
-33.74546859951236
 20
-14.04490184921513
 30
0.0
 11
-37.85927305637472
 21
-16.25162895351907
 31
0.0
  0
LINE
  5
A7
330
8E
100
AcDbEntity
  8
AM_9
100
AcDbLine
 10
-33.0039600548136
 20
-24.66127775887269
 30
0.0
 11
-29.03597609483553
 21
-22.20198214518022
 31
0.0
  0
LINE
  5
A8
330
8E
100
AcDbEntity
  8
AM_9
100
AcDbLine
 10
-48.58491423315829
 20
-25.66926331106881
 30
0.0
 11
-48.87248219304476
 21
-25.83529075011958
 31
0.0
  0
LINE
  5
A9
330
8E
100
AcDbEntity
  8
AM_9
100
AcDbLine
 10
-46.52269124039659
 20
-29.24113831106881
 30
0.0
 11
-46.81025920028307
 21
-29.40716575011958
 31
0.0
  0
LWPOLYLINE
  5
AA
330
8E
100
AcDbEntity
  8
AM_9
100
AcDbPolyline
 90
        4
 70
     0
 43
0.0
 10
-48.58491423315829
 20
-25.66926331106881
 10
-47.75508468523468
 20
-26.90852718757702
 10
-46.99378112330245
 20
-28.26052124034201
 10
-46.52269124039659
 20
-29.24113831106881
  0
LINE
  5
AB
330
8E
100
AcDbEntity
  8
AM_9
100
AcDbLine
 10
-41.43189082674527
 20
-27.14786003443031
 30
0.0
 11
-44.22994250374474
 21
-22.30149236766393
 31
0.0
  0
ELLIPSE
  5
AC
330
8E
100
AcDbEntity
  8
AM_9
100
AcDbEllipse
 10
-44.62293618573996
 20
-25.76306421886845
 30
0.0
 11
-1.785937500000003
 21
3.093334489142549
 31
0.0
210
0.0
220
0.0
230
1.0
 40
0.9063077870366509
 41
5.859216366485142
 42
9.848746901463814
  0
LWPOLYLINE
  5
AD
330
8E
100
AcDbEntity
  8
AM_9
100
AcDbPolyline
 90
        4
 70
     0
 43
0.0
 10
-46.80729613654215
 20
-22.26170502447113
 10
-47.35728140160725
 20
-23.43100486283386
 10
-48.03317288107633
 20
-24.70892471870115
 10
-48.58491423315829
 20
-25.66926331106881
  0
LWPOLYLINE
  5
AE
330
8E
100
AcDbEntity
  8
AM_9
100
AcDbPolyline
 90
        4
 70
     0
 43
0.0
 10
-46.52269124039659
 20
-29.24113831106881
 10
-45.04750048456975
 20
-29.25086209670618
 10
-43.61297929569307
 20
-29.32142327771371
 10
-42.68285015101876
 20
-29.40545502447113
  0
LWPOLYLINE
  5
AF
330
8E
100
AcDbEntity
  8
AM_9
100
AcDbPolyline
 90
        3
 70
     0
 43
0.0
 10
-41.69723119948683
 20
-26.68827702754265
 10
-42.17280907765034
 20
-27.44169258101902
 10
-42.76002968413336
 20
-27.91374677865349
  0
LWPOLYLINE
  5
B0
330
8E
100
AcDbEntity
  8
AM_9
100
AcDbPolyline
 90
        9
 70
     0
 43
0.0
 10
-41.69723119948683
 20
-26.68827702754265
 10
-41.57138282349631
 20
-26.28201089390837
 10
-41.53002875967534
 20
-25.44829675767451
 10
-41.76456982463903
 20
-24.56132388347286
 10
-42.25287690737002
 20
-23.76171697599753
 10
-42.93414941020136
 20
-23.15259458609681
 10
-43.33442288644032
 20
-22.9401913047787
 10
-43.76235155485518
 20
-22.80226857346145
 10
-43.96134148883201
 20
-22.76672297245734
  0
LINE
  5
B1
330
8E
100
AcDbEntity
  8
AM_9
100
AcDbLine
 10
-45.55213674879588
 20
-23.07330510984831
 30
0.0
 11
-46.01993618573997
 21
-23.34338924069473
 31
0.0
  0
LINE
  5
B2
330
8E
100
AcDbEntity
  8
AM_9
100
AcDbLine
 10
-43.22593618573997
 20
-28.18273919704218
 30
0.0
 11
-42.75813634427296
 21
-27.91265483264433
 31
0.0
  0
LWPOLYLINE
  5
B3
330
8E
100
AcDbEntity
  8
AM_9
100
AcDbPolyline
 90
        3
 70
     0
 43
0.0
 10
-45.82273997604555
 20
-23.25462861643999
 10
-45.67577706153448
 20
-23.14968684955892
 10
-45.55411348854658
 20
-23.07444766089993
  0
LWPOLYLINE
  5
B4
330
8E
100
AcDbEntity
  8
AM_9
100
AcDbPolyline
 90
       10
 70
     0
 43
0.0
 10
-43.01096388611229
 20
-28.03969012946703
 10
-43.71703563859119
 20
-28.22664742480978
 10
-44.61145063194034
 20
-28.16897056608314
 10
-45.45337186912013
 20
-27.80844987254282
 10
-46.14758952374989
 20
-27.18713980143761
 10
-46.61672505935039
 20
-26.37617048344425
 10
-46.80917013127914
 20
-25.46682779519101
 10
-46.70377822201637
 20
-24.56043103280826
 10
-46.31172550522461
 20
-23.75795336822162
 10
-45.82273997604555
 20
-23.25462861643999
  0
LWPOLYLINE
  5
B5
330
8E
100
AcDbEntity
  8
AM_9
100
AcDbPolyline
 90
        3
 70
     0
 43
0.0
 10
-42.76002968413336
 20
-27.91374677865349
 10
-42.87215933422478
 20
-27.97450398452263
 10
-43.01096388611229
 20
-28.03969012946703
  0
LWPOLYLINE
  5
B6
330
8E
100
AcDbEntity
  8
AM_9
100
AcDbPolyline
 90
        4
 70
     0
 43
0.0
 10
-45.55411348854658
 20
-23.07444766089993
 10
-44.86666228253227
 20
-22.80524012688494
 10
-44.42471914422079
 20
-22.74581586980424
 10
-43.96134148883157
 20
-22.76672297245753
  0
ELLIPSE
  5
B7
330
8E
100
AcDbEntity
  8
AM_9
100
AcDbEllipse
 10
-44.6229361857399
 20
-25.76306421886846
 30
0.0
 11
-1.785937499999981
 21
3.093334489142457
 31
0.0
210
0.0
220
0.0
230
1.0
 40
0.9063077870366529
 41
3.764821264091928
 42
4.571432719802702
  0
ELLIPSE
  5
B8
330
8E
100
AcDbEntity
  8
AM_9
100
AcDbEllipse
 10
-44.62293618573996
 20
-25.76306421886846
 30
0.0
 11
-1.785937500000444
 21
3.09333448914229
 31
0.0
210
0.0
220
0.0
230
1.0
 40
0.9063077870366868
 41
4.853345240966575
 42
5.659956696677302
  0
LWPOLYLINE
  5
B9
330
8E
100
AcDbEntity
  8
AM_9
100
AcDbPolyline
 90
        5
 70
     0
 43
0.0
 10
-46.81025920028307
 20
-29.40716575011958
 10
-47.36748557240985
 20
-28.56372366086361
 10
-47.89632447616999
 20
-27.69453519314443
 10
-48.40399172746136
 20
-26.77137918427097
 10
-48.87248219304476
 20
-25.83529075011958
  0
LWPOLYLINE
  5
BA
330
8E
100
AcDbEntity
  8
AM_9
100
AcDbPolyline
 90
        4
 70
     0
 43
0.0
 10
-44.19519827284572
 20
-29.56098225577371
 10
-44.93490512413863
 20
-29.53578491330026
 10
-45.89404151536245
 20
-29.48137087674926
 10
-46.81025920028307
 20
-29.40716575011958
  0
LWPOLYLINE
  5
BB
330
8E
100
AcDbEntity
  8
AM_9
100
AcDbPolyline
 90
        4
 70
     0
 43
0.0
 10
-48.87248219304476
 20
-25.83529075011958
 10
-48.49284121695887
 20
-25.0337851611115
 10
-48.07729987978671
 20
-24.20674219793952
 10
-47.6971090046327
 20
-23.49174131460465
  0
ELLIPSE
  5
BC
330
8E
100
AcDbEntity
  8
AM_9
100
AcDbEllipse
 10
-45.08775383721872
 20
-26.0314268150738
 30
0.0
 11
-1.785937499999995
 21
3.093334489142539
 31
0.0
210
0.0
220
0.0
230
1.0
 40
0.9063077870366513
 41
0.242444736323522
 42
2.900248207864567
  0
LWPOLYLINE
  5
BD
330
8E
100
AcDbEntity
  8
AM_9
100
AcDbPolyline
 90
       19
 70
     0
 43
0.0
 10
-43.54993441741846
 20
-26.1871855001928
 10
-43.54574309763685
 20
-26.20566103483685
 10
-43.48433549579801
 20
-26.61320417845791
 10
-43.48211183385085
 20
-27.01211030106834
 10
-43.53704668313384
 20
-27.39199237477948
 10
-43.64582412379165
 20
-27.74412125194312
 10
-43.80482238004981
 20
-28.06177213056429
 10
-44.0114047839223
 20
-28.34001083556288
 10
-44.26503939697095
 20
-28.57448807825884
 10
-44.56665702104597
 20
-28.75897983720131
 10
-44.91350144471799
 20
-28.8832942822561
 10
-45.28771026942661
 20
-28.93651490607815
 10
-45.67181529237977
 20
-28.91726318162741
 10
-46.05416623363707
 20
-28.82894668034776
 10
-46.42594307104348
 20
-28.67563619736906
 10
-46.77850218509443
 20
-28.46175267232633
 10
-47.10288720349654
 20
-28.19281956472156
 10
-47.39028923277844
 20
-27.87595171481017
 10
-47.64104715088234
 20
-27.50557139703756
  0
LWPOLYLINE
  5
BE
330
8E
100
AcDbEntity
  8
AM_9
100
AcDbPolyline
 90
       20
 70
     0
 43
0.0
 10
-47.64104715088234
 20
-27.50557139703756
 10
-47.72892157771827
 20
-27.34240856215018
 10
-47.89361627364833
 20
-26.94823233018942
 10
-48.00057066614122
 20
-26.54177794476817
 10
-48.04805146104648
 20
-26.13525760435802
 10
-48.03666852472848
 20
-25.73992166761896
 10
-47.96881682438568
 20
-25.36581814385965
 10
-47.84798598007939
 20
-25.02122373260204
 10
-47.67768942568912
 20
-24.71239672326698
 10
-47.46014492353573
 20
-24.44398012894856
 10
-47.1953637580774
 20
-24.22050242976365
 10
-46.8826127864701
 20
-24.0490308238519
 10
-46.5272769921475
 20
-23.94060661467435
 10
-46.1494118229569
 20
-23.90450378081552
 10
-45.76484292343159
 20
-23.94027449074148
 10
-45.38420598744332
 20
-24.04416362736477
 10
-45.01613630532778
 20
-24.21207062446253
 10
-44.66936128949521
 20
-24.43938230588195
 10
-44.35285827595352
 20
-24.72023070146757
 10
-44.26972477055479
 20
-24.80874056954676
  0
ELLIPSE
  5
BF
330
8E
100
AcDbEntity
  8
AM_9
100
AcDbEllipse
 10
-46.38317676750145
 20
-26.77933959258695
 30
0.0
 11
1.691562466580849
 21
-2.929872136294566
 31
0.0
210
0.0
220
0.0
230
1.0
 40
0.9063077870366503
 41
0.0
 42
6.283185307179586
  0
LINE
  5
C1
330
8E
100
AcDbEntity
  8
AM_5
100
AcDbLine
 10
-32.63038210996255
 20
-23.74266864678881
 30
0.0
 11
-28.81521373100085
 21
-21.37808578695018
 31
0.0
  0
LINE
  5
C2
330
8E
100
AcDbEntity
  8
AM_5
100
AcDbLine
 10
-33.09225961297392
 20
-24.54266394887757
 30
0.0
 11
-32.63038210996255
 21
-23.74266864678882
 31
0.0
  0
LINE
  5
C3
330
8E
100
AcDbEntity
  8
AM_5
100
AcDbLine
 10
-32.33823955238572
 20
-24.24867439956499
 30
0.0
 11
-37.16908781431351
 21
-15.88139976625025
 31
0.0
  0
LINE
  5
C4
330
8E
100
AcDbEntity
  8
AM_5
100
AcDbLine
 10
-36.87694525673669
 20
-16.38740551902642
 30
0.0
 11
-32.92157224128233
 21
-14.26566421304981
 31
0.0
  0
LINE
  5
C5
330
8E
100
AcDbEntity
  8
AM_5
100
AcDbLine
 10
-37.80070026275945
 20
-16.38740551902642
 30
0.0
 11
-36.87694525673668
 21
-16.38740551902642
 31
0.0
  0
ELLIPSE
  5
C6
330
8E
100
AcDbEntity
  8
AM_9
100
AcDbEllipse
 10
-44.62293618573997
 20
-25.76306421886844
 30
0.0
 11
-1.396999999999998
 21
2.419674978173735
 31
0.0
210
0.0
220
0.0
230
1.0
 40
0.9063077870366509
 41
0.0
 42
6.283185307179586
  0
LINE
  5
C9
330
8E
100
AcDbEntity
  8
AM_7
100
AcDbLine
 10
-48.0467105158465
 20
-27.73978125
 30
0.0
 11
-30.05037786567945
 21
-17.34959375
 31
0.0
  0
LINE
  5
CA
330
8E
100
AcDbEntity
  8
AM_7
100
AcDbLine
 10
-48.1632863441594
 20
-24.7275
 30
0.0
 11
-37.49528634415942
 21
-24.7275
 31
0.0
  0
LINE
  5
CB
330
8E
100
AcDbEntity
  8
AM_7
100
AcDbLine
 10
-42.82928634415941
 20
-30.06149999999999
 30
0.0
 11
-42.82928634415941
 21
-19.39350000000001
 31
0.0
  0
LINE
  5
CD
330
8E
100
AcDbEntity
  8
AM_4
100
AcDbLine
 10
-36.8203453221661
 20
-27.67404114977728
 30
0.0
 11
-42.3765953221661
 21
-18.05033385022271
 31
0.0
  0
LINE
  5
CE
330
8E
100
AcDbEntity
  8
AM_4
100
AcDbLine
 10
-42.60691235446011
 20
-17.19077898385299
 30
0.0
 11
-42.3765953221661
 21
-18.05033385022271
 31
0.0
  0
LINE
  5
CF
330
8E
100
AcDbEntity
  8
AM_4
100
AcDbLine
 10
-36.8203453221661
 20
-27.67404114977728
 30
0.0
 11
-36.19110748809039
 21
-28.30327898385299
 31
0.0
  0
LINE
  5
D0
330
8E
100
AcDbEntity
  8
AM_4
100
AcDbLine
 10
-34.62064079655362
 20
-26.40404114977729
 30
0.0
 11
-40.17689079655363
 21
-16.78033385022271
 31
0.0
  0
LINE
  5
D1
330
8E
100
AcDbEntity
  8
AM_4
100
AcDbLine
 10
-40.17689079655363
 20
-16.78033385022271
 30
0.0
 11
-40.80612863062934
 21
-16.151096016147
 31
0.0
  0
LINE
  5
D2
330
8E
100
AcDbEntity
  8
AM_4
100
AcDbLine
 10
-34.39032376425962
 20
-27.263596016147
 30
0.0
 11
-34.62064079655362
 21
-26.40404114977729
 31
0.0
  0
ARC
  5
D3
330
8E
100
AcDbEntity
  8
AM_4
100
AcDbCircle
 10
-42.82928634415943
 20
-24.72749999999996
 30
0.0
 40
5.080000000000029
100
AcDbArc
 50
253.9215659297802
 51
299.9999999999998
  0
ARC
  5
D4
330
8E
100
AcDbEntity
  8
AM_4
100
AcDbCircle
 10
-42.82928634415938
 20
-24.72750000000004
 30
0.0
 40
5.080000000000056
100
AcDbArc
 50
120.0000000000002
 51
166.0572702406812
  0
LINE
  5
D5
330
8E
100
AcDbEntity
  8
AM_4
100
AcDbLine
 10
-37.85927305637472
 20
-16.25162895351907
 30
0.0
 11
-38.1123891934957
 21
-16.38740551902642
 31
0.0
  0
LINE
  5
D6
330
8E
100
AcDbEntity
  8
AM_4
100
AcDbLine
 10
-33.24810407834205
 20
-24.81259448097357
 30
0.0
 11
-33.0039600548136
 21
-24.66127775887269
 31
0.0
  0
LINE
  5
D7
330
8E
100
AcDbEntity
  8
AM_4
100
AcDbLine
 10
-33.14024663591888
 20
-24.99940905122494
 30
0.0
 11
-38.22024663591888
 21
-16.20059094877505
 31
0.0
  0
LINE
  5
D8
330
8E
100
AcDbEntity
  8
AM_4
100
AcDbLine
 10
-38.22024663591888
 20
-16.20059094877505
 30
0.0
 11
-39.93876579655362
 21
-17.19277844877505
 31
0.0
  0
LINE
  5
D9
330
8E
100
AcDbEntity
  8
AM_4
100
AcDbLine
 10
-34.85876579655363
 20
-25.99159655122495
 30
0.0
 11
-33.14024663591888
 21
-24.99940905122494
 31
0.0
  0
LINE
  5
DA
330
8E
100
AcDbEntity
  8
AM_4
100
AcDbLine
 10
-44.22994250374474
 20
-22.30149236766393
 30
0.0
 11
-45.36928634415942
 21
-20.32809094877505
 31
0.0
  0
LINE
  5
DB
330
8E
100
AcDbEntity
  8
AM_4
100
AcDbLine
 10
-42.1384703221661
 20
-18.46277844877505
 30
0.0
 11
-45.36928634415942
 21
-20.32809094877505
 31
0.0
  0
LINE
  5
DC
330
8E
100
AcDbEntity
  8
AM_4
100
AcDbLine
 10
-40.28928634415942
 20
-29.12690905122495
 30
0.0
 11
-37.0584703221661
 21
-27.26159655122495
 31
0.0
  0
LINE
  5
DD
330
8E
100
AcDbEntity
  8
AM_4
100
AcDbLine
 10
-40.28928634415942
 20
-29.12690905122495
 30
0.0
 11
-41.43189082674527
 21
-27.14786003443031
 31
0.0
  0
LINE
  5
DE
330
8E
100
AcDbEntity
  8
AM_4
100
AcDbLine
 10
-42.60691235446011
 20
-17.19077898385299
 30
0.0
 11
-40.80612863062934
 21
-16.151096016147
 31
0.0
  0
LWPOLYLINE
  5
DF
330
8E
100
AcDbEntity
  8
AM_4
100
AcDbPolyline
 90
        3
 70
     0
 43
0.0
 10
-42.00439714705474
 20
-18.695
 10
-42.3527376457593
 20
-17.97007281403005
 10
-42.60691235446011
 20
-17.19077898385299
  0
LWPOLYLINE
  5
E0
330
8E
100
AcDbEntity
  8
AM_4
100
AcDbPolyline
 90
        3
 70
     0
 43
0.0
 10
-41.00296113786768
 20
-19.96890398385299
 10
-41.54849397917529
 20
-19.36198958265812
 10
-42.00439714705474
 20
-18.695
  0
LWPOLYLINE
  5
E1
330
8E
100
AcDbEntity
  8
AM_4
100
AcDbPolyline
 90
        3
 70
     0
 43
0.0
 10
-39.80469262144227
 20
-17.425
 10
-39.45635212273771
 20
-18.14992718596994
 10
-39.2021774140369
 20
-18.929221016147
  0
LWPOLYLINE
  5
E2
330
8E
100
AcDbEntity
  8
AM_4
100
AcDbPolyline
 90
        3
 70
     0
 43
0.0
 10
-40.80612863062934
 20
-16.151096016147
 10
-40.26059578932172
 20
-16.75801041734187
 10
-39.80469262144227
 20
-17.425
  0
LINE
  5
E3
330
8E
100
AcDbEntity
  8
AM_4
100
AcDbLine
 10
-41.00296113786768
 20
-19.96890398385299
 30
0.0
 11
-39.2021774140369
 21
-18.929221016147
 31
0.0
  0
LWPOLYLINE
  5
E4
330
8E
100
AcDbEntity
  8
AM_4
100
AcDbPolyline
 90
        3
 70
     0
 43
0.0
 10
-39.59847032216609
 20
-22.86218749999999
 10
-40.70722877371818
 20
-20.66325497268394
 10
-41.00296113786768
 20
-19.96890398385299
  0
LWPOLYLINE
  5
E5
330
8E
100
AcDbEntity
  8
AM_4
100
AcDbPolyline
 90
        3
 70
     0
 43
0.0
 10
-39.2021774140369
 20
-18.929221016147
 10
-38.74871800064121
 20
-19.53250825063717
 10
-37.39876579655362
 20
-21.59218749999999
  0
LWPOLYLINE
  5
E6
330
8E
100
AcDbEntity
  8
AM_4
100
AcDbPolyline
 90
        3
 70
     0
 43
0.0
 10
-37.39876579655362
 20
-21.59218749999999
 10
-36.64943749370096
 20
-23.01164593596994
 10
-35.99427498085205
 20
-24.485471016147
  0
LWPOLYLINE
  5
E7
330
8E
100
AcDbEntity
  8
AM_4
100
AcDbPolyline
 90
        3
 70
     0
 43
0.0
 10
-37.79505870468282
 20
-25.525153983853
 10
-38.73977640099602
 20
-24.22683113217642
 10
-39.59847032216609
 20
-22.86218749999999
  0
LINE
  5
E8
330
8E
100
AcDbEntity
  8
AM_4
100
AcDbLine
 10
-37.79505870468282
 20
-25.525153983853
 30
0.0
 11
-35.99427498085205
 21
-24.485471016147
 31
0.0
  0
LWPOLYLINE
  5
E9
330
8E
100
AcDbEntity
  8
AM_4
100
AcDbPolyline
 90
        3
 70
     0
 43
0.0
 10
-37.19254349727746
 20
-27.02937499999999
 10
-37.54088399598201
 20
-26.30444781403006
 10
-37.79505870468282
 20
-25.525153983853
  0
LWPOLYLINE
  5
EA
330
8E
100
AcDbEntity
  8
AM_4
100
AcDbPolyline
 90
        3
 70
     0
 43
0.0
 10
-36.19110748809039
 20
-28.30327898385299
 10
-36.736640329398
 20
-27.69636458265812
 10
-37.19254349727746
 20
-27.02937499999999
  0
LINE
  5
EB
330
8E
100
AcDbEntity
  8
AM_4
100
AcDbLine
 10
-36.19110748809039
 20
-28.30327898385299
 30
0.0
 11
-34.39032376425962
 21
-27.263596016147
 31
0.0
  0
LWPOLYLINE
  5
EC
330
8E
100
AcDbEntity
  8
AM_4
100
AcDbPolyline
 90
        3
 70
     0
 43
0.0
 10
-34.99283897166498
 20
-25.759375
 10
-34.64449847296042
 20
-26.48430218596994
 10
-34.39032376425962
 20
-27.263596016147
  0
LWPOLYLINE
  5
ED
330
8E
100
AcDbEntity
  8
AM_4
100
AcDbPolyline
 90
        3
 70
     0
 43
0.0
 10
-35.99427498085205
 20
-24.485471016147
 10
-35.44874213954444
 20
-25.09238541734187
 10
-34.99283897166498
 20
-25.759375
  0
LINE
  5
EE
330
8E
100
AcDbEntity
  8
AM_4
100
AcDbLine
 10
-42.9797062049952
 20
-29.576844947145
 30
0.0
 11
-44.19519827284572
 21
-29.56098225577371
 31
0.0
  0
LINE
  5
EF
330
8E
100
AcDbEntity
  8
AM_4
100
AcDbLine
 10
-47.6971090046327
 20
-23.49174131460465
 30
0.0
 11
-47.10415219051859
 21
-22.433094947145
 31
0.0
  0
LWPOLYLINE
  5
F0
330
8E
100
AcDbEntity
  8
AM_4
100
AcDbPolyline
 90
        3
 70
     0
 43
0.0
 10
-42.68285015101876
 20
-29.40545502447113
 10
-42.25171861974728
 20
-28.66041542538193
 10
-41.84180688726904
 20
-27.91665993102582
  0
LINE
  5
F1
330
8E
100
AcDbEntity
  8
AM_4
100
AcDbLine
 10
-41.84180688726904
 20
-27.91665993102582
 30
0.0
 11
-41.53646002065113
 21
-27.33012942772721
 31
0.0
  0
LWPOLYLINE
  5
F2
330
8E
100
AcDbEntity
  8
AM_4
100
AcDbPolyline
 90
        3
 70
     0
 43
0.0
 10
-41.53646002065113
 20
-27.33012942772721
 10
-41.30366936160657
 20
-26.85910892482294
 10
-40.90519310859882
 20
-25.99787425250315
  0
LINE
  5
F3
330
8E
100
AcDbEntity
  8
AM_4
100
AcDbLine
 10
-42.30662453874777
 20
-28.18502252723111
 30
0.0
 11
-42.9797062049952
 21
-29.576844947145
 31
0.0
  0
LINE
  5
F4
330
8E
100
AcDbEntity
  8
AM_4
100
AcDbLine
 10
-42.68285015101876
 20
-29.40545502447113
 30
0.0
 11
-42.9797062049952
 21
-29.576844947145
 31
0.0
  0
LWPOLYLINE
  5
F5
330
8E
100
AcDbEntity
  8
AM_4
100
AcDbPolyline
 90
        3
 70
     0
 43
0.0
 10
-42.96741610136052
 20
-22.42599925250315
 10
-43.68019852056915
 20
-22.35866661256951
 10
-44.43681638345398
 20
-22.30656484729697
  0
LINE
  5
F6
330
8E
100
AcDbEntity
  8
AM_4
100
AcDbLine
 10
-44.43681638345398
 20
-22.30656484729697
 30
0.0
 11
-45.097440132714
 21
-22.27773773910476
 31
0.0
  0
LWPOLYLINE
  5
F7
330
8E
100
AcDbEntity
  8
AM_4
100
AcDbPolyline
 90
        3
 70
     0
 43
0.0
 10
-45.097440132714
 20
-22.27773773910476
 10
-45.68138701389691
 20
-22.26396339412863
 10
-46.80729613654215
 20
-22.26170502447113
  0
LINE
  5
F8
330
8E
100
AcDbEntity
  8
AM_4
100
AcDbLine
 10
-46.80729613654215
 20
-22.26170502447113
 30
0.0
 11
-47.10415219051859
 21
-22.433094947145
 31
0.0
  0
LINE
  5
F9
330
8E
100
AcDbEntity
  8
AM_4
100
AcDbLine
 10
-47.10415219051859
 20
-22.433094947145
 30
0.0
 11
-45.56225778419271
 21
-22.54610033531011
 31
0.0
  0
LINE
  5
FA
330
8E
100
AcDbEntity
  8
AM_4
100
AcDbLine
 10
-44.90163403493279
 20
-22.57492744350231
 30
0.0
 11
-43.27362959385937
 21
-22.60279169482685
 31
0.0
  0
LINE
  5
FB
330
8E
100
AcDbEntity
  8
AM_4
100
AcDbLine
 10
-41.21140660109767
 20
-26.17466669482685
 30
0.0
 11
-42.00127767212989
 21
-27.59849202393259
 31
0.0
  0
LINE
  5
FC
330
8E
100
AcDbEntity
  8
AM_4
100
AcDbLine
 10
-40.90519310859882
 20
-25.99787425250315
 30
0.0
 11
-41.59632172288065
 21
-24.59509077583033
 31
0.0
  0
LINE
  5
FD
330
8E
100
AcDbEntity
  8
AM_4
100
AcDbLine
 10
-41.59632172288065
 20
-24.59509077583033
 30
0.0
 11
-42.09813428169366
 21
-23.72592592808983
 31
0.0
  0
LWPOLYLINE
  5
FE
330
8E
100
AcDbEntity
  8
AM_4
100
AcDbPolyline
 90
        3
 70
     0
 43
0.0
 10
-42.09813428169366
 20
-23.72592592808983
 10
-42.33304962120658
 20
-23.35364633553604
 10
-42.96741610136052
 20
-22.42599925250315
  0
LINE
  5
FF
330
8E
100
AcDbEntity
  8
AM_4
100
AcDbLine
 10
-42.96741610136052
 20
-22.42599925250315
 30
0.0
 11
-43.27362959385937
 21
-22.60279169482685
 31
0.0
  0
LINE
  5
100
330
8E
100
AcDbEntity
  8
AM_4
100
AcDbLine
 10
-43.27362959385937
 20
-22.60279169482685
 30
0.0
 11
-42.56295193317244
 21
-23.99428852429533
 31
0.0
  0
LINE
  5
101
330
8E
100
AcDbEntity
  8
AM_4
100
AcDbLine
 10
-42.06113937435941
 20
-24.86345337203565
 30
0.0
 11
-41.21140660109767
 21
-26.17466669482685
 31
0.0
  0
LINE
  5
102
330
8E
100
AcDbEntity
  8
AM_4
100
AcDbLine
 10
-40.90519310859882
 20
-25.99787425250315
 30
0.0
 11
-41.21140660109767
 21
-26.17466669482685
 31
0.0
  0
LINE
  5
103
330
8E
100
AcDbEntity
  8
AM_4
100
AcDbLine
 10
-45.56225778419271
 20
-22.54610033531011
 30
0.0
 11
-44.90163403493279
 21
-22.57492744350231
 31
0.0
  0
ELLIPSE
  5
104
330
8E
100
AcDbEntity
  8
AM_4
100
AcDbEllipse
 10
-45.08775383721876
 20
-26.03142681507373
 30
0.0
 11
-1.78593749999996
 21
3.093334489142652
 31
0.0
210
0.0
220
0.0
230
1.0
 40
0.9063077870366506
 41
2.900248207864597
 42
3.565561594284264
  0
ELLIPSE
  5
105
330
8E
100
AcDbEntity
  8
AM_4
100
AcDbEllipse
 10
-45.08775383721872
 20
-26.03142681507379
 30
0.0
 11
-1.78593750000003
 21
3.09333448914251
 31
0.0
210
0.0
220
0.0
230
1.0
 40
0.9063077870366504
 41
5.859216366485116
 42
6.525630043503098
  0
LINE
  5
106
330
8E
100
AcDbEntity
  8
AM_4
100
AcDbLine
 10
-42.00127767212989
 20
-27.59849202393259
 30
0.0
 11
-42.30662453874777
 21
-28.18502252723111
 31
0.0
  0
ELLIPSE
  5
107
330
8E
100
AcDbEntity
  8
AM_4
100
AcDbEllipse
 10
-45.08775383721869
 20
-26.0314268150738
 30
0.0
 11
-1.78593749999999
 21
3.09333448914251
 31
0.0
210
0.0
220
0.0
230
1.0
 40
0.9063077870366506
 41
3.764821264091928
 42
4.57143271980271
  0
LINE
  5
108
330
8E
100
AcDbEntity
  8
AM_4
100
AcDbLine
 10
-42.56295193317244
 20
-23.99428852429533
 30
0.0
 11
-42.06113937435941
 21
-24.86345337203565
 31
0.0
  0
ELLIPSE
  5
109
330
8E
100
AcDbEntity
  8
AM_4
100
AcDbEllipse
 10
-45.08775383721873
 20
-26.03142681507384
 30
0.0
 11
-1.78593750000003
 21
3.093334489142567
 31
0.0
210
0.0
220
0.0
230
1.0
 40
0.9063077870366498
 41
4.853345240966668
 42
5.659956696677439
  0
LWPOLYLINE
  5
10A
330
8E
100
AcDbEntity
  8
AM_4
100
AcDbPolyline
 90
        7
 70
     0
 43
0.0
 10
-49.89709948350117
 20
-26.04952092923557
 10
-49.92726412033971
 20
-26.27853959211362
 10
-49.94141459520926
 20
-26.78764434865115
 10
-49.88417498087334
 20
-27.29936568633515
 10
-49.75650822229079
 20
-27.8028906929941
 10
-49.56088344154099
 20
-28.28749936851556
 10
-49.42839992099685
 20
-28.53749999999999
  0
LWPOLYLINE
  5
10B
330
8E
100
AcDbEntity
  8
AM_4
100
AcDbPolyline
 90
       34
 70
     0
 43
0.0
 10
-46.90953282227763
 20
-30.35314755302687
 10
-46.72745219062632
 20
-30.38095812153177
 10
-46.23151100435878
 20
-30.40496556939523
 10
-45.743184639763
 20
-30.35348926921056
 10
-45.27310936067924
 20
-30.2280712800552
 10
-44.83127357991096
 20
-30.03190324194849
 10
-44.42679507025133
 20
-29.76959545264165
 10
-44.06786631823152
 20
-29.44699723813218
 10
-43.7616757998606
 20
-29.07104788498528
 10
-43.51423686560554
 20
-28.64946052435417
 10
-43.33051187594628
 20
-28.19074629172432
 10
-43.21433730015679
 20
-27.70417976647755
 10
-43.16829690810632
 20
-27.19971698054902
 10
-43.19358761287748
 20
-26.68783492874125
 10
-43.28992437883345
 20
-26.17930145420565
 10
-43.45550904117748
 20
-25.68491074935981
 10
-43.68706077997332
 20
-25.21522195535396
 10
-43.97988904172347
 20
-24.78032320675025
 10
-44.32795993170371
 20
-24.38965123136518
 10
-44.72400811970245
 20
-24.05176187082861
 10
-45.1596746594338
 20
-23.77412298262773
 10
-45.6256159718987
 20
-23.56294491638767
 10
-46.11167684992387
 20
-23.4229714323764
 10
-46.6071325955504
 20
-23.35728450645653
 10
-47.10100713187241
 20
-23.36716477570386
 10
-47.58244159901363
 20
-23.45205445837469
 10
-48.04105483603384
 20
-23.6096474128142
 10
-48.46722810440752
 20
-23.83608606093398
 10
-48.85227422680467
 20
-24.12620304400179
 10
-49.18838990620233
 20
-24.47359989602726
 10
-49.46894581539793
 20
-24.87099359634205
 10
-49.68839453315349
 20
-25.31031002281354
 10
-49.84226485793744
 20
-25.78269015062752
 10
-49.89709948350117
 20
-26.04952092923557
  0
ELLIPSE
  5
10C
330
8E
100
AcDbEntity
  8
AM_4
100
AcDbEllipse
 10
-47.36536032946458
 20
-27.34640353647999
 30
0.0
 11
1.314229537202296
 21
-2.276312331242103
 31
0.0
210
0.0
220
0.0
230
1.0
 40
0.9063077870366485
 41
0.0
 42
6.283185307179586
  0
ELLIPSE
  5
10D
330
8E
100
AcDbEntity
  8
AM_4
100
AcDbEllipse
 10
-46.65432130964843
 20
-26.93588496698485
 30
0.0
 11
-1.76718666210732
 21
3.060857085227969
 31
0.0
210
0.0
220
0.0
230
1.0
 40
0.9063077870366484
 41
0.0
 42
6.283185307179586
  0
ENDBLK
  5
91
330
8E
100
AcDbEntity
  8
0
100
AcDbBlockEnd
  0
BLOCK
  5
110
330
10E
100
AcDbEntity
  8
0
100
AcDbBlockBegin
  2
3_125825_0_in_125980_0
 70
     2
 10
0.0
 20
0.0
 30
0.0
  3
3_125825_0_in_125980_0
  1

  0
ATTDEF
  5
112
330
10E
100
AcDbEntity
  8
AM_6
100
AcDbText
 10
35.85962823420343
 20
32.25
 30
0.0
 40
0.5
  1
Set Screw Medium Duty Insert Metric Bore
100
AcDbAttributeDefinition
  3

  2
NN
 70
     8
280
     0
  0
ATTDEF
  5
113
330
10E
100
AcDbEntity
  8
AM_6
100
AcDbText
 10
35.85962823420343
 20
31.75
 30
0.0
 40
0.5
  1
SC Medium Duty Bearing Inserts
100
AcDbAttributeDefinition
  3

  2
NT
 70
     8
280
     0
  0
ATTDEF
  5
114
330
10E
100
AcDbEntity
  8
AM_6
100
AcDbText
 10
35.85962823420343
 20
31.25
 30
0.0
 40
0.5
  1
125825
100
AcDbAttributeDefinition
  3

  2
NB
 70
     8
280
     0
  0
ATTDEF
  5
115
330
10E
100
AcDbEntity
  8
AM_6
100
AcDbText
 10
35.85962823420343
 20
30.75
 30
0.0
 40
0.5
  1
$PN.
100
AcDbAttributeDefinition
  3

  2
NBSYN
 70
     8
280
     0
  0
ATTDEF
  5
116
330
10E
100
AcDbEntity
  8
AM_6
100
AcDbText
 10
35.85962823420343
 20
30.25
 30
0.0
 40
0.5
  1
125825
100
AcDbAttributeDefinition
  3

  2
LINA
 70
     8
280
     0
  0
ATTDEF
  5
117
330
10E
100
AcDbEntity
  8
AM_6
100
AcDbText
 10
35.85962823420343
 20
29.75
 30
0.0
 40
0.5
  1
206
100
AcDbAttributeDefinition
  3

  2
SERIES
 70
     8
280
     0
  0
ATTDEF
  5
118
330
10E
100
AcDbEntity
  8
AM_6
100
AcDbText
 10
35.85962823420343
 20
29.25
 30
0.0
 40
0.5
  1
25
100
AcDbAttributeDefinition
  3

  2
SS
 70
     8
280
     0
  0
ATTDEF
  5
119
330
10E
100
AcDbEntity
  8
AM_6
100
AcDbText
 10
35.85962823420343
 20
28.75
 30
0.0
 40
0.5
  1
125825
100
AcDbAttributeDefinition
  3

  2
PN
 70
     8
280
     0
  0
ATTDEF
  5
11A
330
10E
100
AcDbEntity
  8
AM_6
100
AcDbText
 10
35.85962823420343
 20
28.25
 30
0.0
 40
0.5
  1
INS-SCM-25M
100
AcDbAttributeDefinition
  3

  2
DESCRIPTION
 70
     8
280
     0
  0
ATTDEF
  5
11B
330
10E
100
AcDbEntity
  8
AM_6
100
AcDbText
 10
35.85962823420343
 20
27.75
 30
0.0
 40
0.5
  1
0.32
100
AcDbAttributeDefinition
  3

  2
WEIGHT
 70
     8
280
     0
  0
ATTDEF
  5
11C
330
10E
100
AcDbEntity
  8
AM_6
100
AcDbText
 10
35.85962823420343
 20
27.25
 30
0.0
 40
0.5
  1
38.6
100
AcDbAttributeDefinition
  3

  2
A
 70
     8
280
     0
  0
ATTDEF
  5
11D
330
10E
100
AcDbEntity
  8
AM_6
100
AcDbText
 10
35.85962823420343
 20
26.75
 30
0.0
 40
0.5
  1
17.5
100
AcDbAttributeDefinition
  3

  2
C
 70
     8
280
     0
  0
ATTDEF
  5
11E
330
10E
100
AcDbEntity
  8
AM_6
100
AcDbText
 10
35.85962823420343
 20
26.25
 30
0.0
 40
0.5
  1
62.0
100
AcDbAttributeDefinition
  3

  2
D
 70
     8
280
     0
  0
ATTDEF
  5
11F
330
10E
100
AcDbEntity
  8
AM_6
100
AcDbText
 10
35.85962823420343
 20
25.75
 30
0.0
 40
0.5
  1
4.1
100
AcDbAttributeDefinition
  3

  2
J
 70
     8
280
     0
  0
ATTDEF
  5
120
330
10E
100
AcDbEntity
  8
AM_6
100
AcDbText
 10
35.85962823420343
 20
25.25
 30
0.0
 40
0.5
  1
39.9
100
AcDbAttributeDefinition
  3

  2
L
 70
     8
280
     0
  0
ATTDEF
  5
121
330
10E
100
AcDbEntity
  8
AM_6
100
AcDbText
 10
35.85962823420343
 20
24.75
 30
0.0
 40
0.5
  1
M8 x 1.25
100
AcDbAttributeDefinition
  3

  2
N
 70
     8
280
     0
  0
ATTDEF
  5
122
330
10E
100
AcDbEntity
  8
AM_6
100
AcDbText
 10
35.85962823420343
 20
24.25
 30
0.0
 40
0.5
  1
14.7
100
AcDbAttributeDefinition
  3

  2
W
 70
     8
280
     0
  0
ATTDEF
  5
123
330
10E
100
AcDbEntity
  8
AM_6
100
AcDbText
 10
35.85962823420343
 20
23.75
 30
0.0
 40
0.5
  1
23.9
100
AcDbAttributeDefinition
  3

  2
Y
 70
     8
280
     0
  0
ATTDEF
  5
124
330
10E
100
AcDbEntity
  8
AM_6
100
AcDbText
 10
35.85962823420343
 20
23.25
 30
0.0
 40
0.5
  1
baldor
100
AcDbAttributeDefinition
  3

  2
COMPANY
 70
     8
280
     0
  0
LINE
  5
125
330
10E
100
AcDbEntity
  8
AM_9
100
AcDbLine
 10
-1.750000000000003
 20
30.6590909090909
 30
0.0
 11
-1.750000000000003
 21
30.57673106852375
 31
0.0
  0
LINE
  5
126
330
10E
100
AcDbEntity
  8
AM_9
100
AcDbLine
 10
1.749999999999999
 20
30.57719082658357
 30
0.0
 11
1.749999999999999
 21
30.6590909090909
 31
0.0
  0
LWPOLYLINE
  5
127
330
10E
100
AcDbEntity
  8
AM_9
100
AcDbPolyline
 90
       12
 70
     0
 43
0.0
 10
-1.749999121050809
 20
30.57714116432782
 10
-1.744309057825683
 20
30.55144849505449
 10
-1.595592169532905
 20
30.44202172415601
 10
-1.259641219238788
 20
30.34433468250019
 10
-0.7784183322865358
 20
30.27278112854883
 10
-0.2148772568237842
 20
30.23775075248776
 10
0.3636949893671589
 20
30.24293981212833
 10
0.8979750451514728
 20
30.28617098711596
 10
1.336839666627539
 20
30.36142167377652
 10
1.63367492291224
 20
30.45963375834904
 10
1.749372456608183
 20
30.56884814849205
 10
1.749999842456515
 20
30.57732678946518
  0
LINE
  5
128
330
10E
100
AcDbEntity
  8
AM_9
100
AcDbLine
 10
1.749999842456515
 20
30.57732678946518
 30
0.0
 11
1.690538249834691
 21
30.65909090909092
 31
0.0
  0
LINE
  5
129
330
10E
100
AcDbEntity
  8
AM_9
100
AcDbLine
 10
0.1590909090909088
 20
32.25
 30
0.0
 11
-0.1590908899278777
 21
32.25
 31
0.0
  0
LINE
  5
12A
330
10E
100
AcDbEntity
  8
AM_9
100
AcDbLine
 10
1.75
 20
30.6590909090909
 30
0.0
 11
-1.750000000000004
 21
30.6590909090909
 31
0.0
  0
ARC
  5
12B
330
10E
100
AcDbEntity
  8
AM_9
100
AcDbCircle
 10
-0.1590909090909198
 20
30.65909090909091
 30
0.0
 40
1.590909090909086
100
AcDbArc
 50
90.0
 51
179.9999991462263
  0
ARC
  5
12C
330
10E
100
AcDbEntity
  8
AM_9
100
AcDbCircle
 10
0.1590909090909018
 20
30.6590909090909
 30
0.0
 40
1.590909090909099
100
AcDbArc
 50
0.0
 51
90.0
  0
LWPOLYLINE
  5
12D
330
10E
100
AcDbEntity
  8
AM_9
100
AcDbPolyline
 90
        3
 70
     0
 43
0.0
 10
1.202680713020257
 20
30.79891142319312
 10
1.514636639467332
 20
30.73269069639815
 10
1.690538249834692
 20
30.65909090909092
  0
LWPOLYLINE
  5
12E
330
10E
100
AcDbEntity
  8
AM_9
100
AcDbPolyline
 90
        6
 70
     0
 43
0.0
 10
-0.6836462477230287
 20
30.85441027269301
 10
-0.5221789394862039
 20
30.863966869333
 10
0.0598519993047092
 20
30.87657876810234
 10
0.6356671257007176
 20
30.85755987682388
 10
1.139723463184134
 20
30.80827527163745
 10
1.202680713020257
 20
30.79891142319312
  0
LWPOLYLINE
  5
12F
330
10E
100
AcDbEntity
  8
AM_9
100
AcDbPolyline
 90
        4
 70
     0
 43
0.0
 10
-1.690538249839846
 20
30.6590909090909
 10
-1.449087893733744
 20
30.75042612581049
 10
-1.044596821189996
 20
30.82076791074906
 10
-0.6836462477230287
 20
30.85441027269301
  0
LINE
  5
130
330
10E
100
AcDbEntity
  8
AM_9
100
AcDbLine
 10
-1.690538249839698
 20
30.6590909090876
 30
0.0
 11
-1.749999121050809
 21
30.57714116432782
 31
0.0
  0
CIRCLE
  5
131
330
10E
100
AcDbEntity
  8
AM_9
100
AcDbCircle
 10
0.0
 20
0.0
 30
0.0
 40
29.25
  0
LINE
  5
132
330
10E
100
AcDbEntity
  8
AM_9
100
AcDbLine
 10
12.05329219013491
 20
-3.3235
 30
0.0
 11
19.54488424115118
 21
-3.3235
 31
0.0
  0
LINE
  5
133
330
10E
100
AcDbEntity
  8
AM_9
100
AcDbLine
 10
19.54488424115118
 20
3.3235
 30
0.0
 11
12.05253299696918
 21
3.3235
 31
0.0
  0
LINE
  5
134
330
10E
100
AcDbEntity
  8
AM_9
100
AcDbLine
 10
2.081253325153297
 20
-12.32733312073211
 30
0.0
 11
5.247911073702195
 21
-19.11825257738044
 31
0.0
  0
LINE
  5
135
330
10E
100
AcDbEntity
  8
AM_9
100
AcDbLine
 10
11.27213893413481
 20
-16.30910899159001
 30
0.0
 11
8.10469638628339
 21
-9.51650652740621
 31
0.0
  0
LINE
  5
136
330
10E
100
AcDbEntity
  8
AM_9
100
AcDbLine
 10
19.54488424115118
 20
3.3235
 30
0.0
 11
19.54488424115118
 21
-3.3235
 31
0.0
  0
LINE
  5
137
330
10E
100
AcDbEntity
  8
AM_9
100
AcDbLine
 10
19.54488424115118
 20
-3.3235
 30
0.0
 11
19.64966959749713
 21
-3.428285356345946
 31
0.0
  0
LINE
  5
138
330
10E
100
AcDbEntity
  8
AM_9
100
AcDbLine
 10
19.6472143146857
 20
3.425830073534511
 30
0.0
 11
19.54488424115118
 21
3.3235
 31
0.0
  0
LINE
  5
139
330
10E
100
AcDbEntity
  8
AM_9
100
AcDbLine
 10
11.27213893413481
 20
-16.30910899159001
 30
0.0
 11
5.247911073702195
 21
-19.11825257738044
 31
0.0
  0
LINE
  5
13A
330
10E
100
AcDbEntity
  8
AM_9
100
AcDbLine
 10
5.247911073702195
 20
-19.11825257738044
 30
0.0
 11
5.198340177674194
 21
-19.2544474948795
 31
0.0
  0
LINE
  5
13B
330
10E
100
AcDbEntity
  8
AM_9
100
AcDbLine
 10
11.41292548174961
 20
-16.36035110430689
 30
0.0
 11
11.27213893413481
 21
-16.30910899159001
 31
0.0
  0
LINE
  5
13C
330
10E
100
AcDbEntity
  8
AM_5
100
AcDbLine
 10
11.84271928232701
 20
4.0
 30
0.0
 11
19.54488424115122
 21
4.0
 31
0.0
  0
LINE
  5
13D
330
10E
100
AcDbEntity
  8
AM_5
100
AcDbLine
 10
11.84271928232701
 20
-4.0
 30
0.0
 11
19.54488424115122
 21
-4.0
 31
0.0
  0
LINE
  5
13E
330
10E
100
AcDbEntity
  8
AM_5
100
AcDbLine
 10
8.630180585526706
 20
-9.042675658299261
 30
0.0
 11
11.88525615206511
 21
-16.02320773752246
 31
0.0
  0
LINE
  5
13F
330
10E
100
AcDbEntity
  8
AM_5
100
AcDbLine
 10
1.379718289233507
 20
-12.42362175222486
 30
0.0
 11
4.634793855771915
 21
-19.40415383144805
 31
0.0
  0
LINE
  5
140
330
10E
100
AcDbEntity
  8
AM_7
100
AcDbLine
 10
3.804901206907783
 20
-8.159636970068911
 30
0.0
 11
9.671382365261174
 21
-20.74034641319669
 31
0.0
  0
CIRCLE
  5
141
330
10E
100
AcDbEntity
  8
AM_4
100
AcDbCircle
 10
0.0
 20
0.0
 30
0.0
 40
30.85962823420343
  0
CIRCLE
  5
142
330
10E
100
AcDbEntity
  8
AM_4
100
AcDbCircle
 10
0.0
 20
0.0
 30
0.0
 40
30.47555486121525
  0
CIRCLE
  5
143
330
10E
100
AcDbEntity
  8
AM_4
100
AcDbCircle
 10
0.0
 20
0.0
 30
0.0
 40
29.42971309799971
  0
CIRCLE
  5
144
330
10E
100
AcDbEntity
  8
AM_4
100
AcDbCircle
 10
0.0
 20
0.0
 30
0.0
 40
28.77802961806126
  0
CIRCLE
  5
145
330
10E
100
AcDbEntity
  8
AM_4
100
AcDbCircle
 10
0.0
 20
0.0
 30
0.0
 40
19.152
  0
CIRCLE
  5
146
330
10E
100
AcDbEntity
  8
AM_4
100
AcDbCircle
 10
0.0
 20
0.0
 30
0.0
 40
19.95000000000003
  0
CIRCLE
  5
147
330
10E
100
AcDbEntity
  8
AM_4
100
AcDbCircle
 10
0.0
 20
0.0
 30
0.0
 40
12.5
  0
CIRCLE
  5
148
330
10E
100
AcDbEntity
  8
AM_4
100
AcDbCircle
 10
0.0
 20
0.0
 30
0.0
 40
13.29800000000003
  0
ENDBLK
  5
111
330
10E
100
AcDbEntity
  8
0
100
AcDbBlockEnd
  0
BLOCK
  5
14B
330
149
100
AcDbEntity
  8
0
100
AcDbBlockBegin
  2
4_125980H_0_in_125980_0
 70
     2
 10
0.0
 20
0.0
 30
0.0
  3
4_125980H_0_in_125980_0
  1

  0
ATTDEF
  5
14D
330
149
100
AcDbEntity
  8
AM_6
100
AcDbText
 10
75.03800000000001
 20
52.45
 30
0.0
 40
0.5
  1
NSTU-SCM -Metric - housing
100
AcDbAttributeDefinition
  3

  2
NN
 70
     8
280
     0
  0
ATTDEF
  5
14E
330
149
100
AcDbEntity
  8
AM_6
100
AcDbText
 10
75.03800000000001
 20
51.95
 30
0.0
 40
0.5
  1
SC Take-Up Bearings -Narrow Slot -(Medium Duty)
100
AcDbAttributeDefinition
  3

  2
NT
 70
     8
280
     0
  0
ATTDEF
  5
14F
330
149
100
AcDbEntity
  8
AM_6
100
AcDbText
 10
75.03800000000001
 20
51.45
 30
0.0
 40
0.5
  1
125980H
100
AcDbAttributeDefinition
  3

  2
NB
 70
     8
280
     0
  0
ATTDEF
  5
150
330
149
100
AcDbEntity
  8
AM_6
100
AcDbText
 10
75.03800000000001
 20
50.95
 30
0.0
 40
0.5
  1
$PN.H
100
AcDbAttributeDefinition
  3

  2
NBSYN
 70
     8
280
     0
  0
ATTDEF
  5
151
330
149
100
AcDbEntity
  8
AM_6
100
AcDbText
 10
75.03800000000001
 20
50.45
 30
0.0
 40
0.5
  1
125980
100
AcDbAttributeDefinition
  3

  2
LINA
 70
     8
280
     0
  0
ATTDEF
  5
152
330
149
100
AcDbEntity
  8
AM_6
100
AcDbText
 10
75.03800000000001
 20
49.95
 30
0.0
 40
0.5
  1
206
100
AcDbAttributeDefinition
  3

  2
SERIES
 70
     8
280
     0
  0
ATTDEF
  5
153
330
149
100
AcDbEntity
  8
AM_6
100
AcDbText
 10
75.03800000000001
 20
49.45
 30
0.0
 40
0.5
  1
25
100
AcDbAttributeDefinition
  3

  2
SS
 70
     8
280
     0
  0
ATTDEF
  5
154
330
149
100
AcDbEntity
  8
AM_6
100
AcDbText
 10
75.03800000000001
 20
48.95
 30
0.0
 40
0.5
  1
125980
100
AcDbAttributeDefinition
  3

  2
PN
 70
     8
280
     0
  0
ATTDEF
  5
155
330
149
100
AcDbEntity
  8
AM_6
100
AcDbText
 10
75.03800000000001
 20
48.45
 30
0.0
 40
0.5
  1
NSTU-SCM-25M
100
AcDbAttributeDefinition
  3

  2
DESCRIPTION
 70
     8
280
     0
  0
ATTDEF
  5
156
330
149
100
AcDbEntity
  8
AM_6
100
AcDbText
 10
75.03800000000001
 20
47.95
 30
0.0
 40
0.5
  1
1.2
100
AcDbAttributeDefinition
  3

  2
W
 70
     8
280
     0
  0
ATTDEF
  5
157
330
149
100
AcDbEntity
  8
AM_6
100
AcDbText
 10
75.03800000000001
 20
47.45
 30
0.0
 40
0.5
  1
NS308
100
AcDbAttributeDefinition
  3

  2
FS
 70
     8
280
     0
  0
ATTDEF
  5
158
330
149
100
AcDbEntity
  8
AM_6
100
AcDbText
 10
75.03800000000001
 20
46.95
 30
0.0
 40
0.5
  1
38.6
100
AcDbAttributeDefinition
  3

  2
A
 70
     8
280
     0
  0
ATTDEF
  5
159
330
149
100
AcDbEntity
  8
AM_6
100
AcDbText
 10
75.03800000000001
 20
46.45
 30
0.0
 40
0.5
  1
109.5
100
AcDbAttributeDefinition
  3

  2
B
 70
     8
280
     0
  0
ATTDEF
  5
15A
330
149
100
AcDbEntity
  8
AM_6
100
AcDbText
 10
75.03800000000001
 20
45.95
 30
0.0
 40
0.5
  1
6.35
100
AcDbAttributeDefinition
  3

  2
C
 70
     8
280
     0
  0
ATTDEF
  5
15B
330
149
100
AcDbEntity
  8
AM_6
100
AcDbText
 10
75.03800000000001
 20
45.45
 30
0.0
 40
0.5
  1
63.5
100
AcDbAttributeDefinition
  3

  2
D
 70
     8
280
     0
  0
ATTDEF
  5
15C
330
149
100
AcDbEntity
  8
AM_6
100
AcDbText
 10
75.03800000000001
 20
44.95
 30
0.0
 40
0.5
  1
68.3
100
AcDbAttributeDefinition
  3

  2
E
 70
     8
280
     0
  0
ATTDEF
  5
15D
330
149
100
AcDbEntity
  8
AM_6
100
AcDbText
 10
75.03800000000001
 20
44.45
 30
0.0
 40
0.5
  1
19.1
100
AcDbAttributeDefinition
  3

  2
F
 70
     8
280
     0
  0
ATTDEF
  5
15E
330
149
100
AcDbEntity
  8
AM_6
100
AcDbText
 10
75.03800000000001
 20
43.95
 30
0.0
 40
0.5
  1
12.7
100
AcDbAttributeDefinition
  3

  2
G
 70
     8
280
     0
  0
ATTDEF
  5
15F
330
149
100
AcDbEntity
  8
AM_6
100
AcDbText
 10
75.03800000000001
 20
43.45
 30
0.0
 40
0.5
  1
23.9
100
AcDbAttributeDefinition
  3

  2
H
 70
     8
280
     0
  0
ATTDEF
  5
160
330
149
100
AcDbEntity
  8
AM_6
100
AcDbText
 10
75.03800000000001
 20
42.95
 30
0.0
 40
0.5
  1
35.1
100
AcDbAttributeDefinition
  3

  2
J
 70
     8
280
     0
  0
ATTDEF
  5
161
330
149
100
AcDbEntity
  8
AM_6
100
AcDbText
 10
75.03800000000001
 20
42.45
 30
0.0
 40
0.5
  1
39.9
100
AcDbAttributeDefinition
  3

  2
L
 70
     8
280
     0
  0
ATTDEF
  5
162
330
149
100
AcDbEntity
  8
AM_6
100
AcDbText
 10
75.03800000000001
 20
41.95
 30
0.0
 40
0.5
  1
89.15/88.39
100
AcDbAttributeDefinition
  3

  2
M
 70
     8
280
     0
  0
ATTDEF
  5
163
330
149
100
AcDbEntity
  8
AM_6
100
AcDbText
 10
75.03800000000001
 20
41.45
 30
0.0
 40
0.5
  1
104.9
100
AcDbAttributeDefinition
  3

  2
N
 70
     8
280
     0
  0
ATTDEF
  5
164
330
149
100
AcDbEntity
  8
AM_6
100
AcDbText
 10
75.03800000000001
 20
40.95
 30
0.0
 40
0.5
  1
8.1
100
AcDbAttributeDefinition
  3

  2
P
 70
     8
280
     0
  0
ATTDEF
  5
165
330
149
100
AcDbEntity
  8
AM_6
100
AcDbText
 10
75.03800000000001
 20
40.45
 30
0.0
 40
0.5
  1
14.7
100
AcDbAttributeDefinition
  3

  2
R
 70
     8
280
     0
  0
ATTDEF
  5
166
330
149
100
AcDbEntity
  8
AM_6
100
AcDbText
 10
75.03800000000001
 20
39.95
 30
0.0
 40
0.5
  1
23.9
100
AcDbAttributeDefinition
  3

  2
S
 70
     8
280
     0
  0
ATTDEF
  5
167
330
149
100
AcDbEntity
  8
AM_6
100
AcDbText
 10
75.03800000000001
 20
39.45
 30
0.0
 40
0.5
  1
2250
100
AcDbAttributeDefinition
  3

  2
CAPS
 70
     8
280
     0
  0
ATTDEF
  5
168
330
149
100
AcDbEntity
  8
AM_6
100
AcDbText
 10
75.03800000000001
 20
38.95
 30
0.0
 40
0.5
  1
4368
100
AcDbAttributeDefinition
  3

  2
CAPD
 70
     8
280
     0
  0
ATTDEF
  5
169
330
149
100
AcDbEntity
  8
AM_6
100
AcDbText
 10
75.03800000000001
 20
38.45
 30
0.0
 40
0.5
  1
baldor
100
AcDbAttributeDefinition
  3

  2
COMPANY
 70
     8
280
     0
  0
LINE
  5
16A
330
149
100
AcDbEntity
  8
AM_9
100
AcDbLine
 10
31.75
 20
44.575
 30
0.0
 11
-31.75
 21
44.575
 31
0.0
  0
LINE
  5
16B
330
149
100
AcDbEntity
  8
AM_9
100
AcDbLine
 10
31.75
 20
-44.575
 30
0.0
 11
-31.75
 21
-44.575
 31
0.0
  0
ARC
  5
16C
330
149
100
AcDbEntity
  8
AM_9
100
AcDbCircle
 10
0.0000000000000071
 20
0.0000000000000142
 30
0.0
 40
32.24999999999999
100
AcDbArc
 50
75.02497779406488
 51
104.9750222059351
  0
LINE
  5
16D
330
149
100
AcDbEntity
  8
AM_9
100
AcDbLine
 10
-8.33333325
 20
31.15474373100258
 30
0.0
 11
-8.33333325
 21
29.85892759200244
 31
0.0
  0
LINE
  5
16E
330
149
100
AcDbEntity
  8
AM_9
100
AcDbLine
 10
-8.33333325
 20
-29.85892759200244
 30
0.0
 11
-8.33333325
 21
-31.15474373100258
 31
0.0
  0
LINE
  5
16F
330
149
100
AcDbEntity
  8
AM_9
100
AcDbLine
 10
8.333333249999978
 20
-31.15474373100259
 30
0.0
 11
8.33333325
 21
-29.85892759200244
 31
0.0
  0
ARC
  5
170
330
149
100
AcDbEntity
  8
AM_9
100
AcDbCircle
 10
-0.0000000000000044
 20
0.0000000000001137
 30
0.0
 40
32.25000000000011
100
AcDbArc
 50
255.0249777940649
 51
284.975022205935
  0
LINE
  5
171
330
149
100
AcDbEntity
  8
AM_9
100
AcDbLine
 10
8.33333325
 20
29.85892759200244
 30
0.0
 11
8.33333325
 21
31.15474373100258
 31
0.0
  0
LINE
  5
172
330
149
100
AcDbEntity
  8
AM_9
100
AcDbLine
 10
44.4
 20
-9.55
 30
0.0
 11
68.3
 21
-9.55
 31
0.0
  0
LINE
  5
173
330
149
100
AcDbEntity
  8
AM_9
100
AcDbLine
 10
68.3
 20
9.55
 30
0.0
 11
44.4
 21
9.55
 31
0.0
  0
LINE
  5
174
330
149
100
AcDbEntity
  8
AM_9
100
AcDbLine
 10
44.4
 20
9.55
 30
0.0
 11
44.4
 21
-9.55
 31
0.0
  0
LINE
  5
175
330
149
100
AcDbEntity
  8
AM_9
100
AcDbLine
 10
37.60500966230179
 20
16.83161454817062
 30
0.0
 11
37.27515928872735
 21
17.55000000000009
 31
0.0
  0
LINE
  5
176
330
149
100
AcDbEntity
  8
AM_7
100
AcDbLine
 10
-41.9265
 20
-0.0000000000000036
 30
0.0
 11
70.03800000000001
 21
-0.0000000000002387
 31
0.0
  0
LINE
  5
177
330
149
100
AcDbEntity
  8
AM_7
100
AcDbLine
 10
0.0000000000000013
 20
-41.9265
 30
0.0
 11
0.0000000000000013
 21
41.9265
 31
0.0
  0
LWPOLYLINE
  5
178
330
149
100
AcDbEntity
  8
AM_4
100
AcDbPolyline
 90
       19
 70
     0
 43
0.0
 10
30.48
 20
-52.45
 10
30.59068779328953
 20
-52.44516726657652
 10
30.700533185637
 20
-52.4307058463255
 10
30.8087001872802
 20
-52.40672579938712
 10
30.9143655820236
 20
-52.37340962839811
 10
31.01672519241069
 20
-52.33101088953654
 10
31.115
 20
-52.27985226280624
 10
31.20844207416583
 20
-52.22032309624702
 10
31.29634026430191
 20
-52.15287644276111
 10
31.37802561210692
 20
-52.07802561210692
 10
31.4528764427611
 20
-51.99634026430191
 10
31.52032309624702
 20
-51.90844207416583
 10
31.57985226280624
 20
-51.815
 10
31.63101088953655
 20
-51.7167251924107
 10
31.6734096283981
 20
-51.6143655820236
 10
31.70672579938712
 20
-51.50870018728021
 10
31.73070584632551
 20
-51.40053318563701
 10
31.74516726657652
 20
-51.29068779328954
 10
31.75
 20
-51.18000000000001
  0
LWPOLYLINE
  5
179
330
149
100
AcDbEntity
  8
AM_4
100
AcDbPolyline
 90
       19
 70
     0
 43
0.0
 10
-31.75
 20
-51.18000000000001
 10
-31.74516726657652
 20
-51.29068779328953
 10
-31.73070584632551
 20
-51.400533185637
 10
-31.70672579938712
 20
-51.5087001872802
 10
-31.6734096283981
 20
-51.61436558202359
 10
-31.63101088953655
 20
-51.71672519241069
 10
-31.57985226280624
 20
-51.815
 10
-31.52032309624702
 20
-51.90844207416583
 10
-31.4528764427611
 20
-51.9963402643019
 10
-31.37802561210692
 20
-52.07802561210691
 10
-31.29634026430191
 20
-52.1528764427611
 10
-31.20844207416583
 20
-52.22032309624701
 10
-31.115
 20
-52.27985226280624
 10
-31.01672519241069
 20
-52.33101088953654
 10
-30.91436558202361
 20
-52.3734096283981
 10
-30.80870018728021
 20
-52.40672579938711
 10
-30.70053318563701
 20
-52.4307058463255
 10
-30.59068779328953
 20
-52.44516726657651
 10
-30.48000000000001
 20
-52.45
  0
LINE
  5
17A
330
149
100
AcDbEntity
  8
AM_4
100
AcDbLine
 10
30.48
 20
-52.45
 30
0.0
 11
-30.48000000000001
 21
-52.45
 31
0.0
  0
LWPOLYLINE
  5
17B
330
149
100
AcDbEntity
  8
AM_4
100
AcDbPolyline
 90
       19
 70
     0
 43
0.0
 10
31.75
 20
51.1799999344437
 10
31.74516727229013
 20
51.29068772798269
 10
31.73070585770924
 20
51.40053312107665
 10
31.70672581635434
 20
51.50870012395767
 10
31.67340965081968
 20
51.61436552042083
 10
31.63101091724184
 20
51.7167251329965
 10
31.57985229558439
 20
51.81499994322658
 10
31.52032313384857
 20
51.90844202046525
 10
31.45287648489988
 20
51.99634021408286
 10
31.37802565846222
 20
52.07802556575161
 10
31.29634031452095
 20
52.15287640062233
 10
31.20844212786641
 20
52.22032305864547
 10
31.11500005677343
 20
52.27985223002809
 10
31.01672525182488
 20
52.33101086183126
 10
30.91436564362638
 20
52.37340960597653
 10
30.80870025060273
 20
52.4067257824199
 10
30.70053325019736
 20
52.43070583494178
 10
30.59068785859637
 20
52.44516726086292
 10
30.48000006555631
 20
52.45
  0
LWPOLYLINE
  5
17C
330
149
100
AcDbEntity
  8
AM_4
100
AcDbPolyline
 90
       19
 70
     0
 43
0.0
 10
-30.47999999999999
 20
52.45
 10
-30.59068779328951
 20
52.44516726657653
 10
-30.700533185637
 20
52.43070584632551
 10
-30.80870018728019
 20
52.40672579938713
 10
-30.91436558202359
 20
52.37340962839811
 10
-31.01672519241068
 20
52.33101088953655
 10
-31.11499999999999
 20
52.27985226280624
 10
-31.20844207416582
 20
52.22032309624703
 10
-31.2963402643019
 20
52.15287644276111
 10
-31.37802561210691
 20
52.07802561210692
 10
-31.4528764427611
 20
51.99634026430191
 10
-31.52032309624701
 20
51.90844207416584
 10
-31.57985226280623
 20
51.815
 10
-31.63101088953654
 20
51.7167251924107
 10
-31.6734096283981
 20
51.6143655820236
 10
-31.70672579938711
 20
51.50870018728021
 10
-31.7307058463255
 20
51.40053318563701
 10
-31.74516726657652
 20
51.29068779328954
 10
-31.74999999999999
 20
51.18000000000001
  0
LINE
  5
17D
330
149
100
AcDbEntity
  8
AM_4
100
AcDbLine
 10
30.48
 20
52.45
 30
0.0
 11
-30.47999999999999
 21
52.45
 31
0.0
  0
LINE
  5
17E
330
149
100
AcDbEntity
  8
AM_4
100
AcDbLine
 10
-31.75
 20
-25.59308789054719
 30
0.0
 11
-31.75
 21
-51.18000000000001
 31
0.0
  0
LINE
  5
17F
330
149
100
AcDbEntity
  8
AM_4
100
AcDbLine
 10
31.75
 20
-51.18000000000001
 30
0.0
 11
-31.75
 21
-51.18000000000001
 31
0.0
  0
LINE
  5
180
330
149
100
AcDbEntity
  8
AM_4
100
AcDbLine
 10
31.75
 20
-25.59308789054719
 30
0.0
 11
31.75
 21
-51.18000000000001
 31
0.0
  0
LINE
  5
181
330
149
100
AcDbEntity
  8
AM_4
100
AcDbLine
 10
-31.75
 20
51.18000000000001
 30
0.0
 11
-31.75
 21
25.59308789054719
 31
0.0
  0
LINE
  5
182
330
149
100
AcDbEntity
  8
AM_4
100
AcDbLine
 10
31.75
 20
51.18
 30
0.0
 11
31.75
 21
25.59308789054719
 31
0.0
  0
LINE
  5
183
330
149
100
AcDbEntity
  8
AM_4
100
AcDbLine
 10
31.75
 20
51.18
 30
0.0
 11
-31.75
 21
51.18000000000001
 31
0.0
  0
CIRCLE
  5
184
330
149
100
AcDbEntity
  8
AM_4
100
AcDbCircle
 10
0.0
 20
0.0
 30
0.0
 40
31.0
  0
ARC
  5
185
330
149
100
AcDbEntity
  8
AM_4
100
AcDbCircle
 10
-0.0000000000000568
 20
-0.0000000000000249
 30
0.0
 40
41.20000000000006
100
AcDbArc
 50
22.31090754266933
 51
39.5894079288388
  0
ARC
  5
186
330
149
100
AcDbEntity
  8
AM_4
100
AcDbCircle
 10
0.0
 20
0.0000000000000071
 30
0.0
 40
40.78073868596881
100
AcDbArc
 50
38.87164517129513
 51
141.1283548287049
  0
ARC
  5
187
330
149
100
AcDbEntity
  8
AM_4
100
AcDbCircle
 10
-0.0000000000000071
 20
0.0
 30
0.0
 40
41.2
100
AcDbArc
 50
140.4105920711612
 51
219.5894079288388
  0
ARC
  5
188
330
149
100
AcDbEntity
  8
AM_4
100
AcDbCircle
 10
0.0
 20
-0.0000000000000071
 30
0.0
 40
40.78073868596881
100
AcDbArc
 50
218.8716451712951
 51
321.1283548287049
  0
ARC
  5
189
330
149
100
AcDbEntity
  8
AM_4
100
AcDbCircle
 10
0.0000000000002629
 20
-0.0000000000001705
 30
0.0
 40
41.19999999999969
100
AcDbArc
 50
320.4105920711611
 51
337.6890924573307
  0
ARC
  5
18A
330
149
100
AcDbEntity
  8
AM_4
100
AcDbCircle
 10
0.000000000000002
 20
-0.0000000000000275
 30
0.0
 40
39.93000000000001
100
AcDbArc
 50
17.65851394380242
 51
342.3414860561976
  0
LWPOLYLINE
  5
18B
330
149
100
AcDbEntity
  8
AM_4
100
AcDbPolyline
 90
       10
 70
     0
 43
0.0
 10
35.65666664549997
 20
-12.11249355005006
 10
35.57038309614136
 20
-12.10994424639506
 10
35.0820766997716
 20
-11.99704226977308
 10
34.99227926453455
 20
-11.95697195426867
 10
34.42495450502079
 20
-11.53231666532671
 10
34.15098808917869
 20
-11.18172158354573
 10
33.93075821320268
 20
-10.78064047053643
 10
33.70589096950427
 20
-10.14531541250532
 10
33.57923590360885
 20
-9.464865444886957
 10
33.53999999999984
 20
-8.769137838529067
  0
LWPOLYLINE
  5
18C
330
149
100
AcDbEntity
  8
AM_4
100
AcDbPolyline
 90
        9
 70
     0
 43
0.0
 10
33.53999999999995
 20
8.769137838529067
 10
33.55166354375125
 20
9.154033689079046
 10
33.62268168682741
 20
9.763360801307112
 10
33.77088265269635
 20
10.3679304193409
 10
33.96312453090383
 20
10.84905723443534
 10
34.2358150511413
 20
11.30424967374311
 10
34.71689058485011
 20
11.7913805298836
 10
35.2168352958772
 20
12.04545404809915
 10
35.65666664549987
 20
12.11249355004987
  0
LINE
  5
18D
330
149
100
AcDbEntity
  8
AM_4
100
AcDbLine
 10
33.53999999999995
 20
8.769137838529067
 30
0.0
 11
33.53999999999984
 21
-8.769137838529067
 31
0.0
  0
LINE
  5
18E
330
149
100
AcDbEntity
  8
AM_4
100
AcDbLine
 10
35.65666664549987
 20
12.11249355004987
 30
0.0
 11
35.65666664549997
 21
-12.11249355005006
 31
0.0
  0
LINE
  5
18F
330
149
100
AcDbEntity
  8
AM_4
100
AcDbLine
 10
35.65666664549997
 20
-12.11249355005006
 30
0.0
 11
38.04855319194142
 21
-12.11249355005007
 31
0.0
  0
LWPOLYLINE
  5
190
330
149
100
AcDbEntity
  8
AM_4
100
AcDbPolyline
 90
        5
 70
     0
 43
0.0
 10
38.04855319194142
 20
-12.11249355005007
 10
38.00885584891601
 20
-13.12659431356834
 10
38.00085546994363
 20
-14.05020875714311
 10
38.03390968473358
 20
-14.90081453207654
 10
38.11566349992545
 20
-15.6408502313797
  0
LWPOLYLINE
  5
191
330
149
100
AcDbEntity
  8
AM_4
100
AcDbPolyline
 90
        5
 70
     0
 43
0.0
 10
38.11566349992548
 20
15.64085023137964
 10
38.03568505316467
 20
14.92569283862738
 10
38.00161307887848
 20
14.10657037732686
 10
38.00806681252055
 20
13.15786083898093
 10
38.04855319194144
 20
12.11249355005002
  0
LINE
  5
192
330
149
100
AcDbEntity
  8
AM_4
100
AcDbLine
 10
38.04855319194144
 20
12.11249355005002
 30
0.0
 11
35.65666664549987
 21
12.11249355004987
 31
0.0
  0
LWPOLYLINE
  5
193
330
149
100
AcDbEntity
  8
AM_4
100
AcDbPolyline
 90
       38
 70
     0
 43
0.0
 10
51.55
 20
0.0
 10
51.60621478756846
 20
-0.6699360386846263
 10
51.77140887094117
 20
-1.320753560090576
 10
52.04162225975428
 20
-1.933252432474027
 10
52.40766058970916
 20
-2.492281904099916
 10
52.86850468779338
 20
-2.989724687933492
 10
53.40562256113416
 20
-3.403998774352978
 10
54.01359689705496
 20
-3.725905614084949
 10
54.66843468268271
 20
-3.941406609266738
 10
55.33979205379106
 20
-4.041189867659345
 10
56.01876907309207
 20
-4.028291506758369
 10
56.67185022569026
 20
-3.905189806734408
 10
57.29516895290467
 20
-3.678165605449014
 10
57.87632639702156
 20
-3.349325762870802
 10
58.39533094858873
 20
-2.930635577457907
 10
58.84769970831776
 20
-2.419054553014478
 10
59.20869719052519
 20
-1.838424485013084
 10
59.46708287387277
 20
-1.201918213649203
 10
59.61520178148108
 20
-0.5297684909384757
 10
59.64703591606281
 20
0.14332117036093
 10
59.56770640727273
 20
0.8122843502659517
 10
59.38120663459787
 20
1.449810880690949
 10
59.09434538212404
 20
2.047449718656944
 10
58.70738328042987
 20
2.596879445901978
 10
58.23578638718025
 20
3.074919530842279
 10
57.67888230554659
 20
3.475269464441994
 10
57.06165262255647
 20
3.777045354635527
 10
56.4045245183224
 20
3.968831409603983
 10
55.72353350346503
 20
4.048115545969711
 10
55.05543391441473
 20
4.012806411035582
 10
54.4027778517351
 20
3.868999758038758
 10
53.7867967128273
 20
3.621034059313228
 10
53.22029214662032
 20
3.277116191495669
 10
52.70802081927123
 20
2.834784349868054
 10
52.27595618175739
 20
2.313705403547101
 10
51.93274378368908
 20
1.717647440486969
 10
51.69418499159679
 20
1.071031801643729
 10
51.55
 20
0.0000000000000012
  0
LINE
  5
194
330
149
100
AcDbEntity
  8
AM_4
100
AcDbLine
 10
37.28182691507089
 20
-17.55000000000014
 30
0.0
 11
66.18333335449978
 21
-17.55000000000032
 31
0.0
  0
LINE
  5
195
330
149
100
AcDbEntity
  8
AM_4
100
AcDbLine
 10
66.1833333545
 20
17.54999999999989
 30
0.0
 11
37.27515928872735
 21
17.55000000000008
 31
0.0
  0
LINE
  5
196
330
149
100
AcDbEntity
  8
AM_4
100
AcDbLine
 10
66.1833333545
 20
17.55
 30
0.0
 11
66.18333335449978
 21
-17.55000000000043
 31
0.0
  0
LINE
  5
197
330
149
100
AcDbEntity
  8
AM_4
100
AcDbLine
 10
68.30000000000001
 20
15.43333335449999
 30
0.0
 11
68.29999999999981
 21
-15.43333335052823
 31
0.0
  0
ARC
  5
198
330
149
100
AcDbEntity
  8
AM_4
100
AcDbCircle
 10
66.18333335449982
 20
-15.43333335450043
 30
0.0
 40
2.116666645499999
100
AcDbArc
 50
270.0
 51
0.0
  0
ARC
  5
199
330
149
100
AcDbEntity
  8
AM_4
100
AcDbCircle
 10
66.1833333545
 20
15.43333335449999
 30
0.0
 40
2.116666645500018
100
AcDbArc
 50
0.0
 51
90.0
  0
ENDBLK
  5
14C
330
149
100
AcDbEntity
  8
0
100
AcDbBlockEnd
  0
ENDSEC
  0
SECTION
  2
ENTITIES
  0
INSERT
  5
6F
330
1F
100
AcDbEntity
  8
0
100
AcDbBlockReference
  2
1_125980_0
 10
0.0
 20
0.0
 30
0.0
  0
POINT
  5
19B
330
1F
100
AcDbEntity
  8
ConnectionPoints
100
AcDbPoint
 10
0.0
 20
0.0
 30
23.9
  0
POINT
  5
19C
330
1F
100
AcDbEntity
  8
ConnectionPoints
100
AcDbPoint
 10
-35.68024663591888
 20
-20.6
 30
0.0
  0
POINT
  5
19D
330
1F
100
AcDbEntity
  8
ConnectionPoints
100
AcDbPoint
 10
0.0
 20
0.0
 30
23.9
  0
ENDSEC
  0
SECTION
  2
OBJECTS
  0
DICTIONARY
  5
C
330
0
100
AcDbDictionary
281
     1
  3
ACAD_DETAILVIEWSTYLE
350
1A5
  3
ACAD_GROUP
350
D
  3
ACAD_LAYOUT
350
1A
  3
ACAD_MATERIAL
350
43
  3
ACAD_MLEADERSTYLE
350
6B
  3
ACAD_MLINESTYLE
350
17
  3
ACAD_PLOTSETTINGS
350
19
  3
ACAD_PLOTSTYLENAME
350
E
  3
ACAD_SCALELIST
350
47
  3
ACAD_SECTIONVIEWSTYLE
350
1A6
  3
ACAD_TABLESTYLE
350
69
  3
ACAD_VISUALSTYLE
350
2A
  3
ACDB_RECOMPOSE_DATA
350
1A2
  3
AcDbVariableDictionary
350
19E
  0
SUN
  5
6D
330
29
100
AcDbSun
 90
        1
290
     0
 63
     7
421
 16777215
 40
1.0
291
     1
 91
  2455826
 92
 54000000
292
     0
 70
     2
 71
   256
280
     1
  0
DICTIONARY
  5
1A5
102
{ACAD_REACTORS
330
C
102
}
330
C
100
AcDbDictionary
281
     1
  0
DICTIONARY
  5
D
102
{ACAD_REACTORS
330
C
102
}
330
C
100
AcDbDictionary
281
     1
  0
DICTIONARY
  5
1A
102
{ACAD_REACTORS
330
C
102
}
330
C
100
AcDbDictionary
281
     1
  3
Layout1
350
1E
  3
Layout2
350
26
  3
Model
350
22
  0
DICTIONARY
  5
43
102
{ACAD_REACTORS
330
C
102
}
330
C
100
AcDbDictionary
281
     1
  3
ByBlock
350
45
  3
ByLayer
350
44
  3
Global
350
46
  0
DICTIONARY
  5
6B
102
{ACAD_REACTORS
330
C
102
}
330
C
100
AcDbDictionary
281
     1
  3
Standard
350
6C
  0
DICTIONARY
  5
17
102
{ACAD_REACTORS
330
C
102
}
330
C
100
AcDbDictionary
281
     1
  3
Standard
350
18
  0
DICTIONARY
  5
19
102
{ACAD_REACTORS
330
C
102
}
330
C
100
AcDbDictionary
281
     1
  0
ACDBDICTIONARYWDFLT
  5
E
102
{ACAD_REACTORS
330
C
102
}
330
C
100
AcDbDictionary
281
     1
  3
Normal
350
F
100
AcDbDictionaryWithDefault
340
F
  0
DICTIONARY
  5
47
102
{ACAD_REACTORS
330
C
102
}
330
C
100
AcDbDictionary
281
     1
  3
A0
350
48
  3
A1
350
49
  3
A2
350
4A
  3
A3
350
4B
  3
A4
350
4C
  3
A5
350
4D
  3
A6
350
4E
  3
A7
350
4F
  3
A8
350
50
  3
A9
350
51
  3
B0
350
52
  3
B1
350
53
  3
B2
350
54
  3
B3
350
55
  3
B4
350
56
  3
B5
350
57
  3
B6
350
58
  3
B7
350
59
  3
B8
350
5A
  3
B9
350
5B
  3
C0
350
5C
  3
C1
350
5D
  3
C2
350
5E
  3
C3
350
5F
  3
C4
350
60
  3
C5
350
61
  3
C6
350
62
  3
C7
350
63
  3
C8
350
64
  3
C9
350
65
  3
D0
350
66
  3
D1
350
67
  3
D2
350
68
  0
DICTIONARY
  5
1A6
102
{ACAD_REACTORS
330
C
102
}
330
C
100
AcDbDictionary
281
     1
  0
DICTIONARY
  5
69
102
{ACAD_REACTORS
330
C
102
}
330
C
100
AcDbDictionary
281
     1
  3
Standard
350
6A
  0
DICTIONARY
  5
2A
102
{ACAD_REACTORS
330
C
102
}
330
C
100
AcDbDictionary
281
     1
  3
2dWireframe
350
2F
  3
Basic
350
32
  3
Brighten
350
36
  3
ColorChange
350
3A
  3
Conceptual
350
34
  3
Dim
350
35
  3
EdgeColorOff
350
3D
  3
Facepattern
350
39
  3
Flat
350
2B
  3
FlatWithEdges
350
2C
  3
Gouraud
350
2D
  3
GouraudWithEdges
350
2E
  3
Hidden
350
31
  3
JitterOff
350
3B
  3
Linepattern
350
38
  3
OverhangOff
350
3C
  3
Realistic
350
33
  3
Shaded
350
42
  3
Shaded with edges
350
41
  3
Shades of Gray
350
3E
  3
Sketchy
350
3F
  3
Thicken
350
37
  3
Wireframe
350
30
  3
X-Ray
350
40
  0
XRECORD
  5
1A2
102
{ACAD_REACTORS
330
C
102
}
330
C
100
AcDbXrecord
280
     1
 90
        1
330
6A
  0
DICTIONARY
  5
19E
102
{ACAD_REACTORS
330
C
102
}
330
C
100
AcDbDictionary
281
     1
  3
CANNOSCALE
350
19F
  3
CMLEADERSTYLE
350
1A4
  3
CTABLESTYLE
350
1A3
  0
LAYOUT
  5
1E
102
{ACAD_REACTORS
330
1A
102
}
330
1A
100
AcDbPlotSettings
  1

  2
none_device
  4

  6

 40
0.0
 41
0.0
 42
0.0
 43
0.0
 44
0.0
 45
0.0
 46
0.0
 47
0.0
 48
0.0
 49
0.0
140
0.0
141
0.0
142
1.0
143
1.0
 70
   688
 72
     1
 73
     0
 74
     5
  7

 75
    16
 76
     0
 77
     2
 78
   300
147
1.0
148
0.0
149
0.0
100
AcDbLayout
  1
Layout1
 70
     1
 71
     1
 10
0.0
 20
0.0
 11
420.0
 21
297.0
 12
0.0
 22
0.0
 32
0.0
 14
1.000000000000000E+20
 24
1.000000000000000E+20
 34
1.000000000000000E+20
 15
-1.000000000000000E+20
 25
-1.000000000000000E+20
 35
-1.000000000000000E+20
146
0.0
 13
0.0
 23
0.0
 33
0.0
 16
1.0
 26
0.0
 36
0.0
 17
0.0
 27
1.0
 37
0.0
 76
     0
330
1B
  0
LAYOUT
  5
26
102
{ACAD_REACTORS
330
1A
102
}
330
1A
100
AcDbPlotSettings
  1

  2
none_device
  4

  6

 40
0.0
 41
0.0
 42
0.0
 43
0.0
 44
0.0
 45
0.0
 46
0.0
 47
0.0
 48
0.0
 49
0.0
140
0.0
141
0.0
142
1.0
143
1.0
 70
   688
 72
     1
 73
     0
 74
     5
  7

 75
    16
 76
     0
 77
     2
 78
   300
147
1.0
148
0.0
149
0.0
100
AcDbLayout
  1
Layout2
 70
     1
 71
     2
 10
0.0
 20
0.0
 11
0.0
 21
0.0
 12
0.0
 22
0.0
 32
0.0
 14
0.0
 24
0.0
 34
0.0
 15
0.0
 25
0.0
 35
0.0
146
0.0
 13
0.0
 23
0.0
 33
0.0
 16
1.0
 26
0.0
 36
0.0
 17
0.0
 27
1.0
 37
0.0
 76
     0
330
23
  0
LAYOUT
  5
22
102
{ACAD_REACTORS
330
1A
102
}
330
1A
100
AcDbPlotSettings
  1

  2
none_device
  4
Letter_(8.50_x_11.00_Inches)
  6

 40
6.35
 41
6.35
 42
6.35000508
 43
6.35000508
 44
215.9
 45
279.4
 46
0.0
 47
0.0
 48
0.0
 49
0.0
140
0.0
141
0.0
142
1.0
143
1.0
 70
  1712
 72
     1
 73
     0
 74
     0
  7

 75
     0
 76
     0
 77
     2
 78
   300
147
1.0
148
0.0
149
0.0
100
AcDbLayout
  1
Model
 70
     1
 71
     0
 10
0.0
 20
0.0
 11
420.0
 21
297.0
 12
0.0
 22
0.0
 32
0.0
 14
1.000000000000000E+20
 24
1.000000000000000E+20
 34
1.000000000000000E+20
 15
-1.000000000000000E+20
 25
-1.000000000000000E+20
 35
-1.000000000000000E+20
146
0.0
 13
0.0
 23
0.0
 33
0.0
 16
1.0
 26
0.0
 36
0.0
 17
0.0
 27
1.0
 37
0.0
 76
     0
330
1F
331
29
  0
MATERIAL
  5
45
102
{ACAD_REACTORS
330
43
102
}
330
43
100
AcDbMaterial
  1
ByBlock
 72
     1
 94
      127
  0
MATERIAL
  5
44
102
{ACAD_REACTORS
330
43
102
}
330
43
100
AcDbMaterial
  1
ByLayer
 72
     1
 94
      127
  0
MATERIAL
  5
46
102
{ACAD_REACTORS
330
43
102
}
330
43
100
AcDbMaterial
  1
Global
 72
     1
 94
      127
  0
MLEADERSTYLE
  5
6C
102
{ACAD_REACTORS
330
6B
102
}
330
6B
100
AcDbMLeaderStyle
179
     2
170
     2
171
     1
172
     0
 90
        2
 40
0.0
 41
0.0
173
     1
 91
-1056964608
340
14
 92
       -2
290
     1
 42
2.0
291
     1
 43
8.0
  3
Standard
341
0
 44
4.0
300

342
11
174
     1
178
     6
175
     1
176
     0
 93
-1056964608
 45
4.0
292
     0
297
     0
 46
4.0
343
0
 94
-1056964608
 47
1.0
 49
1.0
140
1.0
293
     1
141
0.0
294
     1
177
     0
142
1.0
295
     0
296
     0
143
3.75
271
     0
272
     9
273
     9
298
     0
  0
MLINESTYLE
  5
18
102
{ACAD_REACTORS
330
17
102
}
330
17
100
AcDbMlineStyle
  2
Standard
 70
     0
  3

 62
   256
 51
90.0
 52
90.0
 71
     2
 49
0.5
 62
   256
  6
BYLAYER
 49
-0.5
 62
   256
  6
BYLAYER
  0
ACDBPLACEHOLDER
  5
F
102
{ACAD_REACTORS
330
E
102
}
330
E
  0
SCALE
  5
48
102
{ACAD_REACTORS
330
47
102
}
330
47
100
AcDbScale
 70
     0
300
1:1
140
1.0
141
1.0
290
     1
  0
SCALE
  5
49
102
{ACAD_REACTORS
330
47
102
}
330
47
100
AcDbScale
 70
     0
300
1:2
140
1.0
141
2.0
290
     0
  0
SCALE
  5
4A
102
{ACAD_REACTORS
330
47
102
}
330
47
100
AcDbScale
 70
     0
300
1:4
140
1.0
141
4.0
290
     0
  0
SCALE
  5
4B
102
{ACAD_REACTORS
330
47
102
}
330
47
100
AcDbScale
 70
     0
300
1:5
140
1.0
141
5.0
290
     0
  0
SCALE
  5
4C
102
{ACAD_REACTORS
330
47
102
}
330
47
100
AcDbScale
 70
     0
300
1:8
140
1.0
141
8.0
290
     0
  0
SCALE
  5
4D
102
{ACAD_REACTORS
330
47
102
}
330
47
100
AcDbScale
 70
     0
300
1:10
140
1.0
141
10.0
290
     0
  0
SCALE
  5
4E
102
{ACAD_REACTORS
330
47
102
}
330
47
100
AcDbScale
 70
     0
300
1:16
140
1.0
141
16.0
290
     0
  0
SCALE
  5
4F
102
{ACAD_REACTORS
330
47
102
}
330
47
100
AcDbScale
 70
     0
300
1:20
140
1.0
141
20.0
290
     0
  0
SCALE
  5
50
102
{ACAD_REACTORS
330
47
102
}
330
47
100
AcDbScale
 70
     0
300
1:30
140
1.0
141
30.0
290
     0
  0
SCALE
  5
51
102
{ACAD_REACTORS
330
47
102
}
330
47
100
AcDbScale
 70
     0
300
1:40
140
1.0
141
40.0
290
     0
  0
SCALE
  5
52
102
{ACAD_REACTORS
330
47
102
}
330
47
100
AcDbScale
 70
     0
300
1:50
140
1.0
141
50.0
290
     0
  0
SCALE
  5
53
102
{ACAD_REACTORS
330
47
102
}
330
47
100
AcDbScale
 70
     0
300
1:100
140
1.0
141
100.0
290
     0
  0
SCALE
  5
54
102
{ACAD_REACTORS
330
47
102
}
330
47
100
AcDbScale
 70
     0
300
2:1
140
2.0
141
1.0
290
     0
  0
SCALE
  5
55
102
{ACAD_REACTORS
330
47
102
}
330
47
100
AcDbScale
 70
     0
300
4:1
140
4.0
141
1.0
290
     0
  0
SCALE
  5
56
102
{ACAD_REACTORS
330
47
102
}
330
47
100
AcDbScale
 70
     0
300
8:1
140
8.0
141
1.0
290
     0
  0
SCALE
  5
57
102
{ACAD_REACTORS
330
47
102
}
330
47
100
AcDbScale
 70
     0
300
10:1
140
10.0
141
1.0
290
     0
  0
SCALE
  5
58
102
{ACAD_REACTORS
330
47
102
}
330
47
100
AcDbScale
 70
     0
300
100:1
140
100.0
141
1.0
290
     0
  0
SCALE
  5
59
102
{ACAD_REACTORS
330
47
102
}
330
47
100
AcDbScale
 70
     0
300
1/128" = 1'-0"
140
0.0078125
141
12.0
290
     0
  0
SCALE
  5
5A
102
{ACAD_REACTORS
330
47
102
}
330
47
100
AcDbScale
 70
     0
300
1/64" = 1'-0"
140
0.015625
141
12.0
290
     0
  0
SCALE
  5
5B
102
{ACAD_REACTORS
330
47
102
}
330
47
100
AcDbScale
 70
     0
300
1/32" = 1'-0"
140
0.03125
141
12.0
290
     0
  0
SCALE
  5
5C
102
{ACAD_REACTORS
330
47
102
}
330
47
100
AcDbScale
 70
     0
300
1/16" = 1'-0"
140
0.0625
141
12.0
290
     0
  0
SCALE
  5
5D
102
{ACAD_REACTORS
330
47
102
}
330
47
100
AcDbScale
 70
     0
300
3/32" = 1'-0"
140
0.09375
141
12.0
290
     0
  0
SCALE
  5
5E
102
{ACAD_REACTORS
330
47
102
}
330
47
100
AcDbScale
 70
     0
300
1/8" = 1'-0"
140
0.125
141
12.0
290
     0
  0
SCALE
  5
5F
102
{ACAD_REACTORS
330
47
102
}
330
47
100
AcDbScale
 70
     0
300
3/16" = 1'-0"
140
0.1875
141
12.0
290
     0
  0
SCALE
  5
60
102
{ACAD_REACTORS
330
47
102
}
330
47
100
AcDbScale
 70
     0
300
1/4" = 1'-0"
140
0.25
141
12.0
290
     0
  0
SCALE
  5
61
102
{ACAD_REACTORS
330
47
102
}
330
47
100
AcDbScale
 70
     0
300
3/8" = 1'-0"
140
0.375
141
12.0
290
     0
  0
SCALE
  5
62
102
{ACAD_REACTORS
330
47
102
}
330
47
100
AcDbScale
 70
     0
300
1/2" = 1'-0"
140
0.5
141
12.0
290
     0
  0
SCALE
  5
63
102
{ACAD_REACTORS
330
47
102
}
330
47
100
AcDbScale
 70
     0
300
3/4" = 1'-0"
140
0.75
141
12.0
290
     0
  0
SCALE
  5
64
102
{ACAD_REACTORS
330
47
102
}
330
47
100
AcDbScale
 70
     0
300
1" = 1'-0"
140
1.0
141
12.0
290
     0
  0
SCALE
  5
65
102
{ACAD_REACTORS
330
47
102
}
330
47
100
AcDbScale
 70
     0
300
1-1/2" = 1'-0"
140
1.5
141
12.0
290
     0
  0
SCALE
  5
66
102
{ACAD_REACTORS
330
47
102
}
330
47
100
AcDbScale
 70
     0
300
3" = 1'-0"
140
3.0
141
12.0
290
     0
  0
SCALE
  5
67
102
{ACAD_REACTORS
330
47
102
}
330
47
100
AcDbScale
 70
     0
300
6" = 1'-0"
140
6.0
141
12.0
290
     0
  0
SCALE
  5
68
102
{ACAD_REACTORS
330
47
102
}
330
47
100
AcDbScale
 70
     0
300
1'-0" = 1'-0"
140
12.0
141
12.0
290
     0
  0
TABLESTYLE
  5
6A
102
{ACAD_REACTORS
330
69
102
}
102
{ACAD_XDICTIONARY
360
1A0
102
}
330
69
100
AcDbTableStyle
  3
Standard
 70
     0
 71
     0
 40
0.06
 41
0.06
280
     0
281
     0
  7
Standard
140
4.5
170
     2
 62
     0
 63
   257
283
     0
 90
        4
 91
        0
  1

274
    -2
284
     1
 64
     0
275
    -2
285
     1
 65
     0
276
    -2
286
     1
 66
     0
277
    -2
287
     1
 67
     0
278
    -2
288
     1
 68
     0
279
    -2
289
     1
 69
     0
  7
Standard
140
6.0
170
     5
 62
     0
 63
   257
283
     0
 90
        4
 91
        0
  1

274
    -2
284
     1
 64
     0
275
    -2
285
     1
 65
     0
276
    -2
286
     1
 66
     0
277
    -2
287
     1
 67
     0
278
    -2
288
     1
 68
     0
279
    -2
289
     1
 69
     0
  7
Standard
140
4.5
170
     5
 62
     0
 63
   257
283
     0
 90
        4
 91
        0
  1

274
    -2
284
     1
 64
     0
275
    -2
285
     1
 65
     0
276
    -2
286
     1
 66
     0
277
    -2
287
     1
 67
     0
278
    -2
288
     1
 68
     0
279
    -2
289
     1
 69
     0
  0
VISUALSTYLE
  5
2F
102
{ACAD_REACTORS
330
2A
102
}
330
2A
100
AcDbVisualStyle
  2
2dWireframe
 70
     4
177
     3
291
     0
 70
    58
 90
        0
176
     1
 90
        2
176
     1
 90
        0
176
     1
 90
        0
176
     1
 40
0.6
176
     1
 40
30.0
176
     1
 62
     7
420
 16777215
176
     1
 90
        1
176
     1
 90
        4
176
     1
 62
     7
176
     1
 62
   257
176
     1
 90
        1
176
     1
 90
        1
176
     1
 40
1.0
176
     1
 90
        0
176
     1
 62
   257
176
     1
 40
1.0
176
     1
 90
        1
176
     1
 90
        6
176
     1
 90
        2
176
     1
 62
     7
176
     1
 90
        5
176
     1
 90
        0
176
     1
 90
        0
176
     1
290
     0
176
     1
 90
        1
176
     1
 40
0.0
176
     1
 90
        0
176
     1
290
     1
176
     1
290
     1
176
     1
290
     0
176
     1
290
     0
176
     1
290
     0
176
     1
290
     0
176
     1
290
     0
176
     1
290
     0
176
     1
290
     0
176
     1
 90
       50
176
     1
 40
0.0
176
     1
 40
1.0
176
     1
 90
        0
176
     1
 62
    18
420
        0
176
     1
 90
       50
176
     1
 90
        3
176
     1
 62
     5
420
      255
176
     1
290
     0
176
     1
 90
       50
176
     1
 90
       50
176
     1
 90
       50
176
     1
290
     0
176
     1
 90
       50
176
     1
 62
   256
176
     0
 40
1.0
176
     0
 90
        2
176
     1
  1
strokes_ogs.tif
176
     1
290
     0
176
     1
 40
1.0
176
     1
 40
1.0
176
     1
  0
VISUALSTYLE
  5
32
102
{ACAD_REACTORS
330
2A
102
}
330
2A
100
AcDbVisualStyle
  2
Basic
 70
     7
177
     3
291
     1
 70
    58
 90
        1
176
     1
 90
        0
176
     1
 90
        1
176
     1
 90
        0
176
     1
 40
0.6
176
     1
 40
30.0
176
     1
 62
     7
420
 16777215
176
     1
 90
        0
176
     1
 90
        4
176
     1
 62
     7
176
     1
 62
   257
176
     1
 90
        1
176
     1
 90
        1
176
     1
 40
1.0
176
     1
 90
        8
176
     1
 62
     7
176
     1
 40
1.0
176
     1
 90
        1
176
     1
 90
        6
176
     1
 90
        2
176
     1
 62
     7
176
     1
 90
        5
176
     1
 90
        0
176
     1
 90
        0
176
     1
290
     0
176
     1
 90
        1
176
     1
 40
0.0
176
     1
 90
        0
176
     1
290
     0
176
     1
290
     1
176
     1
290
     1
176
     1
290
     0
176
     1
290
     0
176
     1
290
     0
176
     1
290
     0
176
     1
290
     0
176
     1
290
     0
176
     1
 90
       50
176
     1
 40
0.0
176
     1
 40
1.0
176
     1
 90
        0
176
     1
 62
    18
420
        0
176
     1
 90
       50
176
     1
 90
        3
176
     1
 62
     5
420
      255
176
     1
290
     0
176
     1
 90
       50
176
     1
 90
       50
176
     1
 90
       50
176
     1
290
     0
176
     1
 90
       50
176
     1
 62
   256
176
     0
 40
1.0
176
     0
 90
        2
176
     1
  1
strokes_ogs.tif
176
     1
290
     0
176
     1
 40
1.0
176
     1
 40
1.0
176
     1
  0
VISUALSTYLE
  5
36
102
{ACAD_REACTORS
330
2A
102
}
330
2A
100
AcDbVisualStyle
  2
Brighten
 70
    12
177
     3
291
     1
 70
    58
 90
        2
176
     1
 90
        2
176
     1
 90
        0
176
     1
 90
        0
176
     1
 40
0.6
176
     1
 40
30.0
176
     1
 62
     7
420
 16777215
176
     1
 90
        1
176
     1
 90
        4
176
     1
 62
     7
176
     1
 62
   257
176
     1
 90
        1
176
     1
 90
        1
176
     1
 40
1.0
176
     1
 90
        8
176
     1
 62
     7
176
     1
 40
1.0
176
     1
 90
        1
176
     1
 90
        6
176
     1
 90
        2
176
     1
 62
     7
176
     1
 90
        5
176
     1
 90
        0
176
     1
 90
        0
176
     1
290
     0
176
     1
 90
        1
176
     1
 40
50.0
176
     1
 90
        0
176
     1
290
     0
176
     1
290
     1
176
     1
290
     1
176
     1
290
     0
176
     1
290
     0
176
     1
290
     0
176
     1
290
     0
176
     1
290
     0
176
     1
290
     0
176
     1
 90
       50
176
     1
 40
0.0
176
     1
 40
1.0
176
     1
 90
        0
176
     1
 62
    18
420
        0
176
     1
 90
       50
176
     1
 90
        3
176
     1
 62
     5
420
      255
176
     1
290
     0
176
     1
 90
       50
176
     1
 90
       50
176
     1
 90
       50
176
     1
290
     0
176
     1
 90
       50
176
     1
 62
   256
176
     0
 40
1.0
176
     0
 90
        2
176
     1
  1
strokes_ogs.tif
176
     1
290
     0
176
     1
 40
1.0
176
     1
 40
1.0
176
     1
  0
VISUALSTYLE
  5
3A
102
{ACAD_REACTORS
330
2A
102
}
330
2A
100
AcDbVisualStyle
  2
ColorChange
 70
    16
177
     3
291
     1
 70
    58
 90
        2
176
     1
 90
        2
176
     1
 90
        3
176
     1
 90
        0
176
     1
 40
0.6
176
     1
 40
30.0
176
     1
 62
     8
420
  8421504
176
     1
 90
        1
176
     1
 90
        4
176
     1
 62
     7
176
     1
 62
   257
176
     1
 90
        1
176
     1
 90
        1
176
     1
 40
1.0
176
     1
 90
        8
176
     1
 62
     8
420
  8421504
176
     1
 40
1.0
176
     1
 90
        1
176
     1
 90
        6
176
     1
 90
        2
176
     1
 62
     7
176
     1
 90
        5
176
     1
 90
        0
176
     1
 90
        0
176
     1
290
     0
176
     1
 90
        1
176
     1
 40
0.0
176
     1
 90
        0
176
     1
290
     0
176
     1
290
     1
176
     1
290
     1
176
     1
290
     0
176
     1
290
     0
176
     1
290
     0
176
     1
290
     0
176
     1
290
     0
176
     1
290
     0
176
     1
 90
       50
176
     1
 40
0.0
176
     1
 40
1.0
176
     1
 90
        0
176
     1
 62
    18
420
        0
176
     1
 90
       50
176
     1
 90
        3
176
     1
 62
     5
420
      255
176
     1
290
     0
176
     1
 90
       50
176
     1
 90
       50
176
     1
 90
       50
176
     1
290
     0
176
     1
 90
       50
176
     1
 62
   256
176
     0
 40
1.0
176
     0
 90
        2
176
     1
  1
strokes_ogs.tif
176
     1
290
     0
176
     1
 40
1.0
176
     1
 40
1.0
176
     1
  0
VISUALSTYLE
  5
34
102
{ACAD_REACTORS
330
2A
102
}
330
2A
100
AcDbVisualStyle
  2
Conceptual
 70
     9
177
     3
291
     0
 70
    58
 90
        3
176
     1
 90
        2
176
     1
 90
        0
176
     1
 90
        0
176
     1
 40
0.6
176
     1
 40
30.0
176
     1
 62
     7
420
 16777215
176
     1
 90
        2
176
     1
 90
        2
176
     1
 62
     7
176
     1
 62
   257
176
     1
 90
        1
176
     1
 90
        1
176
     1
 40
179.0
176
     1
 90
        8
176
     1
 62
     7
176
     1
 40
1.0
176
     1
 90
        1
176
     1
 90
        6
176
     1
 90
        2
176
     1
 62
     7
176
     1
 90
        3
176
     1
 90
        0
176
     1
 90
        0
176
     1
290
     0
176
     1
 90
        1
176
     1
 40
0.0
176
     1
 90
        0
176
     1
290
     0
176
     1
290
     1
176
     1
290
     1
176
     1
290
     0
176
     1
290
     0
176
     1
290
     0
176
     1
290
     0
176
     1
290
     0
176
     1
290
     0
176
     1
 90
       50
176
     1
 40
0.0
176
     1
 40
1.0
176
     1
 90
        0
176
     1
 62
    18
420
        0
176
     1
 90
       50
176
     1
 90
        3
176
     1
 62
     5
420
      255
176
     1
290
     0
176
     1
 90
       50
176
     1
 90
       50
176
     1
 90
       50
176
     1
290
     0
176
     1
 90
       50
176
     1
 62
   256
176
     0
 40
1.0
176
     0
 90
        2
176
     1
  1
strokes_ogs.tif
176
     1
290
     0
176
     1
 40
1.0
176
     1
 40
1.0
176
     1
  0
VISUALSTYLE
  5
35
102
{ACAD_REACTORS
330
2A
102
}
330
2A
100
AcDbVisualStyle
  2
Dim
 70
    11
177
     3
291
     1
 70
    58
 90
        2
176
     1
 90
        2
176
     1
 90
        0
176
     1
 90
        0
176
     1
 40
0.6
176
     1
 40
30.0
176
     1
 62
     7
420
 16777215
176
     1
 90
        1
176
     1
 90
        4
176
     1
 62
     7
176
     1
 62
   257
176
     1
 90
        1
176
     1
 90
        1
176
     1
 40
1.0
176
     1
 90
        8
176
     1
 62
     7
176
     1
 40
1.0
176
     1
 90
        1
176
     1
 90
        6
176
     1
 90
        2
176
     1
 62
     7
176
     1
 90
        5
176
     1
 90
        0
176
     1
 90
        0
176
     1
290
     0
176
     1
 90
        1
176
     1
 40
-50.0
176
     1
 90
        0
176
     1
290
     0
176
     1
290
     1
176
     1
290
     1
176
     1
290
     0
176
     1
290
     0
176
     1
290
     0
176
     1
290
     0
176
     1
290
     0
176
     1
290
     0
176
     1
 90
       50
176
     1
 40
0.0
176
     1
 40
1.0
176
     1
 90
        0
176
     1
 62
    18
420
        0
176
     1
 90
       50
176
     1
 90
        3
176
     1
 62
     5
420
      255
176
     1
290
     0
176
     1
 90
       50
176
     1
 90
       50
176
     1
 90
       50
176
     1
290
     0
176
     1
 90
       50
176
     1
 62
   256
176
     0
 40
1.0
176
     0
 90
        2
176
     1
  1
strokes_ogs.tif
176
     1
290
     0
176
     1
 40
1.0
176
     1
 40
1.0
176
     1
  0
VISUALSTYLE
  5
3D
102
{ACAD_REACTORS
330
2A
102
}
330
2A
100
AcDbVisualStyle
  2
EdgeColorOff
 70
    22
177
     3
291
     1
 70
    58
 90
        2
176
     0
 90
        2
176
     0
 90
        0
176
     0
 90
        0
176
     0
 40
0.6
176
     0
 40
30.0
176
     0
 62
     7
420
 16777215
176
     0
 90
        1
176
     0
 90
        4
176
     0
 62
     7
176
     0
 62
   257
176
     0
 90
        1
176
     0
 90
        1
176
     0
 40
1.0
176
     0
 90
        8
176
     2
 62
     7
176
     0
 40
1.0
176
     0
 90
        1
176
     0
 90
        6
176
     0
 90
        2
176
     0
 62
     7
176
     0
 90
        5
176
     0
 90
        0
176
     0
 90
        0
176
     0
290
     0
176
     0
 90
        1
176
     0
 40
0.0
176
     0
 90
        0
176
     0
290
     0
176
     0
290
     1
176
     0
290
     1
176
     0
290
     0
176
     0
290
     0
176
     0
290
     0
176
     0
290
     0
176
     0
290
     0
176
     0
290
     0
176
     0
 90
       50
176
     0
 40
0.0
176
     0
 40
1.0
176
     0
 90
        0
176
     0
 62
    18
420
        0
176
     0
 90
       50
176
     0
 90
        3
176
     0
 62
     5
420
      255
176
     0
290
     0
176
     0
 90
       50
176
     0
 90
       50
176
     0
 90
       50
176
     0
290
     0
176
     0
 90
       50
176
     0
 62
   256
176
     0
 40
1.0
176
     0
 90
        2
176
     0
  1
strokes_ogs.tif
176
     0
290
     0
176
     0
 40
1.0
176
     0
 40
1.0
176
     0
  0
VISUALSTYLE
  5
39
102
{ACAD_REACTORS
330
2A
102
}
330
2A
100
AcDbVisualStyle
  2
Facepattern
 70
    15
177
     3
291
     1
 70
    58
 90
        2
176
     1
 90
        2
176
     1
 90
        0
176
     1
 90
        0
176
     1
 40
0.6
176
     1
 40
30.0
176
     1
 62
     7
420
 16777215
176
     1
 90
        1
176
     1
 90
        4
176
     1
 62
     7
176
     1
 62
   257
176
     1
 90
        1
176
     1
 90
        1
176
     1
 40
1.0
176
     1
 90
        8
176
     1
 62
     7
176
     1
 40
1.0
176
     1
 90
        1
176
     1
 90
        6
176
     1
 90
        2
176
     1
 62
     7
176
     1
 90
        5
176
     1
 90
        0
176
     1
 90
        0
176
     1
290
     0
176
     1
 90
        1
176
     1
 40
0.0
176
     1
 90
        0
176
     1
290
     0
176
     1
290
     1
176
     1
290
     1
176
     1
290
     0
176
     1
290
     0
176
     1
290
     0
176
     1
290
     0
176
     1
290
     0
176
     1
290
     0
176
     1
 90
       50
176
     1
 40
0.0
176
     1
 40
1.0
176
     1
 90
        0
176
     1
 62
    18
420
        0
176
     1
 90
       50
176
     1
 90
        3
176
     1
 62
     5
420
      255
176
     1
290
     0
176
     1
 90
       50
176
     1
 90
       50
176
     1
 90
       50
176
     1
290
     0
176
     1
 90
       50
176
     1
 62
   256
176
     0
 40
1.0
176
     0
 90
        2
176
     1
  1
strokes_ogs.tif
176
     1
290
     0
176
     1
 40
1.0
176
     1
 40
1.0
176
     1
  0
VISUALSTYLE
  5
2B
102
{ACAD_REACTORS
330
2A
102
}
330
2A
100
AcDbVisualStyle
  2
Flat
 70
     0
177
     3
291
     1
 70
    58
 90
        2
176
     1
 90
        1
176
     1
 90
        1
176
     1
 90
        2
176
     1
 40
0.6
176
     1
 40
30.0
176
     1
 62
     7
420
 16777215
176
     1
 90
        0
176
     1
 90
        0
176
     1
 62
     7
176
     1
 62
   257
176
     1
 90
        1
176
     1
 90
        1
176
     1
 40
1.0
176
     1
 90
        8
176
     1
 62
     7
176
     1
 40
1.0
176
     1
 90
        1
176
     1
 90
        6
176
     1
 90
        2
176
     1
 62
     7
176
     1
 90
        5
176
     1
 90
        0
176
     1
 90
        0
176
     1
290
     0
176
     1
 90
       13
176
     1
 40
0.0
176
     1
 90
        0
176
     1
290
     0
176
     1
290
     1
176
     1
290
     1
176
     1
290
     0
176
     1
290
     0
176
     1
290
     0
176
     1
290
     0
176
     1
290
     0
176
     1
290
     0
176
     1
 90
       50
176
     1
 40
0.0
176
     1
 40
1.0
176
     1
 90
        0
176
     1
 62
    18
420
        0
176
     1
 90
       50
176
     1
 90
        3
176
     1
 62
     5
420
      255
176
     1
290
     0
176
     1
 90
       50
176
     1
 90
       50
176
     1
 90
       50
176
     1
290
     0
176
     1
 90
       50
176
     1
 62
   256
176
     0
 40
1.0
176
     0
 90
        2
176
     1
  1
strokes_ogs.tif
176
     1
290
     0
176
     1
 40
1.0
176
     1
 40
1.0
176
     1
  0
VISUALSTYLE
  5
2C
102
{ACAD_REACTORS
330
2A
102
}
330
2A
100
AcDbVisualStyle
  2
FlatWithEdges
 70
     1
177
     3
291
     1
 70
    58
 90
        2
176
     1
 90
        1
176
     1
 90
        1
176
     1
 90
        2
176
     1
 40
0.6
176
     1
 40
30.0
176
     1
 62
     7
420
 16777215
176
     1
 90
        1
176
     1
 90
        0
176
     1
 62
     7
176
     1
 62
   257
176
     1
 90
        1
176
     1
 90
        1
176
     1
 40
1.0
176
     1
 90
        0
176
     1
 62
   257
176
     1
 40
1.0
176
     1
 90
        1
176
     1
 90
        6
176
     1
 90
        2
176
     1
 62
     7
176
     1
 90
        5
176
     1
 90
        0
176
     1
 90
        0
176
     1
290
     0
176
     1
 90
       13
176
     1
 40
0.0
176
     1
 90
        0
176
     1
290
     0
176
     1
290
     1
176
     1
290
     1
176
     1
290
     0
176
     1
290
     0
176
     1
290
     0
176
     1
290
     0
176
     1
290
     0
176
     1
290
     0
176
     1
 90
       50
176
     1
 40
0.0
176
     1
 40
1.0
176
     1
 90
        0
176
     1
 62
    18
420
        0
176
     1
 90
       50
176
     1
 90
        3
176
     1
 62
     5
420
      255
176
     1
290
     0
176
     1
 90
       50
176
     1
 90
       50
176
     1
 90
       50
176
     1
290
     0
176
     1
 90
       50
176
     1
 62
   256
176
     0
 40
1.0
176
     0
 90
        2
176
     1
  1
strokes_ogs.tif
176
     1
290
     0
176
     1
 40
1.0
176
     1
 40
1.0
176
     1
  0
VISUALSTYLE
  5
2D
102
{ACAD_REACTORS
330
2A
102
}
330
2A
100
AcDbVisualStyle
  2
Gouraud
 70
     2
177
     3
291
     1
 70
    58
 90
        2
176
     1
 90
        2
176
     1
 90
        1
176
     1
 90
        2
176
     1
 40
0.6
176
     1
 40
30.0
176
     1
 62
     7
420
 16777215
176
     1
 90
        0
176
     1
 90
        0
176
     1
 62
     7
176
     1
 62
   257
176
     1
 90
        1
176
     1
 90
        1
176
     1
 40
1.0
176
     1
 90
        0
176
     1
 62
     7
176
     1
 40
1.0
176
     1
 90
        1
176
     1
 90
        6
176
     1
 90
        2
176
     1
 62
     7
176
     1
 90
        5
176
     1
 90
        0
176
     1
 90
        0
176
     1
290
     0
176
     1
 90
       13
176
     1
 40
0.0
176
     1
 90
        0
176
     1
290
     0
176
     1
290
     1
176
     1
290
     1
176
     1
290
     0
176
     1
290
     0
176
     1
290
     0
176
     1
290
     0
176
     1
290
     0
176
     1
290
     0
176
     1
 90
       50
176
     1
 40
0.0
176
     1
 40
1.0
176
     1
 90
        0
176
     1
 62
    18
420
        0
176
     1
 90
       50
176
     1
 90
        3
176
     1
 62
     5
420
      255
176
     1
290
     0
176
     1
 90
       50
176
     1
 90
       50
176
     1
 90
       50
176
     1
290
     0
176
     1
 90
       50
176
     1
 62
   256
176
     0
 40
1.0
176
     0
 90
        2
176
     1
  1
strokes_ogs.tif
176
     1
290
     0
176
     1
 40
1.0
176
     1
 40
1.0
176
     1
  0
VISUALSTYLE
  5
2E
102
{ACAD_REACTORS
330
2A
102
}
330
2A
100
AcDbVisualStyle
  2
GouraudWithEdges
 70
     3
177
     3
291
     1
 70
    58
 90
        2
176
     1
 90
        2
176
     1
 90
        1
176
     1
 90
        2
176
     1
 40
0.6
176
     1
 40
30.0
176
     1
 62
     7
420
 16777215
176
     1
 90
        1
176
     1
 90
        0
176
     1
 62
     7
176
     1
 62
   257
176
     1
 90
        1
176
     1
 90
        1
176
     1
 40
1.0
176
     1
 90
        0
176
     1
 62
   257
176
     1
 40
1.0
176
     1
 90
        1
176
     1
 90
        6
176
     1
 90
        2
176
     1
 62
     7
176
     1
 90
        5
176
     1
 90
        0
176
     1
 90
        0
176
     1
290
     0
176
     1
 90
       13
176
     1
 40
0.0
176
     1
 90
        0
176
     1
290
     0
176
     1
290
     1
176
     1
290
     1
176
     1
290
     0
176
     1
290
     0
176
     1
290
     0
176
     1
290
     0
176
     1
290
     0
176
     1
290
     0
176
     1
 90
       50
176
     1
 40
0.0
176
     1
 40
1.0
176
     1
 90
        0
176
     1
 62
    18
420
        0
176
     1
 90
       50
176
     1
 90
        3
176
     1
 62
     5
420
      255
176
     1
290
     0
176
     1
 90
       50
176
     1
 90
       50
176
     1
 90
       50
176
     1
290
     0
176
     1
 90
       50
176
     1
 62
   256
176
     0
 40
1.0
176
     0
 90
        2
176
     1
  1
strokes_ogs.tif
176
     1
290
     0
176
     1
 40
1.0
176
     1
 40
1.0
176
     1
  0
VISUALSTYLE
  5
31
102
{ACAD_REACTORS
330
2A
102
}
330
2A
100
AcDbVisualStyle
  2
Hidden
 70
     6
177
     3
291
     0
 70
    58
 90
        1
176
     1
 90
        2
176
     1
 90
        2
176
     1
 90
        0
176
     1
 40
0.6
176
     1
 40
30.0
176
     1
 62
     7
420
 16777215
176
     1
 90
        2
176
     1
 90
        2
176
     1
 62
     7
176
     1
 62
   257
176
     1
 90
        2
176
     1
 90
        1
176
     1
 40
40.0
176
     1
 90
        0
176
     1
 62
   257
176
     1
 40
1.0
176
     1
 90
        1
176
     1
 90
        6
176
     1
 90
        2
176
     1
 62
     7
176
     1
 90
        3
176
     1
 90
        0
176
     1
 90
        0
176
     1
290
     0
176
     1
 90
        1
176
     1
 40
0.0
176
     1
 90
        0
176
     1
290
     0
176
     1
290
     1
176
     1
290
     1
176
     1
290
     0
176
     1
290
     0
176
     1
290
     0
176
     1
290
     0
176
     1
290
     0
176
     1
290
     0
176
     1
 90
       50
176
     1
 40
0.0
176
     1
 40
1.0
176
     1
 90
        0
176
     1
 62
    18
420
        0
176
     1
 90
       50
176
     1
 90
        3
176
     1
 62
     5
420
      255
176
     1
290
     0
176
     1
 90
       50
176
     1
 90
       50
176
     1
 90
       50
176
     1
290
     0
176
     1
 90
       50
176
     1
 62
   256
176
     0
 40
1.0
176
     0
 90
        2
176
     1
  1
strokes_ogs.tif
176
     1
290
     0
176
     1
 40
1.0
176
     1
 40
1.0
176
     1
  0
VISUALSTYLE
  5
3B
102
{ACAD_REACTORS
330
2A
102
}
330
2A
100
AcDbVisualStyle
  2
JitterOff
 70
    20
177
     3
291
     1
 70
    58
 90
        2
176
     0
 90
        2
176
     0
 90
        0
176
     0
 90
        0
176
     0
 40
0.6
176
     0
 40
30.0
176
     0
 62
     7
420
 16777215
176
     0
 90
        1
176
     0
 90
        4
176
     0
 62
     7
176
     0
 62
   257
176
     0
 90
        1
176
     0
 90
        1
176
     0
 40
1.0
176
     0
 90
       10
176
     2
 62
     7
176
     0
 40
1.0
176
     0
 90
        1
176
     0
 90
        6
176
     0
 90
        2
176
     0
 62
     7
176
     0
 90
        5
176
     0
 90
        0
176
     0
 90
        0
176
     0
290
     0
176
     0
 90
        1
176
     0
 40
0.0
176
     0
 90
        0
176
     0
290
     0
176
     0
290
     1
176
     0
290
     1
176
     0
290
     0
176
     0
290
     0
176
     0
290
     0
176
     0
290
     0
176
     0
290
     0
176
     0
290
     0
176
     0
 90
       50
176
     0
 40
0.0
176
     0
 40
1.0
176
     0
 90
        0
176
     0
 62
    18
420
        0
176
     0
 90
       50
176
     0
 90
        3
176
     0
 62
     5
420
      255
176
     0
290
     0
176
     0
 90
       50
176
     0
 90
       50
176
     0
 90
       50
176
     0
290
     0
176
     0
 90
       50
176
     0
 62
   256
176
     0
 40
1.0
176
     0
 90
        2
176
     0
  1
strokes_ogs.tif
176
     0
290
     0
176
     0
 40
1.0
176
     0
 40
1.0
176
     0
  0
VISUALSTYLE
  5
38
102
{ACAD_REACTORS
330
2A
102
}
330
2A
100
AcDbVisualStyle
  2
Linepattern
 70
    14
177
     3
291
     1
 70
    58
 90
        2
176
     1
 90
        2
176
     1
 90
        0
176
     1
 90
        0
176
     1
 40
0.6
176
     1
 40
30.0
176
     1
 62
     7
420
 16777215
176
     1
 90
        1
176
     1
 90
        4
176
     1
 62
     7
176
     1
 62
   257
176
     1
 90
        7
176
     1
 90
        7
176
     1
 40
1.0
176
     1
 90
        8
176
     1
 62
     7
176
     1
 40
1.0
176
     1
 90
        1
176
     1
 90
        6
176
     1
 90
        2
176
     1
 62
     7
176
     1
 90
        5
176
     1
 90
        0
176
     1
 90
        0
176
     1
290
     0
176
     1
 90
        1
176
     1
 40
0.0
176
     1
 90
        0
176
     1
290
     0
176
     1
290
     1
176
     1
290
     1
176
     1
290
     0
176
     1
290
     0
176
     1
290
     0
176
     1
290
     0
176
     1
290
     0
176
     1
290
     0
176
     1
 90
       50
176
     1
 40
0.0
176
     1
 40
1.0
176
     1
 90
        0
176
     1
 62
    18
420
        0
176
     1
 90
       50
176
     1
 90
        3
176
     1
 62
     5
420
      255
176
     1
290
     0
176
     1
 90
       50
176
     1
 90
       50
176
     1
 90
       50
176
     1
290
     0
176
     1
 90
       50
176
     1
 62
   256
176
     0
 40
1.0
176
     0
 90
        2
176
     1
  1
strokes_ogs.tif
176
     1
290
     0
176
     1
 40
1.0
176
     1
 40
1.0
176
     1
  0
VISUALSTYLE
  5
3C
102
{ACAD_REACTORS
330
2A
102
}
330
2A
100
AcDbVisualStyle
  2
OverhangOff
 70
    21
177
     3
291
     1
 70
    58
 90
        2
176
     0
 90
        2
176
     0
 90
        0
176
     0
 90
        0
176
     0
 40
0.6
176
     0
 40
30.0
176
     0
 62
     7
420
 16777215
176
     0
 90
        1
176
     0
 90
        4
176
     0
 62
     7
176
     0
 62
   257
176
     0
 90
        1
176
     0
 90
        1
176
     0
 40
1.0
176
     0
 90
        9
176
     2
 62
     7
176
     0
 40
1.0
176
     0
 90
        1
176
     0
 90
        6
176
     0
 90
        2
176
     0
 62
     7
176
     0
 90
        5
176
     0
 90
        0
176
     0
 90
        0
176
     0
290
     0
176
     0
 90
        1
176
     0
 40
0.0
176
     0
 90
        0
176
     0
290
     0
176
     0
290
     1
176
     0
290
     1
176
     0
290
     0
176
     0
290
     0
176
     0
290
     0
176
     0
290
     0
176
     0
290
     0
176
     0
290
     0
176
     0
 90
       50
176
     0
 40
0.0
176
     0
 40
1.0
176
     0
 90
        0
176
     0
 62
    18
420
        0
176
     0
 90
       50
176
     0
 90
        3
176
     0
 62
     5
420
      255
176
     0
290
     0
176
     0
 90
       50
176
     0
 90
       50
176
     0
 90
       50
176
     0
290
     0
176
     0
 90
       50
176
     0
 62
   256
176
     0
 40
1.0
176
     0
 90
        2
176
     0
  1
strokes_ogs.tif
176
     0
290
     0
176
     0
 40
1.0
176
     0
 40
1.0
176
     0
  0
VISUALSTYLE
  5
33
102
{ACAD_REACTORS
330
2A
102
}
330
2A
100
AcDbVisualStyle
  2
Realistic
 70
     8
177
     3
291
     0
 70
    58
 90
        2
176
     1
 90
        3
176
     1
 90
        0
176
     1
 90
        2
176
     1
 40
0.6
176
     1
 40
30.0
176
     1
 62
     7
420
 16777215
176
     1
 90
        0
176
     1
 90
        0
176
     1
 62
     7
176
     1
 62
   257
176
     1
 90
        1
176
     1
 90
        1
176
     1
 40
1.0
176
     1
 90
        8
176
     1
 62
   257
176
     1
 40
1.0
176
     1
 90
        1
176
     1
 90
        6
176
     1
 90
        2
176
     1
 62
     7
176
     1
 90
        3
176
     1
 90
        0
176
     1
 90
        0
176
     1
290
     0
176
     1
 90
       13
176
     1
 40
0.0
176
     1
 90
        0
176
     1
290
     0
176
     1
290
     1
176
     1
290
     1
176
     1
290
     0
176
     1
290
     0
176
     1
290
     0
176
     1
290
     0
176
     1
290
     0
176
     1
290
     0
176
     1
 90
       50
176
     1
 40
0.0
176
     1
 40
1.0
176
     1
 90
        0
176
     1
 62
    18
420
        0
176
     1
 90
       50
176
     1
 90
        3
176
     1
 62
     5
420
      255
176
     1
290
     0
176
     1
 90
       50
176
     1
 90
       50
176
     1
 90
       50
176
     1
290
     0
176
     1
 90
       50
176
     1
 62
   256
176
     0
 40
1.0
176
     0
 90
        2
176
     1
  1
strokes_ogs.tif
176
     1
290
     0
176
     1
 40
1.0
176
     1
 40
1.0
176
     1
  0
VISUALSTYLE
  5
42
102
{ACAD_REACTORS
330
2A
102
}
330
2A
100
AcDbVisualStyle
  2
Shaded
 70
    27
177
     3
291
     0
 70
    58
 90
        2
176
     1
 90
        2
176
     1
 90
        1
176
     1
 90
        2
176
     1
 40
0.6
176
     1
 40
30.0
176
     1
 62
     7
420
 16777215
176
     1
 90
        0
176
     1
 90
        4
176
     1
 62
     7
176
     1
 62
   257
176
     1
 90
        1
176
     1
 90
        1
176
     1
 40
1.0
176
     1
 90
        8
176
     1
 62
   257
176
     1
 40
1.0
176
     1
 90
        1
176
     1
 90
        6
176
     1
 90
        2
176
     1
 62
     8
420
  7895160
176
     1
 90
        3
176
     1
 90
        0
176
     1
 90
        0
176
     1
290
     0
176
     1
 90
        5
176
     1
 40
0.0
176
     1
 90
        0
176
     1
290
     0
176
     1
290
     1
176
     1
290
     1
176
     1
290
     0
176
     1
290
     0
176
     1
290
     0
176
     1
290
     0
176
     1
290
     0
176
     1
290
     0
176
     1
 90
       50
176
     1
 40
0.0
176
     1
 40
1.0
176
     1
 90
        0
176
     1
 62
    18
420
        0
176
     1
 90
       50
176
     1
 90
        3
176
     1
 62
     5
420
      255
176
     1
290
     0
176
     1
 90
       50
176
     1
 90
       50
176
     1
 90
       50
176
     1
290
     0
176
     1
 90
       50
176
     1
 62
   256
176
     0
 40
1.0
176
     0
 90
        2
176
     1
  1
strokes_ogs.tif
176
     1
290
     0
176
     1
 40
1.0
176
     1
 40
1.0
176
     1
  0
VISUALSTYLE
  5
41
102
{ACAD_REACTORS
330
2A
102
}
330
2A
100
AcDbVisualStyle
  2
Shaded with edges
 70
    26
177
     3
291
     0
 70
    58
 90
        2
176
     1
 90
        2
176
     1
 90
        1
176
     1
 90
        2
176
     1
 40
0.6
176
     1
 40
30.0
176
     1
 62
     7
420
 16777215
176
     1
 90
        1
176
     1
 90
       10
176
     1
 62
     7
176
     1
 62
   257
176
     1
 90
        2
176
     1
 90
        1
176
     1
 40
1.0
176
     1
 90
        8
176
     1
 62
   257
176
     1
 40
1.0
176
     1
 90
        1
176
     1
 90
        6
176
     1
 90
        2
176
     1
 62
     7
176
     1
 90
        3
176
     1
 90
        0
176
     1
 90
        0
176
     1
290
     0
176
     1
 90
        5
176
     1
 40
0.0
176
     1
 90
        0
176
     1
290
     0
176
     1
290
     1
176
     1
290
     1
176
     1
290
     0
176
     1
290
     0
176
     1
290
     0
176
     1
290
     0
176
     1
290
     0
176
     1
290
     0
176
     1
 90
       50
176
     1
 40
0.0
176
     1
 40
1.0
176
     1
 90
        0
176
     1
 62
    18
420
        0
176
     1
 90
       50
176
     1
 90
        3
176
     1
 62
     5
420
      255
176
     1
290
     0
176
     1
 90
       50
176
     1
 90
       50
176
     1
 90
       50
176
     1
290
     0
176
     1
 90
       50
176
     1
 62
   256
176
     0
 40
1.0
176
     0
 90
        2
176
     1
  1
strokes_ogs.tif
176
     1
290
     0
176
     1
 40
1.0
176
     1
 40
1.0
176
     1
  0
VISUALSTYLE
  5
3E
102
{ACAD_REACTORS
330
2A
102
}
330
2A
100
AcDbVisualStyle
  2
Shades of Gray
 70
    23
177
     3
291
     0
 70
    58
 90
        2
176
     1
 90
        2
176
     1
 90
        3
176
     1
 90
        0
176
     1
 40
0.6
176
     1
 40
30.0
176
     1
 62
     7
420
 16777215
176
     1
 90
        2
176
     1
 90
        2
176
     1
 62
     7
176
     1
 62
     7
176
     1
 90
        1
176
     1
 90
        1
176
     1
 40
40.0
176
     1
 90
        8
176
     1
 62
     7
176
     1
 40
1.0
176
     1
 90
        1
176
     1
 90
        6
176
     1
 90
        2
176
     1
 62
     7
176
     1
 90
        3
176
     1
 90
        0
176
     1
 90
        0
176
     1
290
     0
176
     1
 90
        1
176
     1
 40
0.0
176
     1
 90
        0
176
     1
290
     0
176
     1
290
     1
176
     1
290
     1
176
     1
290
     0
176
     1
290
     0
176
     1
290
     0
176
     1
290
     0
176
     1
290
     0
176
     1
290
     0
176
     1
 90
       50
176
     1
 40
0.0
176
     1
 40
1.0
176
     1
 90
        0
176
     1
 62
    18
420
        0
176
     1
 90
       50
176
     1
 90
        3
176
     1
 62
     5
420
      255
176
     1
290
     0
176
     1
 90
       50
176
     1
 90
       50
176
     1
 90
       50
176
     1
290
     0
176
     1
 90
       50
176
     1
 62
   256
176
     0
 40
1.0
176
     0
 90
        2
176
     1
  1
strokes_ogs.tif
176
     1
290
     0
176
     1
 40
1.0
176
     1
 40
1.0
176
     1
  0
VISUALSTYLE
  5
3F
102
{ACAD_REACTORS
330
2A
102
}
330
2A
100
AcDbVisualStyle
  2
Sketchy
 70
    24
177
     3
291
     0
 70
    58
 90
        1
176
     1
 90
        2
176
     1
 90
        2
176
     1
 90
        0
176
     1
 40
0.6
176
     1
 40
30.0
176
     1
 62
     7
420
 16777215
176
     1
 90
        2
176
     1
 90
        2
176
     1
 62
     7
176
     1
 62
     7
176
     1
 90
        1
176
     1
 90
        1
176
     1
 40
40.0
176
     1
 90
       11
176
     1
 62
     7
176
     1
 40
1.0
176
     1
 90
        1
176
     1
 90
        6
176
     1
 90
        2
176
     1
 62
     7
176
     1
 90
        6
176
     1
 90
        0
176
     1
 90
        0
176
     1
290
     0
176
     1
 90
        1
176
     1
 40
0.0
176
     1
 90
        0
176
     1
290
     0
176
     1
290
     1
176
     1
290
     1
176
     1
290
     0
176
     1
290
     0
176
     1
290
     0
176
     1
290
     0
176
     1
290
     0
176
     1
290
     0
176
     1
 90
       50
176
     1
 40
0.0
176
     1
 40
1.0
176
     1
 90
        0
176
     1
 62
    18
420
        0
176
     1
 90
       50
176
     1
 90
        3
176
     1
 62
     5
420
      255
176
     1
290
     0
176
     1
 90
       50
176
     1
 90
       50
176
     1
 90
       50
176
     1
290
     0
176
     1
 90
       50
176
     1
 62
   256
176
     0
 40
1.0
176
     0
 90
        2
176
     1
  1
strokes_ogs.tif
176
     1
290
     0
176
     1
 40
1.0
176
     1
 40
1.0
176
     1
  0
VISUALSTYLE
  5
37
102
{ACAD_REACTORS
330
2A
102
}
330
2A
100
AcDbVisualStyle
  2
Thicken
 70
    13
177
     3
291
     1
 70
    58
 90
        2
176
     1
 90
        2
176
     1
 90
        0
176
     1
 90
        0
176
     1
 40
0.6
176
     1
 40
30.0
176
     1
 62
     7
420
 16777215
176
     1
 90
        1
176
     1
 90
        4
176
     1
 62
     7
176
     1
 62
   257
176
     1
 90
        1
176
     1
 90
        1
176
     1
 40
1.0
176
     1
 90
       12
176
     1
 62
     7
176
     1
 40
1.0
176
     1
 90
        1
176
     1
 90
        6
176
     1
 90
        2
176
     1
 62
     7
176
     1
 90
        5
176
     1
 90
        0
176
     1
 90
        0
176
     1
290
     0
176
     1
 90
        1
176
     1
 40
0.0
176
     1
 90
        0
176
     1
290
     0
176
     1
290
     1
176
     1
290
     1
176
     1
290
     0
176
     1
290
     0
176
     1
290
     0
176
     1
290
     0
176
     1
290
     0
176
     1
290
     0
176
     1
 90
       50
176
     1
 40
0.0
176
     1
 40
1.0
176
     1
 90
        0
176
     1
 62
    18
420
        0
176
     1
 90
       50
176
     1
 90
        3
176
     1
 62
     5
420
      255
176
     1
290
     0
176
     1
 90
       50
176
     1
 90
       50
176
     1
 90
       50
176
     1
290
     0
176
     1
 90
       50
176
     1
 62
   256
176
     0
 40
1.0
176
     0
 90
        2
176
     1
  1
strokes_ogs.tif
176
     1
290
     0
176
     1
 40
1.0
176
     1
 40
1.0
176
     1
  0
VISUALSTYLE
  5
30
102
{ACAD_REACTORS
330
2A
102
}
330
2A
100
AcDbVisualStyle
  2
Wireframe
 70
     5
177
     3
291
     0
 70
    58
 90
        0
176
     1
 90
        2
176
     1
 90
        0
176
     1
 90
        0
176
     1
 40
0.6
176
     1
 40
30.0
176
     1
 62
     7
420
 16777215
176
     1
 90
        1
176
     1
 90
        4
176
     1
 62
     7
176
     1
 62
   257
176
     1
 90
        1
176
     1
 90
        1
176
     1
 40
1.0
176
     1
 90
        0
176
     1
 62
   257
176
     1
 40
1.0
176
     1
 90
        1
176
     1
 90
        6
176
     1
 90
        2
176
     1
 62
     7
176
     1
 90
        3
176
     1
 90
        0
176
     1
 90
        0
176
     1
290
     0
176
     1
 90
        1
176
     1
 40
0.0
176
     1
 90
        0
176
     1
290
     0
176
     1
290
     1
176
     1
290
     1
176
     1
290
     0
176
     1
290
     0
176
     1
290
     0
176
     1
290
     0
176
     1
290
     0
176
     1
290
     0
176
     1
 90
       50
176
     1
 40
0.0
176
     1
 40
1.0
176
     1
 90
        0
176
     1
 62
    18
420
        0
176
     1
 90
       50
176
     1
 90
        3
176
     1
 62
     5
420
      255
176
     1
290
     0
176
     1
 90
       50
176
     1
 90
       50
176
     1
 90
       50
176
     1
290
     0
176
     1
 90
       50
176
     1
 62
   256
176
     0
 40
1.0
176
     0
 90
        2
176
     1
  1
strokes_ogs.tif
176
     1
290
     0
176
     1
 40
1.0
176
     1
 40
1.0
176
     1
  0
VISUALSTYLE
  5
40
102
{ACAD_REACTORS
330
2A
102
}
330
2A
100
AcDbVisualStyle
  2
X-Ray
 70
    25
177
     3
291
     0
 70
    58
 90
        2
176
     1
 90
        2
176
     1
 90
        1
176
     1
 90
        1
176
     1
 40
0.5
176
     1
 40
30.0
176
     1
 62
     7
420
 16777215
176
     1
 90
        1
176
     1
 90
        0
176
     1
 62
     7
176
     1
 62
   257
176
     1
 90
        1
176
     1
 90
        1
176
     1
 40
1.0
176
     1
 90
        8
176
     1
 62
     7
176
     1
 40
1.0
176
     1
 90
        1
176
     1
 90
        6
176
     1
 90
        2
176
     1
 62
     7
176
     1
 90
        3
176
     1
 90
        0
176
     1
 90
        0
176
     1
290
     0
176
     1
 90
       13
176
     1
 40
0.0
176
     1
 90
        0
176
     1
290
     0
176
     1
290
     1
176
     1
290
     1
176
     1
290
     0
176
     1
290
     0
176
     1
290
     0
176
     1
290
     0
176
     1
290
     0
176
     1
290
     0
176
     1
 90
       50
176
     1
 40
0.0
176
     1
 40
1.0
176
     1
 90
        0
176
     1
 62
    18
420
        0
176
     1
 90
       50
176
     1
 90
        3
176
     1
 62
     5
420
      255
176
     1
290
     0
176
     1
 90
       50
176
     1
 90
       50
176
     1
 90
       50
176
     1
290
     0
176
     1
 90
       50
176
     1
 62
   256
176
     0
 40
1.0
176
     0
 90
        2
176
     1
  1
strokes_ogs.tif
176
     1
290
     0
176
     1
 40
1.0
176
     1
 40
1.0
176
     1
  0
DICTIONARYVAR
  5
19F
102
{ACAD_REACTORS
330
19E
102
}
330
19E
100
DictionaryVariables
280
     0
  1
1:1
  0
DICTIONARYVAR
  5
1A4
102
{ACAD_REACTORS
330
19E
102
}
330
19E
100
DictionaryVariables
280
     0
  1
Standard
  0
DICTIONARYVAR
  5
1A3
102
{ACAD_REACTORS
330
19E
102
}
330
19E
100
DictionaryVariables
280
     0
  1
Standard
  0
DICTIONARY
  5
1A0
330
6A
100
AcDbDictionary
280
     1
281
     1
  3
ACAD_ROUNDTRIP_2008_TABLESTYLE_CELLSTYLEMAP
360
1A1
  0
CELLSTYLEMAP
  5
1A1
102
{ACAD_REACTORS
330
1A0
102
}
330
1A0
100
AcDbCellStyleMap
 90
        3
300
CELLSTYLE
  1
TABLEFORMAT_BEGIN
 90
        5
170
     1
 91
        0
 92
    32768
 62
   257
 93
        1
300
CONTENTFORMAT
  1
CONTENTFORMAT_BEGIN
 90
        0
 91
        0
 92
        4
 93
        0
300

 40
0.0
140
1.0
 94
        5
 62
     0
340
11
144
6.0
309
CONTENTFORMAT_END
171
     1
301
MARGIN
  1
CELLMARGIN_BEGIN
 40
1.5
 40
1.5
 40
1.5
 40
1.5
 40
1.5
 40
1.5
309
CELLMARGIN_END
 94
        6
 95
        1
302
GRIDFORMAT
  1
GRIDFORMAT_BEGIN
 90
        0
 91
        1
 62
     0
 92
       -2
340
14
 93
        0
 40
0.045
309
GRIDFORMAT_END
 95
        2
302
GRIDFORMAT
  1
GRIDFORMAT_BEGIN
 90
        0
 91
        1
 62
     0
 92
       -2
340
14
 93
        0
 40
0.045
309
GRIDFORMAT_END
 95
        4
302
GRIDFORMAT
  1
GRIDFORMAT_BEGIN
 90
        0
 91
        1
 62
     0
 92
       -2
340
14
 93
        0
 40
0.045
309
GRIDFORMAT_END
 95
        8
302
GRIDFORMAT
  1
GRIDFORMAT_BEGIN
 90
        0
 91
        1
 62
     0
 92
       -2
340
14
 93
        0
 40
0.045
309
GRIDFORMAT_END
 95
       16
302
GRIDFORMAT
  1
GRIDFORMAT_BEGIN
 90
        0
 91
        1
 62
     0
 92
       -2
340
14
 93
        0
 40
0.045
309
GRIDFORMAT_END
 95
       32
302
GRIDFORMAT
  1
GRIDFORMAT_BEGIN
 90
        0
 91
        1
 62
     0
 92
       -2
340
14
 93
        0
 40
0.045
309
GRIDFORMAT_END
309
TABLEFORMAT_END
  1
CELLSTYLE_BEGIN
 90
        1
 91
        1
300
_TITLE
309
CELLSTYLE_END
300
CELLSTYLE
  1
TABLEFORMAT_BEGIN
 90
        5
170
     1
 91
        0
 92
        0
 62
   257
 93
        1
300
CONTENTFORMAT
  1
CONTENTFORMAT_BEGIN
 90
        0
 91
        0
 92
        4
 93
        0
300

 40
0.0
140
1.0
 94
        5
 62
     0
340
11
144
4.5
309
CONTENTFORMAT_END
171
     1
301
MARGIN
  1
CELLMARGIN_BEGIN
 40
1.5
 40
1.5
 40
1.5
 40
1.5
 40
1.5
 40
1.5
309
CELLMARGIN_END
 94
        6
 95
        1
302
GRIDFORMAT
  1
GRIDFORMAT_BEGIN
 90
        0
 91
        1
 62
     0
 92
       -2
340
14
 93
        0
 40
0.045
309
GRIDFORMAT_END
 95
        2
302
GRIDFORMAT
  1
GRIDFORMAT_BEGIN
 90
        0
 91
        1
 62
     0
 92
       -2
340
14
 93
        0
 40
0.045
309
GRIDFORMAT_END
 95
        4
302
GRIDFORMAT
  1
GRIDFORMAT_BEGIN
 90
        0
 91
        1
 62
     0
 92
       -2
340
14
 93
        0
 40
0.045
309
GRIDFORMAT_END
 95
        8
302
GRIDFORMAT
  1
GRIDFORMAT_BEGIN
 90
        0
 91
        1
 62
     0
 92
       -2
340
14
 93
        0
 40
0.045
309
GRIDFORMAT_END
 95
       16
302
GRIDFORMAT
  1
GRIDFORMAT_BEGIN
 90
        0
 91
        1
 62
     0
 92
       -2
340
14
 93
        0
 40
0.045
309
GRIDFORMAT_END
 95
       32
302
GRIDFORMAT
  1
GRIDFORMAT_BEGIN
 90
        0
 91
        1
 62
     0
 92
       -2
340
14
 93
        0
 40
0.045
309
GRIDFORMAT_END
309
TABLEFORMAT_END
  1
CELLSTYLE_BEGIN
 90
        2
 91
        1
300
_HEADER
309
CELLSTYLE_END
300
CELLSTYLE
  1
TABLEFORMAT_BEGIN
 90
        5
170
     1
 91
        0
 92
        0
 62
   257
 93
        1
300
CONTENTFORMAT
  1
CONTENTFORMAT_BEGIN
 90
        0
 91
        0
 92
        4
 93
        0
300

 40
0.0
140
1.0
 94
        2
 62
     0
340
11
144
4.5
309
CONTENTFORMAT_END
171
     1
301
MARGIN
  1
CELLMARGIN_BEGIN
 40
1.5
 40
1.5
 40
1.5
 40
1.5
 40
1.5
 40
1.5
309
CELLMARGIN_END
 94
        6
 95
        1
302
GRIDFORMAT
  1
GRIDFORMAT_BEGIN
 90
        0
 91
        1
 62
     0
 92
       -2
340
14
 93
        0
 40
0.045
309
GRIDFORMAT_END
 95
        2
302
GRIDFORMAT
  1
GRIDFORMAT_BEGIN
 90
        0
 91
        1
 62
     0
 92
       -2
340
14
 93
        0
 40
0.045
309
GRIDFORMAT_END
 95
        4
302
GRIDFORMAT
  1
GRIDFORMAT_BEGIN
 90
        0
 91
        1
 62
     0
 92
       -2
340
14
 93
        0
 40
0.045
309
GRIDFORMAT_END
 95
        8
302
GRIDFORMAT
  1
GRIDFORMAT_BEGIN
 90
        0
 91
        1
 62
     0
 92
       -2
340
14
 93
        0
 40
0.045
309
GRIDFORMAT_END
 95
       16
302
GRIDFORMAT
  1
GRIDFORMAT_BEGIN
 90
        0
 91
        1
 62
     0
 92
       -2
340
14
 93
        0
 40
0.045
309
GRIDFORMAT_END
 95
       32
302
GRIDFORMAT
  1
GRIDFORMAT_BEGIN
 90
        0
 91
        1
 62
     0
 92
       -2
340
14
 93
        0
 40
0.045
309
GRIDFORMAT_END
309
TABLEFORMAT_END
  1
CELLSTYLE_BEGIN
 90
        3
 91
        2
300
_DATA
309
CELLSTYLE_END
  0
ENDSEC
  0
EOF