0
SECTION
  2
HEADER
  9
$ACADVER
  1
AC1027
  9
$ACADMAINTVER
 70
     8
  9
$DWGCODEPAGE
  3
ANSI_1252
  9
$REQUIREDVERSIONS
160
                 0
  9
$COMMENTS
  1
File was created by Cadenas
  9
$CUSTOMPROPERTYTAG
  1
NN
  9
$CUSTOMPROPERTY
  1
Set Screw Medium Duty Flange Cartridge Metric Bore
  9
$CUSTOMPROPERTYTAG
  1
NT
  9
$CUSTOMPROPERTY
  1
SC Piloted Flange Bearings -(Medium Duty)
  9
$CUSTOMPROPERTYTAG
  1
NB
  9
$CUSTOMPROPERTY
  1
125944
  9
$CUSTOMPROPERTYTAG
  1
NBSYN
  9
$CUSTOMPROPERTY
  1
$PN.
  9
$CUSTOMPROPERTYTAG
  1
LINA
  9
$CUSTOMPROPERTY
  1
125944
  9
$CUSTOMPROPERTYTAG
  1
SERIES
  9
$CUSTOMPROPERTY
  1
210
  9
$CUSTOMPROPERTYTAG
  1
SS
  9
$CUSTOMPROPERTY
  1
45
  9
$CUSTOMPROPERTYTAG
  1
PN
  9
$CUSTOMPROPERTY
  1
125944
  9
$CUSTOMPROPERTYTAG
  1
DESCRIPTION
  9
$CUSTOMPROPERTY
  1
FC-SCM-45M
  9
$CUSTOMPROPERTYTAG
  1
WEIGHT
  9
$CUSTOMPROPERTY
  1
2.9
  9
$CUSTOMPROPERTYTAG
  1
A
  9
$CUSTOMPROPERTY
  1
49.3
  9
$CUSTOMPROPERTYTAG
  1
B
  9
$CUSTOMPROPERTY
  1
155.7
  9
$CUSTOMPROPERTYTAG
  1
C
  9
$CUSTOMPROPERTY
  1
50.3
  9
$CUSTOMPROPERTYTAG
  1
D
  9
$CUSTOMPROPERTY
  1
130.3
  9
$CUSTOMPROPERTYTAG
  1
E
  9
$CUSTOMPROPERTY
  1
11.9
  9
$CUSTOMPROPERTYTAG
  1
F
  9
$CUSTOMPROPERTY
  1
M12
  9
$CUSTOMPROPERTYTAG
  1
G
  9
$CUSTOMPROPERTY
  1
38.4
  9
$CUSTOMPROPERTYTAG
  1
H
  9
$CUSTOMPROPERTY
  1
23.4
  9
$CUSTOMPROPERTYTAG
  1
K
  9
$CUSTOMPROPERTY
  1
107.95 / 107.90
  9
$CUSTOMPROPERTYTAG
  1
L
  9
$CUSTOMPROPERTY
  1
61.7
  9
$CUSTOMPROPERTYTAG
  1
COMPANY
  9
$CUSTOMPROPERTY
  1
baldor
  9
$INSBASE
 10
0.0
 20
0.0
 30
0.0
  9
$EXTMIN
 10
1.000000000000000E+20
 20
1.000000000000000E+20
 30
1.000000000000000E+20
  9
$EXTMAX
 10
-1.000000000000000E+20
 20
-1.000000000000000E+20
 30
-1.000000000000000E+20
  9
$LIMMIN
 10
0.0
 20
0.0
  9
$LIMMAX
 10
420.0
 20
297.0
  9
$ORTHOMODE
 70
     0
  9
$REGENMODE
 70
     1
  9
$FILLMODE
 70
     1
  9
$QTEXTMODE
 70
     0
  9
$MIRRTEXT
 70
     1
  9
$LTSCALE
 40
1.0
  9
$ATTMODE
 70
     1
  9
$TEXTSIZE
 40
2.5
  9
$TRACEWID
 40
1.0
  9
$TEXTSTYLE
  7
Standard
  9
$CLAYER
  8
0
  9
$CELTYPE
  6
ByLayer
  9
$CECOLOR
 62
   256
  9
$CELTSCALE
 40
1.0
  9
$DISPSILH
 70
     0
  9
$DIMSCALE
 40
1.0
  9
$DIMASZ
 40
2.5
  9
$DIMEXO
 40
0.625
  9
$DIMDLI
 40
3.75
  9
$DIMRND
 40
0.0
  9
$DIMDLE
 40
0.0
  9
$DIMEXE
 40
1.25
  9
$DIMTP
 40
0.0
  9
$DIMTM
 40
0.0
  9
$DIMTXT
 40
2.5
  9
$DIMCEN
 40
2.5
  9
$DIMTSZ
 40
0.0
  9
$DIMTOL
 70
     0
  9
$DIMLIM
 70
     0
  9
$DIMTIH
 70
     0
  9
$DIMTOH
 70
     0
  9
$DIMSE1
 70
     0
  9
$DIMSE2
 70
     0
  9
$DIMTAD
 70
     1
  9
$DIMZIN
 70
     8
  9
$DIMBLK
  1

  9
$DIMASO
 70
     1
  9
$DIMSHO
 70
     1
  9
$DIMPOST
  1

  9
$DIMAPOST
  1

  9
$DIMALT
 70
     0
  9
$DIMALTD
 70
     3
  9
$DIMALTF
 40
0.03937007874016
  9
$DIMLFAC
 40
1.0
  9
$DIMTOFL
 70
     1
  9
$DIMTVP
 40
0.0
  9
$DIMTIX
 70
     0
  9
$DIMSOXD
 70
     0
  9
$DIMSAH
 70
     0
  9
$DIMBLK1
  1

  9
$DIMBLK2
  1

  9
$DIMSTYLE
  2
ISO-25
  9
$DIMCLRD
 70
     0
  9
$DIMCLRE
 70
     0
  9
$DIMCLRT
 70
     0
  9
$DIMTFAC
 40
1.0
  9
$DIMGAP
 40
0.625
  9
$DIMJUST
 70
     0
  9
$DIMSD1
 70
     0
  9
$DIMSD2
 70
     0
  9
$DIMTOLJ
 70
     0
  9
$DIMTZIN
 70
     8
  9
$DIMALTZ
 70
     0
  9
$DIMALTTZ
 70
     0
  9
$DIMUPT
 70
     0
  9
$DIMDEC
 70
     2
  9
$DIMTDEC
 70
     2
  9
$DIMALTU
 70
     2
  9
$DIMALTTD
 70
     3
  9
$DIMTXSTY
  7
Standard
  9
$DIMAUNIT
 70
     0
  9
$DIMADEC
 70
     0
  9
$DIMALTRND
 40
0.0
  9
$DIMAZIN
 70
     0
  9
$DIMDSEP
 70
    44
  9
$DIMATFIT
 70
     3
  9
$DIMFRAC
 70
     0
  9
$DIMLDRBLK
  1

  9
$DIMLUNIT
 70
     2
  9
$DIMLWD
 70
    -2
  9
$DIMLWE
 70
    -2
  9
$DIMTMOVE
 70
     0
  9
$DIMFXL
 40
1.0
  9
$DIMFXLON
 70
     0
  9
$DIMJOGANG
 40
0.7853981633974483
  9
$DIMTFILL
 70
     0
  9
$DIMTFILLCLR
 70
     0
  9
$DIMARCSYM
 70
     0
  9
$DIMLTYPE
  6

  9
$DIMLTEX1
  6

  9
$DIMLTEX2
  6

  9
$DIMTXTDIRECTION
 70
     0
  9
$LUNITS
 70
     2
  9
$LUPREC
 70
     4
  9
$SKETCHINC
 40
1.0
  9
$FILLETRAD
 40
10.0
  9
$AUNITS
 70
     0
  9
$AUPREC
 70
     0
  9
$MENU
  1
.
  9
$ELEVATION
 40
0.0
  9
$PELEVATION
 40
0.0
  9
$THICKNESS
 40
0.0
  9
$LIMCHECK
 70
     0
  9
$CHAMFERA
 40
0.0
  9
$CHAMFERB
 40
0.0
  9
$CHAMFERC
 40
0.0
  9
$CHAMFERD
 40
0.0
  9
$SKPOLY
 70
     0
  9
$TDCREATE
 40
2458168.986797269
  9
$TDUCREATE
 40
2458168.945130602
  9
$TDUPDATE
 40
2458168.986797454
  9
$TDUUPDATE
 40
2458168.945130787
  9
$TDINDWG
 40
0.0000000116
  9
$TDUSRTIMER
 40
0.0000000116
  9
$USRTIMER
 70
     1
  9
$ANGBASE
 50
0.0
  9
$ANGDIR
 70
     0
  9
$PDMODE
 70
     0
  9
$PDSIZE
 40
0.0
  9
$PLINEWID
 40
0.0
  9
$SPLFRAME
 70
     0
  9
$SPLINETYPE
 70
     6
  9
$SPLINESEGS
 70
     8
  9
$HANDSEED
  5
16F
  9
$SURFTAB1
 70
     6
  9
$SURFTAB2
 70
     6
  9
$SURFTYPE
 70
     6
  9
$SURFU
 70
     6
  9
$SURFV
 70
     6
  9
$UCSBASE
  2

  9
$UCSNAME
  2

  9
$UCSORG
 10
0.0
 20
0.0
 30
0.0
  9
$UCSXDIR
 10
1.0
 20
0.0
 30
0.0
  9
$UCSYDIR
 10
0.0
 20
1.0
 30
0.0
  9
$UCSORTHOREF
  2

  9
$UCSORTHOVIEW
 70
     0
  9
$UCSORGTOP
 10
0.0
 20
0.0
 30
0.0
  9
$UCSORGBOTTOM
 10
0.0
 20
0.0
 30
0.0
  9
$UCSORGLEFT
 10
0.0
 20
0.0
 30
0.0
  9
$UCSORGRIGHT
 10
0.0
 20
0.0
 30
0.0
  9
$UCSORGFRONT
 10
0.0
 20
0.0
 30
0.0
  9
$UCSORGBACK
 10
0.0
 20
0.0
 30
0.0
  9
$PUCSBASE
  2

  9
$PUCSNAME
  2

  9
$PUCSORG
 10
0.0
 20
0.0
 30
0.0
  9
$PUCSXDIR
 10
1.0
 20
0.0
 30
0.0
  9
$PUCSYDIR
 10
0.0
 20
1.0
 30
0.0
  9
$PUCSORTHOREF
  2

  9
$PUCSORTHOVIEW
 70
     0
  9
$PUCSORGTOP
 10
0.0
 20
0.0
 30
0.0
  9
$PUCSORGBOTTOM
 10
0.0
 20
0.0
 30
0.0
  9
$PUCSORGLEFT
 10
0.0
 20
0.0
 30
0.0
  9
$PUCSORGRIGHT
 10
0.0
 20
0.0
 30
0.0
  9
$PUCSORGFRONT
 10
0.0
 20
0.0
 30
0.0
  9
$PUCSORGBACK
 10
0.0
 20
0.0
 30
0.0
  9
$USERI1
 70
     0
  9
$USERI2
 70
     0
  9
$USERI3
 70
     0
  9
$USERI4
 70
     0
  9
$USERI5
 70
     0
  9
$USERR1
 40
0.0
  9
$USERR2
 40
0.0
  9
$USERR3
 40
0.0
  9
$USERR4
 40
0.0
  9
$USERR5
 40
0.0
  9
$WORLDVIEW
 70
     1
  9
$SHADEDGE
 70
     3
  9
$SHADEDIF
 70
    70
  9
$TILEMODE
 70
     1
  9
$MAXACTVP
 70
    64
  9
$PINSBASE
 10
0.0
 20
0.0
 30
0.0
  9
$PLIMCHECK
 70
     0
  9
$PEXTMIN
 10
1.000000000000000E+20
 20
1.000000000000000E+20
 30
1.000000000000000E+20
  9
$PEXTMAX
 10
-1.000000000000000E+20
 20
-1.000000000000000E+20
 30
-1.000000000000000E+20
  9
$PLIMMIN
 10
0.0
 20
0.0
  9
$PLIMMAX
 10
420.0
 20
297.0
  9
$UNITMODE
 70
     0
  9
$VISRETAIN
 70
     1
  9
$PLINEGEN
 70
     0
  9
$PSLTSCALE
 70
     1
  9
$TREEDEPTH
 70
  3020
  9
$CMLSTYLE
  2
Standard
  9
$CMLJUST
 70
     0
  9
$CMLSCALE
 40
20.0
  9
$PROXYGRAPHICS
 70
     1
  9
$MEASUREMENT
 70
     1
  9
$CELWEIGHT
370
    -1
  9
$ENDCAPS
280
     0
  9
$JOINSTYLE
280
     0
  9
$LWDISPLAY
290
     0
  9
$INSUNITS
 70
     4
  9
$HYPERLINKBASE
  1

  9
$STYLESHEET
  1

  9
$XEDIT
290
     1
  9
$CEPSNTYPE
380
     0
  9
$PSTYLEMODE
290
     1
  9
$FINGERPRINTGUID
  2
{99E5E19C-43C3-4BE7-9227-276971E7A81D}
  9
$VERSIONGUID
  2
{FAEB1C32-E019-11D5-929B-00C0DF256EC4}
  9
$EXTNAMES
290
     1
  9
$PSVPSCALE
 40
0.0
  9
$OLESTARTUP
290
     0
  9
$SORTENTS
280
   127
  9
$INDEXCTL
280
     0
  9
$HIDETEXT
280
     1
  9
$XCLIPFRAME
280
     2
  9
$HALOGAP
280
     0
  9
$OBSCOLOR
 70
   257
  9
$OBSLTYPE
280
     0
  9
$INTERSECTIONDISPLAY
280
     0
  9
$INTERSECTIONCOLOR
 70
   257
  9
$DIMASSOC
280
     2
  9
$PROJECTNAME
  1

  9
$CAMERADISPLAY
290
     0
  9
$LENSLENGTH
 40
50.0
  9
$CAMERAHEIGHT
 40
0.0
  9
$STEPSPERSEC
 40
2.0
  9
$STEPSIZE
 40
6.0
  9
$3DDWFPREC
 40
2.0
  9
$PSOLWIDTH
 40
5.0
  9
$PSOLHEIGHT
 40
80.0
  9
$LOFTANG1
 40
1.570796326794897
  9
$LOFTANG2
 40
1.570796326794897
  9
$LOFTMAG1
 40
0.0
  9
$LOFTMAG2
 40
0.0
  9
$LOFTPARAM
 70
     7
  9
$LOFTNORMALS
280
     1
  9
$LATITUDE
 40
37.795
  9
$LONGITUDE
 40
-122.394
  9
$NORTHDIRECTION
 40
0.0
  9
$TIMEZONE
 70
 -8000
  9
$LIGHTGLYPHDISPLAY
280
     1
  9
$TILEMODELIGHTSYNCH
280
     1
  9
$CMATERIAL
347
44
  9
$SOLIDHIST
280
     0
  9
$SHOWHIST
280
     1
  9
$DWFFRAME
280
     2
  9
$DGNFRAME
280
     2
  9
$REALWORLDSCALE
290
     1
  9
$INTERFERECOLOR
 62
   256
  9
$CSHADOW
280
     0
  9
$SHADOWPLANELOCATION
 40
0.0
  0
ENDSEC
  0
SECTION
  2
CLASSES
  0
CLASS
  1
ACDBDICTIONARYWDFLT
  2
AcDbDictionaryWithDefault
  3
ObjectDBX Classes
 90
        0
 91
        4
280
     0
281
     0
  0
CLASS
  1
VISUALSTYLE
  2
AcDbVisualStyle
  3
ObjectDBX Classes
 90
     4095
 91
        4
280
     0
281
     0
  0
CLASS
  1
MATERIAL
  2
AcDbMaterial
  3
ObjectDBX Classes
 90
     1153
 91
        4
280
     0
281
     0
  0
CLASS
  1
SCALE
  2
AcDbScale
  3
ObjectDBX Classes
 90
     1153
 91
        4
280
     0
281
     0
  0
CLASS
  1
TABLESTYLE
  2
AcDbTableStyle
  3
ObjectDBX Classes
 90
     4095
 91
        4
280
     0
281
     0
  0
CLASS
  1
MLEADERSTYLE
  2
AcDbMLeaderStyle
  3
ACDB_MLEADERSTYLE_CLASS
 90
     4095
 91
        4
280
     0
281
     0
  0
CLASS
  1
SUN
  2
AcDbSun
  3
SCENEOE
 90
     1153
 91
        4
280
     0
281
     0
  0
CLASS
  1
DICTIONARYVAR
  2
AcDbDictionaryVar
  3
ObjectDBX Classes
 90
        0
 91
        4
280
     0
281
     0
  0
CLASS
  1
CELLSTYLEMAP
  2
AcDbCellStyleMap
  3
ObjectDBX Classes
 90
     1152
 91
        4
280
     0
281
     0
  0
ENDSEC
  0
SECTION
  2
TABLES
  0
TABLE
  2
VPORT
  5
8
330
0
100
AcDbSymbolTable
 70
     1
  0
VPORT
  5
29
330
8
100
AcDbSymbolTableRecord
100
AcDbViewportTableRecord
  2
*Active
 70
     0
 10
0.0
 20
0.0
 11
1.0
 21
1.0
 12
0.0
 22
-13.60000000000002
 13
0.0
 23
0.0
 14
10.0
 24
10.0
 15
10.0
 25
10.0
 16
0.0
 26
0.0
 36
1.0
 17
0.0
 27
0.0
 37
0.0
 40
55.62059999999997
 41
2.855309004217864
 42
50.0
 43
0.0
 44
0.0
 50
0.0
 51
0.0
 71
     0
 72
   100
 73
     1
 74
     3
 75
     0
 76
     0
 77
     0
 78
     0
281
     0
 65
     1
110
0.0
120
0.0
130
0.0
111
1.0
121
0.0
131
0.0
112
0.0
122
1.0
132
0.0
 79
     0
146
0.0
348
2F
 60
     3
 61
     5
292
     1
282
     1
141
0.0
142
0.0
 63
   250
361
6D
  0
ENDTAB
  0
TABLE
  2
LTYPE
  5
5
330
0
100
AcDbSymbolTable
 70
     3
  0
LTYPE
  5
14
330
5
100
AcDbSymbolTableRecord
100
AcDbLinetypeTableRecord
  2
ByBlock
 70
     0
  3

 72
    65
 73
     0
 40
0.0
  0
LTYPE
  5
15
330
5
100
AcDbSymbolTableRecord
100
AcDbLinetypeTableRecord
  2
ByLayer
 70
     0
  3

 72
    65
 73
     0
 40
0.0
  0
LTYPE
  5
16
330
5
100
AcDbSymbolTableRecord
100
AcDbLinetypeTableRecord
  2
Continuous
 70
     0
  3
Solid line
 72
    65
 73
     0
 40
0.0
  0
LTYPE
  5
94
330
5
100
AcDbSymbolTableRecord
100
AcDbLinetypeTableRecord
  2
Dashed
 70
     0
  3

 72
    65
 73
     2
 40
2.0
 49
1.0
 74
     0
 49
-1.0
 74
     0
  0
LTYPE
  5
9B
330
5
100
AcDbSymbolTableRecord
100
AcDbLinetypeTableRecord
  2
Center
 70
     0
  3

 72
    65
 73
     4
 40
1.5
 49
0.45
 74
     0
 49
-0.5
 74
     0
 49
0.05
 74
     0
 49
-0.5
 74
     0
  0
ENDTAB
  0
TABLE
  2
LAYER
  5
2
330
0
100
AcDbSymbolTable
 70
     7
  0
LAYER
  5
10
330
2
100
AcDbSymbolTableRecord
100
AcDbLayerTableRecord
  2
0
 70
     0
 62
     7
  6
Continuous
370
    -3
390
F
347
46
348
0
  0
LAYER
  5
72
330
2
100
AcDbSymbolTableRecord
100
AcDbLayerTableRecord
  2
AM_6
 70
     0
 62
    -2
  6
Continuous
370
    35
390
F
347
46
348
0
  0
LAYER
  5
95
330
2
100
AcDbSymbolTableRecord
100
AcDbLayerTableRecord
  2
AM_9
 70
     0
 62
     6
  6
Dashed
370
    25
390
F
347
46
348
0
  0
LAYER
  5
9C
330
2
100
AcDbSymbolTableRecord
100
AcDbLayerTableRecord
  2
AM_7
 70
     0
 62
     7
  6
Center
370
    25
390
F
347
46
348
0
  0
LAYER
  5
9E
330
2
100
AcDbSymbolTableRecord
100
AcDbLayerTableRecord
  2
AM_4
 70
     0
 62
     7
  6
Continuous
370
    50
390
F
347
46
348
0
  0
LAYER
  5
A9
330
2
100
AcDbSymbolTableRecord
100
AcDbLayerTableRecord
  2
AM_5
 70
     0
 62
     3
  6
Continuous
370
    25
390
F
347
46
348
0
  0
LAYER
  5
162
330
2
100
AcDbSymbolTableRecord
100
AcDbLayerTableRecord
  2
ConnectionPoints
 70
     0
 62
     7
  6
Continuous
370
    50
390
F
347
46
348
0
  0
ENDTAB
  0
TABLE
  2
STYLE
  5
3
330
0
100
AcDbSymbolTable
 70
     1
  0
STYLE
  5
11
330
3
100
AcDbSymbolTableRecord
100
AcDbTextStyleTableRecord
  2
Standard
 70
     0
 40
0.0
 41
1.0
 50
0.0
 71
     0
 42
2.5
  3
txt
  4

  0
ENDTAB
  0
TABLE
  2
VIEW
  5
6
330
0
100
AcDbSymbolTable
 70
     0
  0
ENDTAB
  0
TABLE
  2
UCS
  5
7
330
0
100
AcDbSymbolTable
 70
     0
  0
ENDTAB
  0
TABLE
  2
APPID
  5
9
330
0
100
AcDbSymbolTable
 70
     1
  0
APPID
  5
12
330
9
100
AcDbSymbolTableRecord
100
AcDbRegAppTableRecord
  2
ACAD
 70
     0
  0
ENDTAB
  0
TABLE
  2
DIMSTYLE
  5
A
330
0
100
AcDbSymbolTable
 70
     1
100
AcDbDimStyleTable
  0
DIMSTYLE
105
27
330
A
100
AcDbSymbolTableRecord
100
AcDbDimStyleTableRecord
  2
ISO-25
 70
     0
 41
2.5
 42
0.625
 43
3.75
 44
1.25
 73
     0
 74
     0
 77
     1
 78
     8
140
2.5
141
2.5
143
0.03937007874016
147
0.625
171
     3
172
     1
178
     0
271
     2
272
     2
274
     3
278
    44
283
     0
284
     8
340
11
  0
ENDTAB
  0
TABLE
  2
BLOCK_RECORD
  5
1
330
0
100
AcDbSymbolTable
 70
     5
  0
BLOCK_RECORD
  5
1F
330
1
100
AcDbSymbolTableRecord
100
AcDbBlockTableRecord
  2
*Model_Space
340
22
 70
     0
280
     1
281
     0
  0
BLOCK_RECORD
  5
1B
330
1
100
AcDbSymbolTableRecord
100
AcDbBlockTableRecord
  2
*Paper_Space
340
1E
 70
     0
280
     1
281
     0
  0
BLOCK_RECORD
  5
23
330
1
100
AcDbSymbolTableRecord
100
AcDbBlockTableRecord
  2
*Paper_Space0
340
26
 70
     0
280
     1
281
     0
  0
BLOCK_RECORD
  5
6E
330
1
100
AcDbSymbolTableRecord
100
AcDbBlockTableRecord
  2
1_125944_4
340
0
102
{BLKREFS
331
6F
102
}
 70
     0
280
     1
281
     0
  0
BLOCK_RECORD
  5
88
330
1
100
AcDbSymbolTableRecord
100
AcDbBlockTableRecord
  2
2_405015E_Metric_0_in_125944_4
340
0
102
{BLKREFS
331
89
102
}
 70
     0
280
     1
281
     0
  0
BLOCK_RECORD
  5
AD
330
1
100
AcDbSymbolTableRecord
100
AcDbBlockTableRecord
  2
3_125832_0_in_125944_4
340
0
102
{BLKREFS
331
AE
102
}
 70
     0
280
     1
281
     0
  0
BLOCK_RECORD
  5
102
330
1
100
AcDbSymbolTableRecord
100
AcDbBlockTableRecord
  2
4_125944H_0_in_125944_4
340
0
102
{BLKREFS
331
103
102
}
 70
     0
280
     1
281
     0
  0
ENDTAB
  0
ENDSEC
  0
SECTION
  2
BLOCKS
  0
BLOCK
  5
20
330
1F
100
AcDbEntity
  8
0
100
AcDbBlockBegin
  2
*Model_Space
 70
     0
 10
0.0
 20
0.0
 30
0.0
  3
*Model_Space
  1

  0
ENDBLK
  5
21
330
1F
100
AcDbEntity
  8
0
100
AcDbBlockEnd
  0
BLOCK
  5
1C
330
1B
100
AcDbEntity
 67
     1
  8
0
100
AcDbBlockBegin
  2
*Paper_Space
 70
     0
 10
0.0
 20
0.0
 30
0.0
  3
*Paper_Space
  1

  0
ENDBLK
  5
1D
330
1B
100
AcDbEntity
 67
     1
  8
0
100
AcDbBlockEnd
  0
BLOCK
  5
24
330
23
100
AcDbEntity
  8
0
100
AcDbBlockBegin
  2
*Paper_Space0
 70
     0
 10
0.0
 20
0.0
 30
0.0
  3
*Paper_Space0
  1

  0
ENDBLK
  5
25
330
23
100
AcDbEntity
  8
0
100
AcDbBlockEnd
  0
BLOCK
  5
70
330
6E
100
AcDbEntity
  8
0
100
AcDbBlockBegin
  2
1_125944_4
 70
     2
 10
0.0
 20
0.0
 30
0.0
  3
1_125944_4
  1

  0
ATTDEF
  5
73
330
6E
100
AcDbEntity
  8
AM_6
100
AcDbText
 10
82.85000000000001
 20
13.665
 30
0.0
 40
0.5
  1
Set Screw Medium Duty Flange Cartridge Metric Bore
100
AcDbAttributeDefinition
  3

  2
NN
 70
     8
280
     0
  0
ATTDEF
  5
74
330
6E
100
AcDbEntity
  8
AM_6
100
AcDbText
 10
82.85000000000001
 20
13.165
 30
0.0
 40
0.5
  1
SC Piloted Flange Bearings -(Medium Duty)
100
AcDbAttributeDefinition
  3

  2
NT
 70
     8
280
     0
  0
ATTDEF
  5
75
330
6E
100
AcDbEntity
  8
AM_6
100
AcDbText
 10
82.85000000000001
 20
12.665
 30
0.0
 40
0.5
  1
125944
100
AcDbAttributeDefinition
  3

  2
NB
 70
     8
280
     0
  0
ATTDEF
  5
76
330
6E
100
AcDbEntity
  8
AM_6
100
AcDbText
 10
82.85000000000001
 20
12.165
 30
0.0
 40
0.5
  1
$PN.
100
AcDbAttributeDefinition
  3

  2
NBSYN
 70
     8
280
     0
  0
ATTDEF
  5
77
330
6E
100
AcDbEntity
  8
AM_6
100
AcDbText
 10
82.85000000000001
 20
11.665
 30
0.0
 40
0.5
  1
125944
100
AcDbAttributeDefinition
  3

  2
LINA
 70
     8
280
     0
  0
ATTDEF
  5
78
330
6E
100
AcDbEntity
  8
AM_6
100
AcDbText
 10
82.85000000000001
 20
11.165
 30
0.0
 40
0.5
  1
210
100
AcDbAttributeDefinition
  3

  2
SERIES
 70
     8
280
     0
  0
ATTDEF
  5
79
330
6E
100
AcDbEntity
  8
AM_6
100
AcDbText
 10
82.85000000000001
 20
10.665
 30
0.0
 40
0.5
  1
45
100
AcDbAttributeDefinition
  3

  2
SS
 70
     8
280
     0
  0
ATTDEF
  5
7A
330
6E
100
AcDbEntity
  8
AM_6
100
AcDbText
 10
82.85000000000001
 20
10.165
 30
0.0
 40
0.5
  1
125944
100
AcDbAttributeDefinition
  3

  2
PN
 70
     8
280
     0
  0
ATTDEF
  5
7B
330
6E
100
AcDbEntity
  8
AM_6
100
AcDbText
 10
82.85000000000001
 20
9.665000000000004
 30
0.0
 40
0.5
  1
FC-SCM-45M
100
AcDbAttributeDefinition
  3

  2
DESCRIPTION
 70
     8
280
     0
  0
ATTDEF
  5
7C
330
6E
100
AcDbEntity
  8
AM_6
100
AcDbText
 10
82.85000000000001
 20
9.165000000000004
 30
0.0
 40
0.5
  1
2.9
100
AcDbAttributeDefinition
  3

  2
WEIGHT
 70
     8
280
     0
  0
ATTDEF
  5
7D
330
6E
100
AcDbEntity
  8
AM_6
100
AcDbText
 10
82.85000000000001
 20
8.665000000000004
 30
0.0
 40
0.5
  1
49.3
100
AcDbAttributeDefinition
  3

  2
A
 70
     8
280
     0
  0
ATTDEF
  5
7E
330
6E
100
AcDbEntity
  8
AM_6
100
AcDbText
 10
82.85000000000001
 20
8.165000000000004
 30
0.0
 40
0.5
  1
155.7
100
AcDbAttributeDefinition
  3

  2
B
 70
     8
280
     0
  0
ATTDEF
  5
7F
330
6E
100
AcDbEntity
  8
AM_6
100
AcDbText
 10
82.85000000000001
 20
7.665000000000004
 30
0.0
 40
0.5
  1
50.3
100
AcDbAttributeDefinition
  3

  2
C
 70
     8
280
     0
  0
ATTDEF
  5
80
330
6E
100
AcDbEntity
  8
AM_6
100
AcDbText
 10
82.85000000000001
 20
7.165000000000004
 30
0.0
 40
0.5
  1
130.3
100
AcDbAttributeDefinition
  3

  2
D
 70
     8
280
     0
  0
ATTDEF
  5
81
330
6E
100
AcDbEntity
  8
AM_6
100
AcDbText
 10
82.85000000000001
 20
6.665000000000004
 30
0.0
 40
0.5
  1
11.9
100
AcDbAttributeDefinition
  3

  2
E
 70
     8
280
     0
  0
ATTDEF
  5
82
330
6E
100
AcDbEntity
  8
AM_6
100
AcDbText
 10
82.85000000000001
 20
6.165000000000004
 30
0.0
 40
0.5
  1
M12
100
AcDbAttributeDefinition
  3

  2
F
 70
     8
280
     0
  0
ATTDEF
  5
83
330
6E
100
AcDbEntity
  8
AM_6
100
AcDbText
 10
82.85000000000001
 20
5.665000000000004
 30
0.0
 40
0.5
  1
38.4
100
AcDbAttributeDefinition
  3

  2
G
 70
     8
280
     0
  0
ATTDEF
  5
84
330
6E
100
AcDbEntity
  8
AM_6
100
AcDbText
 10
82.85000000000001
 20
5.165000000000004
 30
0.0
 40
0.5
  1
23.4
100
AcDbAttributeDefinition
  3

  2
H
 70
     8
280
     0
  0
ATTDEF
  5
85
330
6E
100
AcDbEntity
  8
AM_6
100
AcDbText
 10
82.85000000000001
 20
4.665000000000004
 30
0.0
 40
0.5
  1
107.95 / 107.90
100
AcDbAttributeDefinition
  3

  2
K
 70
     8
280
     0
  0
ATTDEF
  5
86
330
6E
100
AcDbEntity
  8
AM_6
100
AcDbText
 10
82.85000000000001
 20
4.165000000000004
 30
0.0
 40
0.5
  1
61.7
100
AcDbAttributeDefinition
  3

  2
L
 70
     8
280
     0
  0
ATTDEF
  5
87
330
6E
100
AcDbEntity
  8
AM_6
100
AcDbText
 10
82.85000000000001
 20
3.665000000000004
 30
0.0
 40
0.5
  1
baldor
100
AcDbAttributeDefinition
  3

  2
COMPANY
 70
     8
280
     0
  0
INSERT
  5
89
330
6E
100
AcDbEntity
  8
0
100
AcDbBlockReference
  2
2_405015E_Metric_0_in_125944_4
 10
0.0
 20
0.0
 30
0.0
  0
INSERT
  5
AE
330
6E
100
AcDbEntity
  8
0
100
AcDbBlockReference
  2
3_125832_0_in_125944_4
 10
0.0
 20
0.0
 30
0.0
  0
INSERT
  5
103
330
6E
100
AcDbEntity
  8
0
100
AcDbBlockReference
  2
4_125944H_0_in_125944_4
 10
0.0
 20
0.0
 30
0.0
  0
ENDBLK
  5
71
330
6E
100
AcDbEntity
  8
0
100
AcDbBlockEnd
  0
BLOCK
  5
8A
330
88
100
AcDbEntity
  8
0
100
AcDbBlockBegin
  2
2_405015E_Metric_0_in_125944_4
 70
     2
 10
0.0
 20
0.0
 30
0.0
  3
2_405015E_Metric_0_in_125944_4
  1

  0
ATTDEF
  5
8C
330
88
100
AcDbEntity
  8
AM_6
100
AcDbText
 10
10.77350269189626
 20
-6.699999999999997
 30
0.0
 40
0.5
  1
405015E -Metric
100
AcDbAttributeDefinition
  3

  2
NN
 70
     8
280
     0
  0
ATTDEF
  5
8D
330
88
100
AcDbEntity
  8
AM_6
100
AcDbText
 10
10.77350269189626
 20
-7.199999999999997
 30
0.0
 40
0.5
  1
Grease Fitting
100
AcDbAttributeDefinition
  3

  2
NT
 70
     8
280
     0
  0
ATTDEF
  5
8E
330
88
100
AcDbEntity
  8
AM_6
100
AcDbText
 10
10.77350269189626
 20
-7.699999999999997
 30
0.0
 40
0.5
  1
405015E-Metric
100
AcDbAttributeDefinition
  3

  2
NB
 70
     8
280
     0
  0
ATTDEF
  5
8F
330
88
100
AcDbEntity
  8
AM_6
100
AcDbText
 10
10.77350269189626
 20
-8.199999999999996
 30
0.0
 40
0.5
  1
$MN.-Metric
100
AcDbAttributeDefinition
  3

  2
NBSYN
 70
     8
280
     0
  0
ATTDEF
  5
90
330
88
100
AcDbEntity
  8
AM_6
100
AcDbText
 10
10.77350269189626
 20
-8.699999999999996
 30
0.0
 40
0.5
  1
405015E
100
AcDbAttributeDefinition
  3

  2
LINA
 70
     8
280
     0
  0
ATTDEF
  5
91
330
88
100
AcDbEntity
  8
AM_6
100
AcDbText
 10
10.77350269189626
 20
-9.199999999999996
 30
0.0
 40
0.5
  1
405015E
100
AcDbAttributeDefinition
  3

  2
MN
 70
     8
280
     0
  0
ATTDEF
  5
92
330
88
100
AcDbEntity
  8
AM_6
100
AcDbText
 10
10.77350269189626
 20
-9.699999999999996
 30
0.0
 40
0.5
  1
1/8 x 27PTF
100
AcDbAttributeDefinition
  3

  2
T
 70
     8
280
     0
  0
ATTDEF
  5
93
330
88
100
AcDbEntity
  8
AM_6
100
AcDbText
 10
10.77350269189626
 20
-10.2
 30
0.0
 40
0.5
  1
baldor
100
AcDbAttributeDefinition
  3

  2
COMPANY
 70
     8
280
     0
  0
CIRCLE
  5
96
330
88
100
AcDbEntity
  8
AM_9
100
AcDbCircle
 10
0.0
 20
-11.7
 30
0.0
 40
4.15799375318352
  0
CIRCLE
  5
97
330
88
100
AcDbEntity
  8
AM_9
100
AcDbCircle
 10
0.0
 20
-11.7
 30
0.0
 40
4.758029456511771
  0
CIRCLE
  5
98
330
88
100
AcDbEntity
  8
AM_9
100
AcDbCircle
 10
0.0
 20
-11.7
 30
0.0
 40
4.949631665534965
  0
CIRCLE
  5
99
330
88
100
AcDbEntity
  8
AM_9
100
AcDbCircle
 10
0.0
 20
-11.7
 30
0.0
 40
2.982994982562511
  0
CIRCLE
  5
9A
330
88
100
AcDbEntity
  8
AM_9
100
AcDbCircle
 10
0.0
 20
-11.7
 30
0.0
 40
2.675
  0
LINE
  5
9D
330
88
100
AcDbEntity
  8
AM_7
100
AcDbLine
 10
-5.25
 20
-11.7
 30
0.0
 11
5.250000000000002
 21
-11.7
 31
0.0
  0
LINE
  5
9F
330
88
100
AcDbEntity
  8
AM_4
100
AcDbLine
 10
5.773502691896257
 20
-11.7
 30
0.0
 11
2.886751345948129
 21
-6.699999999999997
 31
0.0
  0
LINE
  5
A0
330
88
100
AcDbEntity
  8
AM_4
100
AcDbLine
 10
2.886751345948128
 20
-16.7
 30
0.0
 11
5.773502691896257
 21
-11.7
 31
0.0
  0
LINE
  5
A1
330
88
100
AcDbEntity
  8
AM_4
100
AcDbLine
 10
2.886751345948129
 20
-6.699999999999997
 30
0.0
 11
-2.886751345948128
 21
-6.699999999999997
 31
0.0
  0
LINE
  5
A2
330
88
100
AcDbEntity
  8
AM_4
100
AcDbLine
 10
-5.773502691896257
 20
-11.7
 30
0.0
 11
-2.886751345948129
 21
-16.7
 31
0.0
  0
LINE
  5
A3
330
88
100
AcDbEntity
  8
AM_4
100
AcDbLine
 10
-2.886751345948128
 20
-6.699999999999997
 30
0.0
 11
-5.773502691896257
 21
-11.7
 31
0.0
  0
LINE
  5
A4
330
88
100
AcDbEntity
  8
AM_4
100
AcDbLine
 10
-2.886751345948129
 20
-16.7
 30
0.0
 11
2.886751345948128
 21
-16.7
 31
0.0
  0
CIRCLE
  5
A5
330
88
100
AcDbEntity
  8
AM_4
100
AcDbCircle
 10
0.0
 20
-11.7
 30
0.0
 40
4.750000000000001
  0
CIRCLE
  5
A6
330
88
100
AcDbEntity
  8
AM_4
100
AcDbCircle
 10
0.0
 20
-11.7
 30
0.0
 40
3.607583894601114
  0
CIRCLE
  5
A7
330
88
100
AcDbEntity
  8
AM_4
100
AcDbCircle
 10
0.0
 20
-11.7
 30
0.0
 40
2.366947548329686
  0
CIRCLE
  5
A8
330
88
100
AcDbEntity
  8
AM_4
100
AcDbCircle
 10
0.0
 20
-11.7
 30
0.0
 40
3.175
  0
ARC
  5
AA
330
88
100
AcDbEntity
  8
AM_5
100
AcDbCircle
 10
-0.0000000000000026
 20
-11.69999999999999
 30
0.0
 40
4.863999999999993
100
AcDbArc
 50
74.99999999999996
 51
105.0
  0
ARC
  5
AB
330
88
100
AcDbEntity
  8
AM_5
100
AcDbCircle
 10
-0.0000000000000002
 20
-11.7
 30
0.0
 40
4.864
100
AcDbArc
 50
105.0
 51
44.99999999999998
  0
CIRCLE
  5
AC
330
88
100
AcDbEntity
  8
AM_4
100
AcDbCircle
 10
0.0000000000000009
 20
-11.7
 30
0.0
 40
5.000000000000001
  0
ENDBLK
  5
8B
330
88
100
AcDbEntity
  8
0
100
AcDbBlockEnd
  0
BLOCK
  5
AF
330
AD
100
AcDbEntity
  8
0
100
AcDbBlockBegin
  2
3_125832_0_in_125944_4
 70
     2
 10
0.0
 20
0.0
 30
0.0
  3
3_125832_0_in_125944_4
  1

  0
ATTDEF
  5
B1
330
AD
100
AcDbEntity
  8
AM_6
100
AcDbText
 10
49.99121541260948
 20
10.9
 30
0.0
 40
0.5
  1
Set Screw Medium Duty Insert Metric Bore
100
AcDbAttributeDefinition
  3

  2
NN
 70
     8
280
     0
  0
ATTDEF
  5
B2
330
AD
100
AcDbEntity
  8
AM_6
100
AcDbText
 10
49.99121541260948
 20
10.4
 30
0.0
 40
0.5
  1
SC Medium Duty Bearing Inserts
100
AcDbAttributeDefinition
  3

  2
NT
 70
     8
280
     0
  0
ATTDEF
  5
B3
330
AD
100
AcDbEntity
  8
AM_6
100
AcDbText
 10
49.99121541260948
 20
9.899999999999997
 30
0.0
 40
0.5
  1
125832
100
AcDbAttributeDefinition
  3

  2
NB
 70
     8
280
     0
  0
ATTDEF
  5
B4
330
AD
100
AcDbEntity
  8
AM_6
100
AcDbText
 10
49.99121541260948
 20
9.399999999999997
 30
0.0
 40
0.5
  1
$PN.
100
AcDbAttributeDefinition
  3

  2
NBSYN
 70
     8
280
     0
  0
ATTDEF
  5
B5
330
AD
100
AcDbEntity
  8
AM_6
100
AcDbText
 10
49.99121541260948
 20
8.899999999999997
 30
0.0
 40
0.5
  1
125832
100
AcDbAttributeDefinition
  3

  2
LINA
 70
     8
280
     0
  0
ATTDEF
  5
B6
330
AD
100
AcDbEntity
  8
AM_6
100
AcDbText
 10
49.99121541260948
 20
8.399999999999997
 30
0.0
 40
0.5
  1
210
100
AcDbAttributeDefinition
  3

  2
SERIES
 70
     8
280
     0
  0
ATTDEF
  5
B7
330
AD
100
AcDbEntity
  8
AM_6
100
AcDbText
 10
49.99121541260948
 20
7.899999999999997
 30
0.0
 40
0.5
  1
45
100
AcDbAttributeDefinition
  3

  2
SS
 70
     8
280
     0
  0
ATTDEF
  5
B8
330
AD
100
AcDbEntity
  8
AM_6
100
AcDbText
 10
49.99121541260948
 20
7.399999999999997
 30
0.0
 40
0.5
  1
125832
100
AcDbAttributeDefinition
  3

  2
PN
 70
     8
280
     0
  0
ATTDEF
  5
B9
330
AD
100
AcDbEntity
  8
AM_6
100
AcDbText
 10
49.99121541260948
 20
6.899999999999997
 30
0.0
 40
0.5
  1
INS-SCM-45M
100
AcDbAttributeDefinition
  3

  2
DESCRIPTION
 70
     8
280
     0
  0
ATTDEF
  5
BA
330
AD
100
AcDbEntity
  8
AM_6
100
AcDbText
 10
49.99121541260948
 20
6.399999999999997
 30
0.0
 40
0.5
  1
0.76
100
AcDbAttributeDefinition
  3

  2
WEIGHT
 70
     8
280
     0
  0
ATTDEF
  5
BB
330
AD
100
AcDbEntity
  8
AM_6
100
AcDbText
 10
49.99121541260948
 20
5.899999999999997
 30
0.0
 40
0.5
  1
49.3
100
AcDbAttributeDefinition
  3

  2
A
 70
     8
280
     0
  0
ATTDEF
  5
BC
330
AD
100
AcDbEntity
  8
AM_6
100
AcDbText
 10
49.99121541260948
 20
5.399999999999997
 30
0.0
 40
0.5
  1
22.1
100
AcDbAttributeDefinition
  3

  2
C
 70
     8
280
     0
  0
ATTDEF
  5
BD
330
AD
100
AcDbEntity
  8
AM_6
100
AcDbText
 10
49.99121541260948
 20
4.899999999999997
 30
0.0
 40
0.5
  1
90.0
100
AcDbAttributeDefinition
  3

  2
D
 70
     8
280
     0
  0
ATTDEF
  5
BE
330
AD
100
AcDbEntity
  8
AM_6
100
AcDbText
 10
49.99121541260948
 20
4.399999999999997
 30
0.0
 40
0.5
  1
6.4
100
AcDbAttributeDefinition
  3

  2
J
 70
     8
280
     0
  0
ATTDEF
  5
BF
330
AD
100
AcDbEntity
  8
AM_6
100
AcDbText
 10
49.99121541260948
 20
3.899999999999997
 30
0.0
 40
0.5
  1
61.7
100
AcDbAttributeDefinition
  3

  2
L
 70
     8
280
     0
  0
ATTDEF
  5
C0
330
AD
100
AcDbEntity
  8
AM_6
100
AcDbText
 10
49.99121541260948
 20
3.399999999999997
 30
0.0
 40
0.5
  1
M10 x 1.5
100
AcDbAttributeDefinition
  3

  2
N
 70
     8
280
     0
  0
ATTDEF
  5
C1
330
AD
100
AcDbEntity
  8
AM_6
100
AcDbText
 10
49.99121541260948
 20
2.899999999999997
 30
0.0
 40
0.5
  1
19.1
100
AcDbAttributeDefinition
  3

  2
W
 70
     8
280
     0
  0
ATTDEF
  5
C2
330
AD
100
AcDbEntity
  8
AM_6
100
AcDbText
 10
49.99121541260948
 20
2.399999999999997
 30
0.0
 40
0.5
  1
30.2
100
AcDbAttributeDefinition
  3

  2
Y
 70
     8
280
     0
  0
ATTDEF
  5
C3
330
AD
100
AcDbEntity
  8
AM_6
100
AcDbText
 10
49.99121541260948
 20
1.899999999999997
 30
0.0
 40
0.5
  1
baldor
100
AcDbAttributeDefinition
  3

  2
COMPANY
 70
     8
280
     0
  0
ELLIPSE
  5
C4
330
AD
100
AcDbEntity
  8
AM_9
100
AcDbEllipse
 10
-33.41079541106437
 20
-1.8
 30
0.0
 11
1.230213375507137E-17
 21
0.2009090909090947
 31
0.0
210
0.0
220
0.0
230
1.0
 40
0.7071067811865419
 41
0.0
 42
6.283185307179586
  0
LWPOLYLINE
  5
C5
330
AD
100
AcDbEntity
  8
AM_9
100
AcDbPolyline
 90
       14
 70
     0
 43
0.0
 10
-34.14130869490069
 20
-1.8
 10
-34.12522278536735
 20
-2.071083777727907
 10
-34.0716402878404
 20
-2.360437547906642
 10
-33.99000322782291
 20
-2.617542137469488
 10
-33.87892158766496
 20
-2.861506249026158
 10
-33.74021187329089
 20
-3.088918756119819
 10
-33.57594003426944
 20
-3.296783051578805
 10
-33.38841984062763
 20
-3.482388183464886
 10
-33.18025072948585
 20
-3.643249235081244
 10
-32.95434767877228
 20
-3.777120037586116
 10
-32.71393990251932
 20
-3.882049028505396
 10
-32.43629423663771
 20
-3.962297247813846
 10
-32.15468917721297
 20
-4.00357390844322
 10
-31.98936567531079
 20
-4.009999852851335
  0
LWPOLYLINE
  5
C6
330
AD
100
AcDbEntity
  8
AM_9
100
AcDbPolyline
 90
       10
 70
     0
 43
0.0
 10
-33.23957022969859
 20
0.0014844599709168
 10
-33.28610486199948
 20
-0.0334497976534499
 10
-33.48258958297878
 20
-0.2051579009719022
 10
-33.65657235072002
 20
-0.3987800329225749
 10
-33.80652725336365
 20
-0.6121461109362472
 10
-33.93100149180766
 20
-0.8433140874492228
 10
-34.02844441058075
 20
-1.090498288524962
 10
-34.09704774495295
 20
-1.351890212068839
 10
-34.13464952022557
 20
-1.625380211799022
 10
-34.14130869490069
 20
-1.8
  0
LWPOLYLINE
  5
C7
330
AD
100
AcDbEntity
  8
AM_9
100
AcDbPolyline
 90
        7
 70
     0
 43
0.0
 10
-31.98799829847661
 20
0.4099988989693538
 10
-32.04072361566246
 20
0.4093937829834481
 10
-32.31563561882169
 20
0.3847430952739327
 10
-32.58088761808245
 20
0.325642944083911
 10
-32.83295869757026
 20
0.2345239748843733
 10
-33.06886617233215
 20
0.1139576904072813
 10
-33.23957022969859
 20
0.0014844599709168
  0
LINE
  5
C8
330
AD
100
AcDbEntity
  8
AM_9
100
AcDbLine
 10
-31.99015360522595
 20
-4.009999999999999
 30
0.0
 11
-31.60151206535201
 21
-4.009999999999999
 31
0.0
  0
LINE
  5
C9
330
AD
100
AcDbEntity
  8
AM_9
100
AcDbLine
 10
-30.88687500403879
 20
0.4099999999999989
 30
0.0
 11
-31.99015360522595
 21
0.4099999999999989
 31
0.0
  0
LWPOLYLINE
  5
CA
330
AD
100
AcDbEntity
  8
AM_9
100
AcDbPolyline
 90
       21
 70
     0
 43
0.0
 10
-30.88623929782414
 20
0.4099999873456109
 10
-30.92828574074044
 20
0.4089694232113933
 10
-31.19161159249089
 20
0.3694471803487778
 10
-31.45428224874994
 20
0.2722541701241157
 10
-31.71170957836677
 20
0.1212398847141062
 10
-31.95960343938778
 20
-0.0824503759861723
 10
-32.18807299771204
 20
-0.3304850569040285
 10
-32.39611799724078
 20
-0.6249562016596502
 10
-32.5717290037113
 20
-0.9506605105611444
 10
-32.7131708455539
 20
-1.309274963021788
 10
-32.81157549092495
 20
-1.681753866023929
 10
-32.86396069590131
 20
-2.063506251001608
 10
-32.86754410991372
 20
-2.438203986641343
 10
-32.82156946854931
 20
-2.793479590301861
 10
-32.72796839886232
 20
-3.120345721334001
 10
-32.59144224087189
 20
-3.403547808972393
 10
-32.41532675615591
 20
-3.640737905193308
 10
-32.20920566579458
 20
-3.820182484971546
 10
-31.97621507372063
 20
-3.942588386655395
 10
-31.72752014614481
 20
-4.002579386326981
 10
-31.60260952887806
 20
-4.009999999933177
  0
LWPOLYLINE
  5
CB
330
AD
100
AcDbEntity
  8
AM_9
100
AcDbPolyline
 90
       15
 70
     0
 43
0.0
 10
-31.60260952887806
 20
-4.009999999933177
 10
-31.46672334629802
 20
-4.001771245363912
 10
-31.2034646813375
 20
-3.940069432598735
 10
-30.94294420139381
 20
-3.820513116522541
 10
-30.69180108956621
 20
-3.645538199938575
 10
-30.45707501010545
 20
-3.421409392248782
 10
-30.242552341703
 20
-3.150611946751048
 10
-30.05620834458691
 20
-2.844101076733318
 10
-29.90023323174412
 20
-2.503456955190707
 10
-29.78175380971845
 20
-2.144272251986142
 10
-29.7028094183163
 20
-1.768550153088095
 10
-29.66764547706738
 20
-1.394126867213894
 10
-29.67825993142139
 20
-1.026534238613088
 10
-29.73490992070411
 20
-0.6812077916879562
 10
-29.88226723434276
 20
-0.2703885091581426
  0
LINE
  5
CC
330
AD
100
AcDbEntity
  8
AM_9
100
AcDbLine
 10
-15.90831218289054
 20
-24.637
 30
0.0
 11
-21.52582751022593
 21
-24.637
 31
0.0
  0
LINE
  5
CD
330
AD
100
AcDbEntity
  8
AM_9
100
AcDbLine
 10
-21.52582751022593
 20
-33.013
 30
0.0
 11
-15.90990257669731
 21
-33.013
 31
0.0
  0
LWPOLYLINE
  5
CE
330
AD
100
AcDbEntity
  8
AM_9
100
AcDbPolyline
 90
       11
 70
     0
 43
0.0
 10
-18.58645000135623
 20
-29.13954877182879
 10
-18.56598000596998
 20
-29.45161668445314
 10
-18.47327371400085
 20
-30.12858204901329
 10
-18.31545999387437
 20
-30.76733345295857
 10
-18.09496760865519
 20
-31.35249079748398
 10
-17.80908364503796
 20
-31.87478647785828
 10
-17.46536218676057
 20
-32.31191803117249
 10
-17.06493867962733
 20
-32.65297927478225
 10
-16.61920764453641
 20
-32.88524173009325
 10
-16.2714774977278
 20
-32.98079300709943
 10
-15.90990257669732
 20
-33.013
  0
LWPOLYLINE
  5
CF
330
AD
100
AcDbEntity
  8
AM_9
100
AcDbPolyline
 90
       11
 70
     0
 43
0.0
 10
-15.9102207997432
 20
-24.6370000241805
 10
-16.04273475686998
 20
-24.64169225981388
 10
-16.52164283401432
 20
-24.7310240486592
 10
-16.96513497115425
 20
-24.93306241718541
 10
-17.36753209069002
 20
-25.24055124775231
 10
-17.72375043329983
 20
-25.65102325805385
 10
-18.02401571077387
 20
-26.14911921094016
 10
-18.26600167405797
 20
-26.73048006118614
 10
-18.44304053549747
 20
-27.37210418513543
 10
-18.55183368412332
 20
-28.05329483488327
 10
-18.58886077727472
 20
-28.57239067577534
  0
LWPOLYLINE
  5
D0
330
AD
100
AcDbEntity
  8
AM_9
100
AcDbPolyline
 90
       20
 70
     0
 43
0.0
 10
-15.90990257669732
 20
-33.013
 10
-15.40981640368963
 20
-32.95427650320056
 10
-14.90952575905289
 20
-32.78160107492756
 10
-14.42515403156576
 20
-32.49883564184185
 10
-13.97220216188563
 20
-32.11555211543824
 10
-13.56271909835027
 20
-31.63566513356947
 10
-13.2159777873442
 20
-31.0769840417031
 10
-12.94461882925489
 20
-30.44858531065089
 10
-12.76173884629141
 20
-29.77300003187971
 10
-12.67733048339266
 20
-29.07726317510956
 10
-12.69095767610117
 20
-28.37424246670913
 10
-12.8015467346466
 20
-27.6932686011974
 10
-13.0023239110741
 20
-27.04387446540148
 10
-13.28815639804332
 20
-26.44097974105793
 10
-13.64563968149394
 20
-25.90391990355374
 10
-14.06916881503423
 20
-25.44154024690956
 10
-14.53751908492269
 20
-25.07445726023929
 10
-15.03532750196141
 20
-24.81439364137747
 10
-15.54501803527916
 20
-24.66819826582597
 10
-15.9102207997432
 20
-24.6370000241805
  0
LINE
  5
D1
330
AD
100
AcDbEntity
  8
AM_9
100
AcDbLine
 10
22.5
 20
-37.166
 30
0.0
 11
22.5
 21
9.665999999999997
 31
0.0
  0
LINE
  5
D2
330
AD
100
AcDbEntity
  8
AM_9
100
AcDbLine
 10
-22.5
 20
9.665999999999997
 30
0.0
 11
-22.5
 21
-37.166
 31
0.0
  0
LWPOLYLINE
  5
D3
330
AD
100
AcDbEntity
  8
AM_9
100
AcDbPolyline
 90
       11
 70
     0
 43
0.0
 10
3.625538593545552
 20
-28.825
 10
3.682381067747863
 20
-29.51129077901341
 10
3.857462438434723
 20
-30.19758155802683
 10
4.134695641600683
 20
-30.82596637507596
 10
4.520237891931907
 20
-31.41520639768021
 10
4.986192066139629
 20
-31.92253229303729
 10
5.5404121620172
 20
-32.3558449957483
 10
6.140029309393801
 20
-32.68123982097333
 10
6.797509009209841
 20
-32.90422535304123
 10
7.4477961358671
 20
-33.00473436351692
 10
7.695153394550011
 20
-33.0129999878454
  0
LINE
  5
D4
330
AD
100
AcDbEntity
  8
AM_9
100
AcDbLine
 10
7.694553517202071
 20
-33.013
 30
0.0
 11
10.4118172900237
 21
-33.013
 31
0.0
  0
LINE
  5
D5
330
AD
100
AcDbEntity
  8
AM_9
100
AcDbLine
 10
10.4118172900237
 20
-24.637
 30
0.0
 11
7.695133318920712
 21
-24.637
 31
0.0
  0
LWPOLYLINE
  5
D6
330
AD
100
AcDbEntity
  8
AM_9
100
AcDbPolyline
 90
        5
 70
     0
 43
0.0
 10
9.059915830565275
 20
-24.90328259934303
 10
9.04483298989182
 20
-24.89716146427865
 10
8.426021095048004
 20
-24.71073415126109
 10
7.75983855794324
 20
-24.63756114674642
 10
7.695765723343342
 20
-24.63700001320353
  0
LWPOLYLINE
  5
D7
330
AD
100
AcDbEntity
  8
AM_9
100
AcDbPolyline
 90
        4
 70
     0
 43
0.0
 10
7.695153394550011
 20
-33.0129999878454
 10
8.117059130129139
 20
-32.98872074219895
 10
8.740496110259402
 20
-32.85982025634348
 10
9.047730634638604
 20
-32.7516687837408
  0
LWPOLYLINE
  5
D8
330
AD
100
AcDbEntity
  8
AM_9
100
AcDbPolyline
 90
       11
 70
     0
 43
0.0
 10
7.695765723343342
 20
-24.63700001320353
 10
7.113231730947242
 20
-24.6826267057911
 10
6.457576281131779
 20
-24.8450425539163
 10
5.849374789359828
 20
-25.1104256286331
 10
5.271175029566484
 20
-25.48606037525327
 10
4.764638043655267
 20
-25.94826093790091
 10
4.325656278283834
 20
-26.50564904806245
 10
3.989835754284798
 20
-27.11788430885206
 10
3.753657227146241
 20
-27.79878575689352
 10
3.658244350865862
 20
-28.30372262864804
 10
3.625538593545552
 20
-28.825
  0
LINE
  5
D9
330
AD
100
AcDbEntity
  8
AM_9
100
AcDbLine
 10
-22.5
 20
-37.166
 30
0.0
 11
-23.73400000000004
 21
-38.4
 31
0.0
  0
LINE
  5
DA
330
AD
100
AcDbEntity
  8
AM_9
100
AcDbLine
 10
23.73400000000004
 20
-38.4
 30
0.0
 11
22.5
 21
-37.166
 31
0.0
  0
LINE
  5
DB
330
AD
100
AcDbEntity
  8
AM_9
100
AcDbLine
 10
22.5
 20
9.665999999999997
 30
0.0
 11
23.73400000000005
 21
10.9
 31
0.0
  0
LINE
  5
DC
330
AD
100
AcDbEntity
  8
AM_9
100
AcDbLine
 10
-23.73400000000005
 20
10.9
 30
0.0
 11
-22.5
 21
9.665999999999997
 31
0.0
  0
LINE
  5
DD
330
AD
100
AcDbEntity
  8
AM_9
100
AcDbLine
 10
-29.61600000000002
 20
10.9
 30
0.0
 11
-30.84999999999999
 21
9.665999999999993
 31
0.0
  0
LINE
  5
DE
330
AD
100
AcDbEntity
  8
AM_9
100
AcDbLine
 10
30.84999999999999
 20
9.665999999999993
 30
0.0
 11
29.61600000000002
 21
10.9
 31
0.0
  0
LINE
  5
DF
330
AD
100
AcDbEntity
  8
AM_9
100
AcDbLine
 10
-29.61600000000002
 20
10.9
 30
0.0
 11
29.61600000000002
 21
10.9
 31
0.0
  0
LINE
  5
E0
330
AD
100
AcDbEntity
  8
AM_9
100
AcDbLine
 10
30.84999999999998
 20
2.850000000000002
 30
0.0
 11
30.84999999999998
 21
9.665999999999993
 31
0.0
  0
LINE
  5
E1
330
AD
100
AcDbEntity
  8
AM_9
100
AcDbLine
 10
-30.84999999999998
 20
9.665999999999993
 30
0.0
 11
-30.84999999999998
 21
2.850000000000002
 31
0.0
  0
LINE
  5
E2
330
AD
100
AcDbEntity
  8
AM_9
100
AcDbLine
 10
-30.84999999999998
 20
9.665999999999993
 30
0.0
 11
30.84999999999998
 21
9.665999999999993
 31
0.0
  0
LINE
  5
E3
330
AD
100
AcDbEntity
  8
AM_9
100
AcDbLine
 10
30.84999999999999
 20
-23.4
 30
0.0
 11
30.84999999999999
 21
-19.25
 31
0.0
  0
LINE
  5
E4
330
AD
100
AcDbEntity
  8
AM_9
100
AcDbLine
 10
-30.84999999999999
 20
-19.25
 30
0.0
 11
-30.84999999999999
 21
-23.4
 31
0.0
  0
LINE
  5
E5
330
AD
100
AcDbEntity
  8
AM_9
100
AcDbLine
 10
42.78999999999994
 20
-15.43333333333333
 30
0.0
 11
42.78999999999994
 21
-12.48666666666666
 31
0.0
  0
LINE
  5
E6
330
AD
100
AcDbEntity
  8
AM_9
100
AcDbLine
 10
-42.78999999999994
 20
-12.48666666666666
 30
0.0
 11
-42.78999999999994
 21
-15.43333333333333
 31
0.0
  0
LINE
  5
E7
330
AD
100
AcDbEntity
  8
AM_9
100
AcDbLine
 10
-42.19396883195163
 20
2.850000000000002
 30
0.0
 11
42.19396883195163
 21
2.850000000000002
 31
0.0
  0
ARC
  5
E8
330
AD
100
AcDbEntity
  8
AM_9
100
AcDbCircle
 10
42.19396883195164
 20
1.966000000000026
 30
0.0
 40
0.8839999999999771
100
AcDbArc
 50
21.41247877657198
 51
90.0
  0
ARC
  5
E9
330
AD
100
AcDbEntity
  8
AM_9
100
AcDbCircle
 10
-42.19396883195164
 20
1.966000000000026
 30
0.0
 40
0.8839999999999764
100
AcDbArc
 50
90.0
 51
158.587521223428
  0
LINE
  5
EA
330
AD
100
AcDbEntity
  8
AM_9
100
AcDbLine
 10
-42.1939688319516
 20
-19.25
 30
0.0
 11
42.1939688319516
 21
-19.25
 31
0.0
  0
ARC
  5
EB
330
AD
100
AcDbEntity
  8
AM_9
100
AcDbCircle
 10
42.1939688319516
 20
-18.36599999999999
 30
0.0
 40
0.8840000000000146
100
AcDbArc
 50
270.0
 51
338.587532953115
  0
ARC
  5
EC
330
AD
100
AcDbEntity
  8
AM_9
100
AcDbCircle
 10
-42.1939688319516
 20
-18.36599999999999
 30
0.0
 40
0.8840000000000177
100
AcDbArc
 50
201.412467046885
 51
270.0
  0
ARC
  5
ED
330
AD
100
AcDbEntity
  8
AM_9
100
AcDbCircle
 10
16.27000000000035
 20
-8.200000000000097
 30
0.0
 40
28.72999999999962
100
AcDbArc
 50
338.5875329531158
 51
345.4177622541453
  0
ARC
  5
EE
330
AD
100
AcDbEntity
  8
AM_9
100
AcDbCircle
 10
-16.27000000000026
 20
-8.200000000000065
 30
0.0
 40
28.72999999999971
100
AcDbArc
 50
194.5822377458547
 51
201.4124670468842
  0
LINE
  5
EF
330
AD
100
AcDbEntity
  8
AM_9
100
AcDbLine
 10
-43.01695196947389
 20
-18.68873015873016
 30
0.0
 11
43.01695196947389
 21
-18.68873015873016
 31
0.0
  0
LINE
  5
F0
330
AD
100
AcDbEntity
  8
AM_9
100
AcDbLine
 10
-44.07452820834922
 20
-15.43333333333333
 30
0.0
 11
44.07452820834922
 21
-15.43333333333333
 31
0.0
  0
LWPOLYLINE
  5
F1
330
AD
100
AcDbEntity
  8
AM_9
100
AcDbPolyline
 90
        6
 70
     0
 43
0.0
 10
-29.88226723434276
 20
-0.2703885091581426
 10
-30.03286505767058
 20
-0.0281596258309581
 10
-30.21805364465688
 20
0.1665301690479699
 10
-30.43416073320918
 20
0.3069533791846719
 10
-30.67482515344778
 20
0.3889510326957508
 10
-30.88623929782414
 20
0.4099999873456109
  0
ARC
  5
F2
330
AD
100
AcDbEntity
  8
AM_9
100
AcDbCircle
 10
16.27000000000265
 20
-8.199999999999731
 30
0.0
 40
28.7299999999974
100
AcDbArc
 50
351.4191278814014
 51
21.41246740779901
  0
ARC
  5
F3
330
AD
100
AcDbEntity
  8
AM_9
100
AcDbCircle
 10
-16.2699999999962
 20
-8.200000000000458
 30
0.0
 40
28.73000000000367
100
AcDbArc
 50
158.5875325922044
 51
188.5808721185953
  0
LINE
  5
F4
330
AD
100
AcDbEntity
  8
AM_9
100
AcDbLine
 10
-44.67840349067311
 20
-12.48666666666667
 30
0.0
 11
44.67840349067311
 21
-12.48666666666667
 31
0.0
  0
LINE
  5
F5
330
AD
100
AcDbEntity
  8
AM_9
100
AcDbLine
 10
-43.01695190340401
 20
2.288730327212655
 30
0.0
 11
43.01695190340401
 21
2.288730327212655
 31
0.0
  0
ELLIPSE
  5
F6
330
AD
100
AcDbEntity
  8
AM_9
100
AcDbEllipse
 10
-31.99015360522593
 20
-1.80000000000003
 30
0.0
 11
-4.059704139173528E-16
 21
-2.210000000000029
 31
0.0
210
0.0
220
0.0
230
1.0
 40
0.7071067811865477
 41
0.0
 42
6.283185307179586
  0
LWPOLYLINE
  5
F7
330
AD
100
AcDbEntity
  8
AM_4
100
AcDbPolyline
 90
       16
 70
     0
 43
0.0
 10
9.047730634638604
 20
-32.7516687837408
 10
9.345276812359014
 20
-32.61523882071645
 10
9.885745773130656
 20
-32.27329752489125
 10
10.37563996726206
 20
-31.82567342253981
 10
10.78258878905683
 20
-31.30045581593338
 10
11.11223945403095
 20
-30.6883226059514
 10
11.33875086285622
 20
-30.03928045904325
 10
11.46915211352428
 20
-29.33476127814446
 10
11.49305405539481
 20
-28.64595988846355
 10
11.41401012566134
 20
-27.94223175512075
 10
11.24016309744677
 20
-27.28834296206927
 10
10.96567619681905
 20
-26.6595294792873
 10
10.60726593500554
 20
-26.10085422979742
 10
10.1556504707114
 20
-25.6036376492049
 10
9.638766926929582
 20
-25.20382636238066
 10
9.059915830565275
 20
-24.90328259934303
  0
LINE
  5
F8
330
AD
100
AcDbEntity
  8
AM_4
100
AcDbLine
 10
29.61600000000002
 20
-38.4
 30
0.0
 11
30.84999999999999
 21
-37.166
 31
0.0
  0
LINE
  5
F9
330
AD
100
AcDbEntity
  8
AM_4
100
AcDbLine
 10
-30.84999999999999
 20
-37.166
 30
0.0
 11
-29.61600000000002
 21
-38.4
 31
0.0
  0
LINE
  5
FA
330
AD
100
AcDbEntity
  8
AM_4
100
AcDbLine
 10
-29.61600000000002
 20
-38.4
 30
0.0
 11
29.61600000000002
 21
-38.4
 31
0.0
  0
LWPOLYLINE
  5
FB
330
AD
100
AcDbEntity
  8
AM_4
100
AcDbPolyline
 90
       39
 70
     0
 43
0.0
 10
-23.89179353648895
 20
-25.63962742808609
 10
-23.58693921751597
 20
-25.18449888460572
 10
-23.23548644268492
 20
-24.80571016941082
 10
-22.79187490293586
 20
-24.48719321718656
 10
-22.30633072814723
 20
-24.2914773889579
 10
-21.82484409714694
 20
-24.22966735179908
 10
-21.33231735011321
 20
-24.28628276139993
 10
-20.85927706921997
 20
-24.45341921135148
 10
-20.40362287268723
 20
-24.72296386224218
 10
-19.96836201346776
 20
-25.09685802292804
 10
-19.57668303661492
 20
-25.55612748039228
 10
-19.22018686524279
 20
-26.12368804906577
 10
-18.93398404908532
 20
-26.7560979367199
 10
-18.7159970502655
 20
-27.4825392487879
 10
-18.59236656352664
 20
-28.24378135489138
 10
-18.56906750515537
 20
-29.05125107794836
 10
-18.65231739875451
 20
-29.85245788830835
 10
-18.84367517910434
 20
-30.63289062250786
 10
-19.13518639628756
 20
-31.36092804528337
 10
-19.51152485449036
 20
-32.00208208503116
 10
-19.96317576173748
 20
-32.54829825135767
 10
-20.44830547771273
 20
-32.95798733787157
 10
-20.97065668350958
 20
-33.24626746488022
 10
-21.47278016749773
 20
-33.39154261786016
 10
-21.97454732435426
 20
-33.41440634984043
 10
-22.43656800838622
 20
-33.31963330519362
 10
-22.87186126052416
 20
-33.11687419822411
 10
-23.27233868353506
 20
-32.81004522233663
 10
-23.62829932930005
 20
-32.41209437276094
 10
-23.94900772635193
 20
-31.90654460550554
 10
-24.21089493135071
 20
-31.32857303374455
 10
-24.42248151441578
 20
-30.64830713935289
 10
-24.56316369884567
 20
-29.92197726983376
 10
-24.63307705598476
 20
-29.13025065284405
 10
-24.62382523716257
 20
-28.33023471414373
 10
-24.53202878404758
 20
-27.52821512088173
 10
-24.35833632128958
 20
-26.76326610809691
 10
-24.1523093917945
 20
-26.17413209878456
 10
-23.89179353625402
 20
-25.63962742798742
  0
LWPOLYLINE
  5
FC
330
AD
100
AcDbEntity
  8
AM_4
100
AcDbPolyline
 90
       39
 70
     0
 43
0.0
 10
10.74869258703511
 20
-24.23464885026331
 10
11.38225828162658
 20
-24.32945592890172
 10
11.98708513582862
 20
-24.53645507622362
 10
12.54009041711334
 20
-24.84451807679065
 10
13.03786577062776
 20
-25.24354241904555
 10
13.49193914602223
 20
-25.75029590589654
 10
13.86659416066389
 20
-26.32933784783316
 10
14.17175487555693
 20
-27.01054867933169
 10
14.37568236186306
 20
-27.73762242705152
 10
14.47661373963346
 20
-28.52975585282896
 10
14.46161768752782
 20
-29.32990997088472
 10
14.32572957813986
 20
-30.13163697388806
 10
14.07151847008495
 20
-30.89600163604389
 10
13.70476295436435
 20
-31.59415111936882
 10
13.23188729545555
 20
-32.21014066842958
 10
12.68530843308006
 20
-32.70222042421369
 10
12.06235348702119
 20
-33.07882529436513
 10
11.42731337410781
 20
-33.30910287704194
 10
10.75889255129595
 20
-33.41476361573857
 10
10.1195692062868
 20
-33.39408450150457
 10
9.487741675650025
 20
-33.26007979003914
 10
8.889326819027868
 20
-33.02021815273091
 10
8.331491907459615
 20
-32.68374588481942
 10
7.808783326362902
 20
-32.24132786064408
 10
7.356841465171758
 20
-31.71989177486681
 10
6.964374383014839
 20
-31.09168535262125
 10
6.672187792422001
 20
-30.4076557908734
 10
6.480472563845159
 20
-29.64241432440741
 10
6.412296259214849
 20
-28.8554439224059
 10
6.474501106843022
 20
-28.04442790706693
 10
6.667787491273621
 20
-27.25539975546544
 10
6.989752234674946
 20
-26.51060075036604
 10
7.43027170957512
 20
-25.83375054906495
 10
7.962342134229215
 20
-25.26402966664295
 10
8.580364703022726
 20
-24.80093860123502
 10
9.222847508857763
 20
-24.48233762980867
 10
9.904378190917063
 20
-24.28826377574735
 10
10.32620605617067
 20
-24.23636909449062
 10
10.74869245114308
 20
-24.23464870453574
  0
LINE
  5
FD
330
AD
100
AcDbEntity
  8
AM_4
100
AcDbLine
 10
30.84999999999999
 20
-37.166
 30
0.0
 11
30.84999999999999
 21
-23.4
 31
0.0
  0
LINE
  5
FE
330
AD
100
AcDbEntity
  8
AM_4
100
AcDbLine
 10
-30.84999999999999
 20
-23.4
 30
0.0
 11
-30.84999999999999
 21
-37.166
 31
0.0
  0
LINE
  5
FF
330
AD
100
AcDbEntity
  8
AM_4
100
AcDbLine
 10
-30.84999999999999
 20
-37.166
 30
0.0
 11
30.84999999999999
 21
-37.166
 31
0.0
  0
ELLIPSE
  5
100
330
AD
100
AcDbEntity
  8
AM_4
100
AcDbEllipse
 10
-21.52582751022593
 20
-28.825
 30
0.0
 11
2.564410397414561E-16
 21
4.188000000000006
 31
0.0
210
0.0
220
0.0
230
1.0
 40
0.7071067811865478
 41
0.0
 42
6.283185307179586
  0
ELLIPSE
  5
101
330
AD
100
AcDbEntity
  8
AM_4
100
AcDbEllipse
 10
10.41181729002369
 20
-28.825
 30
0.0
 11
-7.693231192243677E-16
 21
-4.188000000000002
 31
0.0
210
0.0
220
0.0
230
1.0
 40
0.9396926207859086
 41
0.0
 42
6.283185307179586
  0
ENDBLK
  5
B0
330
AD
100
AcDbEntity
  8
0
100
AcDbBlockEnd
  0
BLOCK
  5
104
330
102
100
AcDbEntity
  8
0
100
AcDbBlockBegin
  2
4_125944H_0_in_125944_4
 70
     2
 10
0.0
 20
0.0
 30
0.0
  3
4_125944H_0_in_125944_4
  1

  0
ATTDEF
  5
106
330
102
100
AcDbEntity
  8
AM_6
100
AcDbText
 10
82.85000000000001
 20
13.665
 30
0.0
 40
0.5
  1
FC-SCM -M-Housing
100
AcDbAttributeDefinition
  3

  2
NN
 70
     8
280
     0
  0
ATTDEF
  5
107
330
102
100
AcDbEntity
  8
AM_6
100
AcDbText
 10
82.85000000000001
 20
13.165
 30
0.0
 40
0.5
  1
SC Piloted Flange Bearings -(Medium Duty)
100
AcDbAttributeDefinition
  3

  2
NT
 70
     8
280
     0
  0
ATTDEF
  5
108
330
102
100
AcDbEntity
  8
AM_6
100
AcDbText
 10
82.85000000000001
 20
12.665
 30
0.0
 40
0.5
  1
125944H
100
AcDbAttributeDefinition
  3

  2
NB
 70
     8
280
     0
  0
ATTDEF
  5
109
330
102
100
AcDbEntity
  8
AM_6
100
AcDbText
 10
82.85000000000001
 20
12.165
 30
0.0
 40
0.5
  1
$PN.H
100
AcDbAttributeDefinition
  3

  2
NBSYN
 70
     8
280
     0
  0
ATTDEF
  5
10A
330
102
100
AcDbEntity
  8
AM_6
100
AcDbText
 10
82.85000000000001
 20
11.665
 30
0.0
 40
0.5
  1
125944
100
AcDbAttributeDefinition
  3

  2
LINA
 70
     8
280
     0
  0
ATTDEF
  5
10B
330
102
100
AcDbEntity
  8
AM_6
100
AcDbText
 10
82.85000000000001
 20
11.165
 30
0.0
 40
0.5
  1
210
100
AcDbAttributeDefinition
  3

  2
SERIES
 70
     8
280
     0
  0
ATTDEF
  5
10C
330
102
100
AcDbEntity
  8
AM_6
100
AcDbText
 10
82.85000000000001
 20
10.665
 30
0.0
 40
0.5
  1
45
100
AcDbAttributeDefinition
  3

  2
SS
 70
     8
280
     0
  0
ATTDEF
  5
10D
330
102
100
AcDbEntity
  8
AM_6
100
AcDbText
 10
82.85000000000001
 20
10.165
 30
0.0
 40
0.5
  1
125944
100
AcDbAttributeDefinition
  3

  2
PN
 70
     8
280
     0
  0
ATTDEF
  5
10E
330
102
100
AcDbEntity
  8
AM_6
100
AcDbText
 10
82.85000000000001
 20
9.665000000000004
 30
0.0
 40
0.5
  1
FC-SCM-45M
100
AcDbAttributeDefinition
  3

  2
DESCRIPTION
 70
     8
280
     0
  0
ATTDEF
  5
10F
330
102
100
AcDbEntity
  8
AM_6
100
AcDbText
 10
82.85000000000001
 20
9.165000000000004
 30
0.0
 40
0.5
  1
49.3
100
AcDbAttributeDefinition
  3

  2
A
 70
     8
280
     0
  0
ATTDEF
  5
110
330
102
100
AcDbEntity
  8
AM_6
100
AcDbText
 10
82.85000000000001
 20
8.665000000000004
 30
0.0
 40
0.5
  1
155.7
100
AcDbAttributeDefinition
  3

  2
B
 70
     8
280
     0
  0
ATTDEF
  5
111
330
102
100
AcDbEntity
  8
AM_6
100
AcDbText
 10
82.85000000000001
 20
8.165000000000004
 30
0.0
 40
0.5
  1
50.3
100
AcDbAttributeDefinition
  3

  2
C
 70
     8
280
     0
  0
ATTDEF
  5
112
330
102
100
AcDbEntity
  8
AM_6
100
AcDbText
 10
82.85000000000001
 20
7.665000000000004
 30
0.0
 40
0.5
  1
130.3
100
AcDbAttributeDefinition
  3

  2
D
 70
     8
280
     0
  0
ATTDEF
  5
113
330
102
100
AcDbEntity
  8
AM_6
100
AcDbText
 10
82.85000000000001
 20
7.165000000000004
 30
0.0
 40
0.5
  1
11.9
100
AcDbAttributeDefinition
  3

  2
E
 70
     8
280
     0
  0
ATTDEF
  5
114
330
102
100
AcDbEntity
  8
AM_6
100
AcDbText
 10
82.85000000000001
 20
6.665000000000004
 30
0.0
 40
0.5
  1
M12
100
AcDbAttributeDefinition
  3

  2
F
 70
     8
280
     0
  0
ATTDEF
  5
115
330
102
100
AcDbEntity
  8
AM_6
100
AcDbText
 10
82.85000000000001
 20
6.165000000000004
 30
0.0
 40
0.5
  1
13.5
100
AcDbAttributeDefinition
  3

  2
F1
 70
     8
280
     0
  0
ATTDEF
  5
116
330
102
100
AcDbEntity
  8
AM_6
100
AcDbText
 10
82.85000000000001
 20
5.665000000000004
 30
0.0
 40
0.5
  1
38.4
100
AcDbAttributeDefinition
  3

  2
G
 70
     8
280
     0
  0
ATTDEF
  5
117
330
102
100
AcDbEntity
  8
AM_6
100
AcDbText
 10
82.85000000000001
 20
5.165000000000004
 30
0.0
 40
0.5
  1
23.4
100
AcDbAttributeDefinition
  3

  2
H
 70
     8
280
     0
  0
ATTDEF
  5
118
330
102
100
AcDbEntity
  8
AM_6
100
AcDbText
 10
82.85000000000001
 20
4.665000000000004
 30
0.0
 40
0.5
  1
8.3
100
AcDbAttributeDefinition
  3

  2
H1
 70
     8
280
     0
  0
ATTDEF
  5
119
330
102
100
AcDbEntity
  8
AM_6
100
AcDbText
 10
82.85000000000001
 20
4.165000000000004
 30
0.0
 40
0.5
  1
107.95
100
AcDbAttributeDefinition
  3

  2
K
 70
     8
280
     0
  0
ATTDEF
  5
11A
330
102
100
AcDbEntity
  8
AM_6
100
AcDbText
 10
82.85000000000001
 20
3.665000000000004
 30
0.0
 40
0.5
  1
61.7
100
AcDbAttributeDefinition
  3

  2
L
 70
     8
280
     0
  0
ATTDEF
  5
11B
330
102
100
AcDbEntity
  8
AM_6
100
AcDbText
 10
82.85000000000001
 20
3.165000000000004
 30
0.0
 40
0.5
  1
baldor
100
AcDbAttributeDefinition
  3

  2
COMPANY
 70
     8
280
     0
  0
LINE
  5
11C
330
102
100
AcDbEntity
  8
AM_9
100
AcDbLine
 10
-10.35999999999999
 20
-15.6
 30
0.0
 11
10.35999999999999
 21
-15.6
 31
0.0
  0
LINE
  5
11D
330
102
100
AcDbEntity
  8
AM_9
100
AcDbLine
 10
-42.28910872087486
 20
-11.045
 30
0.0
 11
-42.28910872087486
 21
11.9
 31
0.0
  0
LINE
  5
11E
330
102
100
AcDbEntity
  8
AM_9
100
AcDbLine
 10
-21.07590528527841
 20
-11.045
 30
0.0
 11
-21.07590528527841
 21
11.9
 31
0.0
  0
LINE
  5
11F
330
102
100
AcDbEntity
  8
AM_9
100
AcDbLine
 10
-19.39339828220179
 20
-11.045
 30
0.0
 11
-42.28910872087486
 21
-11.045
 31
0.0
  0
LINE
  5
120
330
102
100
AcDbEntity
  8
AM_9
100
AcDbLine
 10
42.28910872087484
 20
-11.045
 30
0.0
 11
42.28910872087484
 21
11.9
 31
0.0
  0
LINE
  5
121
330
102
100
AcDbEntity
  8
AM_9
100
AcDbLine
 10
58.40000000000001
 20
-23.4
 30
0.0
 11
58.40000000000001
 21
-15.6
 31
0.0
  0
LINE
  5
122
330
102
100
AcDbEntity
  8
AM_9
100
AcDbLine
 10
-58.40000000000001
 20
-15.6
 30
0.0
 11
-58.40000000000001
 21
-23.4
 31
0.0
  0
LINE
  5
123
330
102
100
AcDbEntity
  8
AM_9
100
AcDbLine
 10
-52.44034790500196
 20
-15.6
 30
0.0
 11
-52.44034790500196
 21
-23.4
 31
0.0
  0
LINE
  5
124
330
102
100
AcDbEntity
  8
AM_9
100
AcDbLine
 10
-52.47655522558468
 20
-15.6
 30
0.0
 11
-52.47655522558468
 21
-23.4
 31
0.0
  0
LINE
  5
125
330
102
100
AcDbEntity
  8
AM_9
100
AcDbLine
 10
-52.00186834833348
 20
-23.4
 30
0.0
 11
-52.00186834833348
 21
-15.6
 31
0.0
  0
LINE
  5
126
330
102
100
AcDbEntity
  8
AM_9
100
AcDbLine
 10
52.44034790500197
 20
-15.6
 30
0.0
 11
52.44034790500197
 21
-23.4
 31
0.0
  0
LINE
  5
127
330
102
100
AcDbEntity
  8
AM_9
100
AcDbLine
 10
52.47655535102528
 20
-15.6
 30
0.0
 11
52.47655535102528
 21
-23.4
 31
0.0
  0
LINE
  5
128
330
102
100
AcDbEntity
  8
AM_9
100
AcDbLine
 10
52.00186834833349
 20
-15.6
 30
0.0
 11
52.00186834833349
 21
-23.4
 31
0.0
  0
LINE
  5
129
330
102
100
AcDbEntity
  8
AM_9
100
AcDbLine
 10
-55.43651785586548
 20
-15.6
 30
0.0
 11
-54.65725009563059
 21
-15.6
 31
0.0
  0
LINE
  5
12A
330
102
100
AcDbEntity
  8
AM_9
100
AcDbLine
 10
54.65725009563058
 20
-15.6
 30
0.0
 11
55.43651785586547
 21
-15.6
 31
0.0
  0
LINE
  5
12B
330
102
100
AcDbEntity
  8
AM_9
100
AcDbLine
 10
21.07590528527844
 20
-11.045
 30
0.0
 11
21.07590528527844
 21
11.9
 31
0.0
  0
LINE
  5
12C
330
102
100
AcDbEntity
  8
AM_9
100
AcDbLine
 10
42.28910872087484
 20
-11.045
 30
0.0
 11
19.39339828220179
 21
-11.045
 31
0.0
  0
LINE
  5
12D
330
102
100
AcDbEntity
  8
AM_9
100
AcDbLine
 10
-40.60660171779821
 20
-11.045
 30
0.0
 11
-40.60660171779819
 21
11.9
 31
0.0
  0
LINE
  5
12E
330
102
100
AcDbEntity
  8
AM_9
100
AcDbLine
 10
19.39339828220179
 20
11.9
 30
0.0
 11
19.39339828220179
 21
-11.045
 31
0.0
  0
LINE
  5
12F
330
102
100
AcDbEntity
  8
AM_9
100
AcDbLine
 10
40.60660171779821
 20
-11.045
 30
0.0
 11
40.60660171779819
 21
11.9
 31
0.0
  0
LINE
  5
130
330
102
100
AcDbEntity
  8
AM_9
100
AcDbLine
 10
-19.39339828220178
 20
11.9
 30
0.0
 11
-19.39339828220179
 21
-11.045
 31
0.0
  0
LINE
  5
131
330
102
100
AcDbEntity
  8
AM_9
100
AcDbLine
 10
45.0
 20
-23.40000000000001
 30
0.0
 11
45.0
 21
11.9
 31
0.0
  0
LINE
  5
132
330
102
100
AcDbEntity
  8
AM_9
100
AcDbLine
 10
-45.0
 20
11.9
 30
0.0
 11
-45.0
 21
-23.40000000000001
 31
0.0
  0
LINE
  5
133
330
102
100
AcDbEntity
  8
AM_9
100
AcDbLine
 10
39.31800679430357
 20
0.0000000000000028
 30
0.0
 11
39.31800679430357
 21
-23.4
 31
0.0
  0
LINE
  5
134
330
102
100
AcDbEntity
  8
AM_9
100
AcDbLine
 10
52.81800679430357
 20
-23.4
 30
0.0
 11
52.81800679430357
 21
0.0000000000000028
 31
0.0
  0
LINE
  5
135
330
102
100
AcDbEntity
  8
AM_9
100
AcDbLine
 10
-52.81800679430357
 20
0.0000000000000028
 30
0.0
 11
-52.81800679430357
 21
-23.4
 31
0.0
  0
LINE
  5
136
330
102
100
AcDbEntity
  8
AM_9
100
AcDbLine
 10
-39.31800679430357
 20
-23.4
 30
0.0
 11
-39.31800679430357
 21
0.0000000000000028
 31
0.0
  0
LINE
  5
137
330
102
100
AcDbEntity
  8
AM_9
100
AcDbLine
 10
-57.58717876753938
 20
-15.6
 30
0.0
 11
-57.58717876753938
 21
-23.4
 31
0.0
  0
LINE
  5
138
330
102
100
AcDbEntity
  8
AM_9
100
AcDbLine
 10
57.58717876753938
 20
-15.6
 30
0.0
 11
57.58717876753938
 21
-23.4
 31
0.0
  0
LINE
  5
139
330
102
100
AcDbEntity
  8
AM_7
100
AcDbLine
 10
0.0
 20
-40.86500000000001
 30
0.0
 11
0.0
 21
13.665
 31
0.0
  0
LINE
  5
13A
330
102
100
AcDbEntity
  8
AM_7
100
AcDbLine
 10
46.06800679430357
 20
-24.57
 30
0.0
 11
46.06800679430357
 21
1.170000000000003
 31
0.0
  0
LINE
  5
13B
330
102
100
AcDbEntity
  8
AM_7
100
AcDbLine
 10
-46.06800679430358
 20
-24.57000000000001
 30
0.0
 11
-46.06800679430358
 21
1.169999999999997
 31
0.0
  0
LINE
  5
13C
330
102
100
AcDbEntity
  8
AM_4
100
AcDbLine
 10
-53.499
 20
11.9
 30
0.0
 11
53.4989999999589
 21
11.9
 31
0.0
  0
ARC
  5
13D
330
102
100
AcDbEntity
  8
AM_4
100
AcDbCircle
 10
53.499
 20
11.424
 30
0.0
 40
0.4760000000000133
100
AcDbArc
 50
0.0
 51
90.0
  0
ARC
  5
13E
330
102
100
AcDbEntity
  8
AM_4
100
AcDbCircle
 10
-53.499
 20
11.424
 30
0.0
 40
0.4760000000000026
100
AcDbArc
 50
90.0
 51
180.0
  0
LINE
  5
13F
330
102
100
AcDbEntity
  8
AM_4
100
AcDbLine
 10
-53.97500000000001
 20
11.424
 30
0.0
 11
53.97500000000001
 21
11.424
 31
0.0
  0
LINE
  5
140
330
102
100
AcDbEntity
  8
AM_4
100
AcDbLine
 10
53.97500000000001
 20
0.0
 30
0.0
 11
53.97500000000001
 21
11.424
 31
0.0
  0
LINE
  5
141
330
102
100
AcDbEntity
  8
AM_4
100
AcDbLine
 10
-53.97500000000001
 20
11.424
 30
0.0
 11
-53.97500000000001
 21
0.0
 31
0.0
  0
LINE
  5
142
330
102
100
AcDbEntity
  8
AM_4
100
AcDbLine
 10
-58.77800679430355
 20
-15.6
 30
0.0
 11
-58.77800679430355
 21
-23.40000000000001
 31
0.0
  0
LINE
  5
143
330
102
100
AcDbEntity
  8
AM_4
100
AcDbLine
 10
58.77800679430354
 20
-23.4
 30
0.0
 11
58.77800679430354
 21
-15.6
 31
0.0
  0
LINE
  5
144
330
102
100
AcDbEntity
  8
AM_4
100
AcDbLine
 10
-25.62754647817034
 20
-15.6
 30
0.0
 11
-25.62754647817034
 21
-23.4
 31
0.0
  0
LINE
  5
145
330
102
100
AcDbEntity
  8
AM_4
100
AcDbLine
 10
25.62754661987413
 20
-15.6
 30
0.0
 11
25.62754661987413
 21
-23.4
 31
0.0
  0
LINE
  5
146
330
102
100
AcDbEntity
  8
AM_4
100
AcDbLine
 10
29.65911428417563
 20
-15.6
 30
0.0
 11
29.65911428417563
 21
-23.4
 31
0.0
  0
LINE
  5
147
330
102
100
AcDbEntity
  8
AM_4
100
AcDbLine
 10
-29.65911428417566
 20
-15.6
 30
0.0
 11
-29.65911428417566
 21
-23.4
 31
0.0
  0
LINE
  5
148
330
102
100
AcDbEntity
  8
AM_4
100
AcDbLine
 10
-40.69652868757929
 20
-15.6
 30
0.0
 11
-40.69652868757929
 21
-23.4
 31
0.0
  0
LINE
  5
149
330
102
100
AcDbEntity
  8
AM_4
100
AcDbLine
 10
40.69652868757927
 20
-15.6
 30
0.0
 11
40.69652868757927
 21
-23.40000000000001
 31
0.0
  0
LINE
  5
14A
330
102
100
AcDbEntity
  8
AM_4
100
AcDbLine
 10
14.46058610470858
 20
-15.6
 30
0.0
 11
14.46058610470858
 21
-23.4
 31
0.0
  0
LINE
  5
14B
330
102
100
AcDbEntity
  8
AM_4
100
AcDbLine
 10
-14.46058610470859
 20
-15.6
 30
0.0
 11
-14.46058610470859
 21
-23.4
 31
0.0
  0
LINE
  5
14C
330
102
100
AcDbEntity
  8
AM_4
100
AcDbLine
 10
-12.7
 20
-15.6
 30
0.0
 11
-12.7
 21
-23.4
 31
0.0
  0
LINE
  5
14D
330
102
100
AcDbEntity
  8
AM_4
100
AcDbLine
 10
-10.35999999999999
 20
-15.6
 30
0.0
 11
-10.35999999999999
 21
-23.4
 31
0.0
  0
LINE
  5
14E
330
102
100
AcDbEntity
  8
AM_4
100
AcDbLine
 10
58.77800679430354
 20
-23.4
 30
0.0
 11
-58.77800679430355
 21
-23.40000000000001
 31
0.0
  0
LINE
  5
14F
330
102
100
AcDbEntity
  8
AM_4
100
AcDbLine
 10
12.7
 20
-15.6
 30
0.0
 11
12.7
 21
-23.4
 31
0.0
  0
LINE
  5
150
330
102
100
AcDbEntity
  8
AM_4
100
AcDbLine
 10
10.35999999999999
 20
-15.6
 30
0.0
 11
10.35999999999999
 21
-23.4
 31
0.0
  0
LINE
  5
151
330
102
100
AcDbEntity
  8
AM_4
100
AcDbLine
 10
-10.90445484812923
 20
0.000000000000004
 30
0.0
 11
-10.90445484812923
 21
-15.6
 31
0.0
  0
LINE
  5
152
330
102
100
AcDbEntity
  8
AM_4
100
AcDbLine
 10
10.90445484812923
 20
0.000000000000004
 30
0.0
 11
10.90445484812923
 21
-15.6
 31
0.0
  0
LINE
  5
153
330
102
100
AcDbEntity
  8
AM_4
100
AcDbLine
 10
13.16472128164565
 20
0.0000000000000041
 30
0.0
 11
13.16472128164566
 21
-15.6
 31
0.0
  0
LINE
  5
154
330
102
100
AcDbEntity
  8
AM_4
100
AcDbLine
 10
-13.16472128164565
 20
0.0000000000000041
 30
0.0
 11
-13.16472128164565
 21
-15.6
 31
0.0
  0
LINE
  5
155
330
102
100
AcDbEntity
  8
AM_4
100
AcDbLine
 10
-54.6572500956306
 20
-15.6
 30
0.0
 11
-10.35999999999999
 21
-15.6
 31
0.0
  0
LINE
  5
156
330
102
100
AcDbEntity
  8
AM_4
100
AcDbLine
 10
-15.67569867196721
 20
-15.6
 30
0.0
 11
-15.67569867196721
 21
0.0000000000000047
 31
0.0
  0
LINE
  5
157
330
102
100
AcDbEntity
  8
AM_4
100
AcDbLine
 10
15.67569867196721
 20
0.0000000000000047
 30
0.0
 11
15.67569867196721
 21
-15.6
 31
0.0
  0
LINE
  5
158
330
102
100
AcDbEntity
  8
AM_4
100
AcDbLine
 10
10.35999999999999
 20
-15.6
 30
0.0
 11
54.65725009563058
 21
-15.6
 31
0.0
  0
LINE
  5
159
330
102
100
AcDbEntity
  8
AM_4
100
AcDbLine
 10
54.65725009563058
 20
-15.6
 30
0.0
 11
54.65725009563078
 21
-23.4
 31
0.0
  0
LINE
  5
15A
330
102
100
AcDbEntity
  8
AM_4
100
AcDbLine
 10
55.43651785586527
 20
-23.4
 30
0.0
 11
55.43651785586547
 21
-15.6
 31
0.0
  0
LINE
  5
15B
330
102
100
AcDbEntity
  8
AM_4
100
AcDbLine
 10
55.43651785586547
 20
-15.6
 30
0.0
 11
77.85000000000001
 21
-15.6
 31
0.0
  0
LINE
  5
15C
330
102
100
AcDbEntity
  8
AM_4
100
AcDbLine
 10
-55.43651785586548
 20
-15.6
 30
0.0
 11
-55.4365178558653
 21
-23.4
 31
0.0
  0
LINE
  5
15D
330
102
100
AcDbEntity
  8
AM_4
100
AcDbLine
 10
-54.6572500956308
 20
-23.4
 30
0.0
 11
-54.6572500956306
 21
-15.6
 31
0.0
  0
LINE
  5
15E
330
102
100
AcDbEntity
  8
AM_4
100
AcDbLine
 10
77.85000000000001
 20
-15.6
 30
0.0
 11
77.85000000000001
 21
0.0000000000000035
 31
0.0
  0
LINE
  5
15F
330
102
100
AcDbEntity
  8
AM_4
100
AcDbLine
 10
-77.85000000000001
 20
0.0000000000000035
 30
0.0
 11
-77.85000000000001
 21
-15.6
 31
0.0
  0
LINE
  5
160
330
102
100
AcDbEntity
  8
AM_4
100
AcDbLine
 10
-77.85000000000001
 20
0.0000000000000035
 30
0.0
 11
77.85000000000001
 21
0.0000000000000035
 31
0.0
  0
LINE
  5
161
330
102
100
AcDbEntity
  8
AM_4
100
AcDbLine
 10
-77.85000000000001
 20
-15.6
 30
0.0
 11
-55.43651785586548
 21
-15.6
 31
0.0
  0
ENDBLK
  5
105
330
102
100
AcDbEntity
  8
0
100
AcDbBlockEnd
  0
ENDSEC
  0
SECTION
  2
ENTITIES
  0
INSERT
  5
6F
330
1F
100
AcDbEntity
  8
0
100
AcDbBlockReference
  2
1_125944_4
 10
0.0
 20
0.0
 30
0.0
  0
POINT
  5
163
330
1F
100
AcDbEntity
  8
ConnectionPoints
100
AcDbPoint
 10
0.0
 20
-38.4
 30
0.0000000000000024
  0
POINT
  5
164
330
1F
100
AcDbEntity
  8
ConnectionPoints
100
AcDbPoint
 10
0.0
 20
-38.4
 30
0.0000000000000024
  0
POINT
  5
165
330
1F
100
AcDbEntity
  8
ConnectionPoints
100
AcDbPoint
 10
0.0
 20
-11.7
 30
65.15
  0
ENDSEC
  0
SECTION
  2
OBJECTS
  0
DICTIONARY
  5
C
330
0
100
AcDbDictionary
281
     1
  3
ACAD_DETAILVIEWSTYLE
350
16D
  3
ACAD_GROUP
350
D
  3
ACAD_LAYOUT
350
1A
  3
ACAD_MATERIAL
350
43
  3
ACAD_MLEADERSTYLE
350
6B
  3
ACAD_MLINESTYLE
350
17
  3
ACAD_PLOTSETTINGS
350
19
  3
ACAD_PLOTSTYLENAME
350
E
  3
ACAD_SCALELIST
350
47
  3
ACAD_SECTIONVIEWSTYLE
350
16E
  3
ACAD_TABLESTYLE
350
69
  3
ACAD_VISUALSTYLE
350
2A
  3
ACDB_RECOMPOSE_DATA
350
16A
  3
AcDbVariableDictionary
350
166
  0
SUN
  5
6D
330
29
100
AcDbSun
 90
        1
290
     0
 63
     7
421
 16777215
 40
1.0
291
     1
 91
  2455826
 92
 54000000
292
     0
 70
     2
 71
   256
280
     1
  0
DICTIONARY
  5
16D
102
{ACAD_REACTORS
330
C
102
}
330
C
100
AcDbDictionary
281
     1
  0
DICTIONARY
  5
D
102
{ACAD_REACTORS
330
C
102
}
330
C
100
AcDbDictionary
281
     1
  0
DICTIONARY
  5
1A
102
{ACAD_REACTORS
330
C
102
}
330
C
100
AcDbDictionary
281
     1
  3
Layout1
350
1E
  3
Layout2
350
26
  3
Model
350
22
  0
DICTIONARY
  5
43
102
{ACAD_REACTORS
330
C
102
}
330
C
100
AcDbDictionary
281
     1
  3
ByBlock
350
45
  3
ByLayer
350
44
  3
Global
350
46
  0
DICTIONARY
  5
6B
102
{ACAD_REACTORS
330
C
102
}
330
C
100
AcDbDictionary
281
     1
  3
Standard
350
6C
  0
DICTIONARY
  5
17
102
{ACAD_REACTORS
330
C
102
}
330
C
100
AcDbDictionary
281
     1
  3
Standard
350
18
  0
DICTIONARY
  5
19
102
{ACAD_REACTORS
330
C
102
}
330
C
100
AcDbDictionary
281
     1
  0
ACDBDICTIONARYWDFLT
  5
E
102
{ACAD_REACTORS
330
C
102
}
330
C
100
AcDbDictionary
281
     1
  3
Normal
350
F
100
AcDbDictionaryWithDefault
340
F
  0
DICTIONARY
  5
47
102
{ACAD_REACTORS
330
C
102
}
330
C
100
AcDbDictionary
281
     1
  3
A0
350
48
  3
A1
350
49
  3
A2
350
4A
  3
A3
350
4B
  3
A4
350
4C
  3
A5
350
4D
  3
A6
350
4E
  3
A7
350
4F
  3
A8
350
50
  3
A9
350
51
  3
B0
350
52
  3
B1
350
53
  3
B2
350
54
  3
B3
350
55
  3
B4
350
56
  3
B5
350
57
  3
B6
350
58
  3
B7
350
59
  3
B8
350
5A
  3
B9
350
5B
  3
C0
350
5C
  3
C1
350
5D
  3
C2
350
5E
  3
C3
350
5F
  3
C4
350
60
  3
C5
350
61
  3
C6
350
62
  3
C7
350
63
  3
C8
350
64
  3
C9
350
65
  3
D0
350
66
  3
D1
350
67
  3
D2
350
68
  0
DICTIONARY
  5
16E
102
{ACAD_REACTORS
330
C
102
}
330
C
100
AcDbDictionary
281
     1
  0
DICTIONARY
  5
69
102
{ACAD_REACTORS
330
C
102
}
330
C
100
AcDbDictionary
281
     1
  3
Standard
350
6A
  0
DICTIONARY
  5
2A
102
{ACAD_REACTORS
330
C
102
}
330
C
100
AcDbDictionary
281
     1
  3
2dWireframe
350
2F
  3
Basic
350
32
  3
Brighten
350
36
  3
ColorChange
350
3A
  3
Conceptual
350
34
  3
Dim
350
35
  3
EdgeColorOff
350
3D
  3
Facepattern
350
39
  3
Flat
350
2B
  3
FlatWithEdges
350
2C
  3
Gouraud
350
2D
  3
GouraudWithEdges
350
2E
  3
Hidden
350
31
  3
JitterOff
350
3B
  3
Linepattern
350
38
  3
OverhangOff
350
3C
  3
Realistic
350
33
  3
Shaded
350
42
  3
Shaded with edges
350
41
  3
Shades of Gray
350
3E
  3
Sketchy
350
3F
  3
Thicken
350
37
  3
Wireframe
350
30
  3
X-Ray
350
40
  0
XRECORD
  5
16A
102
{ACAD_REACTORS
330
C
102
}
330
C
100
AcDbXrecord
280
     1
 90
        1
330
6A
  0
DICTIONARY
  5
166
102
{ACAD_REACTORS
330
C
102
}
330
C
100
AcDbDictionary
281
     1
  3
CANNOSCALE
350
167
  3
CMLEADERSTYLE
350
16C
  3
CTABLESTYLE
350
16B
  0
LAYOUT
  5
1E
102
{ACAD_REACTORS
330
1A
102
}
330
1A
100
AcDbPlotSettings
  1

  2
none_device
  4

  6

 40
0.0
 41
0.0
 42
0.0
 43
0.0
 44
0.0
 45
0.0
 46
0.0
 47
0.0
 48
0.0
 49
0.0
140
0.0
141
0.0
142
1.0
143
1.0
 70
   688
 72
     1
 73
     0
 74
     5
  7

 75
    16
 76
     0
 77
     2
 78
   300
147
1.0
148
0.0
149
0.0
100
AcDbLayout
  1
Layout1
 70
     1
 71
     1
 10
0.0
 20
0.0
 11
420.0
 21
297.0
 12
0.0
 22
0.0
 32
0.0
 14
1.000000000000000E+20
 24
1.000000000000000E+20
 34
1.000000000000000E+20
 15
-1.000000000000000E+20
 25
-1.000000000000000E+20
 35
-1.000000000000000E+20
146
0.0
 13
0.0
 23
0.0
 33
0.0
 16
1.0
 26
0.0
 36
0.0
 17
0.0
 27
1.0
 37
0.0
 76
     0
330
1B
  0
LAYOUT
  5
26
102
{ACAD_REACTORS
330
1A
102
}
330
1A
100
AcDbPlotSettings
  1

  2
none_device
  4

  6

 40
0.0
 41
0.0
 42
0.0
 43
0.0
 44
0.0
 45
0.0
 46
0.0
 47
0.0
 48
0.0
 49
0.0
140
0.0
141
0.0
142
1.0
143
1.0
 70
   688
 72
     1
 73
     0
 74
     5
  7

 75
    16
 76
     0
 77
     2
 78
   300
147
1.0
148
0.0
149
0.0
100
AcDbLayout
  1
Layout2
 70
     1
 71
     2
 10
0.0
 20
0.0
 11
0.0
 21
0.0
 12
0.0
 22
0.0
 32
0.0
 14
0.0
 24
0.0
 34
0.0
 15
0.0
 25
0.0
 35
0.0
146
0.0
 13
0.0
 23
0.0
 33
0.0
 16
1.0
 26
0.0
 36
0.0
 17
0.0
 27
1.0
 37
0.0
 76
     0
330
23
  0
LAYOUT
  5
22
102
{ACAD_REACTORS
330
1A
102
}
330
1A
100
AcDbPlotSettings
  1

  2
none_device
  4
Letter_(8.50_x_11.00_Inches)
  6

 40
6.35
 41
6.35
 42
6.35000508
 43
6.35000508
 44
215.9
 45
279.4
 46
0.0
 47
0.0
 48
0.0
 49
0.0
140
0.0
141
0.0
142
1.0
143
1.0
 70
  1712
 72
     1
 73
     0
 74
     0
  7

 75
     0
 76
     0
 77
     2
 78
   300
147
1.0
148
0.0
149
0.0
100
AcDbLayout
  1
Model
 70
     1
 71
     0
 10
0.0
 20
0.0
 11
420.0
 21
297.0
 12
0.0
 22
0.0
 32
0.0
 14
1.000000000000000E+20
 24
1.000000000000000E+20
 34
1.000000000000000E+20
 15
-1.000000000000000E+20
 25
-1.000000000000000E+20
 35
-1.000000000000000E+20
146
0.0
 13
0.0
 23
0.0
 33
0.0
 16
1.0
 26
0.0
 36
0.0
 17
0.0
 27
1.0
 37
0.0
 76
     0
330
1F
331
29
  0
MATERIAL
  5
45
102
{ACAD_REACTORS
330
43
102
}
330
43
100
AcDbMaterial
  1
ByBlock
 72
     1
 94
      127
  0
MATERIAL
  5
44
102
{ACAD_REACTORS
330
43
102
}
330
43
100
AcDbMaterial
  1
ByLayer
 72
     1
 94
      127
  0
MATERIAL
  5
46
102
{ACAD_REACTORS
330
43
102
}
330
43
100
AcDbMaterial
  1
Global
 72
     1
 94
      127
  0
MLEADERSTYLE
  5
6C
102
{ACAD_REACTORS
330
6B
102
}
330
6B
100
AcDbMLeaderStyle
179
     2
170
     2
171
     1
172
     0
 90
        2
 40
0.0
 41
0.0
173
     1
 91
-1056964608
340
14
 92
       -2
290
     1
 42
2.0
291
     1
 43
8.0
  3
Standard
341
0
 44
4.0
300

342
11
174
     1
178
     6
175
     1
176
     0
 93
-1056964608
 45
4.0
292
     0
297
     0
 46
4.0
343
0
 94
-1056964608
 47
1.0
 49
1.0
140
1.0
293
     1
141
0.0
294
     1
177
     0
142
1.0
295
     0
296
     0
143
3.75
271
     0
272
     9
273
     9
298
     0
  0
MLINESTYLE
  5
18
102
{ACAD_REACTORS
330
17
102
}
330
17
100
AcDbMlineStyle
  2
Standard
 70
     0
  3

 62
   256
 51
90.0
 52
90.0
 71
     2
 49
0.5
 62
   256
  6
BYLAYER
 49
-0.5
 62
   256
  6
BYLAYER
  0
ACDBPLACEHOLDER
  5
F
102
{ACAD_REACTORS
330
E
102
}
330
E
  0
SCALE
  5
48
102
{ACAD_REACTORS
330
47
102
}
330
47
100
AcDbScale
 70
     0
300
1:1
140
1.0
141
1.0
290
     1
  0
SCALE
  5
49
102
{ACAD_REACTORS
330
47
102
}
330
47
100
AcDbScale
 70
     0
300
1:2
140
1.0
141
2.0
290
     0
  0
SCALE
  5
4A
102
{ACAD_REACTORS
330
47
102
}
330
47
100
AcDbScale
 70
     0
300
1:4
140
1.0
141
4.0
290
     0
  0
SCALE
  5
4B
102
{ACAD_REACTORS
330
47
102
}
330
47
100
AcDbScale
 70
     0
300
1:5
140
1.0
141
5.0
290
     0
  0
SCALE
  5
4C
102
{ACAD_REACTORS
330
47
102
}
330
47
100
AcDbScale
 70
     0
300
1:8
140
1.0
141
8.0
290
     0
  0
SCALE
  5
4D
102
{ACAD_REACTORS
330
47
102
}
330
47
100
AcDbScale
 70
     0
300
1:10
140
1.0
141
10.0
290
     0
  0
SCALE
  5
4E
102
{ACAD_REACTORS
330
47
102
}
330
47
100
AcDbScale
 70
     0
300
1:16
140
1.0
141
16.0
290
     0
  0
SCALE
  5
4F
102
{ACAD_REACTORS
330
47
102
}
330
47
100
AcDbScale
 70
     0
300
1:20
140
1.0
141
20.0
290
     0
  0
SCALE
  5
50
102
{ACAD_REACTORS
330
47
102
}
330
47
100
AcDbScale
 70
     0
300
1:30
140
1.0
141
30.0
290
     0
  0
SCALE
  5
51
102
{ACAD_REACTORS
330
47
102
}
330
47
100
AcDbScale
 70
     0
300
1:40
140
1.0
141
40.0
290
     0
  0
SCALE
  5
52
102
{ACAD_REACTORS
330
47
102
}
330
47
100
AcDbScale
 70
     0
300
1:50
140
1.0
141
50.0
290
     0
  0
SCALE
  5
53
102
{ACAD_REACTORS
330
47
102
}
330
47
100
AcDbScale
 70
     0
300
1:100
140
1.0
141
100.0
290
     0
  0
SCALE
  5
54
102
{ACAD_REACTORS
330
47
102
}
330
47
100
AcDbScale
 70
     0
300
2:1
140
2.0
141
1.0
290
     0
  0
SCALE
  5
55
102
{ACAD_REACTORS
330
47
102
}
330
47
100
AcDbScale
 70
     0
300
4:1
140
4.0
141
1.0
290
     0
  0
SCALE
  5
56
102
{ACAD_REACTORS
330
47
102
}
330
47
100
AcDbScale
 70
     0
300
8:1
140
8.0
141
1.0
290
     0
  0
SCALE
  5
57
102
{ACAD_REACTORS
330
47
102
}
330
47
100
AcDbScale
 70
     0
300
10:1
140
10.0
141
1.0
290
     0
  0
SCALE
  5
58
102
{ACAD_REACTORS
330
47
102
}
330
47
100
AcDbScale
 70
     0
300
100:1
140
100.0
141
1.0
290
     0
  0
SCALE
  5
59
102
{ACAD_REACTORS
330
47
102
}
330
47
100
AcDbScale
 70
     0
300
1/128" = 1'-0"
140
0.0078125
141
12.0
290
     0
  0
SCALE
  5
5A
102
{ACAD_REACTORS
330
47
102
}
330
47
100
AcDbScale
 70
     0
300
1/64" = 1'-0"
140
0.015625
141
12.0
290
     0
  0
SCALE
  5
5B
102
{ACAD_REACTORS
330
47
102
}
330
47
100
AcDbScale
 70
     0
300
1/32" = 1'-0"
140
0.03125
141
12.0
290
     0
  0
SCALE
  5
5C
102
{ACAD_REACTORS
330
47
102
}
330
47
100
AcDbScale
 70
     0
300
1/16" = 1'-0"
140
0.0625
141
12.0
290
     0
  0
SCALE
  5
5D
102
{ACAD_REACTORS
330
47
102
}
330
47
100
AcDbScale
 70
     0
300
3/32" = 1'-0"
140
0.09375
141
12.0
290
     0
  0
SCALE
  5
5E
102
{ACAD_REACTORS
330
47
102
}
330
47
100
AcDbScale
 70
     0
300
1/8" = 1'-0"
140
0.125
141
12.0
290
     0
  0
SCALE
  5
5F
102
{ACAD_REACTORS
330
47
102
}
330
47
100
AcDbScale
 70
     0
300
3/16" = 1'-0"
140
0.1875
141
12.0
290
     0
  0
SCALE
  5
60
102
{ACAD_REACTORS
330
47
102
}
330
47
100
AcDbScale
 70
     0
300
1/4" = 1'-0"
140
0.25
141
12.0
290
     0
  0
SCALE
  5
61
102
{ACAD_REACTORS
330
47
102
}
330
47
100
AcDbScale
 70
     0
300
3/8" = 1'-0"
140
0.375
141
12.0
290
     0
  0
SCALE
  5
62
102
{ACAD_REACTORS
330
47
102
}
330
47
100
AcDbScale
 70
     0
300
1/2" = 1'-0"
140
0.5
141
12.0
290
     0
  0
SCALE
  5
63
102
{ACAD_REACTORS
330
47
102
}
330
47
100
AcDbScale
 70
     0
300
3/4" = 1'-0"
140
0.75
141
12.0
290
     0
  0
SCALE
  5
64
102
{ACAD_REACTORS
330
47
102
}
330
47
100
AcDbScale
 70
     0
300
1" = 1'-0"
140
1.0
141
12.0
290
     0
  0
SCALE
  5
65
102
{ACAD_REACTORS
330
47
102
}
330
47
100
AcDbScale
 70
     0
300
1-1/2" = 1'-0"
140
1.5
141
12.0
290
     0
  0
SCALE
  5
66
102
{ACAD_REACTORS
330
47
102
}
330
47
100
AcDbScale
 70
     0
300
3" = 1'-0"
140
3.0
141
12.0
290
     0
  0
SCALE
  5
67
102
{ACAD_REACTORS
330
47
102
}
330
47
100
AcDbScale
 70
     0
300
6" = 1'-0"
140
6.0
141
12.0
290
     0
  0
SCALE
  5
68
102
{ACAD_REACTORS
330
47
102
}
330
47
100
AcDbScale
 70
     0
300
1'-0" = 1'-0"
140
12.0
141
12.0
290
     0
  0
TABLESTYLE
  5
6A
102
{ACAD_REACTORS
330
69
102
}
102
{ACAD_XDICTIONARY
360
168
102
}
330
69
100
AcDbTableStyle
  3
Standard
 70
     0
 71
     0
 40
0.06
 41
0.06
280
     0
281
     0
  7
Standard
140
4.5
170
     2
 62
     0
 63
   257
283
     0
 90
        4
 91
        0
  1

274
    -2
284
     1
 64
     0
275
    -2
285
     1
 65
     0
276
    -2
286
     1
 66
     0
277
    -2
287
     1
 67
     0
278
    -2
288
     1
 68
     0
279
    -2
289
     1
 69
     0
  7
Standard
140
6.0
170
     5
 62
     0
 63
   257
283
     0
 90
        4
 91
        0
  1

274
    -2
284
     1
 64
     0
275
    -2
285
     1
 65
     0
276
    -2
286
     1
 66
     0
277
    -2
287
     1
 67
     0
278
    -2
288
     1
 68
     0
279
    -2
289
     1
 69
     0
  7
Standard
140
4.5
170
     5
 62
     0
 63
   257
283
     0
 90
        4
 91
        0
  1

274
    -2
284
     1
 64
     0
275
    -2
285
     1
 65
     0
276
    -2
286
     1
 66
     0
277
    -2
287
     1
 67
     0
278
    -2
288
     1
 68
     0
279
    -2
289
     1
 69
     0
  0
VISUALSTYLE
  5
2F
102
{ACAD_REACTORS
330
2A
102
}
330
2A
100
AcDbVisualStyle
  2
2dWireframe
 70
     4
177
     3
291
     0
 70
    58
 90
        0
176
     1
 90
        2
176
     1
 90
        0
176
     1
 90
        0
176
     1
 40
0.6
176
     1
 40
30.0
176
     1
 62
     7
420
 16777215
176
     1
 90
        1
176
     1
 90
        4
176
     1
 62
     7
176
     1
 62
   257
176
     1
 90
        1
176
     1
 90
        1
176
     1
 40
1.0
176
     1
 90
        0
176
     1
 62
   257
176
     1
 40
1.0
176
     1
 90
        1
176
     1
 90
        6
176
     1
 90
        2
176
     1
 62
     7
176
     1
 90
        5
176
     1
 90
        0
176
     1
 90
        0
176
     1
290
     0
176
     1
 90
        1
176
     1
 40
0.0
176
     1
 90
        0
176
     1
290
     1
176
     1
290
     1
176
     1
290
     0
176
     1
290
     0
176
     1
290
     0
176
     1
290
     0
176
     1
290
     0
176
     1
290
     0
176
     1
290
     0
176
     1
 90
       50
176
     1
 40
0.0
176
     1
 40
1.0
176
     1
 90
        0
176
     1
 62
    18
420
        0
176
     1
 90
       50
176
     1
 90
        3
176
     1
 62
     5
420
      255
176
     1
290
     0
176
     1
 90
       50
176
     1
 90
       50
176
     1
 90
       50
176
     1
290
     0
176
     1
 90
       50
176
     1
 62
   256
176
     0
 40
1.0
176
     0
 90
        2
176
     1
  1
strokes_ogs.tif
176
     1
290
     0
176
     1
 40
1.0
176
     1
 40
1.0
176
     1
  0
VISUALSTYLE
  5
32
102
{ACAD_REACTORS
330
2A
102
}
330
2A
100
AcDbVisualStyle
  2
Basic
 70
     7
177
     3
291
     1
 70
    58
 90
        1
176
     1
 90
        0
176
     1
 90
        1
176
     1
 90
        0
176
     1
 40
0.6
176
     1
 40
30.0
176
     1
 62
     7
420
 16777215
176
     1
 90
        0
176
     1
 90
        4
176
     1
 62
     7
176
     1
 62
   257
176
     1
 90
        1
176
     1
 90
        1
176
     1
 40
1.0
176
     1
 90
        8
176
     1
 62
     7
176
     1
 40
1.0
176
     1
 90
        1
176
     1
 90
        6
176
     1
 90
        2
176
     1
 62
     7
176
     1
 90
        5
176
     1
 90
        0
176
     1
 90
        0
176
     1
290
     0
176
     1
 90
        1
176
     1
 40
0.0
176
     1
 90
        0
176
     1
290
     0
176
     1
290
     1
176
     1
290
     1
176
     1
290
     0
176
     1
290
     0
176
     1
290
     0
176
     1
290
     0
176
     1
290
     0
176
     1
290
     0
176
     1
 90
       50
176
     1
 40
0.0
176
     1
 40
1.0
176
     1
 90
        0
176
     1
 62
    18
420
        0
176
     1
 90
       50
176
     1
 90
        3
176
     1
 62
     5
420
      255
176
     1
290
     0
176
     1
 90
       50
176
     1
 90
       50
176
     1
 90
       50
176
     1
290
     0
176
     1
 90
       50
176
     1
 62
   256
176
     0
 40
1.0
176
     0
 90
        2
176
     1
  1
strokes_ogs.tif
176
     1
290
     0
176
     1
 40
1.0
176
     1
 40
1.0
176
     1
  0
VISUALSTYLE
  5
36
102
{ACAD_REACTORS
330
2A
102
}
330
2A
100
AcDbVisualStyle
  2
Brighten
 70
    12
177
     3
291
     1
 70
    58
 90
        2
176
     1
 90
        2
176
     1
 90
        0
176
     1
 90
        0
176
     1
 40
0.6
176
     1
 40
30.0
176
     1
 62
     7
420
 16777215
176
     1
 90
        1
176
     1
 90
        4
176
     1
 62
     7
176
     1
 62
   257
176
     1
 90
        1
176
     1
 90
        1
176
     1
 40
1.0
176
     1
 90
        8
176
     1
 62
     7
176
     1
 40
1.0
176
     1
 90
        1
176
     1
 90
        6
176
     1
 90
        2
176
     1
 62
     7
176
     1
 90
        5
176
     1
 90
        0
176
     1
 90
        0
176
     1
290
     0
176
     1
 90
        1
176
     1
 40
50.0
176
     1
 90
        0
176
     1
290
     0
176
     1
290
     1
176
     1
290
     1
176
     1
290
     0
176
     1
290
     0
176
     1
290
     0
176
     1
290
     0
176
     1
290
     0
176
     1
290
     0
176
     1
 90
       50
176
     1
 40
0.0
176
     1
 40
1.0
176
     1
 90
        0
176
     1
 62
    18
420
        0
176
     1
 90
       50
176
     1
 90
        3
176
     1
 62
     5
420
      255
176
     1
290
     0
176
     1
 90
       50
176
     1
 90
       50
176
     1
 90
       50
176
     1
290
     0
176
     1
 90
       50
176
     1
 62
   256
176
     0
 40
1.0
176
     0
 90
        2
176
     1
  1
strokes_ogs.tif
176
     1
290
     0
176
     1
 40
1.0
176
     1
 40
1.0
176
     1
  0
VISUALSTYLE
  5
3A
102
{ACAD_REACTORS
330
2A
102
}
330
2A
100
AcDbVisualStyle
  2
ColorChange
 70
    16
177
     3
291
     1
 70
    58
 90
        2
176
     1
 90
        2
176
     1
 90
        3
176
     1
 90
        0
176
     1
 40
0.6
176
     1
 40
30.0
176
     1
 62
     8
420
  8421504
176
     1
 90
        1
176
     1
 90
        4
176
     1
 62
     7
176
     1
 62
   257
176
     1
 90
        1
176
     1
 90
        1
176
     1
 40
1.0
176
     1
 90
        8
176
     1
 62
     8
420
  8421504
176
     1
 40
1.0
176
     1
 90
        1
176
     1
 90
        6
176
     1
 90
        2
176
     1
 62
     7
176
     1
 90
        5
176
     1
 90
        0
176
     1
 90
        0
176
     1
290
     0
176
     1
 90
        1
176
     1
 40
0.0
176
     1
 90
        0
176
     1
290
     0
176
     1
290
     1
176
     1
290
     1
176
     1
290
     0
176
     1
290
     0
176
     1
290
     0
176
     1
290
     0
176
     1
290
     0
176
     1
290
     0
176
     1
 90
       50
176
     1
 40
0.0
176
     1
 40
1.0
176
     1
 90
        0
176
     1
 62
    18
420
        0
176
     1
 90
       50
176
     1
 90
        3
176
     1
 62
     5
420
      255
176
     1
290
     0
176
     1
 90
       50
176
     1
 90
       50
176
     1
 90
       50
176
     1
290
     0
176
     1
 90
       50
176
     1
 62
   256
176
     0
 40
1.0
176
     0
 90
        2
176
     1
  1
strokes_ogs.tif
176
     1
290
     0
176
     1
 40
1.0
176
     1
 40
1.0
176
     1
  0
VISUALSTYLE
  5
34
102
{ACAD_REACTORS
330
2A
102
}
330
2A
100
AcDbVisualStyle
  2
Conceptual
 70
     9
177
     3
291
     0
 70
    58
 90
        3
176
     1
 90
        2
176
     1
 90
        0
176
     1
 90
        0
176
     1
 40
0.6
176
     1
 40
30.0
176
     1
 62
     7
420
 16777215
176
     1
 90
        2
176
     1
 90
        2
176
     1
 62
     7
176
     1
 62
   257
176
     1
 90
        1
176
     1
 90
        1
176
     1
 40
179.0
176
     1
 90
        8
176
     1
 62
     7
176
     1
 40
1.0
176
     1
 90
        1
176
     1
 90
        6
176
     1
 90
        2
176
     1
 62
     7
176
     1
 90
        3
176
     1
 90
        0
176
     1
 90
        0
176
     1
290
     0
176
     1
 90
        1
176
     1
 40
0.0
176
     1
 90
        0
176
     1
290
     0
176
     1
290
     1
176
     1
290
     1
176
     1
290
     0
176
     1
290
     0
176
     1
290
     0
176
     1
290
     0
176
     1
290
     0
176
     1
290
     0
176
     1
 90
       50
176
     1
 40
0.0
176
     1
 40
1.0
176
     1
 90
        0
176
     1
 62
    18
420
        0
176
     1
 90
       50
176
     1
 90
        3
176
     1
 62
     5
420
      255
176
     1
290
     0
176
     1
 90
       50
176
     1
 90
       50
176
     1
 90
       50
176
     1
290
     0
176
     1
 90
       50
176
     1
 62
   256
176
     0
 40
1.0
176
     0
 90
        2
176
     1
  1
strokes_ogs.tif
176
     1
290
     0
176
     1
 40
1.0
176
     1
 40
1.0
176
     1
  0
VISUALSTYLE
  5
35
102
{ACAD_REACTORS
330
2A
102
}
330
2A
100
AcDbVisualStyle
  2
Dim
 70
    11
177
     3
291
     1
 70
    58
 90
        2
176
     1
 90
        2
176
     1
 90
        0
176
     1
 90
        0
176
     1
 40
0.6
176
     1
 40
30.0
176
     1
 62
     7
420
 16777215
176
     1
 90
        1
176
     1
 90
        4
176
     1
 62
     7
176
     1
 62
   257
176
     1
 90
        1
176
     1
 90
        1
176
     1
 40
1.0
176
     1
 90
        8
176
     1
 62
     7
176
     1
 40
1.0
176
     1
 90
        1
176
     1
 90
        6
176
     1
 90
        2
176
     1
 62
     7
176
     1
 90
        5
176
     1
 90
        0
176
     1
 90
        0
176
     1
290
     0
176
     1
 90
        1
176
     1
 40
-50.0
176
     1
 90
        0
176
     1
290
     0
176
     1
290
     1
176
     1
290
     1
176
     1
290
     0
176
     1
290
     0
176
     1
290
     0
176
     1
290
     0
176
     1
290
     0
176
     1
290
     0
176
     1
 90
       50
176
     1
 40
0.0
176
     1
 40
1.0
176
     1
 90
        0
176
     1
 62
    18
420
        0
176
     1
 90
       50
176
     1
 90
        3
176
     1
 62
     5
420
      255
176
     1
290
     0
176
     1
 90
       50
176
     1
 90
       50
176
     1
 90
       50
176
     1
290
     0
176
     1
 90
       50
176
     1
 62
   256
176
     0
 40
1.0
176
     0
 90
        2
176
     1
  1
strokes_ogs.tif
176
     1
290
     0
176
     1
 40
1.0
176
     1
 40
1.0
176
     1
  0
VISUALSTYLE
  5
3D
102
{ACAD_REACTORS
330
2A
102
}
330
2A
100
AcDbVisualStyle
  2
EdgeColorOff
 70
    22
177
     3
291
     1
 70
    58
 90
        2
176
     0
 90
        2
176
     0
 90
        0
176
     0
 90
        0
176
     0
 40
0.6
176
     0
 40
30.0
176
     0
 62
     7
420
 16777215
176
     0
 90
        1
176
     0
 90
        4
176
     0
 62
     7
176
     0
 62
   257
176
     0
 90
        1
176
     0
 90
        1
176
     0
 40
1.0
176
     0
 90
        8
176
     2
 62
     7
176
     0
 40
1.0
176
     0
 90
        1
176
     0
 90
        6
176
     0
 90
        2
176
     0
 62
     7
176
     0
 90
        5
176
     0
 90
        0
176
     0
 90
        0
176
     0
290
     0
176
     0
 90
        1
176
     0
 40
0.0
176
     0
 90
        0
176
     0
290
     0
176
     0
290
     1
176
     0
290
     1
176
     0
290
     0
176
     0
290
     0
176
     0
290
     0
176
     0
290
     0
176
     0
290
     0
176
     0
290
     0
176
     0
 90
       50
176
     0
 40
0.0
176
     0
 40
1.0
176
     0
 90
        0
176
     0
 62
    18
420
        0
176
     0
 90
       50
176
     0
 90
        3
176
     0
 62
     5
420
      255
176
     0
290
     0
176
     0
 90
       50
176
     0
 90
       50
176
     0
 90
       50
176
     0
290
     0
176
     0
 90
       50
176
     0
 62
   256
176
     0
 40
1.0
176
     0
 90
        2
176
     0
  1
strokes_ogs.tif
176
     0
290
     0
176
     0
 40
1.0
176
     0
 40
1.0
176
     0
  0
VISUALSTYLE
  5
39
102
{ACAD_REACTORS
330
2A
102
}
330
2A
100
AcDbVisualStyle
  2
Facepattern
 70
    15
177
     3
291
     1
 70
    58
 90
        2
176
     1
 90
        2
176
     1
 90
        0
176
     1
 90
        0
176
     1
 40
0.6
176
     1
 40
30.0
176
     1
 62
     7
420
 16777215
176
     1
 90
        1
176
     1
 90
        4
176
     1
 62
     7
176
     1
 62
   257
176
     1
 90
        1
176
     1
 90
        1
176
     1
 40
1.0
176
     1
 90
        8
176
     1
 62
     7
176
     1
 40
1.0
176
     1
 90
        1
176
     1
 90
        6
176
     1
 90
        2
176
     1
 62
     7
176
     1
 90
        5
176
     1
 90
        0
176
     1
 90
        0
176
     1
290
     0
176
     1
 90
        1
176
     1
 40
0.0
176
     1
 90
        0
176
     1
290
     0
176
     1
290
     1
176
     1
290
     1
176
     1
290
     0
176
     1
290
     0
176
     1
290
     0
176
     1
290
     0
176
     1
290
     0
176
     1
290
     0
176
     1
 90
       50
176
     1
 40
0.0
176
     1
 40
1.0
176
     1
 90
        0
176
     1
 62
    18
420
        0
176
     1
 90
       50
176
     1
 90
        3
176
     1
 62
     5
420
      255
176
     1
290
     0
176
     1
 90
       50
176
     1
 90
       50
176
     1
 90
       50
176
     1
290
     0
176
     1
 90
       50
176
     1
 62
   256
176
     0
 40
1.0
176
     0
 90
        2
176
     1
  1
strokes_ogs.tif
176
     1
290
     0
176
     1
 40
1.0
176
     1
 40
1.0
176
     1
  0
VISUALSTYLE
  5
2B
102
{ACAD_REACTORS
330
2A
102
}
330
2A
100
AcDbVisualStyle
  2
Flat
 70
     0
177
     3
291
     1
 70
    58
 90
        2
176
     1
 90
        1
176
     1
 90
        1
176
     1
 90
        2
176
     1
 40
0.6
176
     1
 40
30.0
176
     1
 62
     7
420
 16777215
176
     1
 90
        0
176
     1
 90
        0
176
     1
 62
     7
176
     1
 62
   257
176
     1
 90
        1
176
     1
 90
        1
176
     1
 40
1.0
176
     1
 90
        8
176
     1
 62
     7
176
     1
 40
1.0
176
     1
 90
        1
176
     1
 90
        6
176
     1
 90
        2
176
     1
 62
     7
176
     1
 90
        5
176
     1
 90
        0
176
     1
 90
        0
176
     1
290
     0
176
     1
 90
       13
176
     1
 40
0.0
176
     1
 90
        0
176
     1
290
     0
176
     1
290
     1
176
     1
290
     1
176
     1
290
     0
176
     1
290
     0
176
     1
290
     0
176
     1
290
     0
176
     1
290
     0
176
     1
290
     0
176
     1
 90
       50
176
     1
 40
0.0
176
     1
 40
1.0
176
     1
 90
        0
176
     1
 62
    18
420
        0
176
     1
 90
       50
176
     1
 90
        3
176
     1
 62
     5
420
      255
176
     1
290
     0
176
     1
 90
       50
176
     1
 90
       50
176
     1
 90
       50
176
     1
290
     0
176
     1
 90
       50
176
     1
 62
   256
176
     0
 40
1.0
176
     0
 90
        2
176
     1
  1
strokes_ogs.tif
176
     1
290
     0
176
     1
 40
1.0
176
     1
 40
1.0
176
     1
  0
VISUALSTYLE
  5
2C
102
{ACAD_REACTORS
330
2A
102
}
330
2A
100
AcDbVisualStyle
  2
FlatWithEdges
 70
     1
177
     3
291
     1
 70
    58
 90
        2
176
     1
 90
        1
176
     1
 90
        1
176
     1
 90
        2
176
     1
 40
0.6
176
     1
 40
30.0
176
     1
 62
     7
420
 16777215
176
     1
 90
        1
176
     1
 90
        0
176
     1
 62
     7
176
     1
 62
   257
176
     1
 90
        1
176
     1
 90
        1
176
     1
 40
1.0
176
     1
 90
        0
176
     1
 62
   257
176
     1
 40
1.0
176
     1
 90
        1
176
     1
 90
        6
176
     1
 90
        2
176
     1
 62
     7
176
     1
 90
        5
176
     1
 90
        0
176
     1
 90
        0
176
     1
290
     0
176
     1
 90
       13
176
     1
 40
0.0
176
     1
 90
        0
176
     1
290
     0
176
     1
290
     1
176
     1
290
     1
176
     1
290
     0
176
     1
290
     0
176
     1
290
     0
176
     1
290
     0
176
     1
290
     0
176
     1
290
     0
176
     1
 90
       50
176
     1
 40
0.0
176
     1
 40
1.0
176
     1
 90
        0
176
     1
 62
    18
420
        0
176
     1
 90
       50
176
     1
 90
        3
176
     1
 62
     5
420
      255
176
     1
290
     0
176
     1
 90
       50
176
     1
 90
       50
176
     1
 90
       50
176
     1
290
     0
176
     1
 90
       50
176
     1
 62
   256
176
     0
 40
1.0
176
     0
 90
        2
176
     1
  1
strokes_ogs.tif
176
     1
290
     0
176
     1
 40
1.0
176
     1
 40
1.0
176
     1
  0
VISUALSTYLE
  5
2D
102
{ACAD_REACTORS
330
2A
102
}
330
2A
100
AcDbVisualStyle
  2
Gouraud
 70
     2
177
     3
291
     1
 70
    58
 90
        2
176
     1
 90
        2
176
     1
 90
        1
176
     1
 90
        2
176
     1
 40
0.6
176
     1
 40
30.0
176
     1
 62
     7
420
 16777215
176
     1
 90
        0
176
     1
 90
        0
176
     1
 62
     7
176
     1
 62
   257
176
     1
 90
        1
176
     1
 90
        1
176
     1
 40
1.0
176
     1
 90
        0
176
     1
 62
     7
176
     1
 40
1.0
176
     1
 90
        1
176
     1
 90
        6
176
     1
 90
        2
176
     1
 62
     7
176
     1
 90
        5
176
     1
 90
        0
176
     1
 90
        0
176
     1
290
     0
176
     1
 90
       13
176
     1
 40
0.0
176
     1
 90
        0
176
     1
290
     0
176
     1
290
     1
176
     1
290
     1
176
     1
290
     0
176
     1
290
     0
176
     1
290
     0
176
     1
290
     0
176
     1
290
     0
176
     1
290
     0
176
     1
 90
       50
176
     1
 40
0.0
176
     1
 40
1.0
176
     1
 90
        0
176
     1
 62
    18
420
        0
176
     1
 90
       50
176
     1
 90
        3
176
     1
 62
     5
420
      255
176
     1
290
     0
176
     1
 90
       50
176
     1
 90
       50
176
     1
 90
       50
176
     1
290
     0
176
     1
 90
       50
176
     1
 62
   256
176
     0
 40
1.0
176
     0
 90
        2
176
     1
  1
strokes_ogs.tif
176
     1
290
     0
176
     1
 40
1.0
176
     1
 40
1.0
176
     1
  0
VISUALSTYLE
  5
2E
102
{ACAD_REACTORS
330
2A
102
}
330
2A
100
AcDbVisualStyle
  2
GouraudWithEdges
 70
     3
177
     3
291
     1
 70
    58
 90
        2
176
     1
 90
        2
176
     1
 90
        1
176
     1
 90
        2
176
     1
 40
0.6
176
     1
 40
30.0
176
     1
 62
     7
420
 16777215
176
     1
 90
        1
176
     1
 90
        0
176
     1
 62
     7
176
     1
 62
   257
176
     1
 90
        1
176
     1
 90
        1
176
     1
 40
1.0
176
     1
 90
        0
176
     1
 62
   257
176
     1
 40
1.0
176
     1
 90
        1
176
     1
 90
        6
176
     1
 90
        2
176
     1
 62
     7
176
     1
 90
        5
176
     1
 90
        0
176
     1
 90
        0
176
     1
290
     0
176
     1
 90
       13
176
     1
 40
0.0
176
     1
 90
        0
176
     1
290
     0
176
     1
290
     1
176
     1
290
     1
176
     1
290
     0
176
     1
290
     0
176
     1
290
     0
176
     1
290
     0
176
     1
290
     0
176
     1
290
     0
176
     1
 90
       50
176
     1
 40
0.0
176
     1
 40
1.0
176
     1
 90
        0
176
     1
 62
    18
420
        0
176
     1
 90
       50
176
     1
 90
        3
176
     1
 62
     5
420
      255
176
     1
290
     0
176
     1
 90
       50
176
     1
 90
       50
176
     1
 90
       50
176
     1
290
     0
176
     1
 90
       50
176
     1
 62
   256
176
     0
 40
1.0
176
     0
 90
        2
176
     1
  1
strokes_ogs.tif
176
     1
290
     0
176
     1
 40
1.0
176
     1
 40
1.0
176
     1
  0
VISUALSTYLE
  5
31
102
{ACAD_REACTORS
330
2A
102
}
330
2A
100
AcDbVisualStyle
  2
Hidden
 70
     6
177
     3
291
     0
 70
    58
 90
        1
176
     1
 90
        2
176
     1
 90
        2
176
     1
 90
        0
176
     1
 40
0.6
176
     1
 40
30.0
176
     1
 62
     7
420
 16777215
176
     1
 90
        2
176
     1
 90
        2
176
     1
 62
     7
176
     1
 62
   257
176
     1
 90
        2
176
     1
 90
        1
176
     1
 40
40.0
176
     1
 90
        0
176
     1
 62
   257
176
     1
 40
1.0
176
     1
 90
        1
176
     1
 90
        6
176
     1
 90
        2
176
     1
 62
     7
176
     1
 90
        3
176
     1
 90
        0
176
     1
 90
        0
176
     1
290
     0
176
     1
 90
        1
176
     1
 40
0.0
176
     1
 90
        0
176
     1
290
     0
176
     1
290
     1
176
     1
290
     1
176
     1
290
     0
176
     1
290
     0
176
     1
290
     0
176
     1
290
     0
176
     1
290
     0
176
     1
290
     0
176
     1
 90
       50
176
     1
 40
0.0
176
     1
 40
1.0
176
     1
 90
        0
176
     1
 62
    18
420
        0
176
     1
 90
       50
176
     1
 90
        3
176
     1
 62
     5
420
      255
176
     1
290
     0
176
     1
 90
       50
176
     1
 90
       50
176
     1
 90
       50
176
     1
290
     0
176
     1
 90
       50
176
     1
 62
   256
176
     0
 40
1.0
176
     0
 90
        2
176
     1
  1
strokes_ogs.tif
176
     1
290
     0
176
     1
 40
1.0
176
     1
 40
1.0
176
     1
  0
VISUALSTYLE
  5
3B
102
{ACAD_REACTORS
330
2A
102
}
330
2A
100
AcDbVisualStyle
  2
JitterOff
 70
    20
177
     3
291
     1
 70
    58
 90
        2
176
     0
 90
        2
176
     0
 90
        0
176
     0
 90
        0
176
     0
 40
0.6
176
     0
 40
30.0
176
     0
 62
     7
420
 16777215
176
     0
 90
        1
176
     0
 90
        4
176
     0
 62
     7
176
     0
 62
   257
176
     0
 90
        1
176
     0
 90
        1
176
     0
 40
1.0
176
     0
 90
       10
176
     2
 62
     7
176
     0
 40
1.0
176
     0
 90
        1
176
     0
 90
        6
176
     0
 90
        2
176
     0
 62
     7
176
     0
 90
        5
176
     0
 90
        0
176
     0
 90
        0
176
     0
290
     0
176
     0
 90
        1
176
     0
 40
0.0
176
     0
 90
        0
176
     0
290
     0
176
     0
290
     1
176
     0
290
     1
176
     0
290
     0
176
     0
290
     0
176
     0
290
     0
176
     0
290
     0
176
     0
290
     0
176
     0
290
     0
176
     0
 90
       50
176
     0
 40
0.0
176
     0
 40
1.0
176
     0
 90
        0
176
     0
 62
    18
420
        0
176
     0
 90
       50
176
     0
 90
        3
176
     0
 62
     5
420
      255
176
     0
290
     0
176
     0
 90
       50
176
     0
 90
       50
176
     0
 90
       50
176
     0
290
     0
176
     0
 90
       50
176
     0
 62
   256
176
     0
 40
1.0
176
     0
 90
        2
176
     0
  1
strokes_ogs.tif
176
     0
290
     0
176
     0
 40
1.0
176
     0
 40
1.0
176
     0
  0
VISUALSTYLE
  5
38
102
{ACAD_REACTORS
330
2A
102
}
330
2A
100
AcDbVisualStyle
  2
Linepattern
 70
    14
177
     3
291
     1
 70
    58
 90
        2
176
     1
 90
        2
176
     1
 90
        0
176
     1
 90
        0
176
     1
 40
0.6
176
     1
 40
30.0
176
     1
 62
     7
420
 16777215
176
     1
 90
        1
176
     1
 90
        4
176
     1
 62
     7
176
     1
 62
   257
176
     1
 90
        7
176
     1
 90
        7
176
     1
 40
1.0
176
     1
 90
        8
176
     1
 62
     7
176
     1
 40
1.0
176
     1
 90
        1
176
     1
 90
        6
176
     1
 90
        2
176
     1
 62
     7
176
     1
 90
        5
176
     1
 90
        0
176
     1
 90
        0
176
     1
290
     0
176
     1
 90
        1
176
     1
 40
0.0
176
     1
 90
        0
176
     1
290
     0
176
     1
290
     1
176
     1
290
     1
176
     1
290
     0
176
     1
290
     0
176
     1
290
     0
176
     1
290
     0
176
     1
290
     0
176
     1
290
     0
176
     1
 90
       50
176
     1
 40
0.0
176
     1
 40
1.0
176
     1
 90
        0
176
     1
 62
    18
420
        0
176
     1
 90
       50
176
     1
 90
        3
176
     1
 62
     5
420
      255
176
     1
290
     0
176
     1
 90
       50
176
     1
 90
       50
176
     1
 90
       50
176
     1
290
     0
176
     1
 90
       50
176
     1
 62
   256
176
     0
 40
1.0
176
     0
 90
        2
176
     1
  1
strokes_ogs.tif
176
     1
290
     0
176
     1
 40
1.0
176
     1
 40
1.0
176
     1
  0
VISUALSTYLE
  5
3C
102
{ACAD_REACTORS
330
2A
102
}
330
2A
100
AcDbVisualStyle
  2
OverhangOff
 70
    21
177
     3
291
     1
 70
    58
 90
        2
176
     0
 90
        2
176
     0
 90
        0
176
     0
 90
        0
176
     0
 40
0.6
176
     0
 40
30.0
176
     0
 62
     7
420
 16777215
176
     0
 90
        1
176
     0
 90
        4
176
     0
 62
     7
176
     0
 62
   257
176
     0
 90
        1
176
     0
 90
        1
176
     0
 40
1.0
176
     0
 90
        9
176
     2
 62
     7
176
     0
 40
1.0
176
     0
 90
        1
176
     0
 90
        6
176
     0
 90
        2
176
     0
 62
     7
176
     0
 90
        5
176
     0
 90
        0
176
     0
 90
        0
176
     0
290
     0
176
     0
 90
        1
176
     0
 40
0.0
176
     0
 90
        0
176
     0
290
     0
176
     0
290
     1
176
     0
290
     1
176
     0
290
     0
176
     0
290
     0
176
     0
290
     0
176
     0
290
     0
176
     0
290
     0
176
     0
290
     0
176
     0
 90
       50
176
     0
 40
0.0
176
     0
 40
1.0
176
     0
 90
        0
176
     0
 62
    18
420
        0
176
     0
 90
       50
176
     0
 90
        3
176
     0
 62
     5
420
      255
176
     0
290
     0
176
     0
 90
       50
176
     0
 90
       50
176
     0
 90
       50
176
     0
290
     0
176
     0
 90
       50
176
     0
 62
   256
176
     0
 40
1.0
176
     0
 90
        2
176
     0
  1
strokes_ogs.tif
176
     0
290
     0
176
     0
 40
1.0
176
     0
 40
1.0
176
     0
  0
VISUALSTYLE
  5
33
102
{ACAD_REACTORS
330
2A
102
}
330
2A
100
AcDbVisualStyle
  2
Realistic
 70
     8
177
     3
291
     0
 70
    58
 90
        2
176
     1
 90
        3
176
     1
 90
        0
176
     1
 90
        2
176
     1
 40
0.6
176
     1
 40
30.0
176
     1
 62
     7
420
 16777215
176
     1
 90
        0
176
     1
 90
        0
176
     1
 62
     7
176
     1
 62
   257
176
     1
 90
        1
176
     1
 90
        1
176
     1
 40
1.0
176
     1
 90
        8
176
     1
 62
   257
176
     1
 40
1.0
176
     1
 90
        1
176
     1
 90
        6
176
     1
 90
        2
176
     1
 62
     7
176
     1
 90
        3
176
     1
 90
        0
176
     1
 90
        0
176
     1
290
     0
176
     1
 90
       13
176
     1
 40
0.0
176
     1
 90
        0
176
     1
290
     0
176
     1
290
     1
176
     1
290
     1
176
     1
290
     0
176
     1
290
     0
176
     1
290
     0
176
     1
290
     0
176
     1
290
     0
176
     1
290
     0
176
     1
 90
       50
176
     1
 40
0.0
176
     1
 40
1.0
176
     1
 90
        0
176
     1
 62
    18
420
        0
176
     1
 90
       50
176
     1
 90
        3
176
     1
 62
     5
420
      255
176
     1
290
     0
176
     1
 90
       50
176
     1
 90
       50
176
     1
 90
       50
176
     1
290
     0
176
     1
 90
       50
176
     1
 62
   256
176
     0
 40
1.0
176
     0
 90
        2
176
     1
  1
strokes_ogs.tif
176
     1
290
     0
176
     1
 40
1.0
176
     1
 40
1.0
176
     1
  0
VISUALSTYLE
  5
42
102
{ACAD_REACTORS
330
2A
102
}
330
2A
100
AcDbVisualStyle
  2
Shaded
 70
    27
177
     3
291
     0
 70
    58
 90
        2
176
     1
 90
        2
176
     1
 90
        1
176
     1
 90
        2
176
     1
 40
0.6
176
     1
 40
30.0
176
     1
 62
     7
420
 16777215
176
     1
 90
        0
176
     1
 90
        4
176
     1
 62
     7
176
     1
 62
   257
176
     1
 90
        1
176
     1
 90
        1
176
     1
 40
1.0
176
     1
 90
        8
176
     1
 62
   257
176
     1
 40
1.0
176
     1
 90
        1
176
     1
 90
        6
176
     1
 90
        2
176
     1
 62
     8
420
  7895160
176
     1
 90
        3
176
     1
 90
        0
176
     1
 90
        0
176
     1
290
     0
176
     1
 90
        5
176
     1
 40
0.0
176
     1
 90
        0
176
     1
290
     0
176
     1
290
     1
176
     1
290
     1
176
     1
290
     0
176
     1
290
     0
176
     1
290
     0
176
     1
290
     0
176
     1
290
     0
176
     1
290
     0
176
     1
 90
       50
176
     1
 40
0.0
176
     1
 40
1.0
176
     1
 90
        0
176
     1
 62
    18
420
        0
176
     1
 90
       50
176
     1
 90
        3
176
     1
 62
     5
420
      255
176
     1
290
     0
176
     1
 90
       50
176
     1
 90
       50
176
     1
 90
       50
176
     1
290
     0
176
     1
 90
       50
176
     1
 62
   256
176
     0
 40
1.0
176
     0
 90
        2
176
     1
  1
strokes_ogs.tif
176
     1
290
     0
176
     1
 40
1.0
176
     1
 40
1.0
176
     1
  0
VISUALSTYLE
  5
41
102
{ACAD_REACTORS
330
2A
102
}
330
2A
100
AcDbVisualStyle
  2
Shaded with edges
 70
    26
177
     3
291
     0
 70
    58
 90
        2
176
     1
 90
        2
176
     1
 90
        1
176
     1
 90
        2
176
     1
 40
0.6
176
     1
 40
30.0
176
     1
 62
     7
420
 16777215
176
     1
 90
        1
176
     1
 90
       10
176
     1
 62
     7
176
     1
 62
   257
176
     1
 90
        2
176
     1
 90
        1
176
     1
 40
1.0
176
     1
 90
        8
176
     1
 62
   257
176
     1
 40
1.0
176
     1
 90
        1
176
     1
 90
        6
176
     1
 90
        2
176
     1
 62
     7
176
     1
 90
        3
176
     1
 90
        0
176
     1
 90
        0
176
     1
290
     0
176
     1
 90
        5
176
     1
 40
0.0
176
     1
 90
        0
176
     1
290
     0
176
     1
290
     1
176
     1
290
     1
176
     1
290
     0
176
     1
290
     0
176
     1
290
     0
176
     1
290
     0
176
     1
290
     0
176
     1
290
     0
176
     1
 90
       50
176
     1
 40
0.0
176
     1
 40
1.0
176
     1
 90
        0
176
     1
 62
    18
420
        0
176
     1
 90
       50
176
     1
 90
        3
176
     1
 62
     5
420
      255
176
     1
290
     0
176
     1
 90
       50
176
     1
 90
       50
176
     1
 90
       50
176
     1
290
     0
176
     1
 90
       50
176
     1
 62
   256
176
     0
 40
1.0
176
     0
 90
        2
176
     1
  1
strokes_ogs.tif
176
     1
290
     0
176
     1
 40
1.0
176
     1
 40
1.0
176
     1
  0
VISUALSTYLE
  5
3E
102
{ACAD_REACTORS
330
2A
102
}
330
2A
100
AcDbVisualStyle
  2
Shades of Gray
 70
    23
177
     3
291
     0
 70
    58
 90
        2
176
     1
 90
        2
176
     1
 90
        3
176
     1
 90
        0
176
     1
 40
0.6
176
     1
 40
30.0
176
     1
 62
     7
420
 16777215
176
     1
 90
        2
176
     1
 90
        2
176
     1
 62
     7
176
     1
 62
     7
176
     1
 90
        1
176
     1
 90
        1
176
     1
 40
40.0
176
     1
 90
        8
176
     1
 62
     7
176
     1
 40
1.0
176
     1
 90
        1
176
     1
 90
        6
176
     1
 90
        2
176
     1
 62
     7
176
     1
 90
        3
176
     1
 90
        0
176
     1
 90
        0
176
     1
290
     0
176
     1
 90
        1
176
     1
 40
0.0
176
     1
 90
        0
176
     1
290
     0
176
     1
290
     1
176
     1
290
     1
176
     1
290
     0
176
     1
290
     0
176
     1
290
     0
176
     1
290
     0
176
     1
290
     0
176
     1
290
     0
176
     1
 90
       50
176
     1
 40
0.0
176
     1
 40
1.0
176
     1
 90
        0
176
     1
 62
    18
420
        0
176
     1
 90
       50
176
     1
 90
        3
176
     1
 62
     5
420
      255
176
     1
290
     0
176
     1
 90
       50
176
     1
 90
       50
176
     1
 90
       50
176
     1
290
     0
176
     1
 90
       50
176
     1
 62
   256
176
     0
 40
1.0
176
     0
 90
        2
176
     1
  1
strokes_ogs.tif
176
     1
290
     0
176
     1
 40
1.0
176
     1
 40
1.0
176
     1
  0
VISUALSTYLE
  5
3F
102
{ACAD_REACTORS
330
2A
102
}
330
2A
100
AcDbVisualStyle
  2
Sketchy
 70
    24
177
     3
291
     0
 70
    58
 90
        1
176
     1
 90
        2
176
     1
 90
        2
176
     1
 90
        0
176
     1
 40
0.6
176
     1
 40
30.0
176
     1
 62
     7
420
 16777215
176
     1
 90
        2
176
     1
 90
        2
176
     1
 62
     7
176
     1
 62
     7
176
     1
 90
        1
176
     1
 90
        1
176
     1
 40
40.0
176
     1
 90
       11
176
     1
 62
     7
176
     1
 40
1.0
176
     1
 90
        1
176
     1
 90
        6
176
     1
 90
        2
176
     1
 62
     7
176
     1
 90
        6
176
     1
 90
        0
176
     1
 90
        0
176
     1
290
     0
176
     1
 90
        1
176
     1
 40
0.0
176
     1
 90
        0
176
     1
290
     0
176
     1
290
     1
176
     1
290
     1
176
     1
290
     0
176
     1
290
     0
176
     1
290
     0
176
     1
290
     0
176
     1
290
     0
176
     1
290
     0
176
     1
 90
       50
176
     1
 40
0.0
176
     1
 40
1.0
176
     1
 90
        0
176
     1
 62
    18
420
        0
176
     1
 90
       50
176
     1
 90
        3
176
     1
 62
     5
420
      255
176
     1
290
     0
176
     1
 90
       50
176
     1
 90
       50
176
     1
 90
       50
176
     1
290
     0
176
     1
 90
       50
176
     1
 62
   256
176
     0
 40
1.0
176
     0
 90
        2
176
     1
  1
strokes_ogs.tif
176
     1
290
     0
176
     1
 40
1.0
176
     1
 40
1.0
176
     1
  0
VISUALSTYLE
  5
37
102
{ACAD_REACTORS
330
2A
102
}
330
2A
100
AcDbVisualStyle
  2
Thicken
 70
    13
177
     3
291
     1
 70
    58
 90
        2
176
     1
 90
        2
176
     1
 90
        0
176
     1
 90
        0
176
     1
 40
0.6
176
     1
 40
30.0
176
     1
 62
     7
420
 16777215
176
     1
 90
        1
176
     1
 90
        4
176
     1
 62
     7
176
     1
 62
   257
176
     1
 90
        1
176
     1
 90
        1
176
     1
 40
1.0
176
     1
 90
       12
176
     1
 62
     7
176
     1
 40
1.0
176
     1
 90
        1
176
     1
 90
        6
176
     1
 90
        2
176
     1
 62
     7
176
     1
 90
        5
176
     1
 90
        0
176
     1
 90
        0
176
     1
290
     0
176
     1
 90
        1
176
     1
 40
0.0
176
     1
 90
        0
176
     1
290
     0
176
     1
290
     1
176
     1
290
     1
176
     1
290
     0
176
     1
290
     0
176
     1
290
     0
176
     1
290
     0
176
     1
290
     0
176
     1
290
     0
176
     1
 90
       50
176
     1
 40
0.0
176
     1
 40
1.0
176
     1
 90
        0
176
     1
 62
    18
420
        0
176
     1
 90
       50
176
     1
 90
        3
176
     1
 62
     5
420
      255
176
     1
290
     0
176
     1
 90
       50
176
     1
 90
       50
176
     1
 90
       50
176
     1
290
     0
176
     1
 90
       50
176
     1
 62
   256
176
     0
 40
1.0
176
     0
 90
        2
176
     1
  1
strokes_ogs.tif
176
     1
290
     0
176
     1
 40
1.0
176
     1
 40
1.0
176
     1
  0
VISUALSTYLE
  5
30
102
{ACAD_REACTORS
330
2A
102
}
330
2A
100
AcDbVisualStyle
  2
Wireframe
 70
     5
177
     3
291
     0
 70
    58
 90
        0
176
     1
 90
        2
176
     1
 90
        0
176
     1
 90
        0
176
     1
 40
0.6
176
     1
 40
30.0
176
     1
 62
     7
420
 16777215
176
     1
 90
        1
176
     1
 90
        4
176
     1
 62
     7
176
     1
 62
   257
176
     1
 90
        1
176
     1
 90
        1
176
     1
 40
1.0
176
     1
 90
        0
176
     1
 62
   257
176
     1
 40
1.0
176
     1
 90
        1
176
     1
 90
        6
176
     1
 90
        2
176
     1
 62
     7
176
     1
 90
        3
176
     1
 90
        0
176
     1
 90
        0
176
     1
290
     0
176
     1
 90
        1
176
     1
 40
0.0
176
     1
 90
        0
176
     1
290
     0
176
     1
290
     1
176
     1
290
     1
176
     1
290
     0
176
     1
290
     0
176
     1
290
     0
176
     1
290
     0
176
     1
290
     0
176
     1
290
     0
176
     1
 90
       50
176
     1
 40
0.0
176
     1
 40
1.0
176
     1
 90
        0
176
     1
 62
    18
420
        0
176
     1
 90
       50
176
     1
 90
        3
176
     1
 62
     5
420
      255
176
     1
290
     0
176
     1
 90
       50
176
     1
 90
       50
176
     1
 90
       50
176
     1
290
     0
176
     1
 90
       50
176
     1
 62
   256
176
     0
 40
1.0
176
     0
 90
        2
176
     1
  1
strokes_ogs.tif
176
     1
290
     0
176
     1
 40
1.0
176
     1
 40
1.0
176
     1
  0
VISUALSTYLE
  5
40
102
{ACAD_REACTORS
330
2A
102
}
330
2A
100
AcDbVisualStyle
  2
X-Ray
 70
    25
177
     3
291
     0
 70
    58
 90
        2
176
     1
 90
        2
176
     1
 90
        1
176
     1
 90
        1
176
     1
 40
0.5
176
     1
 40
30.0
176
     1
 62
     7
420
 16777215
176
     1
 90
        1
176
     1
 90
        0
176
     1
 62
     7
176
     1
 62
   257
176
     1
 90
        1
176
     1
 90
        1
176
     1
 40
1.0
176
     1
 90
        8
176
     1
 62
     7
176
     1
 40
1.0
176
     1
 90
        1
176
     1
 90
        6
176
     1
 90
        2
176
     1
 62
     7
176
     1
 90
        3
176
     1
 90
        0
176
     1
 90
        0
176
     1
290
     0
176
     1
 90
       13
176
     1
 40
0.0
176
     1
 90
        0
176
     1
290
     0
176
     1
290
     1
176
     1
290
     1
176
     1
290
     0
176
     1
290
     0
176
     1
290
     0
176
     1
290
     0
176
     1
290
     0
176
     1
290
     0
176
     1
 90
       50
176
     1
 40
0.0
176
     1
 40
1.0
176
     1
 90
        0
176
     1
 62
    18
420
        0
176
     1
 90
       50
176
     1
 90
        3
176
     1
 62
     5
420
      255
176
     1
290
     0
176
     1
 90
       50
176
     1
 90
       50
176
     1
 90
       50
176
     1
290
     0
176
     1
 90
       50
176
     1
 62
   256
176
     0
 40
1.0
176
     0
 90
        2
176
     1
  1
strokes_ogs.tif
176
     1
290
     0
176
     1
 40
1.0
176
     1
 40
1.0
176
     1
  0
DICTIONARYVAR
  5
167
102
{ACAD_REACTORS
330
166
102
}
330
166
100
DictionaryVariables
280
     0
  1
1:1
  0
DICTIONARYVAR
  5
16C
102
{ACAD_REACTORS
330
166
102
}
330
166
100
DictionaryVariables
280
     0
  1
Standard
  0
DICTIONARYVAR
  5
16B
102
{ACAD_REACTORS
330
166
102
}
330
166
100
DictionaryVariables
280
     0
  1
Standard
  0
DICTIONARY
  5
168
330
6A
100
AcDbDictionary
280
     1
281
     1
  3
ACAD_ROUNDTRIP_2008_TABLESTYLE_CELLSTYLEMAP
360
169
  0
CELLSTYLEMAP
  5
169
102
{ACAD_REACTORS
330
168
102
}
330
168
100
AcDbCellStyleMap
 90
        3
300
CELLSTYLE
  1
TABLEFORMAT_BEGIN
 90
        5
170
     1
 91
        0
 92
    32768
 62
   257
 93
        1
300
CONTENTFORMAT
  1
CONTENTFORMAT_BEGIN
 90
        0
 91
        0
 92
        4
 93
        0
300

 40
0.0
140
1.0
 94
        5
 62
     0
340
11
144
6.0
309
CONTENTFORMAT_END
171
     1
301
MARGIN
  1
CELLMARGIN_BEGIN
 40
1.5
 40
1.5
 40
1.5
 40
1.5
 40
1.5
 40
1.5
309
CELLMARGIN_END
 94
        6
 95
        1
302
GRIDFORMAT
  1
GRIDFORMAT_BEGIN
 90
        0
 91
        1
 62
     0
 92
       -2
340
14
 93
        0
 40
0.045
309
GRIDFORMAT_END
 95
        2
302
GRIDFORMAT
  1
GRIDFORMAT_BEGIN
 90
        0
 91
        1
 62
     0
 92
       -2
340
14
 93
        0
 40
0.045
309
GRIDFORMAT_END
 95
        4
302
GRIDFORMAT
  1
GRIDFORMAT_BEGIN
 90
        0
 91
        1
 62
     0
 92
       -2
340
14
 93
        0
 40
0.045
309
GRIDFORMAT_END
 95
        8
302
GRIDFORMAT
  1
GRIDFORMAT_BEGIN
 90
        0
 91
        1
 62
     0
 92
       -2
340
14
 93
        0
 40
0.045
309
GRIDFORMAT_END
 95
       16
302
GRIDFORMAT
  1
GRIDFORMAT_BEGIN
 90
        0
 91
        1
 62
     0
 92
       -2
340
14
 93
        0
 40
0.045
309
GRIDFORMAT_END
 95
       32
302
GRIDFORMAT
  1
GRIDFORMAT_BEGIN
 90
        0
 91
        1
 62
     0
 92
       -2
340
14
 93
        0
 40
0.045
309
GRIDFORMAT_END
309
TABLEFORMAT_END
  1
CELLSTYLE_BEGIN
 90
        1
 91
        1
300
_TITLE
309
CELLSTYLE_END
300
CELLSTYLE
  1
TABLEFORMAT_BEGIN
 90
        5
170
     1
 91
        0
 92
        0
 62
   257
 93
        1
300
CONTENTFORMAT
  1
CONTENTFORMAT_BEGIN
 90
        0
 91
        0
 92
        4
 93
        0
300

 40
0.0
140
1.0
 94
        5
 62
     0
340
11
144
4.5
309
CONTENTFORMAT_END
171
     1
301
MARGIN
  1
CELLMARGIN_BEGIN
 40
1.5
 40
1.5
 40
1.5
 40
1.5
 40
1.5
 40
1.5
309
CELLMARGIN_END
 94
        6
 95
        1
302
GRIDFORMAT
  1
GRIDFORMAT_BEGIN
 90
        0
 91
        1
 62
     0
 92
       -2
340
14
 93
        0
 40
0.045
309
GRIDFORMAT_END
 95
        2
302
GRIDFORMAT
  1
GRIDFORMAT_BEGIN
 90
        0
 91
        1
 62
     0
 92
       -2
340
14
 93
        0
 40
0.045
309
GRIDFORMAT_END
 95
        4
302
GRIDFORMAT
  1
GRIDFORMAT_BEGIN
 90
        0
 91
        1
 62
     0
 92
       -2
340
14
 93
        0
 40
0.045
309
GRIDFORMAT_END
 95
        8
302
GRIDFORMAT
  1
GRIDFORMAT_BEGIN
 90
        0
 91
        1
 62
     0
 92
       -2
340
14
 93
        0
 40
0.045
309
GRIDFORMAT_END
 95
       16
302
GRIDFORMAT
  1
GRIDFORMAT_BEGIN
 90
        0
 91
        1
 62
     0
 92
       -2
340
14
 93
        0
 40
0.045
309
GRIDFORMAT_END
 95
       32
302
GRIDFORMAT
  1
GRIDFORMAT_BEGIN
 90
        0
 91
        1
 62
     0
 92
       -2
340
14
 93
        0
 40
0.045
309
GRIDFORMAT_END
309
TABLEFORMAT_END
  1
CELLSTYLE_BEGIN
 90
        2
 91
        1
300
_HEADER
309
CELLSTYLE_END
300
CELLSTYLE
  1
TABLEFORMAT_BEGIN
 90
        5
170
     1
 91
        0
 92
        0
 62
   257
 93
        1
300
CONTENTFORMAT
  1
CONTENTFORMAT_BEGIN
 90
        0
 91
        0
 92
        4
 93
        0
300

 40
0.0
140
1.0
 94
        2
 62
     0
340
11
144
4.5
309
CONTENTFORMAT_END
171
     1
301
MARGIN
  1
CELLMARGIN_BEGIN
 40
1.5
 40
1.5
 40
1.5
 40
1.5
 40
1.5
 40
1.5
309
CELLMARGIN_END
 94
        6
 95
        1
302
GRIDFORMAT
  1
GRIDFORMAT_BEGIN
 90
        0
 91
        1
 62
     0
 92
       -2
340
14
 93
        0
 40
0.045
309
GRIDFORMAT_END
 95
        2
302
GRIDFORMAT
  1
GRIDFORMAT_BEGIN
 90
        0
 91
        1
 62
     0
 92
       -2
340
14
 93
        0
 40
0.045
309
GRIDFORMAT_END
 95
        4
302
GRIDFORMAT
  1
GRIDFORMAT_BEGIN
 90
        0
 91
        1
 62
     0
 92
       -2
340
14
 93
        0
 40
0.045
309
GRIDFORMAT_END
 95
        8
302
GRIDFORMAT
  1
GRIDFORMAT_BEGIN
 90
        0
 91
        1
 62
     0
 92
       -2
340
14
 93
        0
 40
0.045
309
GRIDFORMAT_END
 95
       16
302
GRIDFORMAT
  1
GRIDFORMAT_BEGIN
 90
        0
 91
        1
 62
     0
 92
       -2
340
14
 93
        0
 40
0.045
309
GRIDFORMAT_END
 95
       32
302
GRIDFORMAT
  1
GRIDFORMAT_BEGIN
 90
        0
 91
        1
 62
     0
 92
       -2
340
14
 93
        0
 40
0.045
309
GRIDFORMAT_END
309
TABLEFORMAT_END
  1
CELLSTYLE_BEGIN
 90
        3
 91
        2
300
_DATA
309
CELLSTYLE_END
  0
ENDSEC
  0
EOF