0
SECTION
  2
HEADER
  9
$ACADVER
  1
AC1027
  9
$ACADMAINTVER
 70
     8
  9
$DWGCODEPAGE
  3
ANSI_1252
  9
$REQUIREDVERSIONS
160
                 0
  9
$COMMENTS
  1
File was created by Cadenas
  9
$CUSTOMPROPERTYTAG
  1
NN
  9
$CUSTOMPROPERTY
  1
Set Screw Medium Duty Two-Bolt Pillow Block Metric Bore
  9
$CUSTOMPROPERTYTAG
  1
NT
  9
$CUSTOMPROPERTY
  1
SC Pillow Block Bearings -(Medium Duty)
  9
$CUSTOMPROPERTYTAG
  1
NB
  9
$CUSTOMPROPERTY
  1
125934
  9
$CUSTOMPROPERTYTAG
  1
NBSYN
  9
$CUSTOMPROPERTY
  1
$PN.
  9
$CUSTOMPROPERTYTAG
  1
LINA
  9
$CUSTOMPROPERTY
  1
125934
  9
$CUSTOMPROPERTYTAG
  1
SERIES
  9
$CUSTOMPROPERTY
  1
216
  9
$CUSTOMPROPERTYTAG
  1
SS
  9
$CUSTOMPROPERTY
  1
75
  9
$CUSTOMPROPERTYTAG
  1
PN
  9
$CUSTOMPROPERTY
  1
125934
  9
$CUSTOMPROPERTYTAG
  1
DESCRIPTION
  9
$CUSTOMPROPERTY
  1
P2B-SCM-75M
  9
$CUSTOMPROPERTYTAG
  1
WEIGHT
  9
$CUSTOMPROPERTY
  1
9.0
  9
$CUSTOMPROPERTYTAG
  1
LF
  9
$CUSTOMPROPERTY
  1
RE-LUBE
  9
$CUSTOMPROPERTYTAG
  1
A
  9
$CUSTOMPROPERTY
  1
60.5
  9
$CUSTOMPROPERTYTAG
  1
B
  9
$CUSTOMPROPERTY
  1
298.5
  9
$CUSTOMPROPERTYTAG
  1
C
  9
$CUSTOMPROPERTY
  1
76.2
  9
$CUSTOMPROPERTYTAG
  1
DMIN
  9
$CUSTOMPROPERTY
  1
215.9
  9
$CUSTOMPROPERTYTAG
  1
DMAX
  9
$CUSTOMPROPERTY
  1
241.3
  9
$CUSTOMPROPERTYTAG
  1
F
  9
$CUSTOMPROPERTY
  1
M22
  9
$CUSTOMPROPERTYTAG
  1
G
  9
$CUSTOMPROPERTY
  1
36.6
  9
$CUSTOMPROPERTYTAG
  1
H
  9
$CUSTOMPROPERTY
  1
31.8
  9
$CUSTOMPROPERTYTAG
  1
J
  9
$CUSTOMPROPERTY
  1
177.0
  9
$CUSTOMPROPERTYTAG
  1
L
  9
$CUSTOMPROPERTY
  1
97.3
  9
$CUSTOMPROPERTYTAG
  1
M
  9
$CUSTOMPROPERTY
  1
88.9
  9
$CUSTOMPROPERTYTAG
  1
R
  9
$CUSTOMPROPERTY
  1
22.4
  9
$CUSTOMPROPERTYTAG
  1
S
  9
$CUSTOMPROPERTY
  1
38.1
  9
$CUSTOMPROPERTYTAG
  1
U
  9
$CUSTOMPROPERTY
  1
139.7
  9
$CUSTOMPROPERTYTAG
  1
V
  9
$CUSTOMPROPERTY
  1
279.4
  9
$CUSTOMPROPERTYTAG
  1
W
  9
$CUSTOMPROPERTY
  1
27.7
  9
$CUSTOMPROPERTYTAG
  1
X
  9
$CUSTOMPROPERTY
  1
3.0
  9
$CUSTOMPROPERTYTAG
  1
COMPANY
  9
$CUSTOMPROPERTY
  1
baldor
  9
$INSBASE
 10
0.0
 20
0.0
 30
0.0
  9
$EXTMIN
 10
1.000000000000000E+20
 20
1.000000000000000E+20
 30
1.000000000000000E+20
  9
$EXTMAX
 10
-1.000000000000000E+20
 20
-1.000000000000000E+20
 30
-1.000000000000000E+20
  9
$LIMMIN
 10
0.0
 20
0.0
  9
$LIMMAX
 10
420.0
 20
297.0
  9
$ORTHOMODE
 70
     0
  9
$REGENMODE
 70
     1
  9
$FILLMODE
 70
     1
  9
$QTEXTMODE
 70
     0
  9
$MIRRTEXT
 70
     1
  9
$LTSCALE
 40
1.0
  9
$ATTMODE
 70
     1
  9
$TEXTSIZE
 40
2.5
  9
$TRACEWID
 40
1.0
  9
$TEXTSTYLE
  7
Standard
  9
$CLAYER
  8
0
  9
$CELTYPE
  6
ByLayer
  9
$CECOLOR
 62
   256
  9
$CELTSCALE
 40
1.0
  9
$DISPSILH
 70
     0
  9
$DIMSCALE
 40
1.0
  9
$DIMASZ
 40
2.5
  9
$DIMEXO
 40
0.625
  9
$DIMDLI
 40
3.75
  9
$DIMRND
 40
0.0
  9
$DIMDLE
 40
0.0
  9
$DIMEXE
 40
1.25
  9
$DIMTP
 40
0.0
  9
$DIMTM
 40
0.0
  9
$DIMTXT
 40
2.5
  9
$DIMCEN
 40
2.5
  9
$DIMTSZ
 40
0.0
  9
$DIMTOL
 70
     0
  9
$DIMLIM
 70
     0
  9
$DIMTIH
 70
     0
  9
$DIMTOH
 70
     0
  9
$DIMSE1
 70
     0
  9
$DIMSE2
 70
     0
  9
$DIMTAD
 70
     1
  9
$DIMZIN
 70
     8
  9
$DIMBLK
  1

  9
$DIMASO
 70
     1
  9
$DIMSHO
 70
     1
  9
$DIMPOST
  1

  9
$DIMAPOST
  1

  9
$DIMALT
 70
     0
  9
$DIMALTD
 70
     3
  9
$DIMALTF
 40
0.03937007874016
  9
$DIMLFAC
 40
1.0
  9
$DIMTOFL
 70
     1
  9
$DIMTVP
 40
0.0
  9
$DIMTIX
 70
     0
  9
$DIMSOXD
 70
     0
  9
$DIMSAH
 70
     0
  9
$DIMBLK1
  1

  9
$DIMBLK2
  1

  9
$DIMSTYLE
  2
ISO-25
  9
$DIMCLRD
 70
     0
  9
$DIMCLRE
 70
     0
  9
$DIMCLRT
 70
     0
  9
$DIMTFAC
 40
1.0
  9
$DIMGAP
 40
0.625
  9
$DIMJUST
 70
     0
  9
$DIMSD1
 70
     0
  9
$DIMSD2
 70
     0
  9
$DIMTOLJ
 70
     0
  9
$DIMTZIN
 70
     8
  9
$DIMALTZ
 70
     0
  9
$DIMALTTZ
 70
     0
  9
$DIMUPT
 70
     0
  9
$DIMDEC
 70
     2
  9
$DIMTDEC
 70
     2
  9
$DIMALTU
 70
     2
  9
$DIMALTTD
 70
     3
  9
$DIMTXSTY
  7
Standard
  9
$DIMAUNIT
 70
     0
  9
$DIMADEC
 70
     0
  9
$DIMALTRND
 40
0.0
  9
$DIMAZIN
 70
     0
  9
$DIMDSEP
 70
    44
  9
$DIMATFIT
 70
     3
  9
$DIMFRAC
 70
     0
  9
$DIMLDRBLK
  1

  9
$DIMLUNIT
 70
     2
  9
$DIMLWD
 70
    -2
  9
$DIMLWE
 70
    -2
  9
$DIMTMOVE
 70
     0
  9
$DIMFXL
 40
1.0
  9
$DIMFXLON
 70
     0
  9
$DIMJOGANG
 40
0.7853981633974483
  9
$DIMTFILL
 70
     0
  9
$DIMTFILLCLR
 70
     0
  9
$DIMARCSYM
 70
     0
  9
$DIMLTYPE
  6

  9
$DIMLTEX1
  6

  9
$DIMLTEX2
  6

  9
$DIMTXTDIRECTION
 70
     0
  9
$LUNITS
 70
     2
  9
$LUPREC
 70
     4
  9
$SKETCHINC
 40
1.0
  9
$FILLETRAD
 40
10.0
  9
$AUNITS
 70
     0
  9
$AUPREC
 70
     0
  9
$MENU
  1
.
  9
$ELEVATION
 40
0.0
  9
$PELEVATION
 40
0.0
  9
$THICKNESS
 40
0.0
  9
$LIMCHECK
 70
     0
  9
$CHAMFERA
 40
0.0
  9
$CHAMFERB
 40
0.0
  9
$CHAMFERC
 40
0.0
  9
$CHAMFERD
 40
0.0
  9
$SKPOLY
 70
     0
  9
$TDCREATE
 40
2458168.986283842
  9
$TDUCREATE
 40
2458168.944617176
  9
$TDUPDATE
 40
2458168.986284028
  9
$TDUUPDATE
 40
2458168.944617361
  9
$TDINDWG
 40
0.0000000116
  9
$TDUSRTIMER
 40
0.0000000116
  9
$USRTIMER
 70
     1
  9
$ANGBASE
 50
0.0
  9
$ANGDIR
 70
     0
  9
$PDMODE
 70
     0
  9
$PDSIZE
 40
0.0
  9
$PLINEWID
 40
0.0
  9
$SPLFRAME
 70
     0
  9
$SPLINETYPE
 70
     6
  9
$SPLINESEGS
 70
     8
  9
$HANDSEED
  5
1BC
  9
$SURFTAB1
 70
     6
  9
$SURFTAB2
 70
     6
  9
$SURFTYPE
 70
     6
  9
$SURFU
 70
     6
  9
$SURFV
 70
     6
  9
$UCSBASE
  2

  9
$UCSNAME
  2

  9
$UCSORG
 10
0.0
 20
0.0
 30
0.0
  9
$UCSXDIR
 10
1.0
 20
0.0
 30
0.0
  9
$UCSYDIR
 10
0.0
 20
1.0
 30
0.0
  9
$UCSORTHOREF
  2

  9
$UCSORTHOVIEW
 70
     0
  9
$UCSORGTOP
 10
0.0
 20
0.0
 30
0.0
  9
$UCSORGBOTTOM
 10
0.0
 20
0.0
 30
0.0
  9
$UCSORGLEFT
 10
0.0
 20
0.0
 30
0.0
  9
$UCSORGRIGHT
 10
0.0
 20
0.0
 30
0.0
  9
$UCSORGFRONT
 10
0.0
 20
0.0
 30
0.0
  9
$UCSORGBACK
 10
0.0
 20
0.0
 30
0.0
  9
$PUCSBASE
  2

  9
$PUCSNAME
  2

  9
$PUCSORG
 10
0.0
 20
0.0
 30
0.0
  9
$PUCSXDIR
 10
1.0
 20
0.0
 30
0.0
  9
$PUCSYDIR
 10
0.0
 20
1.0
 30
0.0
  9
$PUCSORTHOREF
  2

  9
$PUCSORTHOVIEW
 70
     0
  9
$PUCSORGTOP
 10
0.0
 20
0.0
 30
0.0
  9
$PUCSORGBOTTOM
 10
0.0
 20
0.0
 30
0.0
  9
$PUCSORGLEFT
 10
0.0
 20
0.0
 30
0.0
  9
$PUCSORGRIGHT
 10
0.0
 20
0.0
 30
0.0
  9
$PUCSORGFRONT
 10
0.0
 20
0.0
 30
0.0
  9
$PUCSORGBACK
 10
0.0
 20
0.0
 30
0.0
  9
$USERI1
 70
     0
  9
$USERI2
 70
     0
  9
$USERI3
 70
     0
  9
$USERI4
 70
     0
  9
$USERI5
 70
     0
  9
$USERR1
 40
0.0
  9
$USERR2
 40
0.0
  9
$USERR3
 40
0.0
  9
$USERR4
 40
0.0
  9
$USERR5
 40
0.0
  9
$WORLDVIEW
 70
     1
  9
$SHADEDGE
 70
     3
  9
$SHADEDIF
 70
    70
  9
$TILEMODE
 70
     1
  9
$MAXACTVP
 70
    64
  9
$PINSBASE
 10
0.0
 20
0.0
 30
0.0
  9
$PLIMCHECK
 70
     0
  9
$PEXTMIN
 10
1.000000000000000E+20
 20
1.000000000000000E+20
 30
1.000000000000000E+20
  9
$PEXTMAX
 10
-1.000000000000000E+20
 20
-1.000000000000000E+20
 30
-1.000000000000000E+20
  9
$PLIMMIN
 10
0.0
 20
0.0
  9
$PLIMMAX
 10
420.0
 20
297.0
  9
$UNITMODE
 70
     0
  9
$VISRETAIN
 70
     1
  9
$PLINEGEN
 70
     0
  9
$PSLTSCALE
 70
     1
  9
$TREEDEPTH
 70
  3020
  9
$CMLSTYLE
  2
Standard
  9
$CMLJUST
 70
     0
  9
$CMLSCALE
 40
20.0
  9
$PROXYGRAPHICS
 70
     1
  9
$MEASUREMENT
 70
     1
  9
$CELWEIGHT
370
    -1
  9
$ENDCAPS
280
     0
  9
$JOINSTYLE
280
     0
  9
$LWDISPLAY
290
     0
  9
$INSUNITS
 70
     4
  9
$HYPERLINKBASE
  1

  9
$STYLESHEET
  1

  9
$XEDIT
290
     1
  9
$CEPSNTYPE
380
     0
  9
$PSTYLEMODE
290
     1
  9
$FINGERPRINTGUID
  2
{7DF899B8-7E75-4A4A-8E84-5FD98C20A61F}
  9
$VERSIONGUID
  2
{FAEB1C32-E019-11D5-929B-00C0DF256EC4}
  9
$EXTNAMES
290
     1
  9
$PSVPSCALE
 40
0.0
  9
$OLESTARTUP
290
     0
  9
$SORTENTS
280
   127
  9
$INDEXCTL
280
     0
  9
$HIDETEXT
280
     1
  9
$XCLIPFRAME
280
     2
  9
$HALOGAP
280
     0
  9
$OBSCOLOR
 70
   257
  9
$OBSLTYPE
280
     0
  9
$INTERSECTIONDISPLAY
280
     0
  9
$INTERSECTIONCOLOR
 70
   257
  9
$DIMASSOC
280
     2
  9
$PROJECTNAME
  1

  9
$CAMERADISPLAY
290
     0
  9
$LENSLENGTH
 40
50.0
  9
$CAMERAHEIGHT
 40
0.0
  9
$STEPSPERSEC
 40
2.0
  9
$STEPSIZE
 40
6.0
  9
$3DDWFPREC
 40
2.0
  9
$PSOLWIDTH
 40
5.0
  9
$PSOLHEIGHT
 40
80.0
  9
$LOFTANG1
 40
1.570796326794897
  9
$LOFTANG2
 40
1.570796326794897
  9
$LOFTMAG1
 40
0.0
  9
$LOFTMAG2
 40
0.0
  9
$LOFTPARAM
 70
     7
  9
$LOFTNORMALS
280
     1
  9
$LATITUDE
 40
37.795
  9
$LONGITUDE
 40
-122.394
  9
$NORTHDIRECTION
 40
0.0
  9
$TIMEZONE
 70
 -8000
  9
$LIGHTGLYPHDISPLAY
280
     1
  9
$TILEMODELIGHTSYNCH
280
     1
  9
$CMATERIAL
347
44
  9
$SOLIDHIST
280
     0
  9
$SHOWHIST
280
     1
  9
$DWFFRAME
280
     2
  9
$DGNFRAME
280
     2
  9
$REALWORLDSCALE
290
     1
  9
$INTERFERECOLOR
 62
   256
  9
$CSHADOW
280
     0
  9
$SHADOWPLANELOCATION
 40
0.0
  0
ENDSEC
  0
SECTION
  2
CLASSES
  0
CLASS
  1
ACDBDICTIONARYWDFLT
  2
AcDbDictionaryWithDefault
  3
ObjectDBX Classes
 90
        0
 91
        4
280
     0
281
     0
  0
CLASS
  1
VISUALSTYLE
  2
AcDbVisualStyle
  3
ObjectDBX Classes
 90
     4095
 91
        4
280
     0
281
     0
  0
CLASS
  1
MATERIAL
  2
AcDbMaterial
  3
ObjectDBX Classes
 90
     1153
 91
        4
280
     0
281
     0
  0
CLASS
  1
SCALE
  2
AcDbScale
  3
ObjectDBX Classes
 90
     1153
 91
        4
280
     0
281
     0
  0
CLASS
  1
TABLESTYLE
  2
AcDbTableStyle
  3
ObjectDBX Classes
 90
     4095
 91
        4
280
     0
281
     0
  0
CLASS
  1
MLEADERSTYLE
  2
AcDbMLeaderStyle
  3
ACDB_MLEADERSTYLE_CLASS
 90
     4095
 91
        4
280
     0
281
     0
  0
CLASS
  1
SUN
  2
AcDbSun
  3
SCENEOE
 90
     1153
 91
        4
280
     0
281
     0
  0
CLASS
  1
DICTIONARYVAR
  2
AcDbDictionaryVar
  3
ObjectDBX Classes
 90
        0
 91
        4
280
     0
281
     0
  0
CLASS
  1
CELLSTYLEMAP
  2
AcDbCellStyleMap
  3
ObjectDBX Classes
 90
     1152
 91
        4
280
     0
281
     0
  0
ENDSEC
  0
SECTION
  2
TABLES
  0
TABLE
  2
VPORT
  5
8
330
0
100
AcDbSymbolTable
 70
     1
  0
VPORT
  5
29
330
8
100
AcDbSymbolTableRecord
100
AcDbViewportTableRecord
  2
*Active
 70
     0
 10
0.0
 20
0.0
 11
1.0
 21
1.0
 12
0.0000000000000568
 22
-0.4000000000000341
 13
0.0
 23
0.0
 14
10.0
 24
10.0
 15
10.0
 25
10.0
 16
0.0
 26
0.0
 36
1.0
 17
0.0
 27
0.0
 37
0.0
 40
180.5399999999999
 41
0.4735593220338981
 42
50.0
 43
0.0
 44
0.0
 50
0.0
 51
0.0
 71
     0
 72
   100
 73
     1
 74
     3
 75
     0
 76
     0
 77
     0
 78
     0
281
     0
 65
     1
110
0.0
120
0.0
130
0.0
111
1.0
121
0.0
131
0.0
112
0.0
122
1.0
132
0.0
 79
     0
146
0.0
348
2F
 60
     3
 61
     5
292
     1
282
     1
141
0.0
142
0.0
 63
   250
361
6D
  0
ENDTAB
  0
TABLE
  2
LTYPE
  5
5
330
0
100
AcDbSymbolTable
 70
     3
  0
LTYPE
  5
14
330
5
100
AcDbSymbolTableRecord
100
AcDbLinetypeTableRecord
  2
ByBlock
 70
     0
  3

 72
    65
 73
     0
 40
0.0
  0
LTYPE
  5
15
330
5
100
AcDbSymbolTableRecord
100
AcDbLinetypeTableRecord
  2
ByLayer
 70
     0
  3

 72
    65
 73
     0
 40
0.0
  0
LTYPE
  5
16
330
5
100
AcDbSymbolTableRecord
100
AcDbLinetypeTableRecord
  2
Continuous
 70
     0
  3
Solid line
 72
    65
 73
     0
 40
0.0
  0
LTYPE
  5
9C
330
5
100
AcDbSymbolTableRecord
100
AcDbLinetypeTableRecord
  2
Dashed
 70
     0
  3

 72
    65
 73
     2
 40
2.0
 49
1.0
 74
     0
 49
-1.0
 74
     0
  0
LTYPE
  5
13A
330
5
100
AcDbSymbolTableRecord
100
AcDbLinetypeTableRecord
  2
Center
 70
     0
  3

 72
    65
 73
     4
 40
1.5
 49
0.45
 74
     0
 49
-0.5
 74
     0
 49
0.05
 74
     0
 49
-0.5
 74
     0
  0
ENDTAB
  0
TABLE
  2
LAYER
  5
2
330
0
100
AcDbSymbolTable
 70
     7
  0
LAYER
  5
10
330
2
100
AcDbSymbolTableRecord
100
AcDbLayerTableRecord
  2
0
 70
     0
 62
     7
  6
Continuous
370
    -3
390
F
347
46
348
0
  0
LAYER
  5
72
330
2
100
AcDbSymbolTableRecord
100
AcDbLayerTableRecord
  2
AM_6
 70
     0
 62
    -2
  6
Continuous
370
    35
390
F
347
46
348
0
  0
LAYER
  5
9D
330
2
100
AcDbSymbolTableRecord
100
AcDbLayerTableRecord
  2
AM_9
 70
     0
 62
     6
  6
Dashed
370
    25
390
F
347
46
348
0
  0
LAYER
  5
C4
330
2
100
AcDbSymbolTableRecord
100
AcDbLayerTableRecord
  2
AM_4
 70
     0
 62
     7
  6
Continuous
370
    50
390
F
347
46
348
0
  0
LAYER
  5
137
330
2
100
AcDbSymbolTableRecord
100
AcDbLayerTableRecord
  2
AM_5
 70
     0
 62
     3
  6
Continuous
370
    25
390
F
347
46
348
0
  0
LAYER
  5
13B
330
2
100
AcDbSymbolTableRecord
100
AcDbLayerTableRecord
  2
AM_7
 70
     0
 62
     7
  6
Center
370
    25
390
F
347
46
348
0
  0
LAYER
  5
1AF
330
2
100
AcDbSymbolTableRecord
100
AcDbLayerTableRecord
  2
ConnectionPoints
 70
     0
 62
     7
  6
Continuous
370
    50
390
F
347
46
348
0
  0
ENDTAB
  0
TABLE
  2
STYLE
  5
3
330
0
100
AcDbSymbolTable
 70
     1
  0
STYLE
  5
11
330
3
100
AcDbSymbolTableRecord
100
AcDbTextStyleTableRecord
  2
Standard
 70
     0
 40
0.0
 41
1.0
 50
0.0
 71
     0
 42
2.5
  3
txt
  4

  0
ENDTAB
  0
TABLE
  2
VIEW
  5
6
330
0
100
AcDbSymbolTable
 70
     0
  0
ENDTAB
  0
TABLE
  2
UCS
  5
7
330
0
100
AcDbSymbolTable
 70
     0
  0
ENDTAB
  0
TABLE
  2
APPID
  5
9
330
0
100
AcDbSymbolTable
 70
     1
  0
APPID
  5
12
330
9
100
AcDbSymbolTableRecord
100
AcDbRegAppTableRecord
  2
ACAD
 70
     0
  0
ENDTAB
  0
TABLE
  2
DIMSTYLE
  5
A
330
0
100
AcDbSymbolTable
 70
     1
100
AcDbDimStyleTable
  0
DIMSTYLE
105
27
330
A
100
AcDbSymbolTableRecord
100
AcDbDimStyleTableRecord
  2
ISO-25
 70
     0
 41
2.5
 42
0.625
 43
3.75
 44
1.25
 73
     0
 74
     0
 77
     1
 78
     8
140
2.5
141
2.5
143
0.03937007874016
147
0.625
171
     3
172
     1
178
     0
271
     2
272
     2
274
     3
278
    44
283
     0
284
     8
340
11
  0
ENDTAB
  0
TABLE
  2
BLOCK_RECORD
  5
1
330
0
100
AcDbSymbolTable
 70
     5
  0
BLOCK_RECORD
  5
1F
330
1
100
AcDbSymbolTableRecord
100
AcDbBlockTableRecord
  2
*Model_Space
340
22
 70
     0
280
     1
281
     0
  0
BLOCK_RECORD
  5
1B
330
1
100
AcDbSymbolTableRecord
100
AcDbBlockTableRecord
  2
*Paper_Space
340
1E
 70
     0
280
     1
281
     0
  0
BLOCK_RECORD
  5
23
330
1
100
AcDbSymbolTableRecord
100
AcDbBlockTableRecord
  2
*Paper_Space0
340
26
 70
     0
280
     1
281
     0
  0
BLOCK_RECORD
  5
6E
330
1
100
AcDbSymbolTableRecord
100
AcDbBlockTableRecord
  2
1_125934_2
340
0
102
{BLKREFS
331
6F
102
}
 70
     0
280
     1
281
     0
  0
BLOCK_RECORD
  5
90
330
1
100
AcDbSymbolTableRecord
100
AcDbBlockTableRecord
  2
2_405015E_Metric_0_in_125934_2
340
0
102
{BLKREFS
331
91
102
}
 70
     0
280
     1
281
     0
  0
BLOCK_RECORD
  5
E9
330
1
100
AcDbSymbolTableRecord
100
AcDbBlockTableRecord
  2
3_125842_0_in_125934_2
340
0
102
{BLKREFS
331
EA
102
}
 70
     0
280
     1
281
     0
  0
BLOCK_RECORD
  5
147
330
1
100
AcDbSymbolTableRecord
100
AcDbBlockTableRecord
  2
4_125934H_0_in_125934_2
340
0
102
{BLKREFS
331
148
102
}
 70
     0
280
     1
281
     0
  0
ENDTAB
  0
ENDSEC
  0
SECTION
  2
BLOCKS
  0
BLOCK
  5
20
330
1F
100
AcDbEntity
  8
0
100
AcDbBlockBegin
  2
*Model_Space
 70
     0
 10
0.0
 20
0.0
 30
0.0
  3
*Model_Space
  1

  0
ENDBLK
  5
21
330
1F
100
AcDbEntity
  8
0
100
AcDbBlockEnd
  0
BLOCK
  5
1C
330
1B
100
AcDbEntity
 67
     1
  8
0
100
AcDbBlockBegin
  2
*Paper_Space
 70
     0
 10
0.0
 20
0.0
 30
0.0
  3
*Paper_Space
  1

  0
ENDBLK
  5
1D
330
1B
100
AcDbEntity
 67
     1
  8
0
100
AcDbBlockEnd
  0
BLOCK
  5
24
330
23
100
AcDbEntity
  8
0
100
AcDbBlockBegin
  2
*Paper_Space0
 70
     0
 10
0.0
 20
0.0
 30
0.0
  3
*Paper_Space0
  1

  0
ENDBLK
  5
25
330
23
100
AcDbEntity
  8
0
100
AcDbBlockEnd
  0
BLOCK
  5
70
330
6E
100
AcDbEntity
  8
0
100
AcDbBlockBegin
  2
1_125934_2
 70
     2
 10
0.0
 20
0.0
 30
0.0
  3
1_125934_2
  1

  0
ATTDEF
  5
73
330
6E
100
AcDbEntity
  8
AM_6
100
AcDbText
 10
46.91
 20
88.09999999999995
 30
0.0
 40
0.5
  1
Set Screw Medium Duty Two-Bolt Pillow Block Metric Bore
100
AcDbAttributeDefinition
  3

  2
NN
 70
     8
280
     0
  0
ATTDEF
  5
74
330
6E
100
AcDbEntity
  8
AM_6
100
AcDbText
 10
46.91
 20
87.59999999999995
 30
0.0
 40
0.5
  1
SC Pillow Block Bearings -(Medium Duty)
100
AcDbAttributeDefinition
  3

  2
NT
 70
     8
280
     0
  0
ATTDEF
  5
75
330
6E
100
AcDbEntity
  8
AM_6
100
AcDbText
 10
46.91
 20
87.09999999999995
 30
0.0
 40
0.5
  1
125934
100
AcDbAttributeDefinition
  3

  2
NB
 70
     8
280
     0
  0
ATTDEF
  5
76
330
6E
100
AcDbEntity
  8
AM_6
100
AcDbText
 10
46.91
 20
86.59999999999995
 30
0.0
 40
0.5
  1
$PN.
100
AcDbAttributeDefinition
  3

  2
NBSYN
 70
     8
280
     0
  0
ATTDEF
  5
77
330
6E
100
AcDbEntity
  8
AM_6
100
AcDbText
 10
46.91
 20
86.09999999999995
 30
0.0
 40
0.5
  1
125934
100
AcDbAttributeDefinition
  3

  2
LINA
 70
     8
280
     0
  0
ATTDEF
  5
78
330
6E
100
AcDbEntity
  8
AM_6
100
AcDbText
 10
46.91
 20
85.59999999999995
 30
0.0
 40
0.5
  1
216
100
AcDbAttributeDefinition
  3

  2
SERIES
 70
     8
280
     0
  0
ATTDEF
  5
79
330
6E
100
AcDbEntity
  8
AM_6
100
AcDbText
 10
46.91
 20
85.09999999999995
 30
0.0
 40
0.5
  1
75
100
AcDbAttributeDefinition
  3

  2
SS
 70
     8
280
     0
  0
ATTDEF
  5
7A
330
6E
100
AcDbEntity
  8
AM_6
100
AcDbText
 10
46.91
 20
84.59999999999995
 30
0.0
 40
0.5
  1
125934
100
AcDbAttributeDefinition
  3

  2
PN
 70
     8
280
     0
  0
ATTDEF
  5
7B
330
6E
100
AcDbEntity
  8
AM_6
100
AcDbText
 10
46.91
 20
84.09999999999995
 30
0.0
 40
0.5
  1
P2B-SCM-75M
100
AcDbAttributeDefinition
  3

  2
DESCRIPTION
 70
     8
280
     0
  0
ATTDEF
  5
7C
330
6E
100
AcDbEntity
  8
AM_6
100
AcDbText
 10
46.91
 20
83.59999999999995
 30
0.0
 40
0.5
  1
9.0
100
AcDbAttributeDefinition
  3

  2
WEIGHT
 70
     8
280
     0
  0
ATTDEF
  5
7D
330
6E
100
AcDbEntity
  8
AM_6
100
AcDbText
 10
46.91
 20
83.09999999999995
 30
0.0
 40
0.5
  1
RE-LUBE
100
AcDbAttributeDefinition
  3

  2
LF
 70
     8
280
     0
  0
ATTDEF
  5
7E
330
6E
100
AcDbEntity
  8
AM_6
100
AcDbText
 10
46.91
 20
82.59999999999995
 30
0.0
 40
0.5
  1
60.5
100
AcDbAttributeDefinition
  3

  2
A
 70
     8
280
     0
  0
ATTDEF
  5
7F
330
6E
100
AcDbEntity
  8
AM_6
100
AcDbText
 10
46.91
 20
82.09999999999995
 30
0.0
 40
0.5
  1
298.5
100
AcDbAttributeDefinition
  3

  2
B
 70
     8
280
     0
  0
ATTDEF
  5
80
330
6E
100
AcDbEntity
  8
AM_6
100
AcDbText
 10
46.91
 20
81.59999999999995
 30
0.0
 40
0.5
  1
76.2
100
AcDbAttributeDefinition
  3

  2
C
 70
     8
280
     0
  0
ATTDEF
  5
81
330
6E
100
AcDbEntity
  8
AM_6
100
AcDbText
 10
46.91
 20
81.09999999999995
 30
0.0
 40
0.5
  1
215.9
100
AcDbAttributeDefinition
  3

  2
DMIN
 70
     8
280
     0
  0
ATTDEF
  5
82
330
6E
100
AcDbEntity
  8
AM_6
100
AcDbText
 10
46.91
 20
80.59999999999995
 30
0.0
 40
0.5
  1
241.3
100
AcDbAttributeDefinition
  3

  2
DMAX
 70
     8
280
     0
  0
ATTDEF
  5
83
330
6E
100
AcDbEntity
  8
AM_6
100
AcDbText
 10
46.91
 20
80.09999999999995
 30
0.0
 40
0.5
  1
M22
100
AcDbAttributeDefinition
  3

  2
F
 70
     8
280
     0
  0
ATTDEF
  5
84
330
6E
100
AcDbEntity
  8
AM_6
100
AcDbText
 10
46.91
 20
79.59999999999995
 30
0.0
 40
0.5
  1
36.6
100
AcDbAttributeDefinition
  3

  2
G
 70
     8
280
     0
  0
ATTDEF
  5
85
330
6E
100
AcDbEntity
  8
AM_6
100
AcDbText
 10
46.91
 20
79.09999999999995
 30
0.0
 40
0.5
  1
31.8
100
AcDbAttributeDefinition
  3

  2
H
 70
     8
280
     0
  0
ATTDEF
  5
86
330
6E
100
AcDbEntity
  8
AM_6
100
AcDbText
 10
46.91
 20
78.59999999999995
 30
0.0
 40
0.5
  1
177.0
100
AcDbAttributeDefinition
  3

  2
J
 70
     8
280
     0
  0
ATTDEF
  5
87
330
6E
100
AcDbEntity
  8
AM_6
100
AcDbText
 10
46.91
 20
78.09999999999995
 30
0.0
 40
0.5
  1
97.3
100
AcDbAttributeDefinition
  3

  2
L
 70
     8
280
     0
  0
ATTDEF
  5
88
330
6E
100
AcDbEntity
  8
AM_6
100
AcDbText
 10
46.91
 20
77.59999999999995
 30
0.0
 40
0.5
  1
88.9
100
AcDbAttributeDefinition
  3

  2
M
 70
     8
280
     0
  0
ATTDEF
  5
89
330
6E
100
AcDbEntity
  8
AM_6
100
AcDbText
 10
46.91
 20
77.09999999999995
 30
0.0
 40
0.5
  1
22.4
100
AcDbAttributeDefinition
  3

  2
R
 70
     8
280
     0
  0
ATTDEF
  5
8A
330
6E
100
AcDbEntity
  8
AM_6
100
AcDbText
 10
46.91
 20
76.59999999999995
 30
0.0
 40
0.5
  1
38.1
100
AcDbAttributeDefinition
  3

  2
S
 70
     8
280
     0
  0
ATTDEF
  5
8B
330
6E
100
AcDbEntity
  8
AM_6
100
AcDbText
 10
46.91
 20
76.09999999999995
 30
0.0
 40
0.5
  1
139.7
100
AcDbAttributeDefinition
  3

  2
U
 70
     8
280
     0
  0
ATTDEF
  5
8C
330
6E
100
AcDbEntity
  8
AM_6
100
AcDbText
 10
46.91
 20
75.59999999999995
 30
0.0
 40
0.5
  1
279.4
100
AcDbAttributeDefinition
  3

  2
V
 70
     8
280
     0
  0
ATTDEF
  5
8D
330
6E
100
AcDbEntity
  8
AM_6
100
AcDbText
 10
46.91
 20
75.09999999999995
 30
0.0
 40
0.5
  1
27.7
100
AcDbAttributeDefinition
  3

  2
W
 70
     8
280
     0
  0
ATTDEF
  5
8E
330
6E
100
AcDbEntity
  8
AM_6
100
AcDbText
 10
46.91
 20
74.59999999999995
 30
0.0
 40
0.5
  1
3.0
100
AcDbAttributeDefinition
  3

  2
X
 70
     8
280
     0
  0
ATTDEF
  5
8F
330
6E
100
AcDbEntity
  8
AM_6
100
AcDbText
 10
46.91
 20
74.09999999999995
 30
0.0
 40
0.5
  1
baldor
100
AcDbAttributeDefinition
  3

  2
COMPANY
 70
     8
280
     0
  0
INSERT
  5
91
330
6E
100
AcDbEntity
  8
0
100
AcDbBlockReference
  2
2_405015E_Metric_0_in_125934_2
 10
0.0
 20
0.0
 30
0.0
  0
INSERT
  5
EA
330
6E
100
AcDbEntity
  8
0
100
AcDbBlockReference
  2
3_125842_0_in_125934_2
 10
0.0
 20
0.0
 30
0.0
  0
INSERT
  5
148
330
6E
100
AcDbEntity
  8
0
100
AcDbBlockReference
  2
4_125934H_0_in_125934_2
 10
0.0
 20
0.0
 30
0.0
  0
ENDBLK
  5
71
330
6E
100
AcDbEntity
  8
0
100
AcDbBlockEnd
  0
BLOCK
  5
92
330
90
100
AcDbEntity
  8
0
100
AcDbBlockBegin
  2
2_405015E_Metric_0_in_125934_2
 70
     2
 10
0.0
 20
0.0
 30
0.0
  3
2_405015E_Metric_0_in_125934_2
  1

  0
ATTDEF
  5
94
330
90
100
AcDbEntity
  8
AM_6
100
AcDbText
 10
10.0
 20
70.70498417547346
 30
0.0
 40
0.5
  1
405015E -Metric
100
AcDbAttributeDefinition
  3

  2
NN
 70
     8
280
     0
  0
ATTDEF
  5
95
330
90
100
AcDbEntity
  8
AM_6
100
AcDbText
 10
10.0
 20
70.20498417547346
 30
0.0
 40
0.5
  1
Grease Fitting
100
AcDbAttributeDefinition
  3

  2
NT
 70
     8
280
     0
  0
ATTDEF
  5
96
330
90
100
AcDbEntity
  8
AM_6
100
AcDbText
 10
10.0
 20
69.70498417547346
 30
0.0
 40
0.5
  1
405015E-Metric
100
AcDbAttributeDefinition
  3

  2
NB
 70
     8
280
     0
  0
ATTDEF
  5
97
330
90
100
AcDbEntity
  8
AM_6
100
AcDbText
 10
10.0
 20
69.20498417547346
 30
0.0
 40
0.5
  1
$MN.-Metric
100
AcDbAttributeDefinition
  3

  2
NBSYN
 70
     8
280
     0
  0
ATTDEF
  5
98
330
90
100
AcDbEntity
  8
AM_6
100
AcDbText
 10
10.0
 20
68.70498417547346
 30
0.0
 40
0.5
  1
405015E
100
AcDbAttributeDefinition
  3

  2
LINA
 70
     8
280
     0
  0
ATTDEF
  5
99
330
90
100
AcDbEntity
  8
AM_6
100
AcDbText
 10
10.0
 20
68.20498417547346
 30
0.0
 40
0.5
  1
405015E
100
AcDbAttributeDefinition
  3

  2
MN
 70
     8
280
     0
  0
ATTDEF
  5
9A
330
90
100
AcDbEntity
  8
AM_6
100
AcDbText
 10
10.0
 20
67.70498417547346
 30
0.0
 40
0.5
  1
1/8 x 27PTF
100
AcDbAttributeDefinition
  3

  2
T
 70
     8
280
     0
  0
ATTDEF
  5
9B
330
90
100
AcDbEntity
  8
AM_6
100
AcDbText
 10
10.0
 20
67.20498417547346
 30
0.0
 40
0.5
  1
baldor
100
AcDbAttributeDefinition
  3

  2
COMPANY
 70
     8
280
     0
  0
ELLIPSE
  5
9E
330
90
100
AcDbEntity
  8
AM_9
100
AcDbEllipse
 10
0.0000000000000047
 20
62.29610742253478
 30
0.0
 11
5.000000000000025
 21
7.450580596923867E-8
 31
0.0
210
0.0
220
0.0
230
1.0
 40
0.7071067811865481
 41
1.047197538025712
 42
2.094395089222301
  0
LWPOLYLINE
  5
9F
330
90
100
AcDbEntity
  8
AM_9
100
AcDbPolyline
 90
        3
 70
     0
 43
0.0
 10
-2.499999999999996
 20
65.35796960101379
 10
-1.249999999999996
 20
65.90696283913498
 10
0.0000000000000036
 20
66.52514486967772
  0
LWPOLYLINE
  5
A0
330
90
100
AcDbEntity
  8
AM_9
100
AcDbPolyline
 90
        3
 70
     0
 43
0.0
 10
0.0000000000000036
 20
66.52514486967772
 10
1.244379663409136
 20
65.90959907324657
 10
2.500000000000004
 20
65.35796960101379
  0
ELLIPSE
  5
A1
330
90
100
AcDbEntity
  8
AM_9
100
AcDbEllipse
 10
0.0000000000000035
 20
57.53657167836818
 30
0.0
 11
-4.15799375318352
 21
5.092073740710888E-16
 31
0.0
210
0.0
220
0.0
230
1.0
 40
0.7071067811865476
 41
0.0
 42
6.283185307179586
  0
LWPOLYLINE
  5
A2
330
90
100
AcDbEntity
  8
AM_9
100
AcDbPolyline
 90
        3
 70
     0
 43
0.0
 10
0.0000000000000037
 20
68.35335612822884
 10
-1.244379663409129
 20
67.95287018411042
 10
-2.499999999999994
 20
67.47928994457345
  0
LWPOLYLINE
  5
A3
330
90
100
AcDbEntity
  8
AM_9
100
AcDbPolyline
 90
        3
 70
     0
 43
0.0
 10
2.500000000000004
 20
67.47928994457345
 10
1.250000000000004
 20
67.9509174326119
 10
0.0000000000000037
 20
68.35335612822884
  0
LWPOLYLINE
  5
A4
330
90
100
AcDbEntity
  8
AM_9
100
AcDbPolyline
 90
        3
 70
     0
 43
0.0
 10
2.500000000000004
 20
65.35796960101379
 10
3.750000000000004
 20
64.88634211297533
 10
5.000000000000004
 20
64.48390341735839
  0
LINE
  5
A5
330
90
100
AcDbEntity
  8
AM_9
100
AcDbLine
 10
0.0000000000000037
 20
68.35335612822884
 30
0.0
 11
0.0000000000000036
 21
66.52514486967772
 31
0.0
  0
LWPOLYLINE
  5
A6
330
90
100
AcDbEntity
  8
AM_9
100
AcDbPolyline
 90
        3
 70
     0
 43
0.0
 10
-4.999999999999996
 20
64.48390341735839
 10
-3.755620336590862
 20
64.8843893614768
 10
-2.499999999999996
 20
65.35796960101379
  0
ELLIPSE
  5
A7
330
90
100
AcDbEntity
  8
AM_9
100
AcDbEllipse
 10
-0.0000000000000155
 20
62.29610742253482
 30
0.0
 11
5.000000000000019
 21
7.450580596923857E-8
 31
0.0
210
0.0
220
0.0
230
1.0
 40
0.7071067811865448
 41
0.000001724255827
 42
1.047197538025705
  0
ELLIPSE
  5
A8
330
90
100
AcDbEntity
  8
AM_9
100
AcDbEllipse
 10
0.0000000000000187
 20
62.29610742253483
 30
0.0
 11
5.000000000000019
 21
0.0
 31
0.0
210
0.0
220
0.0
230
1.0
 40
0.7071067811865449
 41
2.094395102393199
 42
4.188790204786391
  0
LINE
  5
A9
330
90
100
AcDbEntity
  8
AM_9
100
AcDbLine
 10
3.121831568061253
 20
67.21570975811319
 30
0.0
 11
2.500000000000004
 21
67.47928994457345
 31
0.0
  0
LINE
  5
AA
330
90
100
AcDbEntity
  8
AM_9
100
AcDbLine
 10
-2.499999999999994
 20
67.47928994457345
 30
0.0
 11
-3.096244680511366
 21
67.226935234157
 31
0.0
  0
ELLIPSE
  5
AB
330
90
100
AcDbEntity
  8
AM_9
100
AcDbEllipse
 10
0.0000000000000018
 20
62.29610742253485
 30
0.0
 11
5.000000000000001
 21
0.0
 31
0.0
210
0.0
220
0.0
230
1.0
 40
0.7071067811865502
 41
4.188790204786393
 42
6.283185307179586
  0
ELLIPSE
  5
AC
330
90
100
AcDbEntity
  8
AM_9
100
AcDbEllipse
 10
0.0000000000000115
 20
57.9608609931456
 30
0.0
 11
4.758029456511766
 21
0.0
 31
0.0
210
0.0
220
0.0
230
1.0
 40
0.7071067811865456
 41
4.71238898038469
 42
9.456034611736138
  0
LINE
  5
AD
330
90
100
AcDbEntity
  8
AM_9
100
AcDbLine
 10
4.755705400136184
 20
57.85571714846301
 30
0.0
 11
4.947209779461382
 21
62.18663358801184
 31
0.0
  0
LINE
  5
AE
330
90
100
AcDbEntity
  8
AM_9
100
AcDbLine
 10
-4.947209779461375
 20
62.18663358801184
 30
0.0
 11
-4.755705400136176
 21
57.85571714846301
 31
0.0
  0
ELLIPSE
  5
AF
330
90
100
AcDbEntity
  8
AM_9
100
AcDbEllipse
 10
-0.0000000000000029
 20
57.96086099314559
 30
0.0
 11
4.758029456511767
 21
0.0
 31
0.0
210
0.0
220
0.0
230
1.0
 40
0.7071067811865455
 41
3.172849304556543
 42
4.71238898038469
  0
ELLIPSE
  5
B0
330
90
100
AcDbEntity
  8
AM_9
100
AcDbEllipse
 10
0.0000000000006937
 20
64.41742776609445
 30
0.0
 11
5.000000000001151
 21
7.450580596925545E-8
 31
0.0
210
0.0
220
0.0
230
1.0
 40
0.70710678118645
 41
-4.188790217957227
 42
-4.039797806843557
  0
ELLIPSE
  5
B1
330
90
100
AcDbEntity
  8
AM_9
100
AcDbEllipse
 10
-0.000000000000683
 20
64.41742776609446
 30
0.0
 11
5.000000000001142
 21
0.0
 31
0.0
210
0.0
220
0.0
230
1.0
 40
0.7071067811864485
 41
0.8982051386272518
 42
2.094395102393013
  0
LINE
  5
B2
330
90
100
AcDbEntity
  8
AM_9
100
AcDbLine
 10
-1.98992883273251
 20
67.1971167965044
 30
0.0
 11
-2.406586417453942
 21
66.93329732461753
 31
0.0
  0
LINE
  5
B3
330
90
100
AcDbEntity
  8
AM_9
100
AcDbLine
 10
2.406586417453951
 20
66.93329732461753
 30
0.0
 11
1.989928832732518
 21
67.1971167965044
 31
0.0
  0
ELLIPSE
  5
B4
330
90
100
AcDbEntity
  8
AM_9
100
AcDbEllipse
 10
0.000000000000004
 20
65.62574123562582
 30
0.0
 11
2.982994982562498
 21
0.0
 31
0.0
210
0.0
220
0.0
230
1.0
 40
0.7071067811865547
 41
0.8404993455406178
 42
2.754650415401405
  0
ELLIPSE
  5
B5
330
90
100
AcDbEntity
  8
AM_9
100
AcDbEllipse
 10
0.0000000000000042
 20
65.03290218519103
 30
0.0
 11
3.607583894601104
 21
0.0
 31
0.0
210
0.0
220
0.0
230
1.0
 40
0.7071067811865496
 41
0.8404993455406267
 42
2.338287027841785
  0
ELLIPSE
  5
B6
330
90
100
AcDbEntity
  8
AM_9
100
AcDbEllipse
 10
-0.0000000000018128
 20
65.03290218519075
 30
0.0
 11
3.607583894598684
 21
0.0
 31
0.0
210
0.0
220
0.0
230
1.0
 40
0.7071067811868152
 41
-3.944898279338056
 42
-3.804975968778941
  0
LINE
  5
B7
330
90
100
AcDbEntity
  8
AM_9
100
AcDbLine
 10
-2.477229919855577
 20
66.91664998846748
 30
0.0
 11
-2.74897711671493
 21
66.44508833760251
 31
0.0
  0
LINE
  5
B8
330
90
100
AcDbEntity
  8
AM_9
100
AcDbLine
 10
2.748977116714938
 20
66.4450883376025
 30
0.0
 11
2.477229919855586
 21
66.91664998846748
 31
0.0
  0
ELLIPSE
  5
B9
330
90
100
AcDbEntity
  8
AM_9
100
AcDbEllipse
 10
0.0000000000000047
 20
66.2028723885905
 30
0.0
 11
2.674999999999994
 21
0.0
 31
0.0
210
0.0
220
0.0
230
1.0
 40
0.7071067811865368
 41
0.0
 42
2.754650415401406
  0
ELLIPSE
  5
BA
330
90
100
AcDbEntity
  8
AM_9
100
AcDbEllipse
 10
-0.0000000000003539
 20
66.20287238859112
 30
0.0
 11
2.674999999999635
 21
3.986060619353705E-8
 31
0.0
210
0.0
220
0.0
230
1.0
 40
0.7071067811864986
 41
2.754650395828633
 42
3.141592638688632
  0
ELLIPSE
  5
BB
330
90
100
AcDbEntity
  8
AM_9
100
AcDbEllipse
 10
0.0000000000000377
 20
65.62574123562584
 30
0.0
 11
2.982994982562473
 21
0.0
 31
0.0
210
0.0
220
0.0
230
1.0
 40
0.7071067811865462
 41
0.3869422381883894
 42
0.8404993455406291
  0
ELLIPSE
  5
BC
330
90
100
AcDbEntity
  8
AM_9
100
AcDbEllipse
 10
-0.0000000000058544
 20
65.03290218516607
 30
0.0
 11
3.60758389460972
 21
0.0
 31
0.0
210
0.0
220
0.0
230
1.0
 40
0.7071067811907185
 41
0.6633833151927826
 42
0.8404993455430135
  0
ELLIPSE
  5
BD
330
90
100
AcDbEntity
  8
AM_9
100
AcDbEllipse
 10
0.0000000000000042
 20
64.41742776609445
 30
0.0
 11
4.750000000000019
 21
0.0
 31
0.0
210
0.0
220
0.0
230
1.0
 40
0.7071067811865475
 41
0.8736482899485987
 42
2.267944363641194
  0
LINE
  5
BE
330
90
100
AcDbEntity
  8
AM_9
100
AcDbLine
 10
2.675000000000004
 20
66.31954500748628
 30
0.0
 11
2.675000000000004
 21
66.69784713542109
 31
0.0
  0
LINE
  5
BF
330
90
100
AcDbEntity
  8
AM_9
100
AcDbLine
 10
-2.674999999999995
 20
66.69784713542109
 30
0.0
 11
-2.674999999999995
 21
66.31954500748628
 31
0.0
  0
ELLIPSE
  5
C0
330
90
100
AcDbEntity
  8
AM_9
100
AcDbEllipse
 10
0.0000000000000044
 20
66.6978471354211
 30
0.0
 11
2.675000000000003
 21
0.0
 31
0.0
210
0.0
220
0.0
230
1.0
 40
0.7071067811865502
 41
5.888394187479818
 42
9.42477796076938
  0
ELLIPSE
  5
C1
330
90
100
AcDbEntity
  8
AM_9
100
AcDbEllipse
 10
-0.0000000000000635
 20
66.69784713542124
 30
0.0
 11
2.674999999999931
 21
0.0
 31
0.0
210
0.0
220
0.0
230
1.0
 40
0.7071067811865692
 41
3.141592653589793
 42
3.536383773289629
  0
ELLIPSE
  5
C2
330
90
100
AcDbEntity
  8
AM_9
100
AcDbEllipse
 10
0.0000000000000044
 20
67.6170859509636
 30
0.0
 11
3.174999999999997
 21
4.731118679046628E-8
 31
0.0
210
0.0
220
0.0
230
1.0
 40
0.7071067811865475
 41
0.4159140327491038
 42
2.725678582133807
  0
ELLIPSE
  5
C3
330
90
100
AcDbEntity
  8
AM_9
100
AcDbEllipse
 10
0.000000000000024
 20
62.29610742253483
 30
0.0
 11
4.949631665534945
 21
0.0
 31
0.0
210
0.0
220
0.0
230
1.0
 40
0.7071067811865487
 41
0.0
 42
6.283185307179586
  0
LWPOLYLINE
  5
C5
330
90
100
AcDbEntity
  8
AM_4
100
AcDbPolyline
 90
        3
 70
     0
 43
0.0
 10
5.000000000000004
 20
66.31211467590953
 10
3.755620336590871
 20
66.92766047234066
 10
3.121831568061253
 20
67.21570975811319
  0
LWPOLYLINE
  5
C6
330
90
100
AcDbEntity
  8
AM_4
100
AcDbPolyline
 90
        3
 70
     0
 43
0.0
 10
-3.096244680511366
 20
67.226935234157
 10
-3.749999999999996
 20
66.93029670645224
 10
-4.999999999999996
 20
66.31211467590953
  0
ELLIPSE
  5
C7
330
90
100
AcDbEntity
  8
AM_4
100
AcDbEllipse
 10
0.0000000000000746
 20
64.41742776609446
 30
0.0
 11
4.999999999999917
 21
0.0
 31
0.0
210
0.0
220
0.0
230
1.0
 40
0.7071067811865508
 41
5.235987755982978
 42
6.283185307179586
  0
ELLIPSE
  5
C8
330
90
100
AcDbEntity
  8
AM_4
100
AcDbEllipse
 10
-0.0000000000000102
 20
64.41742776609449
 30
0.0
 11
5.000000000000007
 21
0.0
 31
0.0
210
0.0
220
0.0
230
1.0
 40
0.7071067811865466
 41
0.0
 42
0.8982051386272841
  0
ELLIPSE
  5
C9
330
90
100
AcDbEntity
  8
AM_4
100
AcDbEllipse
 10
0.000000000000002
 20
65.03290218519105
 30
0.0
 11
3.607583894601103
 21
0.0
 31
0.0
210
0.0
220
0.0
230
1.0
 40
0.707106781186546
 41
2.478209338400867
 42
6.946568622368511
  0
ELLIPSE
  5
CA
330
90
100
AcDbEntity
  8
AM_4
100
AcDbEllipse
 10
0.0000000000000098
 20
65.62574123562582
 30
0.0
 11
2.982994982562515
 21
0.0
 31
0.0
210
0.0
220
0.0
230
1.0
 40
0.7071067811865459
 41
4.71238898038469
 42
6.670127545367976
  0
LINE
  5
CB
330
90
100
AcDbEntity
  8
AM_4
100
AcDbLine
 10
-2.74897711671493
 20
66.44508833760251
 30
0.0
 11
-2.762453989376792
 21
66.4217019829524
 31
0.0
  0
LINE
  5
CC
330
90
100
AcDbEntity
  8
AM_4
100
AcDbLine
 10
2.7624539893768
 20
66.4217019829524
 30
0.0
 11
2.748977116714938
 21
66.4450883376025
 31
0.0
  0
ELLIPSE
  5
CD
330
90
100
AcDbEntity
  8
AM_4
100
AcDbEllipse
 10
-0.0000000000000009
 20
65.62574123562584
 30
0.0
 11
2.982994982562515
 21
0.0
 31
0.0
210
0.0
220
0.0
230
1.0
 40
0.7071067811865457
 41
2.75465041540141
 42
4.71238898038469
  0
ELLIPSE
  5
CE
330
90
100
AcDbEntity
  8
AM_4
100
AcDbEllipse
 10
-0.0000000000000129
 20
64.41742776609446
 30
0.0
 11
4.749999999999991
 21
0.0
 31
0.0
210
0.0
220
0.0
230
1.0
 40
0.7071067811865486
 41
2.267944363641194
 42
4.71238898038469
  0
ELLIPSE
  5
CF
330
90
100
AcDbEntity
  8
AM_4
100
AcDbEllipse
 10
0.0000000000000329
 20
64.41742776609446
 30
0.0
 11
4.749999999999973
 21
0.0
 31
0.0
210
0.0
220
0.0
230
1.0
 40
0.7071067811865482
 41
4.71238898038469
 42
7.156833597128184
  0
LINE
  5
D0
330
90
100
AcDbEntity
  8
AM_4
100
AcDbLine
 10
5.000000000000004
 20
66.31211467590953
 30
0.0
 11
5.000000000000004
 21
60.40142051271976
 31
0.0
  0
LWPOLYLINE
  5
D1
330
90
100
AcDbEntity
  8
AM_4
100
AcDbPolyline
 90
        3
 70
     0
 43
0.0
 10
2.500000000000004
 20
61.35556558761549
 10
3.750000000000004
 20
61.82719307565396
 10
5.000000000000004
 20
62.2296317712709
  0
LWPOLYLINE
  5
D2
330
90
100
AcDbEntity
  8
AM_4
100
AcDbPolyline
 90
        3
 70
     0
 43
0.0
 10
2.500000000000004
 20
59.23424524405585
 10
1.250000000000004
 20
58.76261775601738
 10
0.0000000000000041
 20
58.36017906040045
  0
LWPOLYLINE
  5
D3
330
90
100
AcDbEntity
  8
AM_4
100
AcDbPolyline
 90
        3
 70
     0
 43
0.0
 10
5.000000000000004
 20
60.40142051271976
 10
3.75562033659087
 20
59.78587471628863
 10
2.500000000000004
 20
59.23424524405585
  0
LWPOLYLINE
  5
D4
330
90
100
AcDbEntity
  8
AM_4
100
AcDbPolyline
 90
        3
 70
     0
 43
0.0
 10
0.0000000000000044
 20
60.18839031895158
 10
1.244379663409138
 20
60.80393611538271
 10
2.500000000000004
 20
61.35556558761549
  0
ELLIPSE
  5
D5
330
90
100
AcDbEntity
  8
AM_4
100
AcDbEllipse
 10
0.0000000000000051
 20
64.41742776609448
 30
0.0
 11
4.99999999999997
 21
0.0
 31
0.0
210
0.0
220
0.0
230
1.0
 40
0.7071067811865518
 41
2.243387514962509
 42
5.235987755982991
  0
LINE
  5
D6
330
90
100
AcDbEntity
  8
AM_4
100
AcDbLine
 10
0.0000000000000044
 20
60.18839031895158
 30
0.0
 11
0.0000000000000041
 21
58.36017906040045
 31
0.0
  0
LWPOLYLINE
  5
D7
330
90
100
AcDbEntity
  8
AM_4
100
AcDbPolyline
 90
        3
 70
     0
 43
0.0
 10
-2.499999999999994
 20
61.35556558761549
 10
-1.249999999999994
 20
60.8065723494943
 10
0.0000000000000044
 20
60.18839031895158
  0
LWPOLYLINE
  5
D8
330
90
100
AcDbEntity
  8
AM_4
100
AcDbPolyline
 90
        3
 70
     0
 43
0.0
 10
-4.999999999999996
 20
62.2296317712709
 10
-3.755620336590862
 20
61.82914582715248
 10
-2.499999999999994
 20
61.35556558761549
  0
LINE
  5
D9
330
90
100
AcDbEntity
  8
AM_4
100
AcDbLine
 10
-4.999999999999996
 20
66.31211467590953
 30
0.0
 11
-4.999999999999996
 21
60.40142051271976
 31
0.0
  0
LWPOLYLINE
  5
DA
330
90
100
AcDbEntity
  8
AM_4
100
AcDbPolyline
 90
        3
 70
     0
 43
0.0
 10
-2.499999999999996
 20
59.23424524405585
 10
-3.749999999999996
 20
59.78323848217704
 10
-4.999999999999996
 20
60.40142051271976
  0
LWPOLYLINE
  5
DB
330
90
100
AcDbEntity
  8
AM_4
100
AcDbPolyline
 90
        3
 70
     0
 43
0.0
 10
0.0000000000000041
 20
58.36017906040045
 10
-1.244379663409128
 20
58.76066500451886
 10
-2.499999999999996
 20
59.23424524405585
  0
ELLIPSE
  5
DC
330
90
100
AcDbEntity
  8
AM_4
100
AcDbEllipse
 10
-0.0000000000000018
 20
66.20287238859052
 30
0.0
 11
2.67500000000001
 21
0.0
 31
0.0
210
0.0
220
0.0
230
1.0
 40
0.7071067811865539
 41
3.141592653589793
 42
6.283185307179586
  0
LINE
  5
DD
330
90
100
AcDbEntity
  8
AM_4
100
AcDbLine
 10
2.675000000000004
 20
66.2028723885905
 30
0.0
 11
2.675000000000004
 21
66.31954500748628
 31
0.0
  0
LINE
  5
DE
330
90
100
AcDbEntity
  8
AM_4
100
AcDbLine
 10
-2.674999999999995
 20
66.31954500748628
 30
0.0
 11
-2.674999999999995
 21
66.2028723885905
 31
0.0
  0
ELLIPSE
  5
DF
330
90
100
AcDbEntity
  8
AM_4
100
AcDbEllipse
 10
-0.0000000000000462
 20
66.69784713542113
 30
0.0
 11
2.675000000000068
 21
0.0
 31
0.0
210
0.0
220
0.0
230
1.0
 40
0.7071067811865545
 41
4.71238898038469
 42
5.888394187479815
  0
LINE
  5
E0
330
90
100
AcDbEntity
  8
AM_4
100
AcDbLine
 10
2.469230769230773
 20
65.97034304323877
 30
0.0
 11
2.930769230769235
 21
66.75359978547618
 31
0.0
  0
LINE
  5
E1
330
90
100
AcDbEntity
  8
AM_4
100
AcDbLine
 10
-2.930769230769227
 20
66.75359978547618
 30
0.0
 11
-2.469230769230765
 21
65.97034304323877
 31
0.0
  0
ELLIPSE
  5
E2
330
90
100
AcDbEntity
  8
AM_4
100
AcDbEllipse
 10
-0.000000000000004
 20
67.61708595096356
 30
0.0
 11
3.175000000000008
 21
0.0
 31
0.0
210
0.0
220
0.0
230
1.0
 40
0.7071067811865452
 41
4.71238898038469
 42
6.699099359282149
  0
ELLIPSE
  5
E3
330
90
100
AcDbEntity
  8
AM_4
100
AcDbEllipse
 10
0.0000000000000134
 20
67.61708595096356
 30
0.0
 11
3.175000000000009
 21
0.0
 31
0.0
210
0.0
220
0.0
230
1.0
 40
0.7071067811865316
 41
2.725678601487222
 42
4.71238898038469
  0
ELLIPSE
  5
E4
330
90
100
AcDbEntity
  8
AM_4
100
AcDbEllipse
 10
0.0000000000000542
 20
66.69784713542114
 30
0.0
 11
2.675000000000068
 21
0.0
 31
0.0
210
0.0
220
0.0
230
1.0
 40
0.7071067811865545
 41
3.536383773289572
 42
4.71238898038469
  0
ELLIPSE
  5
E5
330
90
100
AcDbEntity
  8
AM_4
100
AcDbEllipse
 10
0.0000000000000036
 20
69.03129951333668
 30
0.0
 11
2.366947548329679
 21
0.0
 31
0.0
210
0.0
220
0.0
230
1.0
 40
0.707106781186543
 41
4.71238898038469
 42
9.008863908666822
  0
LINE
  5
E6
330
90
100
AcDbEntity
  8
AM_4
100
AcDbLine
 10
-2.165159119691904
 20
69.707512010618
 30
0.0
 11
-2.904323000259523
 21
68.52415069787075
 31
0.0
  0
LINE
  5
E7
330
90
100
AcDbEntity
  8
AM_4
100
AcDbLine
 10
2.904323000259532
 20
68.52415069787075
 30
0.0
 11
2.165159119691912
 21
69.707512010618
 31
0.0
  0
ELLIPSE
  5
E8
330
90
100
AcDbEntity
  8
AM_4
100
AcDbEllipse
 10
0.0000000000000051
 20
69.03129951333668
 30
0.0
 11
2.366947548329679
 21
0.0
 31
0.0
210
0.0
220
0.0
230
1.0
 40
0.707106781186543
 41
2.725678601487239
 42
4.71238898038469
  0
ENDBLK
  5
93
330
90
100
AcDbEntity
  8
0
100
AcDbBlockEnd
  0
BLOCK
  5
EB
330
E9
100
AcDbEntity
  8
0
100
AcDbBlockBegin
  2
3_125842_0_in_125934_2
 70
     2
 10
0.0
 20
0.0
 30
0.0
  3
3_125842_0_in_125934_2
  1

  0
ATTDEF
  5
ED
330
E9
100
AcDbEntity
  8
AM_6
100
AcDbText
 10
27.40000000000001
 20
69.97254509519341
 30
0.0
 40
0.5
  1
Set Screw Medium Duty Insert Metric Bore
100
AcDbAttributeDefinition
  3

  2
NN
 70
     8
280
     0
  0
ATTDEF
  5
EE
330
E9
100
AcDbEntity
  8
AM_6
100
AcDbText
 10
27.40000000000001
 20
69.47254509519341
 30
0.0
 40
0.5
  1
SC Medium Duty Bearing Inserts
100
AcDbAttributeDefinition
  3

  2
NT
 70
     8
280
     0
  0
ATTDEF
  5
EF
330
E9
100
AcDbEntity
  8
AM_6
100
AcDbText
 10
27.40000000000001
 20
68.97254509519341
 30
0.0
 40
0.5
  1
125842
100
AcDbAttributeDefinition
  3

  2
NB
 70
     8
280
     0
  0
ATTDEF
  5
F0
330
E9
100
AcDbEntity
  8
AM_6
100
AcDbText
 10
27.40000000000001
 20
68.47254509519341
 30
0.0
 40
0.5
  1
$PN.
100
AcDbAttributeDefinition
  3

  2
NBSYN
 70
     8
280
     0
  0
ATTDEF
  5
F1
330
E9
100
AcDbEntity
  8
AM_6
100
AcDbText
 10
27.40000000000001
 20
67.97254509519341
 30
0.0
 40
0.5
  1
125842
100
AcDbAttributeDefinition
  3

  2
LINA
 70
     8
280
     0
  0
ATTDEF
  5
F2
330
E9
100
AcDbEntity
  8
AM_6
100
AcDbText
 10
27.40000000000001
 20
67.47254509519341
 30
0.0
 40
0.5
  1
216
100
AcDbAttributeDefinition
  3

  2
SERIES
 70
     8
280
     0
  0
ATTDEF
  5
F3
330
E9
100
AcDbEntity
  8
AM_6
100
AcDbText
 10
27.40000000000001
 20
66.97254509519341
 30
0.0
 40
0.5
  1
75
100
AcDbAttributeDefinition
  3

  2
SS
 70
     8
280
     0
  0
ATTDEF
  5
F4
330
E9
100
AcDbEntity
  8
AM_6
100
AcDbText
 10
27.40000000000001
 20
66.47254509519341
 30
0.0
 40
0.5
  1
125842
100
AcDbAttributeDefinition
  3

  2
PN
 70
     8
280
     0
  0
ATTDEF
  5
F5
330
E9
100
AcDbEntity
  8
AM_6
100
AcDbText
 10
27.40000000000001
 20
65.97254509519341
 30
0.0
 40
0.5
  1
INS-SCM-75M
100
AcDbAttributeDefinition
  3

  2
DESCRIPTION
 70
     8
280
     0
  0
ATTDEF
  5
F6
330
E9
100
AcDbEntity
  8
AM_6
100
AcDbText
 10
27.40000000000001
 20
65.47254509519341
 30
0.0
 40
0.5
  1
2.51
100
AcDbAttributeDefinition
  3

  2
WEIGHT
 70
     8
280
     0
  0
ATTDEF
  5
F7
330
E9
100
AcDbEntity
  8
AM_6
100
AcDbText
 10
27.40000000000001
 20
64.97254509519341
 30
0.0
 40
0.5
  1
60.5
100
AcDbAttributeDefinition
  3

  2
A
 70
     8
280
     0
  0
ATTDEF
  5
F8
330
E9
100
AcDbEntity
  8
AM_6
100
AcDbText
 10
27.40000000000001
 20
64.47254509519341
 30
0.0
 40
0.5
  1
30.0
100
AcDbAttributeDefinition
  3

  2
C
 70
     8
280
     0
  0
ATTDEF
  5
F9
330
E9
100
AcDbEntity
  8
AM_6
100
AcDbText
 10
27.40000000000001
 20
63.97254509519341
 30
0.0
 40
0.5
  1
140.0
100
AcDbAttributeDefinition
  3

  2
D
 70
     8
280
     0
  0
ATTDEF
  5
FA
330
E9
100
AcDbEntity
  8
AM_6
100
AcDbText
 10
27.40000000000001
 20
63.47254509519341
 30
0.0
 40
0.5
  1
7.4
100
AcDbAttributeDefinition
  3

  2
J
 70
     8
280
     0
  0
ATTDEF
  5
FB
330
E9
100
AcDbEntity
  8
AM_6
100
AcDbText
 10
27.40000000000001
 20
62.97254509519341
 30
0.0
 40
0.5
  1
97.3
100
AcDbAttributeDefinition
  3

  2
L
 70
     8
280
     0
  0
ATTDEF
  5
FC
330
E9
100
AcDbEntity
  8
AM_6
100
AcDbText
 10
27.40000000000001
 20
62.47254509519341
 30
0.0
 40
0.5
  1
M10 x 1.5
100
AcDbAttributeDefinition
  3

  2
N
 70
     8
280
     0
  0
ATTDEF
  5
FD
330
E9
100
AcDbEntity
  8
AM_6
100
AcDbText
 10
27.40000000000001
 20
61.97254509519341
 30
0.0
 40
0.5
  1
22.4
100
AcDbAttributeDefinition
  3

  2
W
 70
     8
280
     0
  0
ATTDEF
  5
FE
330
E9
100
AcDbEntity
  8
AM_6
100
AcDbText
 10
27.40000000000001
 20
61.47254509519341
 30
0.0
 40
0.5
  1
38.1
100
AcDbAttributeDefinition
  3

  2
Y
 70
     8
280
     0
  0
ATTDEF
  5
FF
330
E9
100
AcDbEntity
  8
AM_6
100
AcDbText
 10
27.40000000000001
 20
60.97254509519341
 30
0.0
 40
0.5
  1
baldor
100
AcDbAttributeDefinition
  3

  2
COMPANY
 70
     8
280
     0
  0
ARC
  5
100
330
E9
100
AcDbEntity
  8
AM_9
100
AcDbCircle
 10
7.399999999999819
 20
0.0000000000000138
 30
0.0
 40
3.000000000000172
100
AcDbArc
 50
352.3175706969181
 51
0.0000008537736463
  0
ARC
  5
101
330
E9
100
AcDbEntity
  8
AM_9
100
AcDbCircle
 10
7.399999999999929
 20
0.0000000000000706
 30
0.0
 40
3.000000000000095
100
AcDbArc
 50
303.5233842983791
 51
320.4409930004301
  0
ARC
  5
102
330
E9
100
AcDbEntity
  8
AM_9
100
AcDbCircle
 10
7.400000000000002
 20
0.0000000000012479
 30
0.0
 40
2.999999999998743
100
AcDbArc
 50
90.0
 51
91.05657652223798
  0
CIRCLE
  5
103
330
E9
100
AcDbEntity
  8
AM_9
100
AcDbCircle
 10
7.399999999999996
 20
-0.0000000000000045
 30
0.0
 40
0.2727272727272806
  0
LINE
  5
104
330
E9
100
AcDbEntity
  8
AM_9
100
AcDbLine
 10
-22.362
 20
37.49858922086445
 30
0.0
 11
-22.362
 21
48.39238059860251
 31
0.0
  0
LINE
  5
105
330
E9
100
AcDbEntity
  8
AM_9
100
AcDbLine
 10
-30.738
 20
48.39238059860251
 30
0.0
 11
-30.738
 21
37.49999999999999
 31
0.0
  0
LINE
  5
106
330
E9
100
AcDbEntity
  8
AM_9
100
AcDbLine
 10
-30.738
 20
48.39238059860251
 30
0.0
 11
-22.362
 21
48.39238059860251
 31
0.0
  0
LINE
  5
107
330
E9
100
AcDbEntity
  8
AM_9
100
AcDbLine
 10
-22.362
 20
48.39238059860251
 30
0.0
 11
-22.10438059860254
 21
48.64999999999997
 31
0.0
  0
LINE
  5
108
330
E9
100
AcDbEntity
  8
AM_9
100
AcDbLine
 10
-30.99561940139746
 20
48.64999999999997
 30
0.0
 11
-30.738
 21
48.39238059860251
 31
0.0
  0
LWPOLYLINE
  5
109
330
E9
100
AcDbEntity
  8
AM_9
100
AcDbPolyline
 90
       20
 70
     0
 43
0.0
 10
-30.738
 20
37.5
 10
-30.68065281266009
 20
37.4936387759142
 10
-30.50362348168699
 20
37.47454862483265
 10
-30.22195007118116
 20
37.4458792569389
 10
-29.8276737291274
 20
37.40927426554292
 10
-29.35165268073381
 20
37.37057550725521
 10
-28.78149629599446
 20
37.33216082306296
 10
-28.16305555538333
 20
37.30030300446302
 10
-27.47968749591607
 20
37.27700329747635
 10
-26.79212684536598
 20
37.26619488771622
 10
-26.07755494556443
 20
37.26840297530148
 10
-25.39941151212732
 20
37.28316657512375
 10
-24.73483927285299
 20
37.30958944380622
 10
-24.13788683645171
 20
37.34339226575116
 10
-23.59286209251431
 20
37.38255369291789
 10
-23.14267576291205
 20
37.42085667721474
 10
-22.77760793611904
 20
37.45586199627012
 10
-22.52835237735167
 20
37.48178631816729
 10
-22.38793564321267
 20
37.4971123649547
 10
-22.36200000000241
 20
37.49999999999973
  0
LINE
  5
10A
330
E9
100
AcDbEntity
  8
AM_9
100
AcDbLine
 10
-36.154
 20
-37.5
 30
0.0
 11
-11.43
 21
-37.5
 31
0.0
  0
LINE
  5
10B
330
E9
100
AcDbEntity
  8
AM_9
100
AcDbLine
 10
-11.43000000000001
 20
37.5
 30
0.0
 11
-22.37467152954429
 21
37.5
 31
0.0
  0
LINE
  5
10C
330
E9
100
AcDbEntity
  8
AM_9
100
AcDbLine
 10
-30.73800000000002
 20
37.5
 30
0.0
 11
-36.154
 21
37.5
 31
0.0
  0
LINE
  5
10D
330
E9
100
AcDbEntity
  8
AM_9
100
AcDbLine
 10
-36.154
 20
37.5
 30
0.0
 11
-38.09999999999999
 21
39.44599999999994
 31
0.0
  0
LINE
  5
10E
330
E9
100
AcDbEntity
  8
AM_9
100
AcDbLine
 10
-38.09999999999999
 20
-39.44599999999994
 30
0.0
 11
-36.154
 21
-37.5
 31
0.0
  0
LINE
  5
10F
330
E9
100
AcDbEntity
  8
AM_9
100
AcDbLine
 10
20.454
 20
-37.5
 30
0.0
 11
22.40000000000001
 21
-39.44599999999994
 31
0.0
  0
LINE
  5
110
330
E9
100
AcDbEntity
  8
AM_9
100
AcDbLine
 10
22.40000000000001
 20
39.44599999999994
 30
0.0
 11
20.454
 21
37.5
 31
0.0
  0
LWPOLYLINE
  5
111
330
E9
100
AcDbEntity
  8
AM_9
100
AcDbPolyline
 90
        6
 70
     0
 43
0.0
 10
-29.85241716547056
 20
18.14499029188954
 10
-30.09395736636927
 20
17.84254948642561
 10
-30.41487824718696
 20
17.29547190035531
 10
-30.63349742043268
 20
16.68593236541833
 10
-30.73099217140595
 20
16.06733891989251
 10
-30.73799998287119
 20
15.84852810172204
  0
LWPOLYLINE
  5
112
330
E9
100
AcDbEntity
  8
AM_9
100
AcDbPolyline
 90
        4
 70
     0
 43
0.0
 10
-26.55
 20
19.54465909224144
 10
-27.2406730882268
 20
19.49539201278536
 10
-27.9313461764536
 20
19.34306796826816
 10
-28.08196594582792
 20
19.29490200039191
  0
LINE
  5
113
330
E9
100
AcDbEntity
  8
AM_9
100
AcDbLine
 10
-22.36199999999999
 20
15.84816898071375
 30
0.0
 11
-22.36199999999999
 21
20.45150377007574
 31
0.0
  0
LINE
  5
114
330
E9
100
AcDbEntity
  8
AM_9
100
AcDbLine
 10
-30.738
 20
20.45150377007574
 30
0.0
 11
-30.738
 21
15.84754065263652
 31
0.0
  0
LWPOLYLINE
  5
115
330
E9
100
AcDbEntity
  8
AM_9
100
AcDbPolyline
 90
       20
 70
     0
 43
0.0
 10
-30.73799998287119
 20
15.84852810172204
 10
-30.71127325608687
 20
15.41879989044592
 10
-30.5768491605287
 20
14.79794555457684
 10
-30.32417469521428
 20
14.18447770490271
 10
-29.97356719683733
 20
13.62920157025697
 10
-29.51552644387207
 20
13.11870265918469
 10
-28.98500612791597
 20
12.69451224334982
 10
-28.36887313645473
 20
12.34882961396994
 10
-27.71858565837759
 20
12.11192156371815
 10
-27.01530084157276
 20
11.97815189196654
 10
-26.32240361177573
 20
11.95932786084132
 10
-25.61603543710897
 20
12.05395845859913
 10
-24.95733441725557
 20
12.25298099701073
 10
-24.32538677502247
 20
12.56122647504342
 10
-23.77037607452992
 20
12.95371406742966
 10
-23.27909728332239
 20
13.43919610530313
 10
-22.89085482882969
 20
13.97849318920109
 10
-22.59694750011932
 20
14.58396933785907
 10
-22.42256175062571
 20
15.20218910529202
 10
-22.36200000009811
 20
15.84821080477778
  0
LWPOLYLINE
  5
116
330
E9
100
AcDbEntity
  8
AM_9
100
AcDbPolyline
 90
        7
 70
     0
 43
0.0
 10
-23.24784328454923
 20
18.14528321099621
 10
-23.27227544475656
 20
18.17248736032315
 10
-23.74828868094089
 20
18.61467844083244
 10
-24.31843946690899
 20
18.98915123001447
 10
-24.93687439797934
 20
19.26654637468439
 10
-25.6202384920047
 20
19.45484156433217
 10
-26.55
 20
19.54465909224144
  0
LWPOLYLINE
  5
117
330
E9
100
AcDbEntity
  8
AM_9
100
AcDbPolyline
 90
        6
 70
     0
 43
0.0
 10
-22.36200000009811
 20
15.84821080477778
 10
-22.36200189877315
 20
15.85179907842824
 10
-22.4198469549144
 20
16.47415284751453
 10
-22.5970274028465
 20
17.09104035415351
 10
-22.87852547364588
 20
17.65136655247481
 10
-23.24784328454923
 20
18.14528321099621
  0
ELLIPSE
  5
118
330
E9
100
AcDbEntity
  8
AM_9
100
AcDbEllipse
 10
-26.54999999999995
 20
20.4515037700755
 30
0.0
 11
4.188000000000329
 21
0.0
 31
0.0
210
0.0
220
0.0
230
1.0
 40
0.9063077870366353
 41
4.261852605740787
 42
8.067817210059992
  0
LINE
  5
119
330
E9
100
AcDbEntity
  8
AM_9
100
AcDbLine
 10
-36.89425388127854
 20
-47.90974611872144
 30
0.0
 11
-36.154
 21
-48.64999999999996
 31
0.0
  0
LWPOLYLINE
  5
11A
330
E9
100
AcDbEntity
  8
AM_9
100
AcDbPolyline
 90
       12
 70
     0
 43
0.0
 10
-27.42744416635378
 20
24.2683128648614
 10
-27.2970400285377
 20
24.28820790477085
 10
-26.54089775788632
 20
24.34126712673822
 10
-25.76894944764778
 20
24.28322629808995
 10
-25.01902358972063
 20
24.1142164998757
 10
-24.31280710448251
 20
23.83581603250912
 10
-23.67156985738569
 20
23.45513503879702
 10
-23.12772394978875
 20
22.99004823736444
 10
-22.6840753306239
 20
22.4458261314642
 10
-22.36901745162012
 20
21.8608408342703
 10
-22.17275995008578
 20
21.23183070848185
 10
-22.10938479905996
 20
20.37725908084936
  0
LWPOLYLINE
  5
11B
330
E9
100
AcDbEntity
  8
AM_9
100
AcDbPolyline
 90
       13
 70
     0
 43
0.0
 10
-22.10938479905996
 20
20.37725908084936
 10
-22.19604014132815
 20
19.77963588629501
 10
-22.38636901909823
 20
19.19886220297784
 10
-22.68926503901079
 20
18.62915086392733
 10
-23.08793796059387
 20
18.10919681730408
 10
-23.58769812105777
 20
17.63996097909995
 10
-24.16172963160586
 20
17.24949452344404
 10
-24.82287245150723
 20
16.93758247454222
 10
-25.52916365019854
 20
16.72909312156386
 10
-26.28708444200827
 20
16.62906079680639
 10
-27.05221543544313
 20
16.64737623966665
 10
-27.81442150425723
 20
16.78812175154473
 10
-28.38422038713264
 20
16.97942226834408
  0
LINE
  5
11C
330
E9
100
AcDbEntity
  8
AM_9
100
AcDbLine
 10
-36.154
 20
-48.64999999999997
 30
0.0
 11
-15.0
 21
-48.64999999999997
 31
0.0
  0
LINE
  5
11D
330
E9
100
AcDbEntity
  8
AM_9
100
AcDbLine
 10
-15.0
 20
48.64999999999997
 30
0.0
 11
-22.10540001676688
 21
48.64999999999997
 31
0.0
  0
LINE
  5
11E
330
E9
100
AcDbEntity
  8
AM_9
100
AcDbLine
 10
-36.154
 20
-42.26749606299219
 30
0.0
 11
-36.154
 21
-48.64999999999997
 31
0.0
  0
LWPOLYLINE
  5
11F
330
E9
100
AcDbEntity
  8
AM_9
100
AcDbPolyline
 90
        9
 70
     0
 43
0.0
 10
-22.10438059860258
 20
48.64999999999997
 10
-22.10439911520064
 20
48.64999844963518
 10
-22.16788184676771
 20
48.64472058049178
 10
-22.34072745611401
 20
48.63073005647274
 10
-22.62651933599991
 20
48.60881747504475
 10
-23.0073498545916
 20
48.58198672978489
 10
-23.48783872211106
 20
48.55200787559794
 10
-24.05150380373081
 20
48.52236583987739
 10
-24.2372524752763
 20
48.5139080497625
  0
LINE
  5
120
330
E9
100
AcDbEntity
  8
AM_9
100
AcDbLine
 10
22.40000000000001
 20
46.70400000000001
 30
0.0
 11
20.454
 21
48.65000000000001
 31
0.0
  0
LINE
  5
121
330
E9
100
AcDbEntity
  8
AM_9
100
AcDbLine
 10
20.454
 20
-48.65000000000001
 30
0.0
 11
22.40000000000001
 21
-46.70400000000001
 31
0.0
  0
LINE
  5
122
330
E9
100
AcDbEntity
  8
AM_9
100
AcDbLine
 10
22.40000000000001
 20
46.70400000000001
 30
0.0
 11
22.40000000000001
 21
-46.70400000000001
 31
0.0
  0
LINE
  5
123
330
E9
100
AcDbEntity
  8
AM_9
100
AcDbLine
 10
15.0
 20
-48.64999999999998
 30
0.0
 11
20.454
 21
-48.64999999999998
 31
0.0
  0
LINE
  5
124
330
E9
100
AcDbEntity
  8
AM_9
100
AcDbLine
 10
20.454
 20
48.64999999999998
 30
0.0
 11
15.0
 21
48.64999999999998
 31
0.0
  0
LINE
  5
125
330
E9
100
AcDbEntity
  8
AM_9
100
AcDbLine
 10
20.454
 20
48.64999999999998
 30
0.0
 11
20.454
 21
-48.64999999999998
 31
0.0
  0
LINE
  5
126
330
E9
100
AcDbEntity
  8
AM_9
100
AcDbLine
 10
-8.66
 20
-67.0
 30
0.0
 11
-4.659999999999997
 21
-67.0
 31
0.0
  0
LINE
  5
127
330
E9
100
AcDbEntity
  8
AM_9
100
AcDbLine
 10
-4.659999999999997
 20
67.0
 30
0.0
 11
-8.66
 21
67.0
 31
0.0
  0
LINE
  5
128
330
E9
100
AcDbEntity
  8
AM_9
100
AcDbLine
 10
15.0
 20
66.19090791667642
 30
0.0
 11
15.0
 21
-66.19090791667642
 31
0.0
  0
ARC
  5
129
330
E9
100
AcDbEntity
  8
AM_9
100
AcDbCircle
 10
13.80000000000003
 20
-66.19090791667644
 30
0.0
 40
1.199999999999968
100
AcDbArc
 50
291.412467046883
 51
0.0
  0
ARC
  5
12A
330
E9
100
AcDbEntity
  8
AM_9
100
AcDbCircle
 10
13.80000000000003
 20
66.19090791667644
 30
0.0
 40
1.199999999999966
100
AcDbArc
 50
0.0
 51
68.58753295311706
  0
LINE
  5
12B
330
E9
100
AcDbEntity
  8
AM_9
100
AcDbLine
 10
-15.00000000000001
 20
66.19090791667644
 30
0.0
 11
-15.00000000000001
 21
-66.19090791667644
 31
0.0
  0
ARC
  5
12C
330
E9
100
AcDbEntity
  8
AM_9
100
AcDbCircle
 10
-13.8
 20
-66.19090791667642
 30
0.0
 40
1.200000000000006
100
AcDbArc
 50
180.0
 51
248.5875329531164
  0
ARC
  5
12D
330
E9
100
AcDbEntity
  8
AM_9
100
AcDbCircle
 10
-13.8
 20
66.19090791667642
 30
0.0
 40
1.200000000000004
100
AcDbArc
 50
111.4124670468835
 51
180.0
  0
ARC
  5
12E
330
E9
100
AcDbEntity
  8
AM_9
100
AcDbCircle
 10
-0.0000000000023572
 20
-31.00000000000707
 30
0.0
 40
38.99999999999255
100
AcDbArc
 50
248.5875329531154
 51
257.1704567156229
  0
ARC
  5
12F
330
E9
100
AcDbEntity
  8
AM_9
100
AcDbCircle
 10
-0.0000000000009379
 20
31.00000000000245
 30
0.0
 40
38.99999999999737
100
AcDbArc
 50
102.8295432843776
 51
111.4124670468841
  0
LINE
  5
130
330
E9
100
AcDbEntity
  8
AM_9
100
AcDbLine
 10
-14.23809523809523
 20
67.30807959657092
 30
0.0
 11
-14.23809523809523
 21
-67.30807959657092
 31
0.0
  0
LINE
  5
131
330
E9
100
AcDbEntity
  8
AM_9
100
AcDbLine
 10
-8.66
 20
69.02636453830418
 30
0.0
 11
-8.66
 21
-69.02636453830418
 31
0.0
  0
LWPOLYLINE
  5
132
330
E9
100
AcDbEntity
  8
AM_9
100
AcDbPolyline
 90
       38
 70
     0
 43
0.0
 10
9.534515880230831
 20
-2.108042209502179
 10
9.853879298472155
 20
-1.725319950340491
 10
10.10671053377866
 20
-1.293722569305954
 10
10.2843207660898
 20
-0.8238757451104777
 10
10.38179542068555
 20
-0.3299940441563116
 10
10.3950912585306
 20
0.1660369059081382
 10
10.32710049130249
 20
0.6573299885268421
 10
10.18023691179228
 20
1.126308299389871
 10
9.959994499818736
 20
1.564106185940639
 10
9.668305609781795
 20
1.96294735310027
 10
9.316777885045546
 20
2.307804701312543
 10
8.904782860628783
 20
2.59499223249236
 10
8.451930752641694
 20
2.809526951578616
 10
7.959930264442661
 20
2.94698731908744
 10
7.451812244484793
 20
2.999552548518096
 10
6.937469130617621
 20
2.963815191967008
 10
6.435745682032494
 20
2.840812139209664
 10
5.964219168847877
 20
2.633741835233594
 10
5.533567518252094
 20
2.348708111084971
 10
5.16240907601767
 20
1.99781068739939
 10
4.854961160781482
 20
1.588325315188688
 10
4.624622273521036
 20
1.138148237662532
 10
4.472404221321886
 20
0.6551205665113046
 10
4.404478576287182
 20
0.1581345702146656
 10
4.419712505265221
 20
-0.3433459606978186
 10
4.51821593362211
 20
-0.8327792740914831
 10
4.695730505945139
 20
-1.298817348022535
 10
4.94855399789551
 20
-1.728771464202212
 10
5.267906211011504
 20
-2.110491903551563
 10
5.648526344071226
 20
-2.435284099479647
 10
6.076309493987723
 20
-2.692181911441532
 10
6.545875080735973
 20
-2.87554422590713
 10
7.038212054675826
 20
-2.978105015377754
 10
7.547329733246944
 20
-2.996090782471287
 10
8.05179888540654
 20
-2.928337107128002
 10
8.542444377740935
 20
-2.773628965141312
 10
9.0003337003711
 20
-2.537505083237576
 10
9.534515880230796
 20
-2.108042209502111
  0
ARC
  5
133
330
E9
100
AcDbEntity
  8
AM_9
100
AcDbCircle
 10
0.0000000000000066
 20
-31.00000000000014
 30
0.0
 40
38.99999999999986
100
AcDbArc
 50
263.1374928152928
 51
291.412467046884
  0
ARC
  5
134
330
E9
100
AcDbEntity
  8
AM_9
100
AcDbCircle
 10
0.0000000000000231
 20
31.00000000000026
 30
0.0
 40
38.99999999999974
100
AcDbArc
 50
68.58753295311583
 51
96.8625071847072
  0
LINE
  5
135
330
E9
100
AcDbEntity
  8
AM_9
100
AcDbLine
 10
-4.660000000000001
 20
69.72059400370816
 30
0.0
 11
-4.660000000000001
 21
-69.72059400370816
 31
0.0
  0
LINE
  5
136
330
E9
100
AcDbEntity
  8
AM_9
100
AcDbLine
 10
14.23809523809524
 20
67.30807959657092
 30
0.0
 11
14.23809523809524
 21
-67.30807959657092
 31
0.0
  0
LINE
  5
138
330
E9
100
AcDbEntity
  8
AM_5
100
AcDbLine
 10
-21.55
 20
37.5
 30
0.0
 11
-21.55
 21
48.64999999999997
 31
0.0
  0
LINE
  5
139
330
E9
100
AcDbEntity
  8
AM_5
100
AcDbLine
 10
-31.55
 20
37.5
 30
0.0
 11
-31.55
 21
48.64999999999997
 31
0.0
  0
LINE
  5
13C
330
E9
100
AcDbEntity
  8
AM_7
100
AcDbLine
 10
7.399999999999996
 20
-0.2863636363636492
 30
0.0
 11
7.399999999999996
 21
0.2863636363636402
 31
0.0
  0
LINE
  5
13D
330
E9
100
AcDbEntity
  8
AM_7
100
AcDbLine
 10
-26.55
 20
50.37194103511782
 30
0.0
 11
-26.55
 21
35.68561143178096
 31
0.0
  0
LWPOLYLINE
  5
13E
330
E9
100
AcDbEntity
  8
AM_4
100
AcDbPolyline
 90
        5
 70
     0
 43
0.0
 10
-28.08196594582792
 20
19.29490200039191
 10
-28.56393463663315
 20
19.09996488188681
 10
-29.15689082625334
 20
18.758155637559
 10
-29.66285018999968
 20
18.34309171765132
 10
-29.85241716547056
 20
18.14499029188954
  0
ELLIPSE
  5
13F
330
E9
100
AcDbEntity
  8
AM_4
100
AcDbEllipse
 10
-26.55
 20
20.45150377007572
 30
0.0
 11
4.187999999999992
 21
0.0
 31
0.0
210
0.0
220
0.0
230
1.0
 40
0.9063077870366489
 41
1.78463190288041
 42
4.261852605740816
  0
LINE
  5
140
330
E9
100
AcDbEntity
  8
AM_4
100
AcDbLine
 10
-38.09999999999999
 20
-46.70400000000002
 30
0.0
 11
-36.89425388127854
 21
-47.90974611872144
 31
0.0
  0
LINE
  5
141
330
E9
100
AcDbEntity
  8
AM_4
100
AcDbLine
 10
-36.154
 20
48.64999999999996
 30
0.0
 11
-38.09999999999999
 21
46.70400000000002
 31
0.0
  0
LINE
  5
142
330
E9
100
AcDbEntity
  8
AM_4
100
AcDbLine
 10
-38.09999999999999
 20
46.70400000000002
 30
0.0
 11
-38.09999999999999
 21
-46.70400000000002
 31
0.0
  0
LWPOLYLINE
  5
143
330
E9
100
AcDbEntity
  8
AM_4
100
AcDbPolyline
 90
       17
 70
     0
 43
0.0
 10
-28.38422038713264
 20
16.97942226834408
 10
-28.54057889087268
 20
17.04659644906213
 10
-29.20447504877852
 20
17.41486374433572
 10
-29.79083155008498
 20
17.88246206432922
 10
-30.2665675395094
 20
18.42073087531197
 10
-30.63402401703693
 20
19.02432952630803
 10
-30.86976986533374
 20
19.64667294002041
 10
-30.98494549220058
 20
20.29290265415973
 10
-30.97580430046427
 20
20.91913090300627
 10
-30.85100289283553
 20
21.53109435412128
 10
-30.6159408017936
 20
22.10640246899679
 10
-30.27947515597082
 20
22.63665674470056
 10
-29.83985362012957
 20
23.11918353077011
 10
-29.3184041725997
 20
23.53126293132307
 10
-28.70342292676172
 20
23.87579828851642
 10
-28.03299566559944
 20
24.12866782029109
 10
-27.42744416635378
 20
24.2683128648614
  0
LINE
  5
144
330
E9
100
AcDbEntity
  8
AM_4
100
AcDbLine
 10
-30.98063190470191
 20
48.64999999999997
 30
0.0
 11
-36.154
 21
48.64999999999997
 31
0.0
  0
LINE
  5
145
330
E9
100
AcDbEntity
  8
AM_4
100
AcDbLine
 10
-36.154
 20
48.64999999999997
 30
0.0
 11
-36.154
 21
-42.26749606299219
 31
0.0
  0
LWPOLYLINE
  5
146
330
E9
100
AcDbEntity
  8
AM_4
100
AcDbPolyline
 90
       14
 70
     0
 43
0.0
 10
-24.2372524752763
 20
48.5139080497625
 10
-24.69491782980642
 20
48.49584671334433
 10
-25.39554722046277
 20
48.47586684588009
 10
-26.14668756540786
 20
48.46477295793735
 10
-26.90776255730123
 20
48.464444205164
 10
-27.68029401742568
 20
48.47534362339935
 10
-28.40397020923485
 20
48.49580764785424
 10
-29.09453631590971
 20
48.52456276100431
 10
-29.68210268570038
 20
48.55610244080422
 10
-30.19407050430534
 20
48.58886730668831
 10
-30.56987864679199
 20
48.61603849493176
 10
-30.8392133676038
 20
48.63713159620048
 10
-30.97210622789273
 20
48.64803640973548
 10
-30.99561940139694
 20
48.64999999999992
  0
ENDBLK
  5
EC
330
E9
100
AcDbEntity
  8
0
100
AcDbBlockEnd
  0
BLOCK
  5
149
330
147
100
AcDbEntity
  8
0
100
AcDbBlockBegin
  2
4_125934H_0_in_125934_2
 70
     2
 10
0.0
 20
0.0
 30
0.0
  3
4_125934H_0_in_125934_2
  1

  0
ATTDEF
  5
14B
330
147
100
AcDbEntity
  8
AM_6
100
AcDbText
 10
46.91
 20
88.09999999999995
 30
0.0
 40
0.5
  1
P2B-SCM -M-Housing
100
AcDbAttributeDefinition
  3

  2
NN
 70
     8
280
     0
  0
ATTDEF
  5
14C
330
147
100
AcDbEntity
  8
AM_6
100
AcDbText
 10
46.91
 20
87.59999999999995
 30
0.0
 40
0.5
  1
SC Pillow Block Bearings -(Medium Duty)
100
AcDbAttributeDefinition
  3

  2
NT
 70
     8
280
     0
  0
ATTDEF
  5
14D
330
147
100
AcDbEntity
  8
AM_6
100
AcDbText
 10
46.91
 20
87.09999999999995
 30
0.0
 40
0.5
  1
125934H
100
AcDbAttributeDefinition
  3

  2
NB
 70
     8
280
     0
  0
ATTDEF
  5
14E
330
147
100
AcDbEntity
  8
AM_6
100
AcDbText
 10
46.91
 20
86.59999999999995
 30
0.0
 40
0.5
  1
$PN.H
100
AcDbAttributeDefinition
  3

  2
NBSYN
 70
     8
280
     0
  0
ATTDEF
  5
14F
330
147
100
AcDbEntity
  8
AM_6
100
AcDbText
 10
46.91
 20
86.09999999999995
 30
0.0
 40
0.5
  1
125934
100
AcDbAttributeDefinition
  3

  2
LINA
 70
     8
280
     0
  0
ATTDEF
  5
150
330
147
100
AcDbEntity
  8
AM_6
100
AcDbText
 10
46.91
 20
85.59999999999995
 30
0.0
 40
0.5
  1
216
100
AcDbAttributeDefinition
  3

  2
SERIES
 70
     8
280
     0
  0
ATTDEF
  5
151
330
147
100
AcDbEntity
  8
AM_6
100
AcDbText
 10
46.91
 20
85.09999999999995
 30
0.0
 40
0.5
  1
75
100
AcDbAttributeDefinition
  3

  2
SS
 70
     8
280
     0
  0
ATTDEF
  5
152
330
147
100
AcDbEntity
  8
AM_6
100
AcDbText
 10
46.91
 20
84.59999999999995
 30
0.0
 40
0.5
  1
125934
100
AcDbAttributeDefinition
  3

  2
PN
 70
     8
280
     0
  0
ATTDEF
  5
153
330
147
100
AcDbEntity
  8
AM_6
100
AcDbText
 10
46.91
 20
84.09999999999995
 30
0.0
 40
0.5
  1
P2B-SCM-75M
100
AcDbAttributeDefinition
  3

  2
DESCRIPTION
 70
     8
280
     0
  0
ATTDEF
  5
154
330
147
100
AcDbEntity
  8
AM_6
100
AcDbText
 10
46.91
 20
83.59999999999995
 30
0.0
 40
0.5
  1
1
100
AcDbAttributeDefinition
  3

  2
LF1
 70
     8
280
     0
  0
ATTDEF
  5
155
330
147
100
AcDbEntity
  8
AM_6
100
AcDbText
 10
46.91
 20
83.09999999999995
 30
0.0
 40
0.5
  1
60.5
100
AcDbAttributeDefinition
  3

  2
A
 70
     8
280
     0
  0
ATTDEF
  5
156
330
147
100
AcDbEntity
  8
AM_6
100
AcDbText
 10
46.91
 20
82.59999999999995
 30
0.0
 40
0.5
  1
298.5
100
AcDbAttributeDefinition
  3

  2
B
 70
     8
280
     0
  0
ATTDEF
  5
157
330
147
100
AcDbEntity
  8
AM_6
100
AcDbText
 10
46.91
 20
82.09999999999995
 30
0.0
 40
0.5
  1
76.2
100
AcDbAttributeDefinition
  3

  2
C
 70
     8
280
     0
  0
ATTDEF
  5
158
330
147
100
AcDbEntity
  8
AM_6
100
AcDbText
 10
46.91
 20
81.59999999999995
 30
0.0
 40
0.5
  1
215.9
100
AcDbAttributeDefinition
  3

  2
DMIN
 70
     8
280
     0
  0
ATTDEF
  5
159
330
147
100
AcDbEntity
  8
AM_6
100
AcDbText
 10
46.91
 20
81.09999999999995
 30
0.0
 40
0.5
  1
241.3
100
AcDbAttributeDefinition
  3

  2
DMAX
 70
     8
280
     0
  0
ATTDEF
  5
15A
330
147
100
AcDbEntity
  8
AM_6
100
AcDbText
 10
46.91
 20
80.59999999999995
 30
0.0
 40
0.5
  1
M22
100
AcDbAttributeDefinition
  3

  2
F
 70
     8
280
     0
  0
ATTDEF
  5
15B
330
147
100
AcDbEntity
  8
AM_6
100
AcDbText
 10
46.91
 20
80.09999999999995
 30
0.0
 40
0.5
  1
36.6
100
AcDbAttributeDefinition
  3

  2
G
 70
     8
280
     0
  0
ATTDEF
  5
15C
330
147
100
AcDbEntity
  8
AM_6
100
AcDbText
 10
46.91
 20
79.59999999999995
 30
0.0
 40
0.5
  1
31.8
100
AcDbAttributeDefinition
  3

  2
H
 70
     8
280
     0
  0
ATTDEF
  5
15D
330
147
100
AcDbEntity
  8
AM_6
100
AcDbText
 10
46.91
 20
79.09999999999995
 30
0.0
 40
0.5
  1
177.0
100
AcDbAttributeDefinition
  3

  2
J
 70
     8
280
     0
  0
ATTDEF
  5
15E
330
147
100
AcDbEntity
  8
AM_6
100
AcDbText
 10
46.91
 20
78.59999999999995
 30
0.0
 40
0.5
  1
97.3
100
AcDbAttributeDefinition
  3

  2
L
 70
     8
280
     0
  0
ATTDEF
  5
15F
330
147
100
AcDbEntity
  8
AM_6
100
AcDbText
 10
46.91
 20
78.09999999999995
 30
0.0
 40
0.5
  1
88.9
100
AcDbAttributeDefinition
  3

  2
M
 70
     8
280
     0
  0
ATTDEF
  5
160
330
147
100
AcDbEntity
  8
AM_6
100
AcDbText
 10
46.91
 20
77.59999999999995
 30
0.0
 40
0.5
  1
22.4
100
AcDbAttributeDefinition
  3

  2
R
 70
     8
280
     0
  0
ATTDEF
  5
161
330
147
100
AcDbEntity
  8
AM_6
100
AcDbText
 10
46.91
 20
77.09999999999995
 30
0.0
 40
0.5
  1
38.1
100
AcDbAttributeDefinition
  3

  2
S
 70
     8
280
     0
  0
ATTDEF
  5
162
330
147
100
AcDbEntity
  8
AM_6
100
AcDbText
 10
46.91
 20
76.59999999999995
 30
0.0
 40
0.5
  1
139.7
100
AcDbAttributeDefinition
  3

  2
U
 70
     8
280
     0
  0
ATTDEF
  5
163
330
147
100
AcDbEntity
  8
AM_6
100
AcDbText
 10
46.91
 20
76.09999999999995
 30
0.0
 40
0.5
  1
279.4
100
AcDbAttributeDefinition
  3

  2
V
 70
     8
280
     0
  0
ATTDEF
  5
164
330
147
100
AcDbEntity
  8
AM_6
100
AcDbText
 10
46.91
 20
75.59999999999995
 30
0.0
 40
0.5
  1
27.7
100
AcDbAttributeDefinition
  3

  2
W
 70
     8
280
     0
  0
ATTDEF
  5
165
330
147
100
AcDbEntity
  8
AM_6
100
AcDbText
 10
46.91
 20
75.09999999999995
 30
0.0
 40
0.5
  1
3.0
100
AcDbAttributeDefinition
  3

  2
X
 70
     8
280
     0
  0
ATTDEF
  5
166
330
147
100
AcDbEntity
  8
AM_6
100
AcDbText
 10
46.91
 20
74.59999999999995
 30
0.0
 40
0.5
  1
baldor
100
AcDbAttributeDefinition
  3

  2
COMPANY
 70
     8
280
     0
  0
LINE
  5
167
330
147
100
AcDbEntity
  8
AM_9
100
AcDbLine
 10
-19.05
 20
-84.91500000000002
 30
0.0
 11
19.05
 21
-84.91500000000002
 31
0.0
  0
LINE
  5
168
330
147
100
AcDbEntity
  8
AM_9
100
AcDbLine
 10
-19.05
 20
-70.01969765322517
 30
0.0
 11
19.05
 21
-70.01969765322517
 31
0.0
  0
LINE
  5
169
330
147
100
AcDbEntity
  8
AM_9
100
AcDbLine
 10
-19.05
 20
-71.9125716027847
 30
0.0
 11
19.05
 21
-71.9125716027847
 31
0.0
  0
LINE
  5
16A
330
147
100
AcDbEntity
  8
AM_9
100
AcDbLine
 10
19.05
 20
-69.47791829122139
 30
0.0
 11
-19.05
 21
-69.47791829122139
 31
0.0
  0
LINE
  5
16B
330
147
100
AcDbEntity
  8
AM_9
100
AcDbLine
 10
-11.43
 20
37.50000000000005
 30
0.0
 11
25.68863636363636
 21
37.50000000000005
 31
0.0
  0
LINE
  5
16C
330
147
100
AcDbEntity
  8
AM_9
100
AcDbLine
 10
-11.43
 20
-37.50000000000001
 30
0.0
 11
30.48
 21
-37.50000000000001
 31
0.0
  0
ELLIPSE
  5
16D
330
147
100
AcDbEntity
  8
AM_9
100
AcDbEllipse
 10
0.0000000000001048
 20
58.76057351660225
 30
0.0
 11
2.750000000000117
 21
4.097819328308281E-8
 31
0.0
210
0.0
220
0.0
230
1.0
 40
0.7071067811865333
 41
2.865199612716484
 42
3.141592638688632
  0
LINE
  5
16E
330
147
100
AcDbEntity
  8
AM_9
100
AcDbLine
 10
2.750000000000018
 20
58.76057351660208
 30
0.0
 11
2.750000000000019
 21
62.29605901075249
 31
0.0
  0
LINE
  5
16F
330
147
100
AcDbEntity
  8
AM_9
100
AcDbLine
 10
-2.750000000000011
 20
62.29591405197702
 30
0.0
 11
-2.750000000000011
 21
58.76057351660208
 31
0.0
  0
LWPOLYLINE
  5
170
330
147
100
AcDbEntity
  8
AM_9
100
AcDbPolyline
 90
       20
 70
     0
 43
0.0
 10
-2.749999987095966
 20
62.29629579986086
 10
-2.731578298962092
 20
62.07100238322287
 10
-2.639254487630945
 20
61.74812816750477
 10
-2.472611873879903
 20
61.43920866790467
 10
-2.235323166038087
 20
61.15348676649905
 10
-1.935077770104684
 20
60.89912269622354
 10
-1.579397869792305
 20
60.68415631693289
 10
-1.179183917015386
 20
60.51462853875108
 10
-0.7452355958252127
 20
60.39641502709212
 10
-0.2902605325195296
 20
60.33240772160184
 10
0.1728254431319811
 20
60.32537963242645
 10
0.6310381700582623
 20
60.37469417668189
 10
1.071124051542689
 20
60.47960252252837
 10
1.48103227621871
 20
60.63610622507794
 10
1.848755649393396
 20
60.84019144075034
 10
2.16438728449103
 20
61.08498877410936
 10
2.418259170582175
 20
61.36375202774814
 10
2.603952580322233
 20
61.66769705830557
 10
2.7151760765145
 20
61.98809798854085
 10
2.749999995070755
 20
62.29622385066713
  0
LWPOLYLINE
  5
171
330
147
100
AcDbEntity
  8
AM_9
100
AcDbPolyline
 90
       11
 70
     0
 43
0.0
 10
2.749999995070755
 20
62.29622385066713
 10
2.74986228930487
 20
62.31556446860782
 10
2.705971882248325
 20
62.64060358459226
 10
2.585868956076542
 20
62.95432596333328
 10
2.391919246875434
 20
63.24780516975522
 10
2.130616337446742
 20
63.51340024887969
 10
1.808325894828989
 20
63.74362499093716
 10
1.435065880644064
 20
63.93279666706758
 10
1.020694012496615
 20
64.07537399852983
 10
0.5775251853228967
 20
64.16826936007747
 10
0.0000000000000037
 20
64.2102946675834
  0
ELLIPSE
  5
172
330
147
100
AcDbEntity
  8
AM_9
100
AcDbEllipse
 10
0.0000000000000033
 20
58.76057351660208
 30
0.0
 11
2.750000000000022
 21
0.0
 31
0.0
210
0.0
220
0.0
230
1.0
 40
0.7071067811865475
 41
3.141592653589793
 42
6.559909883028892
  0
ELLIPSE
  5
173
330
147
100
AcDbEntity
  8
AM_9
100
AcDbEllipse
 10
0.000000000000011
 20
58.76057351660212
 30
0.0
 11
2.749999999999952
 21
0.0
 31
0.0
210
0.0
220
0.0
230
1.0
 40
0.7071067811865475
 41
0.2767245758492862
 42
2.865199633005197
  0
LINE
  5
174
330
147
100
AcDbEntity
  8
AM_9
100
AcDbLine
 10
-30.48
 20
-70.0
 30
0.0
 11
30.48
 21
-70.0
 31
0.0
  0
LINE
  5
175
330
147
100
AcDbEntity
  8
AM_9
100
AcDbLine
 10
21.42469008264464
 20
70.0
 30
0.0
 11
-21.42469008264463
 21
70.0
 31
0.0
  0
LINE
  5
176
330
147
100
AcDbEntity
  8
AM_9
100
AcDbLine
 10
-11.43
 20
-37.50000000000001
 30
0.0
 11
-11.43
 21
37.50000000000005
 31
0.0
  0
LINE
  5
177
330
147
100
AcDbEntity
  8
AM_9
100
AcDbLine
 10
34.10857142857116
 20
-26.67714285713869
 30
0.0
 11
34.10857142857139
 21
-88.10500000000002
 31
0.0
  0
LINE
  5
178
330
147
100
AcDbEntity
  8
AM_9
100
AcDbLine
 10
30.48
 20
-22.84836438570692
 30
0.0
 11
30.48
 21
-74.58999999999999
 31
0.0
  0
LWPOLYLINE
  5
179
330
147
100
AcDbEntity
  8
AM_9
100
AcDbPolyline
 90
        7
 70
     0
 43
0.0
 10
30.48
 20
-22.84836438570692
 10
30.52053552039865
 20
-21.11642850911818
 10
30.63200473359844
 20
-19.37065050802831
 10
30.80262388294937
 20
-17.60805237022051
 10
31.02214287680139
 20
-15.83739121592023
 10
31.4477618794607
 20
-13.03713239154366
 10
31.94983596394625
 20
-10.22315915826744
  0
LINE
  5
17A
330
147
100
AcDbEntity
  8
AM_9
100
AcDbLine
 10
-34.10857142857142
 20
-88.10500000000002
 30
0.0
 11
-19.05
 21
-88.10500000000003
 31
0.0
  0
LINE
  5
17B
330
147
100
AcDbEntity
  8
AM_9
100
AcDbLine
 10
-30.50783340898235
 20
-84.925
 30
0.0
 11
-19.05
 21
-84.92500000000001
 31
0.0
  0
LINE
  5
17C
330
147
100
AcDbEntity
  8
AM_9
100
AcDbLine
 10
19.05
 20
-88.10500000000003
 30
0.0
 11
34.10857142857139
 21
-88.10500000000002
 31
0.0
  0
LINE
  5
17D
330
147
100
AcDbEntity
  8
AM_9
100
AcDbLine
 10
19.05
 20
-84.92500000000001
 30
0.0
 11
30.50783340898234
 21
-84.925
 31
0.0
  0
LWPOLYLINE
  5
17E
330
147
100
AcDbEntity
  8
AM_9
100
AcDbPolyline
 90
       11
 70
     0
 43
0.0
 10
34.10857142857139
 20
-88.10500000000002
 10
34.09977639111064
 20
-88.09676652119656
 10
33.27646788487495
 20
-87.32676806483508
 10
32.61043604875015
 20
-86.70714552911062
 10
31.96032576056244
 20
-86.10922105248149
 10
31.53576552461023
 20
-85.7260196803388
 10
31.14573055426671
 20
-85.3842654844574
 10
30.92433926214384
 20
-85.19898692373657
 10
30.73589116808875
 20
-85.05205995039537
 10
30.59653142404749
 20
-84.9589786738002
 10
30.50783340898233
 20
-84.92500000000001
  0
LWPOLYLINE
  5
17F
330
147
100
AcDbEntity
  8
AM_9
100
AcDbPolyline
 90
       11
 70
     0
 43
0.0
 10
-30.50783340898235
 20
-84.92500000000001
 10
-30.59491873149913
 20
-84.95821361777297
 10
-30.73589116808876
 20
-85.05205995039537
 10
-30.92219083694745
 20
-85.19725016083257
 10
-31.14573055426671
 20
-85.3842654844574
 10
-31.53042515753904
 20
-85.72122679374488
 10
-31.96032576056244
 20
-86.10922105248149
 10
-32.60162902938445
 20
-86.6989395731278
 10
-33.27646788487494
 20
-87.32676806483506
 10
-34.09977639111057
 20
-88.09676652119659
 10
-34.10857142857142
 20
-88.10500000000003
  0
LINE
  5
180
330
147
100
AcDbEntity
  8
AM_9
100
AcDbLine
 10
-34.10857142857142
 20
-26.6771428571429
 30
0.0
 11
-34.10857142857142
 21
-88.10500000000002
 31
0.0
  0
LINE
  5
181
330
147
100
AcDbEntity
  8
AM_9
100
AcDbLine
 10
-30.48
 20
0.9799999999999948
 30
0.0
 11
-30.48
 21
-74.59000000000002
 31
0.0
  0
LINE
  5
182
330
147
100
AcDbEntity
  8
AM_9
100
AcDbLine
 10
34.47142857142853
 20
-29.44285714285676
 30
0.0
 11
34.47142857142853
 21
-88.9
 31
0.0
  0
LINE
  5
183
330
147
100
AcDbEntity
  8
AM_9
100
AcDbLine
 10
-34.47142857142858
 20
-29.44285714285725
 30
0.0
 11
-34.47142857142858
 21
-88.9
 31
0.0
  0
LWPOLYLINE
  5
184
330
147
100
AcDbEntity
  8
AM_9
100
AcDbPolyline
 90
       11
 70
     0
 43
0.0
 10
0.0000000000000037
 20
64.2102946675834
 10
-0.4615132454621461
 20
64.18338353474034
 10
-0.9100141718495273
 20
64.10406556958968
 10
-1.332494535338101
 20
63.97368684946368
 10
-1.717428061635352
 20
63.79629934293397
 10
-2.053395512446468
 20
63.57584385889447
 10
-2.331493843621615
 20
63.31874567964081
 10
-2.542998780907026
 20
63.03134612017483
 10
-2.682803651064074
 20
62.7218803398974
 10
-2.745882843742105
 20
62.39872838627328
 10
-2.749999987095966
 20
62.29629579986086
  0
LINE
  5
185
330
147
100
AcDbEntity
  8
AM_9
100
AcDbLine
 10
-19.05
 20
-77.21644127599238
 30
0.0
 11
19.05
 21
-77.21644127599238
 31
0.0
  0
LINE
  5
186
330
147
100
AcDbEntity
  8
AM_9
100
AcDbLine
 10
19.05000000000001
 20
-88.9
 30
0.0
 11
19.05
 21
-69.47791829122139
 31
0.0
  0
LINE
  5
187
330
147
100
AcDbEntity
  8
AM_9
100
AcDbLine
 10
-19.04999999999999
 20
-88.9
 30
0.0
 11
-19.05
 21
-69.47791829122139
 31
0.0
  0
LINE
  5
188
330
147
100
AcDbEntity
  8
AM_9
100
AcDbLine
 10
-11.89999999999999
 20
-57.1
 30
0.0
 11
-11.89999999999999
 21
-78.30000000000001
 31
0.0
  0
LINE
  5
189
330
147
100
AcDbEntity
  8
AM_9
100
AcDbLine
 10
11.90000000000001
 20
-57.1
 30
0.0
 11
11.90000000000001
 21
-78.30000000000001
 31
0.0
  0
LINE
  5
18A
330
147
100
AcDbEntity
  8
AM_9
100
AcDbLine
 10
-19.04999999999999
 20
-78.30000000000003
 30
0.0
 11
19.05000000000001
 21
-78.30000000000003
 31
0.0
  0
LINE
  5
18B
330
147
100
AcDbEntity
  8
AM_9
100
AcDbLine
 10
-19.04999999999999
 20
-84.66000000000001
 30
0.0
 11
19.05000000000001
 21
-84.66000000000001
 31
0.0
  0
LWPOLYLINE
  5
18C
330
147
100
AcDbEntity
  8
AM_9
100
AcDbPolyline
 90
       15
 70
     0
 43
0.0
 10
10.53178047625377
 20
-78.30000000000003
 10
10.21134152201135
 20
-78.32564113000542
 10
9.858912858975437
 20
-78.40014953308297
 10
9.05599764226997
 20
-78.68529859200946
 10
8.508805012262485
 20
-78.93940006331758
 10
7.92962219370541
 20
-79.24332673005405
 10
7.314533875494926
 20
-79.59506751197877
 10
6.675980818714901
 20
-79.98396727984367
 10
5.779975727541786
 20
-80.55994796137941
 10
4.853611683347256
 20
-81.18265870157246
 10
3.889587399556033
 20
-81.85165465597116
 10
2.906162730532405
 20
-82.54968296608148
 10
1.474020905052818
 20
-83.58421291044836
 10
0.0176127271205798
 20
-84.64712398185091
 10
0.0000000000000202
 20
-84.66000000000003
  0
LWPOLYLINE
  5
18D
330
147
100
AcDbEntity
  8
AM_9
100
AcDbPolyline
 90
       15
 70
     0
 43
0.0
 10
0.0000000000000046
 20
-84.66000000000001
 10
-0.0176127271206356
 20
-84.64712398185104
 10
-1.459414428117891
 20
-83.5948374281391
 10
-2.906162730532443
 20
-82.54968296608143
 10
-3.861350330145189
 20
-81.87148063008607
 10
-4.803662201907891
 20
-81.21685722756622
 10
-5.752133919529976
 20
-80.57825578145203
 10
-6.675980818714938
 20
-79.98396727984364
 10
-7.296447558434415
 20
-79.60576414305395
 10
-7.898130824936318
 20
-79.26068279071781
 10
-8.491559507679323
 20
-78.94797034971677
 10
-9.055997642269954
 20
-78.68529859200946
 10
-9.836237095420262
 20
-78.40624436316817
 10
-10.19938565786813
 20
-78.3275101601448
 10
-10.53178047625376
 20
-78.30000000000003
  0
LINE
  5
18E
330
147
100
AcDbEntity
  8
AM_9
100
AcDbLine
 10
-29.19999999999999
 20
-58.68750000000001
 30
0.0
 11
-26.19999999999999
 21
-58.68750000000001
 31
0.0
  0
LINE
  5
18F
330
147
100
AcDbEntity
  8
AM_9
100
AcDbLine
 10
-29.19999999999999
 20
-57.1
 30
0.0
 11
-29.19999999999999
 21
-58.68750000000001
 31
0.0
  0
LINE
  5
190
330
147
100
AcDbEntity
  8
AM_9
100
AcDbLine
 10
-26.19999999999999
 20
-58.68750000000001
 30
0.0
 11
-26.19999999999999
 21
-57.1
 31
0.0
  0
LINE
  5
191
330
147
100
AcDbEntity
  8
AM_7
100
AcDbLine
 10
41.91
 20
0.0
 30
0.0
 11
-41.91
 21
0.0
 31
0.0
  0
LINE
  5
192
330
147
100
AcDbEntity
  8
AM_7
100
AcDbLine
 10
-27.70000000000001
 20
-58.84625
 30
0.0
 11
-27.70000000000001
 21
-55.35375000000001
 31
0.0
  0
LINE
  5
193
330
147
100
AcDbEntity
  8
AM_4
100
AcDbLine
 10
38.10000000000001
 20
-57.10000000000004
 30
0.0
 11
19.05
 21
88.09999999999995
 31
0.0
  0
LINE
  5
194
330
147
100
AcDbEntity
  8
AM_4
100
AcDbLine
 10
19.05000000000001
 20
88.09999999999995
 30
0.0
 11
-19.05000000000001
 21
88.09999999999995
 31
0.0
  0
LINE
  5
195
330
147
100
AcDbEntity
  8
AM_4
100
AcDbLine
 10
-19.05
 20
88.09999999999995
 30
0.0
 11
-38.09999999999999
 21
-57.10000000000003
 31
0.0
  0
LWPOLYLINE
  5
196
330
147
100
AcDbEntity
  8
AM_4
100
AcDbPolyline
 90
       35
 70
     0
 43
0.0
 10
20.05672688390008
 20
24.21288208700614
 10
19.12827254140353
 20
26.76029206842461
 10
18.04212971458816
 20
29.22596570848046
 10
17.20269948978174
 20
30.84875036874209
 10
16.27450351419798
 20
32.41825887513593
 10
15.25267529188364
 20
33.92301445274999
 10
14.18329348137062
 20
35.29088982820601
 10
13.01741854622224
 20
36.58079941239882
 10
11.72156204358404
 20
37.80595671554047
 10
10.31871992365319
 20
38.92179346318947
 10
9.158076610923786
 20
39.70047908520624
 10
7.93525660704988
 20
40.39522314562212
 10
6.618698964530973
 20
41.01183681069475
 10
5.246536760787087
 20
41.52188102426975
 10
3.860988021277936
 20
41.90838237699089
 10
2.440640416445776
 20
42.17849535953187
 10
0.9404787552648648
 20
42.32966827259043
 10
-0.5693711161155839
 20
42.34656613503821
 10
-1.825616168005933
 20
42.25684578202426
 10
-3.068843384947479
 20
42.07453473985581
 10
-4.32552522218953
 20
41.79268194786118
 10
-5.551580866610006
 20
41.41973769285624
 10
-6.716182962504697
 20
40.97064730965773
 10
-7.839811732800683
 20
40.44436423607429
 10
-8.941025371661908
 20
39.83287560878095
 10
-9.992809331955778
 20
39.1529350696508
 10
-11.45963163057072
 20
38.02989933122982
 10
-12.81301351484319
 20
36.78776632392467
 10
-14.08728103632827
 20
35.40455829927384
 10
-15.24832531792619
 20
33.92898147187565
 10
-16.24914729579853
 20
32.45824161163966
 10
-17.16023391001423
 20
30.92535449293366
 10
-17.98612593385544
 20
29.3411180288027
 10
-19.10430002762372
 20
26.82007402875803
 10
-20.05672688390007
 20
24.21288208700613
  0
LINE
  5
197
330
147
100
AcDbEntity
  8
AM_4
100
AcDbLine
 10
20.0567268839001
 20
24.21288208700616
 30
0.0
 11
27.43188427164279
 21
24.21288208700616
 31
0.0
  0
LWPOLYLINE
  5
198
330
147
100
AcDbEntity
  8
AM_4
100
AcDbPolyline
 90
       11
 70
     0
 43
0.0
 10
30.70000000000001
 20
-57.10000000000002
 10
30.5831772314166
 20
-47.73927835627017
 10
30.2335980174748
 20
-38.44979745640737
 10
29.65392286707441
 20
-29.30225585920148
 10
28.8485634581274
 20
-20.3662718796439
 10
27.82364906202517
 20
-11.70985375151371
 10
26.58697989618228
 20
-3.398882043654149
 10
25.14796775967206
 20
4.503391730936064
 10
23.51756440375265
 20
11.93682649730891
 10
21.70817818242703
 20
18.84484932846167
 10
20.05672688390009
 20
24.21288208700616
  0
LINE
  5
199
330
147
100
AcDbEntity
  8
AM_4
100
AcDbLine
 10
-27.43188427164278
 20
24.21288208700616
 30
0.0
 11
-20.05672688390009
 21
24.21288208700614
 31
0.0
  0
LWPOLYLINE
  5
19A
330
147
100
AcDbEntity
  8
AM_4
100
AcDbPolyline
 90
       11
 70
     0
 43
0.0
 10
-20.05672688390008
 20
24.21288208700617
 10
-22.00612964666235
 20
17.78797545992465
 10
-23.78805247514915
 20
10.79312612099721
 10
-25.38893386068126
 20
3.281569097298577
 10
-26.79659012927618
 20
-4.689528126618749
 10
-28.0003081667638
 20
-13.05950068780066
 10
-28.99092695205402
 20
-21.76464804112896
 10
-29.76090727803882
 20
-30.73871875893313
 10
-30.30438912951059
 20
-39.91341474435863
 10
-30.61723628141635
 20
-49.21891102112347
 10
-30.7
 20
-57.10000000000004
  0
LINE
  5
19B
330
147
100
AcDbEntity
  8
AM_4
100
AcDbLine
 10
-38.09999999999999
 20
-63.61794472273962
 30
0.0
 11
-30.7
 21
-63.61794472273962
 31
0.0
  0
LINE
  5
19C
330
147
100
AcDbEntity
  8
AM_4
100
AcDbLine
 10
30.70000000000001
 20
-63.61794472273962
 30
0.0
 11
38.10000000000001
 21
-63.61794472273962
 31
0.0
  0
LINE
  5
19D
330
147
100
AcDbEntity
  8
AM_4
100
AcDbLine
 10
-30.7
 20
-57.1
 30
0.0
 11
30.70000000000001
 21
-57.1
 31
0.0
  0
LINE
  5
19E
330
147
100
AcDbEntity
  8
AM_4
100
AcDbLine
 10
-30.7
 20
-57.1
 30
0.0
 11
-30.7
 21
-68.23
 31
0.0
  0
LINE
  5
19F
330
147
100
AcDbEntity
  8
AM_4
100
AcDbLine
 10
-38.09999999999999
 20
-68.23
 30
0.0
 11
-28.49999570815377
 21
-68.23
 31
0.0
  0
LWPOLYLINE
  5
1A0
330
147
100
AcDbEntity
  8
AM_4
100
AcDbPolyline
 90
       15
 70
     0
 43
0.0
 10
-28.49999570815377
 20
-68.22999999999999
 10
-28.04853865692973
 20
-68.26433325559842
 10
-27.56310845609843
 20
-68.36176809324233
 10
-27.02943298413444
 20
-68.52092686671476
 10
-26.4690333941811
 20
-68.73123735877374
 10
-25.74876168973446
 20
-69.0494960011152
 10
-25.00075377498525
 20
-69.42252320204145
 10
-24.20904997138618
 20
-69.85232821185014
 10
-23.39833634256596
 20
-70.3207856387509
 10
-22.26061841428386
 20
-71.01389106118525
 10
-21.10175689052154
 20
-71.75109213232004
 10
-19.89493148308991
 20
-72.54168161617383
 10
-18.67751032563694
 20
-73.35479884948377
 10
-16.86948483139721
 20
-74.57679616171639
 10
-16.84999999999997
 20
-74.59000000000007
  0
LINE
  5
1A1
330
147
100
AcDbEntity
  8
AM_4
100
AcDbLine
 10
28.49999570815379
 20
-68.23
 30
0.0
 11
38.10000000000001
 21
-68.22999999999999
 31
0.0
  0
LWPOLYLINE
  5
1A2
330
147
100
AcDbEntity
  8
AM_4
100
AcDbPolyline
 90
       15
 70
     0
 43
0.0
 10
16.85000000000001
 20
-74.59000000000007
 10
16.86948483139481
 20
-74.57679616171272
 10
18.67751032563692
 20
-73.35479884948377
 10
19.86293930680826
 20
-72.5628847383675
 10
21.03845146492305
 20
-71.79206033677349
 10
22.22945682547424
 20
-71.03334536888988
 10
23.39833634256598
 20
-70.3207856387509
 10
24.18861245233129
 20
-69.86382079706513
 10
24.96094207644292
 20
-69.44336070491975
 10
25.72951504814806
 20
-69.05860301741157
 10
26.46903339418112
 20
-68.73123735877374
 10
27.01130952907761
 20
-68.52710454974219
 10
27.52874045233228
 20
-68.37055357354242
 10
28.03244932648363
 20
-68.26667723873969
 10
28.49999570815379
 20
-68.22999999999999
  0
LINE
  5
1A3
330
147
100
AcDbEntity
  8
AM_4
100
AcDbLine
 10
30.70000000000001
 20
-57.1
 30
0.0
 11
30.70000000000001
 21
-68.23
 31
0.0
  0
LINE
  5
1A4
330
147
100
AcDbEntity
  8
AM_4
100
AcDbLine
 10
16.85000000000001
 20
-74.59000000000007
 30
0.0
 11
30.48
 21
-74.59000000000002
 31
0.0
  0
LINE
  5
1A5
330
147
100
AcDbEntity
  8
AM_4
100
AcDbLine
 10
16.85000000000001
 20
-57.1
 30
0.0
 11
16.85000000000001
 21
-74.59000000000007
 31
0.0
  0
LINE
  5
1A6
330
147
100
AcDbEntity
  8
AM_4
100
AcDbLine
 10
-16.84999979361888
 20
-57.1
 30
0.0
 11
-16.84999979361888
 21
-74.59000000000007
 31
0.0
  0
LINE
  5
1A7
330
147
100
AcDbEntity
  8
AM_4
100
AcDbLine
 10
-30.48000000000001
 20
-74.59000000000002
 30
0.0
 11
-16.84999979361888
 21
-74.59000000000007
 31
0.0
  0
LINE
  5
1A8
330
147
100
AcDbEntity
  8
AM_4
100
AcDbLine
 10
-38.10000000000002
 20
-88.9
 30
0.0
 11
38.10000000000001
 21
-88.9
 31
0.0
  0
LINE
  5
1A9
330
147
100
AcDbEntity
  8
AM_4
100
AcDbLine
 10
30.48
 20
-74.59000000000002
 30
0.0
 11
30.48
 21
-88.9
 31
0.0
  0
LINE
  5
1AA
330
147
100
AcDbEntity
  8
AM_4
100
AcDbLine
 10
38.10000000000001
 20
-57.10000000000004
 30
0.0
 11
38.10000000000001
 21
-88.9
 31
0.0
  0
LWPOLYLINE
  5
1AB
330
147
100
AcDbEntity
  8
AM_4
100
AcDbPolyline
 90
       19
 70
     0
 43
0.0
 10
30.48000000000001
 20
-74.59000000000007
 10
30.5042017201365
 20
-74.03568947612496
 10
30.57662269084236
 20
-73.48559759003838
 10
30.69671174480153
 20
-72.94391087314803
 10
30.86355493180163
 20
-72.41475188844879
 10
31.07588247444692
 20
-71.90214785532919
 10
31.33207843193099
 20
-71.41000000000003
 10
31.63019299832204
 20
-70.94205386480736
 10
31.96795734176332
 20
-70.50187080239363
 10
32.34280087165359
 20
-70.09280087165358
 10
32.75187080239365
 20
-69.71795734176331
 10
33.19205386480739
 20
-69.38019299832202
 10
33.66000000000005
 20
-69.08207843193097
 10
34.15214785532921
 20
-68.8258824744469
 10
34.66475188844881
 20
-68.61355493180162
 10
35.19391087314804
 20
-68.44671174480152
 10
35.7355975900384
 20
-68.32662269084234
 10
36.28568947612499
 20
-68.25420172013648
 10
36.8400000000001
 20
-68.22999999999999
  0
LINE
  5
1AC
330
147
100
AcDbEntity
  8
AM_4
100
AcDbLine
 10
-38.09999999999999
 20
-57.10000000000003
 30
0.0
 11
-38.10000000000002
 21
-88.9
 31
0.0
  0
LINE
  5
1AD
330
147
100
AcDbEntity
  8
AM_4
100
AcDbLine
 10
-30.48000000000001
 20
-74.59000000000002
 30
0.0
 11
-30.48000000000001
 21
-88.9
 31
0.0
  0
LWPOLYLINE
  5
1AE
330
147
100
AcDbEntity
  8
AM_4
100
AcDbPolyline
 90
       19
 70
     0
 43
0.0
 10
-36.84000000000011
 20
-68.22999999999999
 10
-36.28568947612499
 20
-68.25420172013648
 10
-35.73559759003842
 20
-68.32662269084234
 10
-35.19391087314806
 20
-68.44671174480152
 10
-34.66475188844883
 20
-68.61355493180162
 10
-34.15214785532923
 20
-68.8258824744469
 10
-33.66000000000007
 20
-69.08207843193097
 10
-33.19205386480741
 20
-69.38019299832202
 10
-32.75187080239366
 20
-69.71795734176331
 10
-32.3428008716536
 20
-70.09280087165357
 10
-31.96795734176334
 20
-70.50187080239361
 10
-31.63019299832204
 20
-70.94205386480736
 10
-31.332078431931
 20
-71.41000000000003
 10
-31.07588247444693
 20
-71.90214785532918
 10
-30.86355493180164
 20
-72.41475188844879
 10
-30.69671174480154
 20
-72.94391087314801
 10
-30.57662269084237
 20
-73.48559759003838
 10
-30.50420172013651
 20
-74.03568947612494
 10
-30.48000000000001
 20
-74.59000000000006
  0
ENDBLK
  5
14A
330
147
100
AcDbEntity
  8
0
100
AcDbBlockEnd
  0
ENDSEC
  0
SECTION
  2
ENTITIES
  0
INSERT
  5
6F
330
1F
100
AcDbEntity
  8
0
100
AcDbBlockReference
  2
1_125934_2
 10
0.0
 20
0.0
 30
0.0
  0
POINT
  5
1B0
330
1F
100
AcDbEntity
  8
ConnectionPoints
100
AcDbPoint
 10
-38.1
 20
0.0
 30
0.0000000000000023
  0
POINT
  5
1B1
330
1F
100
AcDbEntity
  8
ConnectionPoints
100
AcDbPoint
 10
0.0000000000000038
 20
62.29610742253482
 30
62.29610742253484
  0
POINT
  5
1B2
330
1F
100
AcDbEntity
  8
ConnectionPoints
100
AcDbPoint
 10
-38.1
 20
0.0
 30
0.0000000000000023
  0
ENDSEC
  0
SECTION
  2
OBJECTS
  0
DICTIONARY
  5
C
330
0
100
AcDbDictionary
281
     1
  3
ACAD_DETAILVIEWSTYLE
350
1BA
  3
ACAD_GROUP
350
D
  3
ACAD_LAYOUT
350
1A
  3
ACAD_MATERIAL
350
43
  3
ACAD_MLEADERSTYLE
350
6B
  3
ACAD_MLINESTYLE
350
17
  3
ACAD_PLOTSETTINGS
350
19
  3
ACAD_PLOTSTYLENAME
350
E
  3
ACAD_SCALELIST
350
47
  3
ACAD_SECTIONVIEWSTYLE
350
1BB
  3
ACAD_TABLESTYLE
350
69
  3
ACAD_VISUALSTYLE
350
2A
  3
ACDB_RECOMPOSE_DATA
350
1B7
  3
AcDbVariableDictionary
350
1B3
  0
SUN
  5
6D
330
29
100
AcDbSun
 90
        1
290
     0
 63
     7
421
 16777215
 40
1.0
291
     1
 91
  2455826
 92
 54000000
292
     0
 70
     2
 71
   256
280
     1
  0
DICTIONARY
  5
1BA
102
{ACAD_REACTORS
330
C
102
}
330
C
100
AcDbDictionary
281
     1
  0
DICTIONARY
  5
D
102
{ACAD_REACTORS
330
C
102
}
330
C
100
AcDbDictionary
281
     1
  0
DICTIONARY
  5
1A
102
{ACAD_REACTORS
330
C
102
}
330
C
100
AcDbDictionary
281
     1
  3
Layout1
350
1E
  3
Layout2
350
26
  3
Model
350
22
  0
DICTIONARY
  5
43
102
{ACAD_REACTORS
330
C
102
}
330
C
100
AcDbDictionary
281
     1
  3
ByBlock
350
45
  3
ByLayer
350
44
  3
Global
350
46
  0
DICTIONARY
  5
6B
102
{ACAD_REACTORS
330
C
102
}
330
C
100
AcDbDictionary
281
     1
  3
Standard
350
6C
  0
DICTIONARY
  5
17
102
{ACAD_REACTORS
330
C
102
}
330
C
100
AcDbDictionary
281
     1
  3
Standard
350
18
  0
DICTIONARY
  5
19
102
{ACAD_REACTORS
330
C
102
}
330
C
100
AcDbDictionary
281
     1
  0
ACDBDICTIONARYWDFLT
  5
E
102
{ACAD_REACTORS
330
C
102
}
330
C
100
AcDbDictionary
281
     1
  3
Normal
350
F
100
AcDbDictionaryWithDefault
340
F
  0
DICTIONARY
  5
47
102
{ACAD_REACTORS
330
C
102
}
330
C
100
AcDbDictionary
281
     1
  3
A0
350
48
  3
A1
350
49
  3
A2
350
4A
  3
A3
350
4B
  3
A4
350
4C
  3
A5
350
4D
  3
A6
350
4E
  3
A7
350
4F
  3
A8
350
50
  3
A9
350
51
  3
B0
350
52
  3
B1
350
53
  3
B2
350
54
  3
B3
350
55
  3
B4
350
56
  3
B5
350
57
  3
B6
350
58
  3
B7
350
59
  3
B8
350
5A
  3
B9
350
5B
  3
C0
350
5C
  3
C1
350
5D
  3
C2
350
5E
  3
C3
350
5F
  3
C4
350
60
  3
C5
350
61
  3
C6
350
62
  3
C7
350
63
  3
C8
350
64
  3
C9
350
65
  3
D0
350
66
  3
D1
350
67
  3
D2
350
68
  0
DICTIONARY
  5
1BB
102
{ACAD_REACTORS
330
C
102
}
330
C
100
AcDbDictionary
281
     1
  0
DICTIONARY
  5
69
102
{ACAD_REACTORS
330
C
102
}
330
C
100
AcDbDictionary
281
     1
  3
Standard
350
6A
  0
DICTIONARY
  5
2A
102
{ACAD_REACTORS
330
C
102
}
330
C
100
AcDbDictionary
281
     1
  3
2dWireframe
350
2F
  3
Basic
350
32
  3
Brighten
350
36
  3
ColorChange
350
3A
  3
Conceptual
350
34
  3
Dim
350
35
  3
EdgeColorOff
350
3D
  3
Facepattern
350
39
  3
Flat
350
2B
  3
FlatWithEdges
350
2C
  3
Gouraud
350
2D
  3
GouraudWithEdges
350
2E
  3
Hidden
350
31
  3
JitterOff
350
3B
  3
Linepattern
350
38
  3
OverhangOff
350
3C
  3
Realistic
350
33
  3
Shaded
350
42
  3
Shaded with edges
350
41
  3
Shades of Gray
350
3E
  3
Sketchy
350
3F
  3
Thicken
350
37
  3
Wireframe
350
30
  3
X-Ray
350
40
  0
XRECORD
  5
1B7
102
{ACAD_REACTORS
330
C
102
}
330
C
100
AcDbXrecord
280
     1
 90
        1
330
6A
  0
DICTIONARY
  5
1B3
102
{ACAD_REACTORS
330
C
102
}
330
C
100
AcDbDictionary
281
     1
  3
CANNOSCALE
350
1B4
  3
CMLEADERSTYLE
350
1B9
  3
CTABLESTYLE
350
1B8
  0
LAYOUT
  5
1E
102
{ACAD_REACTORS
330
1A
102
}
330
1A
100
AcDbPlotSettings
  1

  2
none_device
  4

  6

 40
0.0
 41
0.0
 42
0.0
 43
0.0
 44
0.0
 45
0.0
 46
0.0
 47
0.0
 48
0.0
 49
0.0
140
0.0
141
0.0
142
1.0
143
1.0
 70
   688
 72
     1
 73
     0
 74
     5
  7

 75
    16
 76
     0
 77
     2
 78
   300
147
1.0
148
0.0
149
0.0
100
AcDbLayout
  1
Layout1
 70
     1
 71
     1
 10
0.0
 20
0.0
 11
420.0
 21
297.0
 12
0.0
 22
0.0
 32
0.0
 14
1.000000000000000E+20
 24
1.000000000000000E+20
 34
1.000000000000000E+20
 15
-1.000000000000000E+20
 25
-1.000000000000000E+20
 35
-1.000000000000000E+20
146
0.0
 13
0.0
 23
0.0
 33
0.0
 16
1.0
 26
0.0
 36
0.0
 17
0.0
 27
1.0
 37
0.0
 76
     0
330
1B
  0
LAYOUT
  5
26
102
{ACAD_REACTORS
330
1A
102
}
330
1A
100
AcDbPlotSettings
  1

  2
none_device
  4

  6

 40
0.0
 41
0.0
 42
0.0
 43
0.0
 44
0.0
 45
0.0
 46
0.0
 47
0.0
 48
0.0
 49
0.0
140
0.0
141
0.0
142
1.0
143
1.0
 70
   688
 72
     1
 73
     0
 74
     5
  7

 75
    16
 76
     0
 77
     2
 78
   300
147
1.0
148
0.0
149
0.0
100
AcDbLayout
  1
Layout2
 70
     1
 71
     2
 10
0.0
 20
0.0
 11
0.0
 21
0.0
 12
0.0
 22
0.0
 32
0.0
 14
0.0
 24
0.0
 34
0.0
 15
0.0
 25
0.0
 35
0.0
146
0.0
 13
0.0
 23
0.0
 33
0.0
 16
1.0
 26
0.0
 36
0.0
 17
0.0
 27
1.0
 37
0.0
 76
     0
330
23
  0
LAYOUT
  5
22
102
{ACAD_REACTORS
330
1A
102
}
330
1A
100
AcDbPlotSettings
  1

  2
none_device
  4
Letter_(8.50_x_11.00_Inches)
  6

 40
6.35
 41
6.35
 42
6.35000508
 43
6.35000508
 44
215.9
 45
279.4
 46
0.0
 47
0.0
 48
0.0
 49
0.0
140
0.0
141
0.0
142
1.0
143
1.0
 70
  1712
 72
     1
 73
     0
 74
     0
  7

 75
     0
 76
     0
 77
     2
 78
   300
147
1.0
148
0.0
149
0.0
100
AcDbLayout
  1
Model
 70
     1
 71
     0
 10
0.0
 20
0.0
 11
420.0
 21
297.0
 12
0.0
 22
0.0
 32
0.0
 14
1.000000000000000E+20
 24
1.000000000000000E+20
 34
1.000000000000000E+20
 15
-1.000000000000000E+20
 25
-1.000000000000000E+20
 35
-1.000000000000000E+20
146
0.0
 13
0.0
 23
0.0
 33
0.0
 16
1.0
 26
0.0
 36
0.0
 17
0.0
 27
1.0
 37
0.0
 76
     0
330
1F
331
29
  0
MATERIAL
  5
45
102
{ACAD_REACTORS
330
43
102
}
330
43
100
AcDbMaterial
  1
ByBlock
 72
     1
 94
      127
  0
MATERIAL
  5
44
102
{ACAD_REACTORS
330
43
102
}
330
43
100
AcDbMaterial
  1
ByLayer
 72
     1
 94
      127
  0
MATERIAL
  5
46
102
{ACAD_REACTORS
330
43
102
}
330
43
100
AcDbMaterial
  1
Global
 72
     1
 94
      127
  0
MLEADERSTYLE
  5
6C
102
{ACAD_REACTORS
330
6B
102
}
330
6B
100
AcDbMLeaderStyle
179
     2
170
     2
171
     1
172
     0
 90
        2
 40
0.0
 41
0.0
173
     1
 91
-1056964608
340
14
 92
       -2
290
     1
 42
2.0
291
     1
 43
8.0
  3
Standard
341
0
 44
4.0
300

342
11
174
     1
178
     6
175
     1
176
     0
 93
-1056964608
 45
4.0
292
     0
297
     0
 46
4.0
343
0
 94
-1056964608
 47
1.0
 49
1.0
140
1.0
293
     1
141
0.0
294
     1
177
     0
142
1.0
295
     0
296
     0
143
3.75
271
     0
272
     9
273
     9
298
     0
  0
MLINESTYLE
  5
18
102
{ACAD_REACTORS
330
17
102
}
330
17
100
AcDbMlineStyle
  2
Standard
 70
     0
  3

 62
   256
 51
90.0
 52
90.0
 71
     2
 49
0.5
 62
   256
  6
BYLAYER
 49
-0.5
 62
   256
  6
BYLAYER
  0
ACDBPLACEHOLDER
  5
F
102
{ACAD_REACTORS
330
E
102
}
330
E
  0
SCALE
  5
48
102
{ACAD_REACTORS
330
47
102
}
330
47
100
AcDbScale
 70
     0
300
1:1
140
1.0
141
1.0
290
     1
  0
SCALE
  5
49
102
{ACAD_REACTORS
330
47
102
}
330
47
100
AcDbScale
 70
     0
300
1:2
140
1.0
141
2.0
290
     0
  0
SCALE
  5
4A
102
{ACAD_REACTORS
330
47
102
}
330
47
100
AcDbScale
 70
     0
300
1:4
140
1.0
141
4.0
290
     0
  0
SCALE
  5
4B
102
{ACAD_REACTORS
330
47
102
}
330
47
100
AcDbScale
 70
     0
300
1:5
140
1.0
141
5.0
290
     0
  0
SCALE
  5
4C
102
{ACAD_REACTORS
330
47
102
}
330
47
100
AcDbScale
 70
     0
300
1:8
140
1.0
141
8.0
290
     0
  0
SCALE
  5
4D
102
{ACAD_REACTORS
330
47
102
}
330
47
100
AcDbScale
 70
     0
300
1:10
140
1.0
141
10.0
290
     0
  0
SCALE
  5
4E
102
{ACAD_REACTORS
330
47
102
}
330
47
100
AcDbScale
 70
     0
300
1:16
140
1.0
141
16.0
290
     0
  0
SCALE
  5
4F
102
{ACAD_REACTORS
330
47
102
}
330
47
100
AcDbScale
 70
     0
300
1:20
140
1.0
141
20.0
290
     0
  0
SCALE
  5
50
102
{ACAD_REACTORS
330
47
102
}
330
47
100
AcDbScale
 70
     0
300
1:30
140
1.0
141
30.0
290
     0
  0
SCALE
  5
51
102
{ACAD_REACTORS
330
47
102
}
330
47
100
AcDbScale
 70
     0
300
1:40
140
1.0
141
40.0
290
     0
  0
SCALE
  5
52
102
{ACAD_REACTORS
330
47
102
}
330
47
100
AcDbScale
 70
     0
300
1:50
140
1.0
141
50.0
290
     0
  0
SCALE
  5
53
102
{ACAD_REACTORS
330
47
102
}
330
47
100
AcDbScale
 70
     0
300
1:100
140
1.0
141
100.0
290
     0
  0
SCALE
  5
54
102
{ACAD_REACTORS
330
47
102
}
330
47
100
AcDbScale
 70
     0
300
2:1
140
2.0
141
1.0
290
     0
  0
SCALE
  5
55
102
{ACAD_REACTORS
330
47
102
}
330
47
100
AcDbScale
 70
     0
300
4:1
140
4.0
141
1.0
290
     0
  0
SCALE
  5
56
102
{ACAD_REACTORS
330
47
102
}
330
47
100
AcDbScale
 70
     0
300
8:1
140
8.0
141
1.0
290
     0
  0
SCALE
  5
57
102
{ACAD_REACTORS
330
47
102
}
330
47
100
AcDbScale
 70
     0
300
10:1
140
10.0
141
1.0
290
     0
  0
SCALE
  5
58
102
{ACAD_REACTORS
330
47
102
}
330
47
100
AcDbScale
 70
     0
300
100:1
140
100.0
141
1.0
290
     0
  0
SCALE
  5
59
102
{ACAD_REACTORS
330
47
102
}
330
47
100
AcDbScale
 70
     0
300
1/128" = 1'-0"
140
0.0078125
141
12.0
290
     0
  0
SCALE
  5
5A
102
{ACAD_REACTORS
330
47
102
}
330
47
100
AcDbScale
 70
     0
300
1/64" = 1'-0"
140
0.015625
141
12.0
290
     0
  0
SCALE
  5
5B
102
{ACAD_REACTORS
330
47
102
}
330
47
100
AcDbScale
 70
     0
300
1/32" = 1'-0"
140
0.03125
141
12.0
290
     0
  0
SCALE
  5
5C
102
{ACAD_REACTORS
330
47
102
}
330
47
100
AcDbScale
 70
     0
300
1/16" = 1'-0"
140
0.0625
141
12.0
290
     0
  0
SCALE
  5
5D
102
{ACAD_REACTORS
330
47
102
}
330
47
100
AcDbScale
 70
     0
300
3/32" = 1'-0"
140
0.09375
141
12.0
290
     0
  0
SCALE
  5
5E
102
{ACAD_REACTORS
330
47
102
}
330
47
100
AcDbScale
 70
     0
300
1/8" = 1'-0"
140
0.125
141
12.0
290
     0
  0
SCALE
  5
5F
102
{ACAD_REACTORS
330
47
102
}
330
47
100
AcDbScale
 70
     0
300
3/16" = 1'-0"
140
0.1875
141
12.0
290
     0
  0
SCALE
  5
60
102
{ACAD_REACTORS
330
47
102
}
330
47
100
AcDbScale
 70
     0
300
1/4" = 1'-0"
140
0.25
141
12.0
290
     0
  0
SCALE
  5
61
102
{ACAD_REACTORS
330
47
102
}
330
47
100
AcDbScale
 70
     0
300
3/8" = 1'-0"
140
0.375
141
12.0
290
     0
  0
SCALE
  5
62
102
{ACAD_REACTORS
330
47
102
}
330
47
100
AcDbScale
 70
     0
300
1/2" = 1'-0"
140
0.5
141
12.0
290
     0
  0
SCALE
  5
63
102
{ACAD_REACTORS
330
47
102
}
330
47
100
AcDbScale
 70
     0
300
3/4" = 1'-0"
140
0.75
141
12.0
290
     0
  0
SCALE
  5
64
102
{ACAD_REACTORS
330
47
102
}
330
47
100
AcDbScale
 70
     0
300
1" = 1'-0"
140
1.0
141
12.0
290
     0
  0
SCALE
  5
65
102
{ACAD_REACTORS
330
47
102
}
330
47
100
AcDbScale
 70
     0
300
1-1/2" = 1'-0"
140
1.5
141
12.0
290
     0
  0
SCALE
  5
66
102
{ACAD_REACTORS
330
47
102
}
330
47
100
AcDbScale
 70
     0
300
3" = 1'-0"
140
3.0
141
12.0
290
     0
  0
SCALE
  5
67
102
{ACAD_REACTORS
330
47
102
}
330
47
100
AcDbScale
 70
     0
300
6" = 1'-0"
140
6.0
141
12.0
290
     0
  0
SCALE
  5
68
102
{ACAD_REACTORS
330
47
102
}
330
47
100
AcDbScale
 70
     0
300
1'-0" = 1'-0"
140
12.0
141
12.0
290
     0
  0
TABLESTYLE
  5
6A
102
{ACAD_REACTORS
330
69
102
}
102
{ACAD_XDICTIONARY
360
1B5
102
}
330
69
100
AcDbTableStyle
  3
Standard
 70
     0
 71
     0
 40
0.06
 41
0.06
280
     0
281
     0
  7
Standard
140
4.5
170
     2
 62
     0
 63
   257
283
     0
 90
        4
 91
        0
  1

274
    -2
284
     1
 64
     0
275
    -2
285
     1
 65
     0
276
    -2
286
     1
 66
     0
277
    -2
287
     1
 67
     0
278
    -2
288
     1
 68
     0
279
    -2
289
     1
 69
     0
  7
Standard
140
6.0
170
     5
 62
     0
 63
   257
283
     0
 90
        4
 91
        0
  1

274
    -2
284
     1
 64
     0
275
    -2
285
     1
 65
     0
276
    -2
286
     1
 66
     0
277
    -2
287
     1
 67
     0
278
    -2
288
     1
 68
     0
279
    -2
289
     1
 69
     0
  7
Standard
140
4.5
170
     5
 62
     0
 63
   257
283
     0
 90
        4
 91
        0
  1

274
    -2
284
     1
 64
     0
275
    -2
285
     1
 65
     0
276
    -2
286
     1
 66
     0
277
    -2
287
     1
 67
     0
278
    -2
288
     1
 68
     0
279
    -2
289
     1
 69
     0
  0
VISUALSTYLE
  5
2F
102
{ACAD_REACTORS
330
2A
102
}
330
2A
100
AcDbVisualStyle
  2
2dWireframe
 70
     4
177
     3
291
     0
 70
    58
 90
        0
176
     1
 90
        2
176
     1
 90
        0
176
     1
 90
        0
176
     1
 40
0.6
176
     1
 40
30.0
176
     1
 62
     7
420
 16777215
176
     1
 90
        1
176
     1
 90
        4
176
     1
 62
     7
176
     1
 62
   257
176
     1
 90
        1
176
     1
 90
        1
176
     1
 40
1.0
176
     1
 90
        0
176
     1
 62
   257
176
     1
 40
1.0
176
     1
 90
        1
176
     1
 90
        6
176
     1
 90
        2
176
     1
 62
     7
176
     1
 90
        5
176
     1
 90
        0
176
     1
 90
        0
176
     1
290
     0
176
     1
 90
        1
176
     1
 40
0.0
176
     1
 90
        0
176
     1
290
     1
176
     1
290
     1
176
     1
290
     0
176
     1
290
     0
176
     1
290
     0
176
     1
290
     0
176
     1
290
     0
176
     1
290
     0
176
     1
290
     0
176
     1
 90
       50
176
     1
 40
0.0
176
     1
 40
1.0
176
     1
 90
        0
176
     1
 62
    18
420
        0
176
     1
 90
       50
176
     1
 90
        3
176
     1
 62
     5
420
      255
176
     1
290
     0
176
     1
 90
       50
176
     1
 90
       50
176
     1
 90
       50
176
     1
290
     0
176
     1
 90
       50
176
     1
 62
   256
176
     0
 40
1.0
176
     0
 90
        2
176
     1
  1
strokes_ogs.tif
176
     1
290
     0
176
     1
 40
1.0
176
     1
 40
1.0
176
     1
  0
VISUALSTYLE
  5
32
102
{ACAD_REACTORS
330
2A
102
}
330
2A
100
AcDbVisualStyle
  2
Basic
 70
     7
177
     3
291
     1
 70
    58
 90
        1
176
     1
 90
        0
176
     1
 90
        1
176
     1
 90
        0
176
     1
 40
0.6
176
     1
 40
30.0
176
     1
 62
     7
420
 16777215
176
     1
 90
        0
176
     1
 90
        4
176
     1
 62
     7
176
     1
 62
   257
176
     1
 90
        1
176
     1
 90
        1
176
     1
 40
1.0
176
     1
 90
        8
176
     1
 62
     7
176
     1
 40
1.0
176
     1
 90
        1
176
     1
 90
        6
176
     1
 90
        2
176
     1
 62
     7
176
     1
 90
        5
176
     1
 90
        0
176
     1
 90
        0
176
     1
290
     0
176
     1
 90
        1
176
     1
 40
0.0
176
     1
 90
        0
176
     1
290
     0
176
     1
290
     1
176
     1
290
     1
176
     1
290
     0
176
     1
290
     0
176
     1
290
     0
176
     1
290
     0
176
     1
290
     0
176
     1
290
     0
176
     1
 90
       50
176
     1
 40
0.0
176
     1
 40
1.0
176
     1
 90
        0
176
     1
 62
    18
420
        0
176
     1
 90
       50
176
     1
 90
        3
176
     1
 62
     5
420
      255
176
     1
290
     0
176
     1
 90
       50
176
     1
 90
       50
176
     1
 90
       50
176
     1
290
     0
176
     1
 90
       50
176
     1
 62
   256
176
     0
 40
1.0
176
     0
 90
        2
176
     1
  1
strokes_ogs.tif
176
     1
290
     0
176
     1
 40
1.0
176
     1
 40
1.0
176
     1
  0
VISUALSTYLE
  5
36
102
{ACAD_REACTORS
330
2A
102
}
330
2A
100
AcDbVisualStyle
  2
Brighten
 70
    12
177
     3
291
     1
 70
    58
 90
        2
176
     1
 90
        2
176
     1
 90
        0
176
     1
 90
        0
176
     1
 40
0.6
176
     1
 40
30.0
176
     1
 62
     7
420
 16777215
176
     1
 90
        1
176
     1
 90
        4
176
     1
 62
     7
176
     1
 62
   257
176
     1
 90
        1
176
     1
 90
        1
176
     1
 40
1.0
176
     1
 90
        8
176
     1
 62
     7
176
     1
 40
1.0
176
     1
 90
        1
176
     1
 90
        6
176
     1
 90
        2
176
     1
 62
     7
176
     1
 90
        5
176
     1
 90
        0
176
     1
 90
        0
176
     1
290
     0
176
     1
 90
        1
176
     1
 40
50.0
176
     1
 90
        0
176
     1
290
     0
176
     1
290
     1
176
     1
290
     1
176
     1
290
     0
176
     1
290
     0
176
     1
290
     0
176
     1
290
     0
176
     1
290
     0
176
     1
290
     0
176
     1
 90
       50
176
     1
 40
0.0
176
     1
 40
1.0
176
     1
 90
        0
176
     1
 62
    18
420
        0
176
     1
 90
       50
176
     1
 90
        3
176
     1
 62
     5
420
      255
176
     1
290
     0
176
     1
 90
       50
176
     1
 90
       50
176
     1
 90
       50
176
     1
290
     0
176
     1
 90
       50
176
     1
 62
   256
176
     0
 40
1.0
176
     0
 90
        2
176
     1
  1
strokes_ogs.tif
176
     1
290
     0
176
     1
 40
1.0
176
     1
 40
1.0
176
     1
  0
VISUALSTYLE
  5
3A
102
{ACAD_REACTORS
330
2A
102
}
330
2A
100
AcDbVisualStyle
  2
ColorChange
 70
    16
177
     3
291
     1
 70
    58
 90
        2
176
     1
 90
        2
176
     1
 90
        3
176
     1
 90
        0
176
     1
 40
0.6
176
     1
 40
30.0
176
     1
 62
     8
420
  8421504
176
     1
 90
        1
176
     1
 90
        4
176
     1
 62
     7
176
     1
 62
   257
176
     1
 90
        1
176
     1
 90
        1
176
     1
 40
1.0
176
     1
 90
        8
176
     1
 62
     8
420
  8421504
176
     1
 40
1.0
176
     1
 90
        1
176
     1
 90
        6
176
     1
 90
        2
176
     1
 62
     7
176
     1
 90
        5
176
     1
 90
        0
176
     1
 90
        0
176
     1
290
     0
176
     1
 90
        1
176
     1
 40
0.0
176
     1
 90
        0
176
     1
290
     0
176
     1
290
     1
176
     1
290
     1
176
     1
290
     0
176
     1
290
     0
176
     1
290
     0
176
     1
290
     0
176
     1
290
     0
176
     1
290
     0
176
     1
 90
       50
176
     1
 40
0.0
176
     1
 40
1.0
176
     1
 90
        0
176
     1
 62
    18
420
        0
176
     1
 90
       50
176
     1
 90
        3
176
     1
 62
     5
420
      255
176
     1
290
     0
176
     1
 90
       50
176
     1
 90
       50
176
     1
 90
       50
176
     1
290
     0
176
     1
 90
       50
176
     1
 62
   256
176
     0
 40
1.0
176
     0
 90
        2
176
     1
  1
strokes_ogs.tif
176
     1
290
     0
176
     1
 40
1.0
176
     1
 40
1.0
176
     1
  0
VISUALSTYLE
  5
34
102
{ACAD_REACTORS
330
2A
102
}
330
2A
100
AcDbVisualStyle
  2
Conceptual
 70
     9
177
     3
291
     0
 70
    58
 90
        3
176
     1
 90
        2
176
     1
 90
        0
176
     1
 90
        0
176
     1
 40
0.6
176
     1
 40
30.0
176
     1
 62
     7
420
 16777215
176
     1
 90
        2
176
     1
 90
        2
176
     1
 62
     7
176
     1
 62
   257
176
     1
 90
        1
176
     1
 90
        1
176
     1
 40
179.0
176
     1
 90
        8
176
     1
 62
     7
176
     1
 40
1.0
176
     1
 90
        1
176
     1
 90
        6
176
     1
 90
        2
176
     1
 62
     7
176
     1
 90
        3
176
     1
 90
        0
176
     1
 90
        0
176
     1
290
     0
176
     1
 90
        1
176
     1
 40
0.0
176
     1
 90
        0
176
     1
290
     0
176
     1
290
     1
176
     1
290
     1
176
     1
290
     0
176
     1
290
     0
176
     1
290
     0
176
     1
290
     0
176
     1
290
     0
176
     1
290
     0
176
     1
 90
       50
176
     1
 40
0.0
176
     1
 40
1.0
176
     1
 90
        0
176
     1
 62
    18
420
        0
176
     1
 90
       50
176
     1
 90
        3
176
     1
 62
     5
420
      255
176
     1
290
     0
176
     1
 90
       50
176
     1
 90
       50
176
     1
 90
       50
176
     1
290
     0
176
     1
 90
       50
176
     1
 62
   256
176
     0
 40
1.0
176
     0
 90
        2
176
     1
  1
strokes_ogs.tif
176
     1
290
     0
176
     1
 40
1.0
176
     1
 40
1.0
176
     1
  0
VISUALSTYLE
  5
35
102
{ACAD_REACTORS
330
2A
102
}
330
2A
100
AcDbVisualStyle
  2
Dim
 70
    11
177
     3
291
     1
 70
    58
 90
        2
176
     1
 90
        2
176
     1
 90
        0
176
     1
 90
        0
176
     1
 40
0.6
176
     1
 40
30.0
176
     1
 62
     7
420
 16777215
176
     1
 90
        1
176
     1
 90
        4
176
     1
 62
     7
176
     1
 62
   257
176
     1
 90
        1
176
     1
 90
        1
176
     1
 40
1.0
176
     1
 90
        8
176
     1
 62
     7
176
     1
 40
1.0
176
     1
 90
        1
176
     1
 90
        6
176
     1
 90
        2
176
     1
 62
     7
176
     1
 90
        5
176
     1
 90
        0
176
     1
 90
        0
176
     1
290
     0
176
     1
 90
        1
176
     1
 40
-50.0
176
     1
 90
        0
176
     1
290
     0
176
     1
290
     1
176
     1
290
     1
176
     1
290
     0
176
     1
290
     0
176
     1
290
     0
176
     1
290
     0
176
     1
290
     0
176
     1
290
     0
176
     1
 90
       50
176
     1
 40
0.0
176
     1
 40
1.0
176
     1
 90
        0
176
     1
 62
    18
420
        0
176
     1
 90
       50
176
     1
 90
        3
176
     1
 62
     5
420
      255
176
     1
290
     0
176
     1
 90
       50
176
     1
 90
       50
176
     1
 90
       50
176
     1
290
     0
176
     1
 90
       50
176
     1
 62
   256
176
     0
 40
1.0
176
     0
 90
        2
176
     1
  1
strokes_ogs.tif
176
     1
290
     0
176
     1
 40
1.0
176
     1
 40
1.0
176
     1
  0
VISUALSTYLE
  5
3D
102
{ACAD_REACTORS
330
2A
102
}
330
2A
100
AcDbVisualStyle
  2
EdgeColorOff
 70
    22
177
     3
291
     1
 70
    58
 90
        2
176
     0
 90
        2
176
     0
 90
        0
176
     0
 90
        0
176
     0
 40
0.6
176
     0
 40
30.0
176
     0
 62
     7
420
 16777215
176
     0
 90
        1
176
     0
 90
        4
176
     0
 62
     7
176
     0
 62
   257
176
     0
 90
        1
176
     0
 90
        1
176
     0
 40
1.0
176
     0
 90
        8
176
     2
 62
     7
176
     0
 40
1.0
176
     0
 90
        1
176
     0
 90
        6
176
     0
 90
        2
176
     0
 62
     7
176
     0
 90
        5
176
     0
 90
        0
176
     0
 90
        0
176
     0
290
     0
176
     0
 90
        1
176
     0
 40
0.0
176
     0
 90
        0
176
     0
290
     0
176
     0
290
     1
176
     0
290
     1
176
     0
290
     0
176
     0
290
     0
176
     0
290
     0
176
     0
290
     0
176
     0
290
     0
176
     0
290
     0
176
     0
 90
       50
176
     0
 40
0.0
176
     0
 40
1.0
176
     0
 90
        0
176
     0
 62
    18
420
        0
176
     0
 90
       50
176
     0
 90
        3
176
     0
 62
     5
420
      255
176
     0
290
     0
176
     0
 90
       50
176
     0
 90
       50
176
     0
 90
       50
176
     0
290
     0
176
     0
 90
       50
176
     0
 62
   256
176
     0
 40
1.0
176
     0
 90
        2
176
     0
  1
strokes_ogs.tif
176
     0
290
     0
176
     0
 40
1.0
176
     0
 40
1.0
176
     0
  0
VISUALSTYLE
  5
39
102
{ACAD_REACTORS
330
2A
102
}
330
2A
100
AcDbVisualStyle
  2
Facepattern
 70
    15
177
     3
291
     1
 70
    58
 90
        2
176
     1
 90
        2
176
     1
 90
        0
176
     1
 90
        0
176
     1
 40
0.6
176
     1
 40
30.0
176
     1
 62
     7
420
 16777215
176
     1
 90
        1
176
     1
 90
        4
176
     1
 62
     7
176
     1
 62
   257
176
     1
 90
        1
176
     1
 90
        1
176
     1
 40
1.0
176
     1
 90
        8
176
     1
 62
     7
176
     1
 40
1.0
176
     1
 90
        1
176
     1
 90
        6
176
     1
 90
        2
176
     1
 62
     7
176
     1
 90
        5
176
     1
 90
        0
176
     1
 90
        0
176
     1
290
     0
176
     1
 90
        1
176
     1
 40
0.0
176
     1
 90
        0
176
     1
290
     0
176
     1
290
     1
176
     1
290
     1
176
     1
290
     0
176
     1
290
     0
176
     1
290
     0
176
     1
290
     0
176
     1
290
     0
176
     1
290
     0
176
     1
 90
       50
176
     1
 40
0.0
176
     1
 40
1.0
176
     1
 90
        0
176
     1
 62
    18
420
        0
176
     1
 90
       50
176
     1
 90
        3
176
     1
 62
     5
420
      255
176
     1
290
     0
176
     1
 90
       50
176
     1
 90
       50
176
     1
 90
       50
176
     1
290
     0
176
     1
 90
       50
176
     1
 62
   256
176
     0
 40
1.0
176
     0
 90
        2
176
     1
  1
strokes_ogs.tif
176
     1
290
     0
176
     1
 40
1.0
176
     1
 40
1.0
176
     1
  0
VISUALSTYLE
  5
2B
102
{ACAD_REACTORS
330
2A
102
}
330
2A
100
AcDbVisualStyle
  2
Flat
 70
     0
177
     3
291
     1
 70
    58
 90
        2
176
     1
 90
        1
176
     1
 90
        1
176
     1
 90
        2
176
     1
 40
0.6
176
     1
 40
30.0
176
     1
 62
     7
420
 16777215
176
     1
 90
        0
176
     1
 90
        0
176
     1
 62
     7
176
     1
 62
   257
176
     1
 90
        1
176
     1
 90
        1
176
     1
 40
1.0
176
     1
 90
        8
176
     1
 62
     7
176
     1
 40
1.0
176
     1
 90
        1
176
     1
 90
        6
176
     1
 90
        2
176
     1
 62
     7
176
     1
 90
        5
176
     1
 90
        0
176
     1
 90
        0
176
     1
290
     0
176
     1
 90
       13
176
     1
 40
0.0
176
     1
 90
        0
176
     1
290
     0
176
     1
290
     1
176
     1
290
     1
176
     1
290
     0
176
     1
290
     0
176
     1
290
     0
176
     1
290
     0
176
     1
290
     0
176
     1
290
     0
176
     1
 90
       50
176
     1
 40
0.0
176
     1
 40
1.0
176
     1
 90
        0
176
     1
 62
    18
420
        0
176
     1
 90
       50
176
     1
 90
        3
176
     1
 62
     5
420
      255
176
     1
290
     0
176
     1
 90
       50
176
     1
 90
       50
176
     1
 90
       50
176
     1
290
     0
176
     1
 90
       50
176
     1
 62
   256
176
     0
 40
1.0
176
     0
 90
        2
176
     1
  1
strokes_ogs.tif
176
     1
290
     0
176
     1
 40
1.0
176
     1
 40
1.0
176
     1
  0
VISUALSTYLE
  5
2C
102
{ACAD_REACTORS
330
2A
102
}
330
2A
100
AcDbVisualStyle
  2
FlatWithEdges
 70
     1
177
     3
291
     1
 70
    58
 90
        2
176
     1
 90
        1
176
     1
 90
        1
176
     1
 90
        2
176
     1
 40
0.6
176
     1
 40
30.0
176
     1
 62
     7
420
 16777215
176
     1
 90
        1
176
     1
 90
        0
176
     1
 62
     7
176
     1
 62
   257
176
     1
 90
        1
176
     1
 90
        1
176
     1
 40
1.0
176
     1
 90
        0
176
     1
 62
   257
176
     1
 40
1.0
176
     1
 90
        1
176
     1
 90
        6
176
     1
 90
        2
176
     1
 62
     7
176
     1
 90
        5
176
     1
 90
        0
176
     1
 90
        0
176
     1
290
     0
176
     1
 90
       13
176
     1
 40
0.0
176
     1
 90
        0
176
     1
290
     0
176
     1
290
     1
176
     1
290
     1
176
     1
290
     0
176
     1
290
     0
176
     1
290
     0
176
     1
290
     0
176
     1
290
     0
176
     1
290
     0
176
     1
 90
       50
176
     1
 40
0.0
176
     1
 40
1.0
176
     1
 90
        0
176
     1
 62
    18
420
        0
176
     1
 90
       50
176
     1
 90
        3
176
     1
 62
     5
420
      255
176
     1
290
     0
176
     1
 90
       50
176
     1
 90
       50
176
     1
 90
       50
176
     1
290
     0
176
     1
 90
       50
176
     1
 62
   256
176
     0
 40
1.0
176
     0
 90
        2
176
     1
  1
strokes_ogs.tif
176
     1
290
     0
176
     1
 40
1.0
176
     1
 40
1.0
176
     1
  0
VISUALSTYLE
  5
2D
102
{ACAD_REACTORS
330
2A
102
}
330
2A
100
AcDbVisualStyle
  2
Gouraud
 70
     2
177
     3
291
     1
 70
    58
 90
        2
176
     1
 90
        2
176
     1
 90
        1
176
     1
 90
        2
176
     1
 40
0.6
176
     1
 40
30.0
176
     1
 62
     7
420
 16777215
176
     1
 90
        0
176
     1
 90
        0
176
     1
 62
     7
176
     1
 62
   257
176
     1
 90
        1
176
     1
 90
        1
176
     1
 40
1.0
176
     1
 90
        0
176
     1
 62
     7
176
     1
 40
1.0
176
     1
 90
        1
176
     1
 90
        6
176
     1
 90
        2
176
     1
 62
     7
176
     1
 90
        5
176
     1
 90
        0
176
     1
 90
        0
176
     1
290
     0
176
     1
 90
       13
176
     1
 40
0.0
176
     1
 90
        0
176
     1
290
     0
176
     1
290
     1
176
     1
290
     1
176
     1
290
     0
176
     1
290
     0
176
     1
290
     0
176
     1
290
     0
176
     1
290
     0
176
     1
290
     0
176
     1
 90
       50
176
     1
 40
0.0
176
     1
 40
1.0
176
     1
 90
        0
176
     1
 62
    18
420
        0
176
     1
 90
       50
176
     1
 90
        3
176
     1
 62
     5
420
      255
176
     1
290
     0
176
     1
 90
       50
176
     1
 90
       50
176
     1
 90
       50
176
     1
290
     0
176
     1
 90
       50
176
     1
 62
   256
176
     0
 40
1.0
176
     0
 90
        2
176
     1
  1
strokes_ogs.tif
176
     1
290
     0
176
     1
 40
1.0
176
     1
 40
1.0
176
     1
  0
VISUALSTYLE
  5
2E
102
{ACAD_REACTORS
330
2A
102
}
330
2A
100
AcDbVisualStyle
  2
GouraudWithEdges
 70
     3
177
     3
291
     1
 70
    58
 90
        2
176
     1
 90
        2
176
     1
 90
        1
176
     1
 90
        2
176
     1
 40
0.6
176
     1
 40
30.0
176
     1
 62
     7
420
 16777215
176
     1
 90
        1
176
     1
 90
        0
176
     1
 62
     7
176
     1
 62
   257
176
     1
 90
        1
176
     1
 90
        1
176
     1
 40
1.0
176
     1
 90
        0
176
     1
 62
   257
176
     1
 40
1.0
176
     1
 90
        1
176
     1
 90
        6
176
     1
 90
        2
176
     1
 62
     7
176
     1
 90
        5
176
     1
 90
        0
176
     1
 90
        0
176
     1
290
     0
176
     1
 90
       13
176
     1
 40
0.0
176
     1
 90
        0
176
     1
290
     0
176
     1
290
     1
176
     1
290
     1
176
     1
290
     0
176
     1
290
     0
176
     1
290
     0
176
     1
290
     0
176
     1
290
     0
176
     1
290
     0
176
     1
 90
       50
176
     1
 40
0.0
176
     1
 40
1.0
176
     1
 90
        0
176
     1
 62
    18
420
        0
176
     1
 90
       50
176
     1
 90
        3
176
     1
 62
     5
420
      255
176
     1
290
     0
176
     1
 90
       50
176
     1
 90
       50
176
     1
 90
       50
176
     1
290
     0
176
     1
 90
       50
176
     1
 62
   256
176
     0
 40
1.0
176
     0
 90
        2
176
     1
  1
strokes_ogs.tif
176
     1
290
     0
176
     1
 40
1.0
176
     1
 40
1.0
176
     1
  0
VISUALSTYLE
  5
31
102
{ACAD_REACTORS
330
2A
102
}
330
2A
100
AcDbVisualStyle
  2
Hidden
 70
     6
177
     3
291
     0
 70
    58
 90
        1
176
     1
 90
        2
176
     1
 90
        2
176
     1
 90
        0
176
     1
 40
0.6
176
     1
 40
30.0
176
     1
 62
     7
420
 16777215
176
     1
 90
        2
176
     1
 90
        2
176
     1
 62
     7
176
     1
 62
   257
176
     1
 90
        2
176
     1
 90
        1
176
     1
 40
40.0
176
     1
 90
        0
176
     1
 62
   257
176
     1
 40
1.0
176
     1
 90
        1
176
     1
 90
        6
176
     1
 90
        2
176
     1
 62
     7
176
     1
 90
        3
176
     1
 90
        0
176
     1
 90
        0
176
     1
290
     0
176
     1
 90
        1
176
     1
 40
0.0
176
     1
 90
        0
176
     1
290
     0
176
     1
290
     1
176
     1
290
     1
176
     1
290
     0
176
     1
290
     0
176
     1
290
     0
176
     1
290
     0
176
     1
290
     0
176
     1
290
     0
176
     1
 90
       50
176
     1
 40
0.0
176
     1
 40
1.0
176
     1
 90
        0
176
     1
 62
    18
420
        0
176
     1
 90
       50
176
     1
 90
        3
176
     1
 62
     5
420
      255
176
     1
290
     0
176
     1
 90
       50
176
     1
 90
       50
176
     1
 90
       50
176
     1
290
     0
176
     1
 90
       50
176
     1
 62
   256
176
     0
 40
1.0
176
     0
 90
        2
176
     1
  1
strokes_ogs.tif
176
     1
290
     0
176
     1
 40
1.0
176
     1
 40
1.0
176
     1
  0
VISUALSTYLE
  5
3B
102
{ACAD_REACTORS
330
2A
102
}
330
2A
100
AcDbVisualStyle
  2
JitterOff
 70
    20
177
     3
291
     1
 70
    58
 90
        2
176
     0
 90
        2
176
     0
 90
        0
176
     0
 90
        0
176
     0
 40
0.6
176
     0
 40
30.0
176
     0
 62
     7
420
 16777215
176
     0
 90
        1
176
     0
 90
        4
176
     0
 62
     7
176
     0
 62
   257
176
     0
 90
        1
176
     0
 90
        1
176
     0
 40
1.0
176
     0
 90
       10
176
     2
 62
     7
176
     0
 40
1.0
176
     0
 90
        1
176
     0
 90
        6
176
     0
 90
        2
176
     0
 62
     7
176
     0
 90
        5
176
     0
 90
        0
176
     0
 90
        0
176
     0
290
     0
176
     0
 90
        1
176
     0
 40
0.0
176
     0
 90
        0
176
     0
290
     0
176
     0
290
     1
176
     0
290
     1
176
     0
290
     0
176
     0
290
     0
176
     0
290
     0
176
     0
290
     0
176
     0
290
     0
176
     0
290
     0
176
     0
 90
       50
176
     0
 40
0.0
176
     0
 40
1.0
176
     0
 90
        0
176
     0
 62
    18
420
        0
176
     0
 90
       50
176
     0
 90
        3
176
     0
 62
     5
420
      255
176
     0
290
     0
176
     0
 90
       50
176
     0
 90
       50
176
     0
 90
       50
176
     0
290
     0
176
     0
 90
       50
176
     0
 62
   256
176
     0
 40
1.0
176
     0
 90
        2
176
     0
  1
strokes_ogs.tif
176
     0
290
     0
176
     0
 40
1.0
176
     0
 40
1.0
176
     0
  0
VISUALSTYLE
  5
38
102
{ACAD_REACTORS
330
2A
102
}
330
2A
100
AcDbVisualStyle
  2
Linepattern
 70
    14
177
     3
291
     1
 70
    58
 90
        2
176
     1
 90
        2
176
     1
 90
        0
176
     1
 90
        0
176
     1
 40
0.6
176
     1
 40
30.0
176
     1
 62
     7
420
 16777215
176
     1
 90
        1
176
     1
 90
        4
176
     1
 62
     7
176
     1
 62
   257
176
     1
 90
        7
176
     1
 90
        7
176
     1
 40
1.0
176
     1
 90
        8
176
     1
 62
     7
176
     1
 40
1.0
176
     1
 90
        1
176
     1
 90
        6
176
     1
 90
        2
176
     1
 62
     7
176
     1
 90
        5
176
     1
 90
        0
176
     1
 90
        0
176
     1
290
     0
176
     1
 90
        1
176
     1
 40
0.0
176
     1
 90
        0
176
     1
290
     0
176
     1
290
     1
176
     1
290
     1
176
     1
290
     0
176
     1
290
     0
176
     1
290
     0
176
     1
290
     0
176
     1
290
     0
176
     1
290
     0
176
     1
 90
       50
176
     1
 40
0.0
176
     1
 40
1.0
176
     1
 90
        0
176
     1
 62
    18
420
        0
176
     1
 90
       50
176
     1
 90
        3
176
     1
 62
     5
420
      255
176
     1
290
     0
176
     1
 90
       50
176
     1
 90
       50
176
     1
 90
       50
176
     1
290
     0
176
     1
 90
       50
176
     1
 62
   256
176
     0
 40
1.0
176
     0
 90
        2
176
     1
  1
strokes_ogs.tif
176
     1
290
     0
176
     1
 40
1.0
176
     1
 40
1.0
176
     1
  0
VISUALSTYLE
  5
3C
102
{ACAD_REACTORS
330
2A
102
}
330
2A
100
AcDbVisualStyle
  2
OverhangOff
 70
    21
177
     3
291
     1
 70
    58
 90
        2
176
     0
 90
        2
176
     0
 90
        0
176
     0
 90
        0
176
     0
 40
0.6
176
     0
 40
30.0
176
     0
 62
     7
420
 16777215
176
     0
 90
        1
176
     0
 90
        4
176
     0
 62
     7
176
     0
 62
   257
176
     0
 90
        1
176
     0
 90
        1
176
     0
 40
1.0
176
     0
 90
        9
176
     2
 62
     7
176
     0
 40
1.0
176
     0
 90
        1
176
     0
 90
        6
176
     0
 90
        2
176
     0
 62
     7
176
     0
 90
        5
176
     0
 90
        0
176
     0
 90
        0
176
     0
290
     0
176
     0
 90
        1
176
     0
 40
0.0
176
     0
 90
        0
176
     0
290
     0
176
     0
290
     1
176
     0
290
     1
176
     0
290
     0
176
     0
290
     0
176
     0
290
     0
176
     0
290
     0
176
     0
290
     0
176
     0
290
     0
176
     0
 90
       50
176
     0
 40
0.0
176
     0
 40
1.0
176
     0
 90
        0
176
     0
 62
    18
420
        0
176
     0
 90
       50
176
     0
 90
        3
176
     0
 62
     5
420
      255
176
     0
290
     0
176
     0
 90
       50
176
     0
 90
       50
176
     0
 90
       50
176
     0
290
     0
176
     0
 90
       50
176
     0
 62
   256
176
     0
 40
1.0
176
     0
 90
        2
176
     0
  1
strokes_ogs.tif
176
     0
290
     0
176
     0
 40
1.0
176
     0
 40
1.0
176
     0
  0
VISUALSTYLE
  5
33
102
{ACAD_REACTORS
330
2A
102
}
330
2A
100
AcDbVisualStyle
  2
Realistic
 70
     8
177
     3
291
     0
 70
    58
 90
        2
176
     1
 90
        3
176
     1
 90
        0
176
     1
 90
        2
176
     1
 40
0.6
176
     1
 40
30.0
176
     1
 62
     7
420
 16777215
176
     1
 90
        0
176
     1
 90
        0
176
     1
 62
     7
176
     1
 62
   257
176
     1
 90
        1
176
     1
 90
        1
176
     1
 40
1.0
176
     1
 90
        8
176
     1
 62
   257
176
     1
 40
1.0
176
     1
 90
        1
176
     1
 90
        6
176
     1
 90
        2
176
     1
 62
     7
176
     1
 90
        3
176
     1
 90
        0
176
     1
 90
        0
176
     1
290
     0
176
     1
 90
       13
176
     1
 40
0.0
176
     1
 90
        0
176
     1
290
     0
176
     1
290
     1
176
     1
290
     1
176
     1
290
     0
176
     1
290
     0
176
     1
290
     0
176
     1
290
     0
176
     1
290
     0
176
     1
290
     0
176
     1
 90
       50
176
     1
 40
0.0
176
     1
 40
1.0
176
     1
 90
        0
176
     1
 62
    18
420
        0
176
     1
 90
       50
176
     1
 90
        3
176
     1
 62
     5
420
      255
176
     1
290
     0
176
     1
 90
       50
176
     1
 90
       50
176
     1
 90
       50
176
     1
290
     0
176
     1
 90
       50
176
     1
 62
   256
176
     0
 40
1.0
176
     0
 90
        2
176
     1
  1
strokes_ogs.tif
176
     1
290
     0
176
     1
 40
1.0
176
     1
 40
1.0
176
     1
  0
VISUALSTYLE
  5
42
102
{ACAD_REACTORS
330
2A
102
}
330
2A
100
AcDbVisualStyle
  2
Shaded
 70
    27
177
     3
291
     0
 70
    58
 90
        2
176
     1
 90
        2
176
     1
 90
        1
176
     1
 90
        2
176
     1
 40
0.6
176
     1
 40
30.0
176
     1
 62
     7
420
 16777215
176
     1
 90
        0
176
     1
 90
        4
176
     1
 62
     7
176
     1
 62
   257
176
     1
 90
        1
176
     1
 90
        1
176
     1
 40
1.0
176
     1
 90
        8
176
     1
 62
   257
176
     1
 40
1.0
176
     1
 90
        1
176
     1
 90
        6
176
     1
 90
        2
176
     1
 62
     8
420
  7895160
176
     1
 90
        3
176
     1
 90
        0
176
     1
 90
        0
176
     1
290
     0
176
     1
 90
        5
176
     1
 40
0.0
176
     1
 90
        0
176
     1
290
     0
176
     1
290
     1
176
     1
290
     1
176
     1
290
     0
176
     1
290
     0
176
     1
290
     0
176
     1
290
     0
176
     1
290
     0
176
     1
290
     0
176
     1
 90
       50
176
     1
 40
0.0
176
     1
 40
1.0
176
     1
 90
        0
176
     1
 62
    18
420
        0
176
     1
 90
       50
176
     1
 90
        3
176
     1
 62
     5
420
      255
176
     1
290
     0
176
     1
 90
       50
176
     1
 90
       50
176
     1
 90
       50
176
     1
290
     0
176
     1
 90
       50
176
     1
 62
   256
176
     0
 40
1.0
176
     0
 90
        2
176
     1
  1
strokes_ogs.tif
176
     1
290
     0
176
     1
 40
1.0
176
     1
 40
1.0
176
     1
  0
VISUALSTYLE
  5
41
102
{ACAD_REACTORS
330
2A
102
}
330
2A
100
AcDbVisualStyle
  2
Shaded with edges
 70
    26
177
     3
291
     0
 70
    58
 90
        2
176
     1
 90
        2
176
     1
 90
        1
176
     1
 90
        2
176
     1
 40
0.6
176
     1
 40
30.0
176
     1
 62
     7
420
 16777215
176
     1
 90
        1
176
     1
 90
       10
176
     1
 62
     7
176
     1
 62
   257
176
     1
 90
        2
176
     1
 90
        1
176
     1
 40
1.0
176
     1
 90
        8
176
     1
 62
   257
176
     1
 40
1.0
176
     1
 90
        1
176
     1
 90
        6
176
     1
 90
        2
176
     1
 62
     7
176
     1
 90
        3
176
     1
 90
        0
176
     1
 90
        0
176
     1
290
     0
176
     1
 90
        5
176
     1
 40
0.0
176
     1
 90
        0
176
     1
290
     0
176
     1
290
     1
176
     1
290
     1
176
     1
290
     0
176
     1
290
     0
176
     1
290
     0
176
     1
290
     0
176
     1
290
     0
176
     1
290
     0
176
     1
 90
       50
176
     1
 40
0.0
176
     1
 40
1.0
176
     1
 90
        0
176
     1
 62
    18
420
        0
176
     1
 90
       50
176
     1
 90
        3
176
     1
 62
     5
420
      255
176
     1
290
     0
176
     1
 90
       50
176
     1
 90
       50
176
     1
 90
       50
176
     1
290
     0
176
     1
 90
       50
176
     1
 62
   256
176
     0
 40
1.0
176
     0
 90
        2
176
     1
  1
strokes_ogs.tif
176
     1
290
     0
176
     1
 40
1.0
176
     1
 40
1.0
176
     1
  0
VISUALSTYLE
  5
3E
102
{ACAD_REACTORS
330
2A
102
}
330
2A
100
AcDbVisualStyle
  2
Shades of Gray
 70
    23
177
     3
291
     0
 70
    58
 90
        2
176
     1
 90
        2
176
     1
 90
        3
176
     1
 90
        0
176
     1
 40
0.6
176
     1
 40
30.0
176
     1
 62
     7
420
 16777215
176
     1
 90
        2
176
     1
 90
        2
176
     1
 62
     7
176
     1
 62
     7
176
     1
 90
        1
176
     1
 90
        1
176
     1
 40
40.0
176
     1
 90
        8
176
     1
 62
     7
176
     1
 40
1.0
176
     1
 90
        1
176
     1
 90
        6
176
     1
 90
        2
176
     1
 62
     7
176
     1
 90
        3
176
     1
 90
        0
176
     1
 90
        0
176
     1
290
     0
176
     1
 90
        1
176
     1
 40
0.0
176
     1
 90
        0
176
     1
290
     0
176
     1
290
     1
176
     1
290
     1
176
     1
290
     0
176
     1
290
     0
176
     1
290
     0
176
     1
290
     0
176
     1
290
     0
176
     1
290
     0
176
     1
 90
       50
176
     1
 40
0.0
176
     1
 40
1.0
176
     1
 90
        0
176
     1
 62
    18
420
        0
176
     1
 90
       50
176
     1
 90
        3
176
     1
 62
     5
420
      255
176
     1
290
     0
176
     1
 90
       50
176
     1
 90
       50
176
     1
 90
       50
176
     1
290
     0
176
     1
 90
       50
176
     1
 62
   256
176
     0
 40
1.0
176
     0
 90
        2
176
     1
  1
strokes_ogs.tif
176
     1
290
     0
176
     1
 40
1.0
176
     1
 40
1.0
176
     1
  0
VISUALSTYLE
  5
3F
102
{ACAD_REACTORS
330
2A
102
}
330
2A
100
AcDbVisualStyle
  2
Sketchy
 70
    24
177
     3
291
     0
 70
    58
 90
        1
176
     1
 90
        2
176
     1
 90
        2
176
     1
 90
        0
176
     1
 40
0.6
176
     1
 40
30.0
176
     1
 62
     7
420
 16777215
176
     1
 90
        2
176
     1
 90
        2
176
     1
 62
     7
176
     1
 62
     7
176
     1
 90
        1
176
     1
 90
        1
176
     1
 40
40.0
176
     1
 90
       11
176
     1
 62
     7
176
     1
 40
1.0
176
     1
 90
        1
176
     1
 90
        6
176
     1
 90
        2
176
     1
 62
     7
176
     1
 90
        6
176
     1
 90
        0
176
     1
 90
        0
176
     1
290
     0
176
     1
 90
        1
176
     1
 40
0.0
176
     1
 90
        0
176
     1
290
     0
176
     1
290
     1
176
     1
290
     1
176
     1
290
     0
176
     1
290
     0
176
     1
290
     0
176
     1
290
     0
176
     1
290
     0
176
     1
290
     0
176
     1
 90
       50
176
     1
 40
0.0
176
     1
 40
1.0
176
     1
 90
        0
176
     1
 62
    18
420
        0
176
     1
 90
       50
176
     1
 90
        3
176
     1
 62
     5
420
      255
176
     1
290
     0
176
     1
 90
       50
176
     1
 90
       50
176
     1
 90
       50
176
     1
290
     0
176
     1
 90
       50
176
     1
 62
   256
176
     0
 40
1.0
176
     0
 90
        2
176
     1
  1
strokes_ogs.tif
176
     1
290
     0
176
     1
 40
1.0
176
     1
 40
1.0
176
     1
  0
VISUALSTYLE
  5
37
102
{ACAD_REACTORS
330
2A
102
}
330
2A
100
AcDbVisualStyle
  2
Thicken
 70
    13
177
     3
291
     1
 70
    58
 90
        2
176
     1
 90
        2
176
     1
 90
        0
176
     1
 90
        0
176
     1
 40
0.6
176
     1
 40
30.0
176
     1
 62
     7
420
 16777215
176
     1
 90
        1
176
     1
 90
        4
176
     1
 62
     7
176
     1
 62
   257
176
     1
 90
        1
176
     1
 90
        1
176
     1
 40
1.0
176
     1
 90
       12
176
     1
 62
     7
176
     1
 40
1.0
176
     1
 90
        1
176
     1
 90
        6
176
     1
 90
        2
176
     1
 62
     7
176
     1
 90
        5
176
     1
 90
        0
176
     1
 90
        0
176
     1
290
     0
176
     1
 90
        1
176
     1
 40
0.0
176
     1
 90
        0
176
     1
290
     0
176
     1
290
     1
176
     1
290
     1
176
     1
290
     0
176
     1
290
     0
176
     1
290
     0
176
     1
290
     0
176
     1
290
     0
176
     1
290
     0
176
     1
 90
       50
176
     1
 40
0.0
176
     1
 40
1.0
176
     1
 90
        0
176
     1
 62
    18
420
        0
176
     1
 90
       50
176
     1
 90
        3
176
     1
 62
     5
420
      255
176
     1
290
     0
176
     1
 90
       50
176
     1
 90
       50
176
     1
 90
       50
176
     1
290
     0
176
     1
 90
       50
176
     1
 62
   256
176
     0
 40
1.0
176
     0
 90
        2
176
     1
  1
strokes_ogs.tif
176
     1
290
     0
176
     1
 40
1.0
176
     1
 40
1.0
176
     1
  0
VISUALSTYLE
  5
30
102
{ACAD_REACTORS
330
2A
102
}
330
2A
100
AcDbVisualStyle
  2
Wireframe
 70
     5
177
     3
291
     0
 70
    58
 90
        0
176
     1
 90
        2
176
     1
 90
        0
176
     1
 90
        0
176
     1
 40
0.6
176
     1
 40
30.0
176
     1
 62
     7
420
 16777215
176
     1
 90
        1
176
     1
 90
        4
176
     1
 62
     7
176
     1
 62
   257
176
     1
 90
        1
176
     1
 90
        1
176
     1
 40
1.0
176
     1
 90
        0
176
     1
 62
   257
176
     1
 40
1.0
176
     1
 90
        1
176
     1
 90
        6
176
     1
 90
        2
176
     1
 62
     7
176
     1
 90
        3
176
     1
 90
        0
176
     1
 90
        0
176
     1
290
     0
176
     1
 90
        1
176
     1
 40
0.0
176
     1
 90
        0
176
     1
290
     0
176
     1
290
     1
176
     1
290
     1
176
     1
290
     0
176
     1
290
     0
176
     1
290
     0
176
     1
290
     0
176
     1
290
     0
176
     1
290
     0
176
     1
 90
       50
176
     1
 40
0.0
176
     1
 40
1.0
176
     1
 90
        0
176
     1
 62
    18
420
        0
176
     1
 90
       50
176
     1
 90
        3
176
     1
 62
     5
420
      255
176
     1
290
     0
176
     1
 90
       50
176
     1
 90
       50
176
     1
 90
       50
176
     1
290
     0
176
     1
 90
       50
176
     1
 62
   256
176
     0
 40
1.0
176
     0
 90
        2
176
     1
  1
strokes_ogs.tif
176
     1
290
     0
176
     1
 40
1.0
176
     1
 40
1.0
176
     1
  0
VISUALSTYLE
  5
40
102
{ACAD_REACTORS
330
2A
102
}
330
2A
100
AcDbVisualStyle
  2
X-Ray
 70
    25
177
     3
291
     0
 70
    58
 90
        2
176
     1
 90
        2
176
     1
 90
        1
176
     1
 90
        1
176
     1
 40
0.5
176
     1
 40
30.0
176
     1
 62
     7
420
 16777215
176
     1
 90
        1
176
     1
 90
        0
176
     1
 62
     7
176
     1
 62
   257
176
     1
 90
        1
176
     1
 90
        1
176
     1
 40
1.0
176
     1
 90
        8
176
     1
 62
     7
176
     1
 40
1.0
176
     1
 90
        1
176
     1
 90
        6
176
     1
 90
        2
176
     1
 62
     7
176
     1
 90
        3
176
     1
 90
        0
176
     1
 90
        0
176
     1
290
     0
176
     1
 90
       13
176
     1
 40
0.0
176
     1
 90
        0
176
     1
290
     0
176
     1
290
     1
176
     1
290
     1
176
     1
290
     0
176
     1
290
     0
176
     1
290
     0
176
     1
290
     0
176
     1
290
     0
176
     1
290
     0
176
     1
 90
       50
176
     1
 40
0.0
176
     1
 40
1.0
176
     1
 90
        0
176
     1
 62
    18
420
        0
176
     1
 90
       50
176
     1
 90
        3
176
     1
 62
     5
420
      255
176
     1
290
     0
176
     1
 90
       50
176
     1
 90
       50
176
     1
 90
       50
176
     1
290
     0
176
     1
 90
       50
176
     1
 62
   256
176
     0
 40
1.0
176
     0
 90
        2
176
     1
  1
strokes_ogs.tif
176
     1
290
     0
176
     1
 40
1.0
176
     1
 40
1.0
176
     1
  0
DICTIONARYVAR
  5
1B4
102
{ACAD_REACTORS
330
1B3
102
}
330
1B3
100
DictionaryVariables
280
     0
  1
1:1
  0
DICTIONARYVAR
  5
1B9
102
{ACAD_REACTORS
330
1B3
102
}
330
1B3
100
DictionaryVariables
280
     0
  1
Standard
  0
DICTIONARYVAR
  5
1B8
102
{ACAD_REACTORS
330
1B3
102
}
330
1B3
100
DictionaryVariables
280
     0
  1
Standard
  0
DICTIONARY
  5
1B5
330
6A
100
AcDbDictionary
280
     1
281
     1
  3
ACAD_ROUNDTRIP_2008_TABLESTYLE_CELLSTYLEMAP
360
1B6
  0
CELLSTYLEMAP
  5
1B6
102
{ACAD_REACTORS
330
1B5
102
}
330
1B5
100
AcDbCellStyleMap
 90
        3
300
CELLSTYLE
  1
TABLEFORMAT_BEGIN
 90
        5
170
     1
 91
        0
 92
    32768
 62
   257
 93
        1
300
CONTENTFORMAT
  1
CONTENTFORMAT_BEGIN
 90
        0
 91
        0
 92
        4
 93
        0
300

 40
0.0
140
1.0
 94
        5
 62
     0
340
11
144
6.0
309
CONTENTFORMAT_END
171
     1
301
MARGIN
  1
CELLMARGIN_BEGIN
 40
1.5
 40
1.5
 40
1.5
 40
1.5
 40
1.5
 40
1.5
309
CELLMARGIN_END
 94
        6
 95
        1
302
GRIDFORMAT
  1
GRIDFORMAT_BEGIN
 90
        0
 91
        1
 62
     0
 92
       -2
340
14
 93
        0
 40
0.045
309
GRIDFORMAT_END
 95
        2
302
GRIDFORMAT
  1
GRIDFORMAT_BEGIN
 90
        0
 91
        1
 62
     0
 92
       -2
340
14
 93
        0
 40
0.045
309
GRIDFORMAT_END
 95
        4
302
GRIDFORMAT
  1
GRIDFORMAT_BEGIN
 90
        0
 91
        1
 62
     0
 92
       -2
340
14
 93
        0
 40
0.045
309
GRIDFORMAT_END
 95
        8
302
GRIDFORMAT
  1
GRIDFORMAT_BEGIN
 90
        0
 91
        1
 62
     0
 92
       -2
340
14
 93
        0
 40
0.045
309
GRIDFORMAT_END
 95
       16
302
GRIDFORMAT
  1
GRIDFORMAT_BEGIN
 90
        0
 91
        1
 62
     0
 92
       -2
340
14
 93
        0
 40
0.045
309
GRIDFORMAT_END
 95
       32
302
GRIDFORMAT
  1
GRIDFORMAT_BEGIN
 90
        0
 91
        1
 62
     0
 92
       -2
340
14
 93
        0
 40
0.045
309
GRIDFORMAT_END
309
TABLEFORMAT_END
  1
CELLSTYLE_BEGIN
 90
        1
 91
        1
300
_TITLE
309
CELLSTYLE_END
300
CELLSTYLE
  1
TABLEFORMAT_BEGIN
 90
        5
170
     1
 91
        0
 92
        0
 62
   257
 93
        1
300
CONTENTFORMAT
  1
CONTENTFORMAT_BEGIN
 90
        0
 91
        0
 92
        4
 93
        0
300

 40
0.0
140
1.0
 94
        5
 62
     0
340
11
144
4.5
309
CONTENTFORMAT_END
171
     1
301
MARGIN
  1
CELLMARGIN_BEGIN
 40
1.5
 40
1.5
 40
1.5
 40
1.5
 40
1.5
 40
1.5
309
CELLMARGIN_END
 94
        6
 95
        1
302
GRIDFORMAT
  1
GRIDFORMAT_BEGIN
 90
        0
 91
        1
 62
     0
 92
       -2
340
14
 93
        0
 40
0.045
309
GRIDFORMAT_END
 95
        2
302
GRIDFORMAT
  1
GRIDFORMAT_BEGIN
 90
        0
 91
        1
 62
     0
 92
       -2
340
14
 93
        0
 40
0.045
309
GRIDFORMAT_END
 95
        4
302
GRIDFORMAT
  1
GRIDFORMAT_BEGIN
 90
        0
 91
        1
 62
     0
 92
       -2
340
14
 93
        0
 40
0.045
309
GRIDFORMAT_END
 95
        8
302
GRIDFORMAT
  1
GRIDFORMAT_BEGIN
 90
        0
 91
        1
 62
     0
 92
       -2
340
14
 93
        0
 40
0.045
309
GRIDFORMAT_END
 95
       16
302
GRIDFORMAT
  1
GRIDFORMAT_BEGIN
 90
        0
 91
        1
 62
     0
 92
       -2
340
14
 93
        0
 40
0.045
309
GRIDFORMAT_END
 95
       32
302
GRIDFORMAT
  1
GRIDFORMAT_BEGIN
 90
        0
 91
        1
 62
     0
 92
       -2
340
14
 93
        0
 40
0.045
309
GRIDFORMAT_END
309
TABLEFORMAT_END
  1
CELLSTYLE_BEGIN
 90
        2
 91
        1
300
_HEADER
309
CELLSTYLE_END
300
CELLSTYLE
  1
TABLEFORMAT_BEGIN
 90
        5
170
     1
 91
        0
 92
        0
 62
   257
 93
        1
300
CONTENTFORMAT
  1
CONTENTFORMAT_BEGIN
 90
        0
 91
        0
 92
        4
 93
        0
300

 40
0.0
140
1.0
 94
        2
 62
     0
340
11
144
4.5
309
CONTENTFORMAT_END
171
     1
301
MARGIN
  1
CELLMARGIN_BEGIN
 40
1.5
 40
1.5
 40
1.5
 40
1.5
 40
1.5
 40
1.5
309
CELLMARGIN_END
 94
        6
 95
        1
302
GRIDFORMAT
  1
GRIDFORMAT_BEGIN
 90
        0
 91
        1
 62
     0
 92
       -2
340
14
 93
        0
 40
0.045
309
GRIDFORMAT_END
 95
        2
302
GRIDFORMAT
  1
GRIDFORMAT_BEGIN
 90
        0
 91
        1
 62
     0
 92
       -2
340
14
 93
        0
 40
0.045
309
GRIDFORMAT_END
 95
        4
302
GRIDFORMAT
  1
GRIDFORMAT_BEGIN
 90
        0
 91
        1
 62
     0
 92
       -2
340
14
 93
        0
 40
0.045
309
GRIDFORMAT_END
 95
        8
302
GRIDFORMAT
  1
GRIDFORMAT_BEGIN
 90
        0
 91
        1
 62
     0
 92
       -2
340
14
 93
        0
 40
0.045
309
GRIDFORMAT_END
 95
       16
302
GRIDFORMAT
  1
GRIDFORMAT_BEGIN
 90
        0
 91
        1
 62
     0
 92
       -2
340
14
 93
        0
 40
0.045
309
GRIDFORMAT_END
 95
       32
302
GRIDFORMAT
  1
GRIDFORMAT_BEGIN
 90
        0
 91
        1
 62
     0
 92
       -2
340
14
 93
        0
 40
0.045
309
GRIDFORMAT_END
309
TABLEFORMAT_END
  1
CELLSTYLE_BEGIN
 90
        3
 91
        2
300
_DATA
309
CELLSTYLE_END
  0
ENDSEC
  0
EOF