0
SECTION
  2
HEADER
  9
$ACADVER
  1
AC1027
  9
$ACADMAINTVER
 70
     8
  9
$DWGCODEPAGE
  3
ANSI_1252
  9
$REQUIREDVERSIONS
160
                 0
  9
$COMMENTS
  1
File was created by Cadenas
  9
$CUSTOMPROPERTYTAG
  1
NN
  9
$CUSTOMPROPERTY
  1
Set Screw Medium Duty Two-Bolt Pillow Block Metric Bore
  9
$CUSTOMPROPERTYTAG
  1
NT
  9
$CUSTOMPROPERTY
  1
SC Pillow Block Bearings -(Medium Duty)
  9
$CUSTOMPROPERTYTAG
  1
NB
  9
$CUSTOMPROPERTY
  1
125929
  9
$CUSTOMPROPERTYTAG
  1
NBSYN
  9
$CUSTOMPROPERTY
  1
$PN.
  9
$CUSTOMPROPERTYTAG
  1
LINA
  9
$CUSTOMPROPERTY
  1
125929
  9
$CUSTOMPROPERTYTAG
  1
SERIES
  9
$CUSTOMPROPERTY
  1
210
  9
$CUSTOMPROPERTYTAG
  1
SS
  9
$CUSTOMPROPERTY
  1
45
  9
$CUSTOMPROPERTYTAG
  1
PN
  9
$CUSTOMPROPERTY
  1
125929
  9
$CUSTOMPROPERTYTAG
  1
DESCRIPTION
  9
$CUSTOMPROPERTY
  1
P2B-SCM-45M
  9
$CUSTOMPROPERTYTAG
  1
WEIGHT
  9
$CUSTOMPROPERTY
  1
3.2
  9
$CUSTOMPROPERTYTAG
  1
LF
  9
$CUSTOMPROPERTY
  1
RE-LUBE
  9
$CUSTOMPROPERTYTAG
  1
A
  9
$CUSTOMPROPERTY
  1
49.3
  9
$CUSTOMPROPERTYTAG
  1
B
  9
$CUSTOMPROPERTY
  1
206.2
  9
$CUSTOMPROPERTYTAG
  1
C
  9
$CUSTOMPROPERTY
  1
57.2
  9
$CUSTOMPROPERTYTAG
  1
DMIN
  9
$CUSTOMPROPERTY
  1
152.4
  9
$CUSTOMPROPERTYTAG
  1
DMAX
  9
$CUSTOMPROPERTY
  1
169.7
  9
$CUSTOMPROPERTYTAG
  1
F
  9
$CUSTOMPROPERTY
  1
M16
  9
$CUSTOMPROPERTYTAG
  1
G
  9
$CUSTOMPROPERTY
  1
25.9
  9
$CUSTOMPROPERTYTAG
  1
H
  9
$CUSTOMPROPERTY
  1
19.1
  9
$CUSTOMPROPERTYTAG
  1
J
  9
$CUSTOMPROPERTY
  1
115.1
  9
$CUSTOMPROPERTYTAG
  1
L
  9
$CUSTOMPROPERTY
  1
61.7
  9
$CUSTOMPROPERTYTAG
  1
M
  9
$CUSTOMPROPERTY
  1
57.2
  9
$CUSTOMPROPERTYTAG
  1
R
  9
$CUSTOMPROPERTY
  1
19.1
  9
$CUSTOMPROPERTYTAG
  1
S
  9
$CUSTOMPROPERTY
  1
30.2
  9
$CUSTOMPROPERTYTAG
  1
U
  9
$CUSTOMPROPERTY
  1
93.7
  9
$CUSTOMPROPERTYTAG
  1
V
  9
$CUSTOMPROPERTY
  1
187.5
  9
$CUSTOMPROPERTYTAG
  1
W
  9
$CUSTOMPROPERTY
  1
20.6
  9
$CUSTOMPROPERTYTAG
  1
X
  9
$CUSTOMPROPERTY
  1
3.0
  9
$CUSTOMPROPERTYTAG
  1
COMPANY
  9
$CUSTOMPROPERTY
  1
baldor
  9
$INSBASE
 10
0.0
 20
0.0
 30
0.0
  9
$EXTMIN
 10
1.000000000000000E+20
 20
1.000000000000000E+20
 30
1.000000000000000E+20
  9
$EXTMAX
 10
-1.000000000000000E+20
 20
-1.000000000000000E+20
 30
-1.000000000000000E+20
  9
$LIMMIN
 10
0.0
 20
0.0
  9
$LIMMAX
 10
420.0
 20
297.0
  9
$ORTHOMODE
 70
     0
  9
$REGENMODE
 70
     1
  9
$FILLMODE
 70
     1
  9
$QTEXTMODE
 70
     0
  9
$MIRRTEXT
 70
     1
  9
$LTSCALE
 40
1.0
  9
$ATTMODE
 70
     1
  9
$TEXTSIZE
 40
2.5
  9
$TRACEWID
 40
1.0
  9
$TEXTSTYLE
  7
Standard
  9
$CLAYER
  8
0
  9
$CELTYPE
  6
ByLayer
  9
$CECOLOR
 62
   256
  9
$CELTSCALE
 40
1.0
  9
$DISPSILH
 70
     0
  9
$DIMSCALE
 40
1.0
  9
$DIMASZ
 40
2.5
  9
$DIMEXO
 40
0.625
  9
$DIMDLI
 40
3.75
  9
$DIMRND
 40
0.0
  9
$DIMDLE
 40
0.0
  9
$DIMEXE
 40
1.25
  9
$DIMTP
 40
0.0
  9
$DIMTM
 40
0.0
  9
$DIMTXT
 40
2.5
  9
$DIMCEN
 40
2.5
  9
$DIMTSZ
 40
0.0
  9
$DIMTOL
 70
     0
  9
$DIMLIM
 70
     0
  9
$DIMTIH
 70
     0
  9
$DIMTOH
 70
     0
  9
$DIMSE1
 70
     0
  9
$DIMSE2
 70
     0
  9
$DIMTAD
 70
     1
  9
$DIMZIN
 70
     8
  9
$DIMBLK
  1

  9
$DIMASO
 70
     1
  9
$DIMSHO
 70
     1
  9
$DIMPOST
  1

  9
$DIMAPOST
  1

  9
$DIMALT
 70
     0
  9
$DIMALTD
 70
     3
  9
$DIMALTF
 40
0.03937007874016
  9
$DIMLFAC
 40
1.0
  9
$DIMTOFL
 70
     1
  9
$DIMTVP
 40
0.0
  9
$DIMTIX
 70
     0
  9
$DIMSOXD
 70
     0
  9
$DIMSAH
 70
     0
  9
$DIMBLK1
  1

  9
$DIMBLK2
  1

  9
$DIMSTYLE
  2
ISO-25
  9
$DIMCLRD
 70
     0
  9
$DIMCLRE
 70
     0
  9
$DIMCLRT
 70
     0
  9
$DIMTFAC
 40
1.0
  9
$DIMGAP
 40
0.625
  9
$DIMJUST
 70
     0
  9
$DIMSD1
 70
     0
  9
$DIMSD2
 70
     0
  9
$DIMTOLJ
 70
     0
  9
$DIMTZIN
 70
     8
  9
$DIMALTZ
 70
     0
  9
$DIMALTTZ
 70
     0
  9
$DIMUPT
 70
     0
  9
$DIMDEC
 70
     2
  9
$DIMTDEC
 70
     2
  9
$DIMALTU
 70
     2
  9
$DIMALTTD
 70
     3
  9
$DIMTXSTY
  7
Standard
  9
$DIMAUNIT
 70
     0
  9
$DIMADEC
 70
     0
  9
$DIMALTRND
 40
0.0
  9
$DIMAZIN
 70
     0
  9
$DIMDSEP
 70
    44
  9
$DIMATFIT
 70
     3
  9
$DIMFRAC
 70
     0
  9
$DIMLDRBLK
  1

  9
$DIMLUNIT
 70
     2
  9
$DIMLWD
 70
    -2
  9
$DIMLWE
 70
    -2
  9
$DIMTMOVE
 70
     0
  9
$DIMFXL
 40
1.0
  9
$DIMFXLON
 70
     0
  9
$DIMJOGANG
 40
0.7853981633974483
  9
$DIMTFILL
 70
     0
  9
$DIMTFILLCLR
 70
     0
  9
$DIMARCSYM
 70
     0
  9
$DIMLTYPE
  6

  9
$DIMLTEX1
  6

  9
$DIMLTEX2
  6

  9
$DIMTXTDIRECTION
 70
     0
  9
$LUNITS
 70
     2
  9
$LUPREC
 70
     4
  9
$SKETCHINC
 40
1.0
  9
$FILLETRAD
 40
10.0
  9
$AUNITS
 70
     0
  9
$AUPREC
 70
     0
  9
$MENU
  1
.
  9
$ELEVATION
 40
0.0
  9
$PELEVATION
 40
0.0
  9
$THICKNESS
 40
0.0
  9
$LIMCHECK
 70
     0
  9
$CHAMFERA
 40
0.0
  9
$CHAMFERB
 40
0.0
  9
$CHAMFERC
 40
0.0
  9
$CHAMFERD
 40
0.0
  9
$SKPOLY
 70
     0
  9
$TDCREATE
 40
2458168.986322732
  9
$TDUCREATE
 40
2458168.944656065
  9
$TDUPDATE
 40
2458168.986322905
  9
$TDUUPDATE
 40
2458168.944656238
  9
$TDINDWG
 40
0.0000000116
  9
$TDUSRTIMER
 40
0.0000000116
  9
$USRTIMER
 70
     1
  9
$ANGBASE
 50
0.0
  9
$ANGDIR
 70
     0
  9
$PDMODE
 70
     0
  9
$PDSIZE
 40
0.0
  9
$PLINEWID
 40
0.0
  9
$SPLFRAME
 70
     0
  9
$SPLINETYPE
 70
     6
  9
$SPLINESEGS
 70
     8
  9
$HANDSEED
  5
1F1
  9
$SURFTAB1
 70
     6
  9
$SURFTAB2
 70
     6
  9
$SURFTYPE
 70
     6
  9
$SURFU
 70
     6
  9
$SURFV
 70
     6
  9
$UCSBASE
  2

  9
$UCSNAME
  2

  9
$UCSORG
 10
0.0
 20
0.0
 30
0.0
  9
$UCSXDIR
 10
1.0
 20
0.0
 30
0.0
  9
$UCSYDIR
 10
0.0
 20
1.0
 30
0.0
  9
$UCSORTHOREF
  2

  9
$UCSORTHOVIEW
 70
     0
  9
$UCSORGTOP
 10
0.0
 20
0.0
 30
0.0
  9
$UCSORGBOTTOM
 10
0.0
 20
0.0
 30
0.0
  9
$UCSORGLEFT
 10
0.0
 20
0.0
 30
0.0
  9
$UCSORGRIGHT
 10
0.0
 20
0.0
 30
0.0
  9
$UCSORGFRONT
 10
0.0
 20
0.0
 30
0.0
  9
$UCSORGBACK
 10
0.0
 20
0.0
 30
0.0
  9
$PUCSBASE
  2

  9
$PUCSNAME
  2

  9
$PUCSORG
 10
0.0
 20
0.0
 30
0.0
  9
$PUCSXDIR
 10
1.0
 20
0.0
 30
0.0
  9
$PUCSYDIR
 10
0.0
 20
1.0
 30
0.0
  9
$PUCSORTHOREF
  2

  9
$PUCSORTHOVIEW
 70
     0
  9
$PUCSORGTOP
 10
0.0
 20
0.0
 30
0.0
  9
$PUCSORGBOTTOM
 10
0.0
 20
0.0
 30
0.0
  9
$PUCSORGLEFT
 10
0.0
 20
0.0
 30
0.0
  9
$PUCSORGRIGHT
 10
0.0
 20
0.0
 30
0.0
  9
$PUCSORGFRONT
 10
0.0
 20
0.0
 30
0.0
  9
$PUCSORGBACK
 10
0.0
 20
0.0
 30
0.0
  9
$USERI1
 70
     0
  9
$USERI2
 70
     0
  9
$USERI3
 70
     0
  9
$USERI4
 70
     0
  9
$USERI5
 70
     0
  9
$USERR1
 40
0.0
  9
$USERR2
 40
0.0
  9
$USERR3
 40
0.0
  9
$USERR4
 40
0.0
  9
$USERR5
 40
0.0
  9
$WORLDVIEW
 70
     1
  9
$SHADEDGE
 70
     3
  9
$SHADEDIF
 70
    70
  9
$TILEMODE
 70
     1
  9
$MAXACTVP
 70
    64
  9
$PINSBASE
 10
0.0
 20
0.0
 30
0.0
  9
$PLIMCHECK
 70
     0
  9
$PEXTMIN
 10
1.000000000000000E+20
 20
1.000000000000000E+20
 30
1.000000000000000E+20
  9
$PEXTMAX
 10
-1.000000000000000E+20
 20
-1.000000000000000E+20
 30
-1.000000000000000E+20
  9
$PLIMMIN
 10
0.0
 20
0.0
  9
$PLIMMAX
 10
420.0
 20
297.0
  9
$UNITMODE
 70
     0
  9
$VISRETAIN
 70
     1
  9
$PLINEGEN
 70
     0
  9
$PSLTSCALE
 70
     1
  9
$TREEDEPTH
 70
  3020
  9
$CMLSTYLE
  2
Standard
  9
$CMLJUST
 70
     0
  9
$CMLSCALE
 40
20.0
  9
$PROXYGRAPHICS
 70
     1
  9
$MEASUREMENT
 70
     1
  9
$CELWEIGHT
370
    -1
  9
$ENDCAPS
280
     0
  9
$JOINSTYLE
280
     0
  9
$LWDISPLAY
290
     0
  9
$INSUNITS
 70
     4
  9
$HYPERLINKBASE
  1

  9
$STYLESHEET
  1

  9
$XEDIT
290
     1
  9
$CEPSNTYPE
380
     0
  9
$PSTYLEMODE
290
     1
  9
$FINGERPRINTGUID
  2
{99555022-73B7-46B4-9F41-5361FA2D1FB6}
  9
$VERSIONGUID
  2
{FAEB1C32-E019-11D5-929B-00C0DF256EC4}
  9
$EXTNAMES
290
     1
  9
$PSVPSCALE
 40
0.0
  9
$OLESTARTUP
290
     0
  9
$SORTENTS
280
   127
  9
$INDEXCTL
280
     0
  9
$HIDETEXT
280
     1
  9
$XCLIPFRAME
280
     2
  9
$HALOGAP
280
     0
  9
$OBSCOLOR
 70
   257
  9
$OBSLTYPE
280
     0
  9
$INTERSECTIONDISPLAY
280
     0
  9
$INTERSECTIONCOLOR
 70
   257
  9
$DIMASSOC
280
     2
  9
$PROJECTNAME
  1

  9
$CAMERADISPLAY
290
     0
  9
$LENSLENGTH
 40
50.0
  9
$CAMERAHEIGHT
 40
0.0
  9
$STEPSPERSEC
 40
2.0
  9
$STEPSIZE
 40
6.0
  9
$3DDWFPREC
 40
2.0
  9
$PSOLWIDTH
 40
5.0
  9
$PSOLHEIGHT
 40
80.0
  9
$LOFTANG1
 40
1.570796326794897
  9
$LOFTANG2
 40
1.570796326794897
  9
$LOFTMAG1
 40
0.0
  9
$LOFTMAG2
 40
0.0
  9
$LOFTPARAM
 70
     7
  9
$LOFTNORMALS
280
     1
  9
$LATITUDE
 40
37.795
  9
$LONGITUDE
 40
-122.394
  9
$NORTHDIRECTION
 40
0.0
  9
$TIMEZONE
 70
 -8000
  9
$LIGHTGLYPHDISPLAY
280
     1
  9
$TILEMODELIGHTSYNCH
280
     1
  9
$CMATERIAL
347
44
  9
$SOLIDHIST
280
     0
  9
$SHOWHIST
280
     1
  9
$DWFFRAME
280
     2
  9
$DGNFRAME
280
     2
  9
$REALWORLDSCALE
290
     1
  9
$INTERFERECOLOR
 62
   256
  9
$CSHADOW
280
     0
  9
$SHADOWPLANELOCATION
 40
0.0
  0
ENDSEC
  0
SECTION
  2
CLASSES
  0
CLASS
  1
ACDBDICTIONARYWDFLT
  2
AcDbDictionaryWithDefault
  3
ObjectDBX Classes
 90
        0
 91
        4
280
     0
281
     0
  0
CLASS
  1
VISUALSTYLE
  2
AcDbVisualStyle
  3
ObjectDBX Classes
 90
     4095
 91
        4
280
     0
281
     0
  0
CLASS
  1
MATERIAL
  2
AcDbMaterial
  3
ObjectDBX Classes
 90
     1153
 91
        4
280
     0
281
     0
  0
CLASS
  1
SCALE
  2
AcDbScale
  3
ObjectDBX Classes
 90
     1153
 91
        4
280
     0
281
     0
  0
CLASS
  1
TABLESTYLE
  2
AcDbTableStyle
  3
ObjectDBX Classes
 90
     4095
 91
        4
280
     0
281
     0
  0
CLASS
  1
MLEADERSTYLE
  2
AcDbMLeaderStyle
  3
ACDB_MLEADERSTYLE_CLASS
 90
     4095
 91
        4
280
     0
281
     0
  0
CLASS
  1
SUN
  2
AcDbSun
  3
SCENEOE
 90
     1153
 91
        4
280
     0
281
     0
  0
CLASS
  1
DICTIONARYVAR
  2
AcDbDictionaryVar
  3
ObjectDBX Classes
 90
        0
 91
        4
280
     0
281
     0
  0
CLASS
  1
CELLSTYLEMAP
  2
AcDbCellStyleMap
  3
ObjectDBX Classes
 90
     1152
 91
        4
280
     0
281
     0
  0
ENDSEC
  0
SECTION
  2
TABLES
  0
TABLE
  2
VPORT
  5
8
330
0
100
AcDbSymbolTable
 70
     1
  0
VPORT
  5
29
330
8
100
AcDbSymbolTableRecord
100
AcDbViewportTableRecord
  2
*Active
 70
     0
 10
0.0
 20
0.0
 11
1.0
 21
1.0
 12
0.0
 22
-0.6025000000000205
 13
0.0
 23
0.0
 14
10.0
 24
10.0
 15
10.0
 25
10.0
 16
0.0
 26
0.0
 36
1.0
 17
0.0
 27
0.0
 37
0.0
 40
65.40750000000001
 41
3.21559454191033
 42
50.0
 43
0.0
 44
0.0
 50
0.0
 51
0.0
 71
     0
 72
   100
 73
     1
 74
     3
 75
     0
 76
     0
 77
     0
 78
     0
281
     0
 65
     1
110
0.0
120
0.0
130
0.0
111
1.0
121
0.0
131
0.0
112
0.0
122
1.0
132
0.0
 79
     0
146
0.0
348
2F
 60
     3
 61
     5
292
     1
282
     1
141
0.0
142
0.0
 63
   250
361
6D
  0
ENDTAB
  0
TABLE
  2
LTYPE
  5
5
330
0
100
AcDbSymbolTable
 70
     3
  0
LTYPE
  5
14
330
5
100
AcDbSymbolTableRecord
100
AcDbLinetypeTableRecord
  2
ByBlock
 70
     0
  3

 72
    65
 73
     0
 40
0.0
  0
LTYPE
  5
15
330
5
100
AcDbSymbolTableRecord
100
AcDbLinetypeTableRecord
  2
ByLayer
 70
     0
  3

 72
    65
 73
     0
 40
0.0
  0
LTYPE
  5
16
330
5
100
AcDbSymbolTableRecord
100
AcDbLinetypeTableRecord
  2
Continuous
 70
     0
  3
Solid line
 72
    65
 73
     0
 40
0.0
  0
LTYPE
  5
9C
330
5
100
AcDbSymbolTableRecord
100
AcDbLinetypeTableRecord
  2
Dashed
 70
     0
  3

 72
    65
 73
     2
 40
2.0
 49
1.0
 74
     0
 49
-1.0
 74
     0
  0
LTYPE
  5
123
330
5
100
AcDbSymbolTableRecord
100
AcDbLinetypeTableRecord
  2
Center
 70
     0
  3

 72
    65
 73
     4
 40
1.5
 49
0.45
 74
     0
 49
-0.5
 74
     0
 49
0.05
 74
     0
 49
-0.5
 74
     0
  0
ENDTAB
  0
TABLE
  2
LAYER
  5
2
330
0
100
AcDbSymbolTable
 70
     7
  0
LAYER
  5
10
330
2
100
AcDbSymbolTableRecord
100
AcDbLayerTableRecord
  2
0
 70
     0
 62
     7
  6
Continuous
370
    -3
390
F
347
46
348
0
  0
LAYER
  5
72
330
2
100
AcDbSymbolTableRecord
100
AcDbLayerTableRecord
  2
AM_6
 70
     0
 62
    -2
  6
Continuous
370
    35
390
F
347
46
348
0
  0
LAYER
  5
9D
330
2
100
AcDbSymbolTableRecord
100
AcDbLayerTableRecord
  2
AM_9
 70
     0
 62
     6
  6
Dashed
370
    25
390
F
347
46
348
0
  0
LAYER
  5
BA
330
2
100
AcDbSymbolTableRecord
100
AcDbLayerTableRecord
  2
AM_4
 70
     0
 62
     7
  6
Continuous
370
    50
390
F
347
46
348
0
  0
LAYER
  5
124
330
2
100
AcDbSymbolTableRecord
100
AcDbLayerTableRecord
  2
AM_7
 70
     0
 62
     7
  6
Center
370
    25
390
F
347
46
348
0
  0
LAYER
  5
137
330
2
100
AcDbSymbolTableRecord
100
AcDbLayerTableRecord
  2
AM_5
 70
     0
 62
     3
  6
Continuous
370
    25
390
F
347
46
348
0
  0
LAYER
  5
1E4
330
2
100
AcDbSymbolTableRecord
100
AcDbLayerTableRecord
  2
ConnectionPoints
 70
     0
 62
     7
  6
Continuous
370
    50
390
F
347
46
348
0
  0
ENDTAB
  0
TABLE
  2
STYLE
  5
3
330
0
100
AcDbSymbolTable
 70
     1
  0
STYLE
  5
11
330
3
100
AcDbSymbolTableRecord
100
AcDbTextStyleTableRecord
  2
Standard
 70
     0
 40
0.0
 41
1.0
 50
0.0
 71
     0
 42
2.5
  3
txt
  4

  0
ENDTAB
  0
TABLE
  2
VIEW
  5
6
330
0
100
AcDbSymbolTable
 70
     0
  0
ENDTAB
  0
TABLE
  2
UCS
  5
7
330
0
100
AcDbSymbolTable
 70
     0
  0
ENDTAB
  0
TABLE
  2
APPID
  5
9
330
0
100
AcDbSymbolTable
 70
     1
  0
APPID
  5
12
330
9
100
AcDbSymbolTableRecord
100
AcDbRegAppTableRecord
  2
ACAD
 70
     0
  0
ENDTAB
  0
TABLE
  2
DIMSTYLE
  5
A
330
0
100
AcDbSymbolTable
 70
     1
100
AcDbDimStyleTable
  0
DIMSTYLE
105
27
330
A
100
AcDbSymbolTableRecord
100
AcDbDimStyleTableRecord
  2
ISO-25
 70
     0
 41
2.5
 42
0.625
 43
3.75
 44
1.25
 73
     0
 74
     0
 77
     1
 78
     8
140
2.5
141
2.5
143
0.03937007874016
147
0.625
171
     3
172
     1
178
     0
271
     2
272
     2
274
     3
278
    44
283
     0
284
     8
340
11
  0
ENDTAB
  0
TABLE
  2
BLOCK_RECORD
  5
1
330
0
100
AcDbSymbolTable
 70
     5
  0
BLOCK_RECORD
  5
1F
330
1
100
AcDbSymbolTableRecord
100
AcDbBlockTableRecord
  2
*Model_Space
340
22
 70
     0
280
     1
281
     0
  0
BLOCK_RECORD
  5
1B
330
1
100
AcDbSymbolTableRecord
100
AcDbBlockTableRecord
  2
*Paper_Space
340
1E
 70
     0
280
     1
281
     0
  0
BLOCK_RECORD
  5
23
330
1
100
AcDbSymbolTableRecord
100
AcDbBlockTableRecord
  2
*Paper_Space0
340
26
 70
     0
280
     1
281
     0
  0
BLOCK_RECORD
  5
6E
330
1
100
AcDbSymbolTableRecord
100
AcDbBlockTableRecord
  2
1_125929_4
340
0
102
{BLKREFS
331
6F
102
}
 70
     0
280
     1
281
     0
  0
BLOCK_RECORD
  5
90
330
1
100
AcDbSymbolTableRecord
100
AcDbBlockTableRecord
  2
2_405015E_Metric_0_in_125929_4
340
0
102
{BLKREFS
331
91
102
}
 70
     0
280
     1
281
     0
  0
BLOCK_RECORD
  5
D8
330
1
100
AcDbSymbolTableRecord
100
AcDbBlockTableRecord
  2
3_125832_0_in_125929_4
340
0
102
{BLKREFS
331
D9
102
}
 70
     0
280
     1
281
     0
  0
BLOCK_RECORD
  5
13A
330
1
100
AcDbSymbolTableRecord
100
AcDbBlockTableRecord
  2
4_125929H_0_in_125929_4
340
0
102
{BLKREFS
331
13B
102
}
 70
     0
280
     1
281
     0
  0
ENDTAB
  0
ENDSEC
  0
SECTION
  2
BLOCKS
  0
BLOCK
  5
20
330
1F
100
AcDbEntity
  8
0
100
AcDbBlockBegin
  2
*Model_Space
 70
     0
 10
0.0
 20
0.0
 30
0.0
  3
*Model_Space
  1

  0
ENDBLK
  5
21
330
1F
100
AcDbEntity
  8
0
100
AcDbBlockEnd
  0
BLOCK
  5
1C
330
1B
100
AcDbEntity
 67
     1
  8
0
100
AcDbBlockBegin
  2
*Paper_Space
 70
     0
 10
0.0
 20
0.0
 30
0.0
  3
*Paper_Space
  1

  0
ENDBLK
  5
1D
330
1B
100
AcDbEntity
 67
     1
  8
0
100
AcDbBlockEnd
  0
BLOCK
  5
24
330
23
100
AcDbEntity
  8
0
100
AcDbBlockBegin
  2
*Paper_Space0
 70
     0
 10
0.0
 20
0.0
 30
0.0
  3
*Paper_Space0
  1

  0
ENDBLK
  5
25
330
23
100
AcDbEntity
  8
0
100
AcDbBlockEnd
  0
BLOCK
  5
70
330
6E
100
AcDbEntity
  8
0
100
AcDbBlockBegin
  2
1_125929_4
 70
     2
 10
0.0
 20
0.0
 30
0.0
  3
1_125929_4
  1

  0
ATTDEF
  5
73
330
6E
100
AcDbEntity
  8
AM_6
100
AcDbText
 10
108.1
 20
31.46
 30
0.0
 40
0.5
  1
Set Screw Medium Duty Two-Bolt Pillow Block Metric Bore
100
AcDbAttributeDefinition
  3

  2
NN
 70
     8
280
     0
  0
ATTDEF
  5
74
330
6E
100
AcDbEntity
  8
AM_6
100
AcDbText
 10
108.1
 20
30.96
 30
0.0
 40
0.5
  1
SC Pillow Block Bearings -(Medium Duty)
100
AcDbAttributeDefinition
  3

  2
NT
 70
     8
280
     0
  0
ATTDEF
  5
75
330
6E
100
AcDbEntity
  8
AM_6
100
AcDbText
 10
108.1
 20
30.46
 30
0.0
 40
0.5
  1
125929
100
AcDbAttributeDefinition
  3

  2
NB
 70
     8
280
     0
  0
ATTDEF
  5
76
330
6E
100
AcDbEntity
  8
AM_6
100
AcDbText
 10
108.1
 20
29.96
 30
0.0
 40
0.5
  1
$PN.
100
AcDbAttributeDefinition
  3

  2
NBSYN
 70
     8
280
     0
  0
ATTDEF
  5
77
330
6E
100
AcDbEntity
  8
AM_6
100
AcDbText
 10
108.1
 20
29.46
 30
0.0
 40
0.5
  1
125929
100
AcDbAttributeDefinition
  3

  2
LINA
 70
     8
280
     0
  0
ATTDEF
  5
78
330
6E
100
AcDbEntity
  8
AM_6
100
AcDbText
 10
108.1
 20
28.96
 30
0.0
 40
0.5
  1
210
100
AcDbAttributeDefinition
  3

  2
SERIES
 70
     8
280
     0
  0
ATTDEF
  5
79
330
6E
100
AcDbEntity
  8
AM_6
100
AcDbText
 10
108.1
 20
28.46
 30
0.0
 40
0.5
  1
45
100
AcDbAttributeDefinition
  3

  2
SS
 70
     8
280
     0
  0
ATTDEF
  5
7A
330
6E
100
AcDbEntity
  8
AM_6
100
AcDbText
 10
108.1
 20
27.96
 30
0.0
 40
0.5
  1
125929
100
AcDbAttributeDefinition
  3

  2
PN
 70
     8
280
     0
  0
ATTDEF
  5
7B
330
6E
100
AcDbEntity
  8
AM_6
100
AcDbText
 10
108.1
 20
27.46
 30
0.0
 40
0.5
  1
P2B-SCM-45M
100
AcDbAttributeDefinition
  3

  2
DESCRIPTION
 70
     8
280
     0
  0
ATTDEF
  5
7C
330
6E
100
AcDbEntity
  8
AM_6
100
AcDbText
 10
108.1
 20
26.96
 30
0.0
 40
0.5
  1
3.2
100
AcDbAttributeDefinition
  3

  2
WEIGHT
 70
     8
280
     0
  0
ATTDEF
  5
7D
330
6E
100
AcDbEntity
  8
AM_6
100
AcDbText
 10
108.1
 20
26.46
 30
0.0
 40
0.5
  1
RE-LUBE
100
AcDbAttributeDefinition
  3

  2
LF
 70
     8
280
     0
  0
ATTDEF
  5
7E
330
6E
100
AcDbEntity
  8
AM_6
100
AcDbText
 10
108.1
 20
25.96
 30
0.0
 40
0.5
  1
49.3
100
AcDbAttributeDefinition
  3

  2
A
 70
     8
280
     0
  0
ATTDEF
  5
7F
330
6E
100
AcDbEntity
  8
AM_6
100
AcDbText
 10
108.1
 20
25.46
 30
0.0
 40
0.5
  1
206.2
100
AcDbAttributeDefinition
  3

  2
B
 70
     8
280
     0
  0
ATTDEF
  5
80
330
6E
100
AcDbEntity
  8
AM_6
100
AcDbText
 10
108.1
 20
24.96
 30
0.0
 40
0.5
  1
57.2
100
AcDbAttributeDefinition
  3

  2
C
 70
     8
280
     0
  0
ATTDEF
  5
81
330
6E
100
AcDbEntity
  8
AM_6
100
AcDbText
 10
108.1
 20
24.46
 30
0.0
 40
0.5
  1
152.4
100
AcDbAttributeDefinition
  3

  2
DMIN
 70
     8
280
     0
  0
ATTDEF
  5
82
330
6E
100
AcDbEntity
  8
AM_6
100
AcDbText
 10
108.1
 20
23.96
 30
0.0
 40
0.5
  1
169.7
100
AcDbAttributeDefinition
  3

  2
DMAX
 70
     8
280
     0
  0
ATTDEF
  5
83
330
6E
100
AcDbEntity
  8
AM_6
100
AcDbText
 10
108.1
 20
23.46
 30
0.0
 40
0.5
  1
M16
100
AcDbAttributeDefinition
  3

  2
F
 70
     8
280
     0
  0
ATTDEF
  5
84
330
6E
100
AcDbEntity
  8
AM_6
100
AcDbText
 10
108.1
 20
22.96
 30
0.0
 40
0.5
  1
25.9
100
AcDbAttributeDefinition
  3

  2
G
 70
     8
280
     0
  0
ATTDEF
  5
85
330
6E
100
AcDbEntity
  8
AM_6
100
AcDbText
 10
108.1
 20
22.46
 30
0.0
 40
0.5
  1
19.1
100
AcDbAttributeDefinition
  3

  2
H
 70
     8
280
     0
  0
ATTDEF
  5
86
330
6E
100
AcDbEntity
  8
AM_6
100
AcDbText
 10
108.1
 20
21.96
 30
0.0
 40
0.5
  1
115.1
100
AcDbAttributeDefinition
  3

  2
J
 70
     8
280
     0
  0
ATTDEF
  5
87
330
6E
100
AcDbEntity
  8
AM_6
100
AcDbText
 10
108.1
 20
21.46
 30
0.0
 40
0.5
  1
61.7
100
AcDbAttributeDefinition
  3

  2
L
 70
     8
280
     0
  0
ATTDEF
  5
88
330
6E
100
AcDbEntity
  8
AM_6
100
AcDbText
 10
108.1
 20
20.96
 30
0.0
 40
0.5
  1
57.2
100
AcDbAttributeDefinition
  3

  2
M
 70
     8
280
     0
  0
ATTDEF
  5
89
330
6E
100
AcDbEntity
  8
AM_6
100
AcDbText
 10
108.1
 20
20.46
 30
0.0
 40
0.5
  1
19.1
100
AcDbAttributeDefinition
  3

  2
R
 70
     8
280
     0
  0
ATTDEF
  5
8A
330
6E
100
AcDbEntity
  8
AM_6
100
AcDbText
 10
108.1
 20
19.96
 30
0.0
 40
0.5
  1
30.2
100
AcDbAttributeDefinition
  3

  2
S
 70
     8
280
     0
  0
ATTDEF
  5
8B
330
6E
100
AcDbEntity
  8
AM_6
100
AcDbText
 10
108.1
 20
19.46
 30
0.0
 40
0.5
  1
93.7
100
AcDbAttributeDefinition
  3

  2
U
 70
     8
280
     0
  0
ATTDEF
  5
8C
330
6E
100
AcDbEntity
  8
AM_6
100
AcDbText
 10
108.1
 20
18.96
 30
0.0
 40
0.5
  1
187.5
100
AcDbAttributeDefinition
  3

  2
V
 70
     8
280
     0
  0
ATTDEF
  5
8D
330
6E
100
AcDbEntity
  8
AM_6
100
AcDbText
 10
108.1
 20
18.46
 30
0.0
 40
0.5
  1
20.6
100
AcDbAttributeDefinition
  3

  2
W
 70
     8
280
     0
  0
ATTDEF
  5
8E
330
6E
100
AcDbEntity
  8
AM_6
100
AcDbText
 10
108.1
 20
17.96
 30
0.0
 40
0.5
  1
3.0
100
AcDbAttributeDefinition
  3

  2
X
 70
     8
280
     0
  0
ATTDEF
  5
8F
330
6E
100
AcDbEntity
  8
AM_6
100
AcDbText
 10
108.1
 20
17.46
 30
0.0
 40
0.5
  1
baldor
100
AcDbAttributeDefinition
  3

  2
COMPANY
 70
     8
280
     0
  0
INSERT
  5
91
330
6E
100
AcDbEntity
  8
0
100
AcDbBlockReference
  2
2_405015E_Metric_0_in_125929_4
 10
0.0
 20
0.0
 30
0.0
  0
INSERT
  5
D9
330
6E
100
AcDbEntity
  8
0
100
AcDbBlockReference
  2
3_125832_0_in_125929_4
 10
0.0
 20
0.0
 30
0.0
  0
INSERT
  5
13B
330
6E
100
AcDbEntity
  8
0
100
AcDbBlockReference
  2
4_125929H_0_in_125929_4
 10
0.0
 20
0.0
 30
0.0
  0
ENDBLK
  5
71
330
6E
100
AcDbEntity
  8
0
100
AcDbBlockEnd
  0
BLOCK
  5
92
330
90
100
AcDbEntity
  8
0
100
AcDbBlockBegin
  2
2_405015E_Metric_0_in_125929_4
 70
     2
 10
0.0
 20
0.0
 30
0.0
  3
2_405015E_Metric_0_in_125929_4
  1

  0
ATTDEF
  5
94
330
90
100
AcDbEntity
  8
AM_6
100
AcDbText
 10
54.35035938363976
 20
5.000000000000003
 30
0.0
 40
0.5
  1
405015E -Metric
100
AcDbAttributeDefinition
  3

  2
NN
 70
     8
280
     0
  0
ATTDEF
  5
95
330
90
100
AcDbEntity
  8
AM_6
100
AcDbText
 10
54.35035938363976
 20
4.500000000000003
 30
0.0
 40
0.5
  1
Grease Fitting
100
AcDbAttributeDefinition
  3

  2
NT
 70
     8
280
     0
  0
ATTDEF
  5
96
330
90
100
AcDbEntity
  8
AM_6
100
AcDbText
 10
54.35035938363976
 20
4.000000000000003
 30
0.0
 40
0.5
  1
405015E-Metric
100
AcDbAttributeDefinition
  3

  2
NB
 70
     8
280
     0
  0
ATTDEF
  5
97
330
90
100
AcDbEntity
  8
AM_6
100
AcDbText
 10
54.35035938363976
 20
3.500000000000003
 30
0.0
 40
0.5
  1
$MN.-Metric
100
AcDbAttributeDefinition
  3

  2
NBSYN
 70
     8
280
     0
  0
ATTDEF
  5
98
330
90
100
AcDbEntity
  8
AM_6
100
AcDbText
 10
54.35035938363976
 20
3.000000000000003
 30
0.0
 40
0.5
  1
405015E
100
AcDbAttributeDefinition
  3

  2
LINA
 70
     8
280
     0
  0
ATTDEF
  5
99
330
90
100
AcDbEntity
  8
AM_6
100
AcDbText
 10
54.35035938363976
 20
2.500000000000003
 30
0.0
 40
0.5
  1
405015E
100
AcDbAttributeDefinition
  3

  2
MN
 70
     8
280
     0
  0
ATTDEF
  5
9A
330
90
100
AcDbEntity
  8
AM_6
100
AcDbText
 10
54.35035938363976
 20
2.000000000000003
 30
0.0
 40
0.5
  1
1/8 x 27PTF
100
AcDbAttributeDefinition
  3

  2
T
 70
     8
280
     0
  0
ATTDEF
  5
9B
330
90
100
AcDbEntity
  8
AM_6
100
AcDbText
 10
54.35035938363976
 20
1.500000000000003
 30
0.0
 40
0.5
  1
baldor
100
AcDbAttributeDefinition
  3

  2
COMPANY
 70
     8
280
     0
  0
LWPOLYLINE
  5
9E
330
90
100
AcDbEntity
  8
AM_9
100
AcDbPolyline
 90
        3
 70
     0
 43
0.0
 10
45.17052007784398
 20
0.0000000000000023
 10
44.55497428141284
 20
-1.24437966340913
 10
44.00334480918007
 20
-2.499999999999997
  0
LWPOLYLINE
  5
9F
330
90
100
AcDbEntity
  8
AM_9
100
AcDbPolyline
 90
        3
 70
     0
 43
0.0
 10
44.00334480918007
 20
2.500000000000002
 10
44.55233804730126
 20
1.250000000000002
 10
45.17052007784398
 20
0.0000000000000023
  0
ELLIPSE
  5
A0
330
90
100
AcDbEntity
  8
AM_9
100
AcDbEllipse
 10
36.18194688653445
 20
0.0000000000000022
 30
0.0
 11
2.546036870355444E-16
 21
4.15799375318352
 31
0.0
210
0.0
220
0.0
230
1.0
 40
0.7071067811865476
 41
0.0
 42
6.283185307179586
  0
LWPOLYLINE
  5
A1
330
90
100
AcDbEntity
  8
AM_9
100
AcDbPolyline
 90
        3
 70
     0
 43
0.0
 10
46.12466515273971
 20
-2.499999999999995
 10
46.59629264077818
 20
-1.249999999999996
 10
46.99873133639512
 20
0.0000000000000025
  0
LWPOLYLINE
  5
A2
330
90
100
AcDbEntity
  8
AM_9
100
AcDbPolyline
 90
        3
 70
     0
 43
0.0
 10
46.99873133639512
 20
0.0000000000000025
 10
46.5982453922767
 20
1.244379663409137
 10
46.12466515273971
 20
2.500000000000003
  0
LWPOLYLINE
  5
A3
330
90
100
AcDbEntity
  8
AM_9
100
AcDbPolyline
 90
        3
 70
     0
 43
0.0
 10
43.12927862552467
 20
5.000000000000003
 10
43.52976456964308
 20
3.755620336590869
 10
44.00334480918007
 20
2.500000000000002
  0
LINE
  5
A4
330
90
100
AcDbEntity
  8
AM_9
100
AcDbLine
 10
46.99873133639512
 20
0.0000000000000025
 30
0.0
 11
45.17052007784398
 21
0.0000000000000023
 31
0.0
  0
LWPOLYLINE
  5
A5
330
90
100
AcDbEntity
  8
AM_9
100
AcDbPolyline
 90
        3
 70
     0
 43
0.0
 10
44.00334480918007
 20
-2.499999999999997
 10
43.53171732114161
 20
-3.749999999999997
 10
43.12927862552467
 20
-4.999999999999997
  0
LINE
  5
A6
330
90
100
AcDbEntity
  8
AM_9
100
AcDbLine
 10
46.12466515273971
 20
2.500000000000003
 30
0.0
 11
45.86703236113205
 21
3.108284441446314
 31
0.0
  0
LINE
  5
A7
330
90
100
AcDbEntity
  8
AM_9
100
AcDbLine
 10
45.87011502493166
 20
-3.101254590063021
 30
0.0
 11
46.12466515273971
 21
-2.499999999999995
 31
0.0
  0
LINE
  5
A8
330
90
100
AcDbEntity
  8
AM_9
100
AcDbLine
 10
36.50109235662928
 20
-4.755705400136177
 30
0.0
 11
40.83195876138997
 21
-4.947207567024082
 31
0.0
  0
LINE
  5
A9
330
90
100
AcDbEntity
  8
AM_9
100
AcDbLine
 10
40.83195876138997
 20
4.947207567024088
 30
0.0
 11
36.50109235662928
 21
4.755705400136183
 31
0.0
  0
ELLIPSE
  5
AA
330
90
100
AcDbEntity
  8
AM_9
100
AcDbEllipse
 10
43.06280297426025
 20
-0.0000000000004534
 30
0.0
 11
-9.184850993606657E-16
 21
-5.000000000000821
 31
0.0
210
0.0
220
0.0
230
1.0
 40
0.707106781186548
 41
0.8982051386274357
 42
2.2433875149625
  0
LINE
  5
AB
330
90
100
AcDbEntity
  8
AM_9
100
AcDbLine
 10
45.84249200467069
 20
1.989928832732518
 30
0.0
 11
45.57867253278381
 21
2.40658641745395
 31
0.0
  0
LINE
  5
AC
330
90
100
AcDbEntity
  8
AM_9
100
AcDbLine
 10
45.57867253278381
 20
-2.406586417453944
 30
0.0
 11
45.84249200467069
 21
-1.989928832732512
 31
0.0
  0
ELLIPSE
  5
AD
330
90
100
AcDbEntity
  8
AM_9
100
AcDbEllipse
 10
44.27111644379204
 20
0.0000000000000304
 30
0.0
 11
-5.479672885901868E-16
 21
-2.982994982562608
 31
0.0
210
0.0
220
0.0
230
1.0
 40
0.7071067811865476
 41
0.3869422381884107
 42
2.754650415401376
  0
ELLIPSE
  5
AE
330
90
100
AcDbEntity
  8
AM_9
100
AcDbEllipse
 10
43.67827739336374
 20
-0.0000000000084279
 30
0.0
 11
-6.627024103745460E-16
 21
-3.607583894588738
 31
0.0
210
0.0
220
0.0
230
1.0
 40
0.707106781186547
 41
0.6633833151883879
 42
2.478209338404287
  0
LINE
  5
AF
330
90
100
AcDbEntity
  8
AM_9
100
AcDbLine
 10
45.56202519663375
 20
2.477229919855584
 30
0.0
 11
45.09046354576878
 21
2.748977116714939
 31
0.0
  0
LINE
  5
B0
330
90
100
AcDbEntity
  8
AM_9
100
AcDbLine
 10
45.09046354576877
 20
-2.748977116714933
 30
0.0
 11
45.56202519663375
 21
-2.477229919855578
 31
0.0
  0
ELLIPSE
  5
B1
330
90
100
AcDbEntity
  8
AM_9
100
AcDbEllipse
 10
44.84824759675675
 20
0.0000000000000009
 30
0.0
 11
-4.913895281578753E-16
 21
-2.674999999999999
 31
0.0
210
0.0
220
0.0
230
1.0
 40
0.707106781186554
 41
0.0
 42
3.141592653589793
  0
ELLIPSE
  5
B2
330
90
100
AcDbEntity
  8
AM_9
100
AcDbEllipse
 10
43.06280297426077
 20
0.0000000000000139
 30
0.0
 11
-8.725608443924909E-16
 21
-4.75000000000001
 31
0.0
210
0.0
220
0.0
230
1.0
 40
0.7071067811865412
 41
0.8736482899486093
 42
2.267944363641179
  0
LINE
  5
B3
330
90
100
AcDbEntity
  8
AM_9
100
AcDbLine
 10
44.96492021565255
 20
-2.674999999999997
 30
0.0
 11
45.34322234358736
 21
-2.674999999999997
 31
0.0
  0
LINE
  5
B4
330
90
100
AcDbEntity
  8
AM_9
100
AcDbLine
 10
45.34322234358736
 20
2.675000000000003
 30
0.0
 11
44.96492021565255
 21
2.675000000000003
 31
0.0
  0
ELLIPSE
  5
B5
330
90
100
AcDbEntity
  8
AM_9
100
AcDbEllipse
 10
45.34322234358736
 20
0.0000000000000052
 30
0.0
 11
-4.913895281578755E-16
 21
-2.675
 31
0.0
210
0.0
220
0.0
230
1.0
 40
0.7071067811865483
 41
5.888394187479824
 42
9.81956908046914
  0
ELLIPSE
  5
B6
330
90
100
AcDbEntity
  8
AM_9
100
AcDbEllipse
 10
46.2624611591299
 20
0.000000000000012
 30
0.0
 11
-5.832380380939243E-16
 21
-3.174999999999986
 31
0.0
210
0.0
220
0.0
230
1.0
 40
0.7071067811865411
 41
0.41591405210254
 42
2.725678601487252
  0
ELLIPSE
  5
B7
330
90
100
AcDbEntity
  8
AM_9
100
AcDbEllipse
 10
40.94148263070108
 20
0.0000000000000191
 30
0.0
 11
-9.184850993605107E-16
 21
-4.999999999999977
 31
0.0
210
0.0
220
0.0
230
1.0
 40
0.7071067811865479
 41
0.0
 42
6.283185307179586
  0
ELLIPSE
  5
B8
330
90
100
AcDbEntity
  8
AM_9
100
AcDbEllipse
 10
40.94148263070109
 20
-0.0000000000000027
 30
0.0
 11
-9.092325864233693E-16
 21
-4.949631665534979
 31
0.0
210
0.0
220
0.0
230
1.0
 40
0.7071067811865481
 41
0.0
 42
6.283185307179586
  0
ELLIPSE
  5
B9
330
90
100
AcDbEntity
  8
AM_9
100
AcDbEllipse
 10
36.60623620131188
 20
-0.0000000000000044
 30
0.0
 11
-8.740358316248960E-16
 21
-4.758029456511782
 31
0.0
210
0.0
220
0.0
230
1.0
 40
0.7071067811865477
 41
0.0
 42
6.283185307179586
  0
LWPOLYLINE
  5
BB
330
90
100
AcDbEntity
  8
AM_4
100
AcDbPolyline
 90
        3
 70
     0
 43
0.0
 10
45.86703236113205
 20
3.108284441446314
 10
45.57567191461852
 20
3.750000000000003
 10
44.95748988407581
 20
5.000000000000003
  0
LWPOLYLINE
  5
BC
330
90
100
AcDbEntity
  8
AM_4
100
AcDbPolyline
 90
        3
 70
     0
 43
0.0
 10
44.95748988407581
 20
-4.999999999999997
 10
45.57303568050693
 20
-3.755620336590863
 10
45.87011502493166
 20
-3.101254590063021
  0
ELLIPSE
  5
BD
330
90
100
AcDbEntity
  8
AM_4
100
AcDbEllipse
 10
43.06280297426072
 20
-0.0000000000000142
 30
0.0
 11
-9.184850993605183E-16
 21
-5.00000000000002
 31
0.0
210
0.0
220
0.0
230
1.0
 40
0.707106781186549
 41
2.243387514962514
 42
7.181390445806869
  0
ELLIPSE
  5
BE
330
90
100
AcDbEntity
  8
AM_4
100
AcDbEllipse
 10
43.67827739335733
 20
-0.0000000000000029
 30
0.0
 11
-6.627024103768206E-16
 21
-3.60758389460112
 31
0.0
210
0.0
220
0.0
230
1.0
 40
0.7071067811865485
 41
2.47820933840087
 42
6.946568622368513
  0
LINE
  5
BF
330
90
100
AcDbEntity
  8
AM_4
100
AcDbLine
 10
45.09046354576878
 20
2.748977116714939
 30
0.0
 11
45.06707719111867
 21
2.762453989376799
 31
0.0
  0
LINE
  5
C0
330
90
100
AcDbEntity
  8
AM_4
100
AcDbLine
 10
45.06707719111867
 20
-2.762453989376794
 30
0.0
 11
45.09046354576877
 21
-2.748977116714933
 31
0.0
  0
ELLIPSE
  5
C1
330
90
100
AcDbEntity
  8
AM_4
100
AcDbEllipse
 10
44.2711164437921
 20
0.0000000000000024
 30
0.0
 11
-5.479672885901694E-16
 21
-2.982994982562513
 31
0.0
210
0.0
220
0.0
230
1.0
 40
0.7071067811865487
 41
2.754650415401408
 42
6.670127545367972
  0
ELLIPSE
  5
C2
330
90
100
AcDbEntity
  8
AM_4
100
AcDbEllipse
 10
43.06280297426073
 20
0.0000000000000027
 30
0.0
 11
-8.725608443924888E-16
 21
-4.749999999999998
 31
0.0
210
0.0
220
0.0
230
1.0
 40
0.7071067811865475
 41
2.267944363641178
 42
7.156833597128203
  0
LINE
  5
C3
330
90
100
AcDbEntity
  8
AM_4
100
AcDbLine
 10
44.95748988407581
 20
-4.999999999999997
 30
0.0
 11
39.04679572088603
 21
-4.999999999999997
 31
0.0
  0
LWPOLYLINE
  5
C4
330
90
100
AcDbEntity
  8
AM_4
100
AcDbPolyline
 90
        3
 70
     0
 43
0.0
 10
40.00094079578177
 20
-2.499999999999995
 10
40.47256828382023
 20
-3.749999999999997
 10
40.87500697943717
 20
-4.999999999999997
  0
LWPOLYLINE
  5
C5
330
90
100
AcDbEntity
  8
AM_4
100
AcDbPolyline
 90
        3
 70
     0
 43
0.0
 10
37.87962045222212
 20
-2.499999999999997
 10
37.40799296418366
 20
-1.249999999999997
 10
37.00555426856672
 20
0.0000000000000028
  0
LWPOLYLINE
  5
C6
330
90
100
AcDbEntity
  8
AM_4
100
AcDbPolyline
 90
        3
 70
     0
 43
0.0
 10
39.04679572088603
 20
-4.999999999999997
 10
38.4312499244549
 20
-3.755620336590864
 10
37.87962045222212
 20
-2.499999999999997
  0
LWPOLYLINE
  5
C7
330
90
100
AcDbEntity
  8
AM_4
100
AcDbPolyline
 90
        3
 70
     0
 43
0.0
 10
38.83376552711785
 20
0.0000000000000029
 10
39.449311323549
 20
-1.24437966340913
 10
40.00094079578177
 20
-2.499999999999995
  0
LINE
  5
C8
330
90
100
AcDbEntity
  8
AM_4
100
AcDbLine
 10
38.83376552711785
 20
0.0000000000000029
 30
0.0
 11
37.00555426856672
 21
0.0000000000000028
 31
0.0
  0
LWPOLYLINE
  5
C9
330
90
100
AcDbEntity
  8
AM_4
100
AcDbPolyline
 90
        3
 70
     0
 43
0.0
 10
40.00094079578177
 20
2.500000000000003
 10
39.45194755766058
 20
1.250000000000003
 10
38.83376552711785
 20
0.0000000000000029
  0
LWPOLYLINE
  5
CA
330
90
100
AcDbEntity
  8
AM_4
100
AcDbPolyline
 90
        3
 70
     0
 43
0.0
 10
40.87500697943717
 20
5.000000000000003
 10
40.47452103531875
 20
3.75562033659087
 10
40.00094079578177
 20
2.500000000000003
  0
LINE
  5
CB
330
90
100
AcDbEntity
  8
AM_4
100
AcDbLine
 10
44.95748988407581
 20
5.000000000000003
 30
0.0
 11
39.04679572088603
 21
5.000000000000003
 31
0.0
  0
LWPOLYLINE
  5
CC
330
90
100
AcDbEntity
  8
AM_4
100
AcDbPolyline
 90
        3
 70
     0
 43
0.0
 10
37.87962045222212
 20
2.500000000000002
 10
38.42861369034331
 20
3.750000000000002
 10
39.04679572088603
 20
5.000000000000003
  0
LWPOLYLINE
  5
CD
330
90
100
AcDbEntity
  8
AM_4
100
AcDbPolyline
 90
        3
 70
     0
 43
0.0
 10
37.00555426856672
 20
0.0000000000000028
 10
37.40604021268513
 20
1.244379663409136
 10
37.87962045222212
 20
2.500000000000002
  0
LINE
  5
CE
330
90
100
AcDbEntity
  8
AM_4
100
AcDbLine
 10
44.84824759675677
 20
-2.674999999999997
 30
0.0
 11
44.96492021565255
 21
-2.674999999999997
 31
0.0
  0
LINE
  5
CF
330
90
100
AcDbEntity
  8
AM_4
100
AcDbLine
 10
44.96492021565255
 20
2.675000000000003
 30
0.0
 11
44.84824759675677
 21
2.675000000000003
 31
0.0
  0
ELLIPSE
  5
D0
330
90
100
AcDbEntity
  8
AM_4
100
AcDbEllipse
 10
44.84824759675676
 20
0.0000000000000031
 30
0.0
 11
-4.913895281578743E-16
 21
-2.674999999999994
 31
0.0
210
0.0
220
0.0
230
1.0
 40
0.7071067811865501
 41
3.141592653589793
 42
6.283185307179586
  0
LINE
  5
D1
330
90
100
AcDbEntity
  8
AM_4
100
AcDbLine
 10
44.61571825140504
 20
-2.469230769230767
 30
0.0
 11
45.39897499364245
 21
-2.930769230769228
 31
0.0
  0
LINE
  5
D2
330
90
100
AcDbEntity
  8
AM_4
100
AcDbLine
 10
45.39897499364245
 20
2.930769230769234
 30
0.0
 11
44.61571825140504
 21
2.469230769230772
 31
0.0
  0
ELLIPSE
  5
D3
330
90
100
AcDbEntity
  8
AM_4
100
AcDbEllipse
 10
46.26246115912987
 20
0.0000000000000027
 30
0.0
 11
-5.832380380939283E-16
 21
-3.175000000000007
 31
0.0
210
0.0
220
0.0
230
1.0
 40
0.7071067811865454
 41
2.725678601487245
 42
6.699099359282135
  0
ELLIPSE
  5
D4
330
90
100
AcDbEntity
  8
AM_4
100
AcDbEllipse
 10
45.34322234358736
 20
0.0000000000000031
 30
0.0
 11
-4.913895281578760E-16
 21
-2.675000000000003
 31
0.0
210
0.0
220
0.0
230
1.0
 40
0.7071067811865502
 41
3.536383773289558
 42
5.888394187479823
  0
LINE
  5
D5
330
90
100
AcDbEntity
  8
AM_4
100
AcDbLine
 10
48.35288721878428
 20
2.165159119691911
 30
0.0
 11
47.16952590603703
 21
2.904323000259531
 31
0.0
  0
LINE
  5
D6
330
90
100
AcDbEntity
  8
AM_4
100
AcDbLine
 10
47.16952590603703
 20
-2.904323000259525
 30
0.0
 11
48.35288721878428
 21
-2.165159119691905
 31
0.0
  0
ELLIPSE
  5
D7
330
90
100
AcDbEntity
  8
AM_4
100
AcDbEllipse
 10
47.67667472150294
 20
-0.0000000000000082
 30
0.0
 11
-4.348012108217478E-16
 21
-2.366947548329708
 31
0.0
210
0.0
220
0.0
230
1.0
 40
0.7071067811865492
 41
0.0
 42
6.283185307179586
  0
ENDBLK
  5
93
330
90
100
AcDbEntity
  8
0
100
AcDbBlockEnd
  0
BLOCK
  5
DA
330
D8
100
AcDbEntity
  8
0
100
AcDbBlockBegin
  2
3_125832_0_in_125929_4
 70
     2
 10
0.0
 20
0.0
 30
0.0
  3
3_125832_0_in_125929_4
  1

  0
ATTDEF
  5
DC
330
D8
100
AcDbEntity
  8
AM_6
100
AcDbText
 10
49.99121541260941
 20
19.09999999999999
 30
0.0
 40
0.5
  1
Set Screw Medium Duty Insert Metric Bore
100
AcDbAttributeDefinition
  3

  2
NN
 70
     8
280
     0
  0
ATTDEF
  5
DD
330
D8
100
AcDbEntity
  8
AM_6
100
AcDbText
 10
49.99121541260941
 20
18.59999999999999
 30
0.0
 40
0.5
  1
SC Medium Duty Bearing Inserts
100
AcDbAttributeDefinition
  3

  2
NT
 70
     8
280
     0
  0
ATTDEF
  5
DE
330
D8
100
AcDbEntity
  8
AM_6
100
AcDbText
 10
49.99121541260941
 20
18.09999999999999
 30
0.0
 40
0.5
  1
125832
100
AcDbAttributeDefinition
  3

  2
NB
 70
     8
280
     0
  0
ATTDEF
  5
DF
330
D8
100
AcDbEntity
  8
AM_6
100
AcDbText
 10
49.99121541260941
 20
17.59999999999999
 30
0.0
 40
0.5
  1
$PN.
100
AcDbAttributeDefinition
  3

  2
NBSYN
 70
     8
280
     0
  0
ATTDEF
  5
E0
330
D8
100
AcDbEntity
  8
AM_6
100
AcDbText
 10
49.99121541260941
 20
17.09999999999999
 30
0.0
 40
0.5
  1
125832
100
AcDbAttributeDefinition
  3

  2
LINA
 70
     8
280
     0
  0
ATTDEF
  5
E1
330
D8
100
AcDbEntity
  8
AM_6
100
AcDbText
 10
49.99121541260941
 20
16.59999999999999
 30
0.0
 40
0.5
  1
210
100
AcDbAttributeDefinition
  3

  2
SERIES
 70
     8
280
     0
  0
ATTDEF
  5
E2
330
D8
100
AcDbEntity
  8
AM_6
100
AcDbText
 10
49.99121541260941
 20
16.09999999999999
 30
0.0
 40
0.5
  1
45
100
AcDbAttributeDefinition
  3

  2
SS
 70
     8
280
     0
  0
ATTDEF
  5
E3
330
D8
100
AcDbEntity
  8
AM_6
100
AcDbText
 10
49.99121541260941
 20
15.59999999999999
 30
0.0
 40
0.5
  1
125832
100
AcDbAttributeDefinition
  3

  2
PN
 70
     8
280
     0
  0
ATTDEF
  5
E4
330
D8
100
AcDbEntity
  8
AM_6
100
AcDbText
 10
49.99121541260941
 20
15.09999999999999
 30
0.0
 40
0.5
  1
INS-SCM-45M
100
AcDbAttributeDefinition
  3

  2
DESCRIPTION
 70
     8
280
     0
  0
ATTDEF
  5
E5
330
D8
100
AcDbEntity
  8
AM_6
100
AcDbText
 10
49.99121541260941
 20
14.59999999999999
 30
0.0
 40
0.5
  1
0.76
100
AcDbAttributeDefinition
  3

  2
WEIGHT
 70
     8
280
     0
  0
ATTDEF
  5
E6
330
D8
100
AcDbEntity
  8
AM_6
100
AcDbText
 10
49.99121541260941
 20
14.09999999999999
 30
0.0
 40
0.5
  1
49.3
100
AcDbAttributeDefinition
  3

  2
A
 70
     8
280
     0
  0
ATTDEF
  5
E7
330
D8
100
AcDbEntity
  8
AM_6
100
AcDbText
 10
49.99121541260941
 20
13.59999999999999
 30
0.0
 40
0.5
  1
22.1
100
AcDbAttributeDefinition
  3

  2
C
 70
     8
280
     0
  0
ATTDEF
  5
E8
330
D8
100
AcDbEntity
  8
AM_6
100
AcDbText
 10
49.99121541260941
 20
13.09999999999999
 30
0.0
 40
0.5
  1
90.0
100
AcDbAttributeDefinition
  3

  2
D
 70
     8
280
     0
  0
ATTDEF
  5
E9
330
D8
100
AcDbEntity
  8
AM_6
100
AcDbText
 10
49.99121541260941
 20
12.59999999999999
 30
0.0
 40
0.5
  1
6.4
100
AcDbAttributeDefinition
  3

  2
J
 70
     8
280
     0
  0
ATTDEF
  5
EA
330
D8
100
AcDbEntity
  8
AM_6
100
AcDbText
 10
49.99121541260941
 20
12.09999999999999
 30
0.0
 40
0.5
  1
61.7
100
AcDbAttributeDefinition
  3

  2
L
 70
     8
280
     0
  0
ATTDEF
  5
EB
330
D8
100
AcDbEntity
  8
AM_6
100
AcDbText
 10
49.99121541260941
 20
11.59999999999999
 30
0.0
 40
0.5
  1
M10 x 1.5
100
AcDbAttributeDefinition
  3

  2
N
 70
     8
280
     0
  0
ATTDEF
  5
EC
330
D8
100
AcDbEntity
  8
AM_6
100
AcDbText
 10
49.99121541260941
 20
11.09999999999999
 30
0.0
 40
0.5
  1
19.1
100
AcDbAttributeDefinition
  3

  2
W
 70
     8
280
     0
  0
ATTDEF
  5
ED
330
D8
100
AcDbEntity
  8
AM_6
100
AcDbText
 10
49.99121541260941
 20
10.59999999999999
 30
0.0
 40
0.5
  1
30.2
100
AcDbAttributeDefinition
  3

  2
Y
 70
     8
280
     0
  0
ATTDEF
  5
EE
330
D8
100
AcDbEntity
  8
AM_6
100
AcDbText
 10
49.99121541260941
 20
10.09999999999999
 30
0.0
 40
0.5
  1
baldor
100
AcDbAttributeDefinition
  3

  2
COMPANY
 70
     8
280
     0
  0
LINE
  5
EF
330
D8
100
AcDbEntity
  8
AM_9
100
AcDbLine
 10
-47.25
 20
6.600909090909095
 30
0.0
 11
-47.25
 21
6.199090909090906
 31
0.0
  0
ARC
  5
F0
330
D8
100
AcDbEntity
  8
AM_9
100
AcDbCircle
 10
-45.2409090909091
 20
6.199090909090909
 30
0.0
 40
2.009090909090901
100
AcDbArc
 50
180.0
 51
270.0
  0
ARC
  5
F1
330
D8
100
AcDbEntity
  8
AM_9
100
AcDbCircle
 10
-45.24090909090908
 20
6.600909090909076
 30
0.0
 40
2.009090909090919
100
AcDbArc
 50
90.0
 51
180.0
  0
LINE
  5
F2
330
D8
100
AcDbEntity
  8
AM_9
100
AcDbLine
 10
-45.24090909090909
 20
8.61
 30
0.0
 11
-45.24090909090909
 21
4.190000000000002
 31
0.0
  0
LINE
  5
F3
330
D8
100
AcDbEntity
  8
AM_9
100
AcDbLine
 10
-45.24090909090909
 20
4.190000000000002
 30
0.0
 11
-44.69126132022674
 21
4.190000000000002
 31
0.0
  0
LINE
  5
F4
330
D8
100
AcDbEntity
  8
AM_9
100
AcDbLine
 10
-43.6804835444733
 20
8.61
 30
0.0
 11
-45.24090909090909
 21
8.61
 31
0.0
  0
LINE
  5
F5
330
D8
100
AcDbEntity
  8
AM_9
100
AcDbLine
 10
20.38954110305206
 20
-24.813
 30
0.0
 11
27.58992787792071
 21
-24.813
 31
0.0
  0
LINE
  5
F6
330
D8
100
AcDbEntity
  8
AM_9
100
AcDbLine
 10
27.58992787792071
 20
-16.437
 30
0.0
 11
20.39107750031636
 21
-16.437
 31
0.0
  0
LWPOLYLINE
  5
F7
330
D8
100
AcDbEntity
  8
AM_9
100
AcDbPolyline
 90
        6
 70
     0
 43
0.0
 10
21.19709150158488
 20
-17.01310887652477
 10
21.19173171254392
 20
-17.00382636238066
 10
20.96345248815501
 20
-16.69716146427865
 10
20.71025189567305
 20
-16.51073415126109
 10
20.42080333907639
 20
-16.43756114674642
 10
20.39206574985791
 20
-16.43700001320353
  0
LWPOLYLINE
  5
F8
330
D8
100
AcDbEntity
  8
AM_9
100
AcDbPolyline
 90
       17
 70
     0
 43
0.0
 10
20.39179036066524
 20
-24.81299998784541
 10
20.57814754573508
 20
-24.78872074219895
 10
20.84084823576807
 20
-24.65982025634348
 10
21.08076906123895
 20
-24.41523882071645
 10
21.2822691710013
 20
-24.07329752489125
 10
21.45398142545113
 20
-23.62567342253981
 10
21.58842709630484
 20
-23.10045581593338
 10
21.69170291720417
 20
-22.4883226059514
 10
21.75966397930308
 20
-21.83928045904325
 10
21.79765700890896
 20
-21.13476127814446
 10
21.80453023883118
 20
-20.44595988846356
 10
21.78169295507331
 20
-19.74223175512075
 10
21.73038890935751
 20
-19.08834296206927
 10
21.64641898999822
 20
-18.4595294792873
 10
21.53143381228015
 20
-17.90085422979742
 10
21.37818470561038
 20
-17.4036376492049
 10
21.19709150158488
 20
-17.01310887652477
  0
LWPOLYLINE
  5
F9
330
D8
100
AcDbEntity
  8
AM_9
100
AcDbPolyline
 90
       11
 70
     0
 43
0.0
 10
20.39206574985791
 20
-16.43700001320353
 10
20.12371936070355
 20
-16.4826267057911
 10
19.8067620534256
 20
-16.6450425539163
 10
19.4989906234762
 20
-16.9104256286331
 10
19.19442157566809
 20
-17.28606037525327
 10
18.91819505137954
 20
-17.74826093790091
 10
18.67181553127683
 20
-18.30564904806245
 10
18.47900493465381
 20
-18.91788430885206
 10
18.34117463557704
 20
-19.59878575689352
 10
18.28497387534018
 20
-20.10372262864804
 10
18.26564072629181
 20
-20.625
  0
ELLIPSE
  5
FA
330
D8
100
AcDbEntity
  8
AM_9
100
AcDbEllipse
 10
27.58992787792072
 20
-20.62500000000001
 30
0.0
 11
-7.693231192243657E-16
 21
-4.187999999999992
 31
0.0
210
0.0
220
0.0
230
1.0
 40
0.4226182617407004
 41
2.315851475582824
 42
5.84527462374635
  0
LINE
  5
FB
330
D8
100
AcDbEntity
  8
AM_9
100
AcDbLine
 10
26.76459816541529
 20
-24.32979950446319
 30
0.0
 11
26.99778822615284
 21
-24.62065433913907
 31
0.0
  0
LINE
  5
FC
330
D8
100
AcDbEntity
  8
AM_9
100
AcDbLine
 10
27.00123421423372
 20
-16.62504752615317
 30
0.0
 11
26.76459816541529
 21
-16.92020049553681
 31
0.0
  0
LWPOLYLINE
  5
FD
330
D8
100
AcDbEntity
  8
AM_9
100
AcDbPolyline
 90
        3
 70
     0
 43
0.0
 10
26.48296536300548
 20
-17.5018522774753
 10
26.70533761558062
 20
-17.06402966664295
 10
27.00263563136547
 20
-16.62329955850063
  0
LWPOLYLINE
  5
FE
330
D8
100
AcDbEntity
  8
AM_9
100
AcDbPolyline
 90
        6
 70
     0
 43
0.0
 10
27.00263563136547
 20
-16.62329955850063
 10
27.02075216690785
 20
-16.60093860123503
 10
27.33805226275685
 20
-16.28233762980867
 10
27.66290351523769
 20
-16.08826377574735
 10
27.8576382233579
 20
-16.03636909449062
 10
28.04782169889123
 20
-16.03464870573412
  0
LWPOLYLINE
  5
FF
330
D8
100
AcDbEntity
  8
AM_9
100
AcDbPolyline
 90
       11
 70
     0
 43
0.0
 10
18.26564072629181
 20
-20.625
 10
18.29921921995336
 20
-21.31129077901341
 10
18.40197967725221
 20
-21.99758155802683
 10
18.56263375915458
 20
-22.62596637507596
 10
18.78182020250215
 20
-23.21520639768021
 10
19.04008439788394
 20
-23.72253229303729
 10
19.3376797592674
 20
-24.1558449957483
 10
19.64770157362126
 20
-24.48123982097333
 10
19.97303878291438
 20
-24.70422535304123
 10
20.27938706461886
 20
-24.80473436351692
 10
20.39179036066524
 20
-24.81299998784541
  0
LINE
  5
100
330
D8
100
AcDbEntity
  8
AM_9
100
AcDbLine
 10
22.5
 20
-28.966
 30
0.0
 11
22.5
 21
17.866
 31
0.0
  0
LINE
  5
101
330
D8
100
AcDbEntity
  8
AM_9
100
AcDbLine
 10
-22.5
 20
17.866
 30
0.0
 11
-22.5
 21
-28.966
 31
0.0
  0
LINE
  5
102
330
D8
100
AcDbEntity
  8
AM_9
100
AcDbLine
 10
22.5
 20
17.866
 30
0.0
 11
23.73400000000004
 21
19.09999999999999
 31
0.0
  0
LINE
  5
103
330
D8
100
AcDbEntity
  8
AM_9
100
AcDbLine
 10
-23.73400000000004
 20
19.09999999999999
 30
0.0
 11
-22.5
 21
17.866
 31
0.0
  0
LINE
  5
104
330
D8
100
AcDbEntity
  8
AM_9
100
AcDbLine
 10
-22.5
 20
-28.966
 30
0.0
 11
-23.73400000000004
 21
-30.2
 31
0.0
  0
LINE
  5
105
330
D8
100
AcDbEntity
  8
AM_9
100
AcDbLine
 10
23.73400000000004
 20
-30.2
 30
0.0
 11
22.5
 21
-28.966
 31
0.0
  0
LINE
  5
106
330
D8
100
AcDbEntity
  8
AM_9
100
AcDbLine
 10
-30.69321140197533
 20
18.02278859802466
 30
0.0
 11
-30.84999999999999
 21
17.86599999999999
 31
0.0
  0
LINE
  5
107
330
D8
100
AcDbEntity
  8
AM_9
100
AcDbLine
 10
30.84999999999999
 20
17.86599999999999
 30
0.0
 11
30.69321140197533
 21
18.02278859802466
 31
0.0
  0
LINE
  5
108
330
D8
100
AcDbEntity
  8
AM_9
100
AcDbLine
 10
29.52439503058197
 20
17.86599999999999
 30
0.0
 11
30.84999999999998
 21
17.86599999999999
 31
0.0
  0
LINE
  5
109
330
D8
100
AcDbEntity
  8
AM_9
100
AcDbLine
 10
-30.84999999999999
 20
17.86599999999999
 30
0.0
 11
-29.52439503058197
 21
17.86599999999999
 31
0.0
  0
LINE
  5
10A
330
D8
100
AcDbEntity
  8
AM_9
100
AcDbLine
 10
30.84999999999998
 20
11.05
 30
0.0
 11
30.84999999999998
 21
17.86599999999999
 31
0.0
  0
LINE
  5
10B
330
D8
100
AcDbEntity
  8
AM_9
100
AcDbLine
 10
-30.84999999999998
 20
17.86599999999999
 30
0.0
 11
-30.84999999999998
 21
11.05
 31
0.0
  0
LWPOLYLINE
  5
10C
330
D8
100
AcDbEntity
  8
AM_9
100
AcDbPolyline
 90
        5
 70
     0
 43
0.0
 10
-1.195603864559414
 20
-16.21136522594098
 10
-0.7039479753220222
 20
-16.0914773889579
 10
-0.0257048942105141
 20
-16.02919980001387
 10
0.67418001542636
 20
-16.08628276139993
 10
1.214137685443629
 20
-16.21717902608172
  0
LWPOLYLINE
  5
10D
330
D8
100
AcDbEntity
  8
AM_9
100
AcDbPolyline
 90
        7
 70
     0
 43
0.0
 10
28.04782169889123
 20
-16.03464870573412
 10
28.32358703901373
 20
-16.12945592890172
 10
28.57630204565344
 20
-16.33645507622363
 10
28.7978824344389
 20
-16.64451807679065
 10
28.98955221925545
 20
-17.04354241904555
 10
29.15770364269838
 20
-17.55029590589654
 10
29.22707325966247
 20
-17.82351342517424
  0
LINE
  5
10E
330
D8
100
AcDbEntity
  8
AM_9
100
AcDbLine
 10
30.84999999999999
 20
-18.04467632051785
 30
0.0
 11
30.84999999999999
 21
-11.05
 31
0.0
  0
LINE
  5
10F
330
D8
100
AcDbEntity
  8
AM_9
100
AcDbLine
 10
-30.84999999999999
 20
-11.05
 30
0.0
 11
-30.84999999999999
 21
-18.04467632051785
 31
0.0
  0
LINE
  5
110
330
D8
100
AcDbEntity
  8
AM_9
100
AcDbLine
 10
42.78999999999994
 20
-7.233333333333334
 30
0.0
 11
42.78999999999994
 21
-4.286666666666664
 31
0.0
  0
LINE
  5
111
330
D8
100
AcDbEntity
  8
AM_9
100
AcDbLine
 10
-42.78999999999994
 20
-4.286666666666664
 30
0.0
 11
-42.78999999999994
 21
-7.233333333333334
 31
0.0
  0
LINE
  5
112
330
D8
100
AcDbEntity
  8
AM_9
100
AcDbLine
 10
-42.19396883195163
 20
11.05
 30
0.0
 11
42.19396883193355
 21
11.05
 31
0.0
  0
ARC
  5
113
330
D8
100
AcDbEntity
  8
AM_9
100
AcDbCircle
 10
42.19396883195164
 20
10.16600000000002
 30
0.0
 40
0.8839999999999852
100
AcDbArc
 50
21.41247877657207
 51
90.0
  0
ARC
  5
114
330
D8
100
AcDbEntity
  8
AM_9
100
AcDbCircle
 10
-42.19396883195164
 20
10.16600000000002
 30
0.0
 40
0.8839999999999808
100
AcDbArc
 50
90.0
 51
158.587521223428
  0
LINE
  5
115
330
D8
100
AcDbEntity
  8
AM_9
100
AcDbLine
 10
-42.1939688319516
 20
-11.05
 30
0.0
 11
42.19396883193352
 21
-11.05
 31
0.0
  0
ARC
  5
116
330
D8
100
AcDbEntity
  8
AM_9
100
AcDbCircle
 10
42.1939688319516
 20
-10.16599999999998
 30
0.0
 40
0.8840000000000163
100
AcDbArc
 50
270.0
 51
338.587532953115
  0
ARC
  5
117
330
D8
100
AcDbEntity
  8
AM_9
100
AcDbCircle
 10
-42.1939688319516
 20
-10.16599999999998
 30
0.0
 40
0.8840000000000177
100
AcDbArc
 50
201.412467046885
 51
270.0
  0
LINE
  5
118
330
D8
100
AcDbEntity
  8
AM_9
100
AcDbLine
 10
-44.07452820834922
 20
-7.233333333333334
 30
0.0
 11
44.07452820834922
 21
-7.233333333333334
 31
0.0
  0
LINE
  5
119
330
D8
100
AcDbEntity
  8
AM_9
100
AcDbLine
 10
-43.01695196947389
 20
-10.48873015873016
 30
0.0
 11
43.01695196947389
 21
-10.48873015873016
 31
0.0
  0
ARC
  5
11A
330
D8
100
AcDbEntity
  8
AM_9
100
AcDbCircle
 10
16.270000000002
 20
-0.0000000000006501
 30
0.0
 40
28.72999999999788
100
AcDbArc
 50
338.5875329531157
 51
345.4177622541455
  0
ARC
  5
11B
330
D8
100
AcDbEntity
  8
AM_9
100
AcDbCircle
 10
-16.26999999999963
 20
0.0000000000001172
 30
0.0
 40
28.73000000000037
100
AcDbArc
 50
194.5822377458548
 51
201.412467046884
  0
LINE
  5
11C
330
D8
100
AcDbEntity
  8
AM_9
100
AcDbLine
 10
-44.67840349067311
 20
-4.286666666666668
 30
0.0
 11
44.67840349067311
 21
-4.286666666666668
 31
0.0
  0
LINE
  5
11D
330
D8
100
AcDbEntity
  8
AM_9
100
AcDbLine
 10
-43.01695190340402
 20
10.48873032721265
 30
0.0
 11
43.01695190340402
 21
10.48873032721265
 31
0.0
  0
LINE
  5
11E
330
D8
100
AcDbEntity
  8
AM_9
100
AcDbLine
 10
-43.85502160168085
 20
7.92961149084186
 30
0.0
 11
-43.82685378303971
 21
8.040788252150044
 31
0.0
  0
ARC
  5
11F
330
D8
100
AcDbEntity
  8
AM_9
100
AcDbCircle
 10
16.27000000000011
 20
-0.0000000000000034
 30
0.0
 40
28.72999999999987
100
AcDbArc
 50
351.4191278814026
 51
21.41246740779767
  0
ARC
  5
120
330
D8
100
AcDbEntity
  8
AM_9
100
AcDbCircle
 10
-16.27000000000214
 20
0.0000000000007159
 30
0.0
 40
28.72999999999772
100
AcDbArc
 50
158.5875325922022
 51
162.5690897718378
  0
ARC
  5
121
330
D8
100
AcDbEntity
  8
AM_9
100
AcDbCircle
 10
-16.27000000000069
 20
-0.0000000000000089
 30
0.0
 40
28.7299999999993
100
AcDbArc
 50
171.5980643305833
 51
188.5808721185975
  0
LWPOLYLINE
  5
122
330
D8
100
AcDbEntity
  8
AM_9
100
AcDbPolyline
 90
       21
 70
     0
 43
0.0
 10
-43.67950200236578
 20
8.609999998775125
 10
-43.67967644066896
 20
8.609338052510584
 10
-43.69017526377173
 20
8.569447180348778
 10
-43.71514168847242
 20
8.474182902507373
 10
-43.7549130783438
 20
8.321239884714107
 10
-43.80646923999544
 20
8.120760063587388
 10
-43.87016531420235
 20
7.869514943095973
 10
-43.94247516563054
 20
7.579353455026813
 10
-44.02310581973306
 20
7.249339489438857
 10
-44.10759050301345
 20
6.895877713376879
 10
-44.19574071131083
 20
6.518246133976072
 10
-44.28143791212323
 20
6.141962865454912
 10
-44.36588268015878
 20
5.761796013358659
 10
-44.44181258986573
 20
5.411516284960624
 10
-44.51211016323914
 20
5.079654278665999
 10
-44.57008063499973
 20
4.800205001070977
 10
-44.61917225638735
 20
4.559262094806693
 10
-44.65479388383033
 20
4.381860290754209
 10
-44.67951907705797
 20
4.257411613344606
 10
-44.69131903379952
 20
4.197631488729789
 10
-44.69282181627985
 20
4.190000000000481
  0
LINE
  5
125
330
D8
100
AcDbEntity
  8
AM_7
100
AcDbLine
 10
-4.3974
 20
-20.625
 30
0.0
 11
4.3974
 21
-20.625
 31
0.0
  0
LINE
  5
126
330
D8
100
AcDbEntity
  8
AM_7
100
AcDbLine
 10
-48.07
 20
6.4
 30
0.0
 11
-30.03
 21
6.4
 31
0.0
  0
ELLIPSE
  5
127
330
D8
100
AcDbEntity
  8
AM_4
100
AcDbEllipse
 10
27.58992787792071
 20
-20.625
 30
0.0
 11
-7.693231192243670E-16
 21
-4.187999999999999
 31
0.0
210
0.0
220
0.0
230
1.0
 40
0.4226182617407005
 41
5.845274623746356
 42
8.599036782762408
  0
LWPOLYLINE
  5
128
330
D8
100
AcDbEntity
  8
AM_4
100
AcDbPolyline
 90
       13
 70
     0
 43
0.0
 10
27.00229952451931
 20
-24.62628111890205
 10
26.89492961066503
 20
-24.48374588481943
 10
26.6254829894983
 20
-24.04132786064409
 10
26.38696549773652
 20
-23.51989177486681
 10
26.17569018168256
 20
-22.89168535262126
 10
26.01588821890095
 20
-22.2076557908734
 10
25.90994783998444
 20
-21.44241432440741
 10
25.87199619928882
 20
-20.65544392240591
 10
25.90663800855349
 20
-19.84442790706693
 10
26.01346575770879
 20
-19.05539975546544
 10
26.18947389340159
 20
-18.31060075036604
 10
26.4260710162266
 20
-17.63375054906496
 10
26.48296536300548
 20
-17.5018522774753
  0
LINE
  5
129
330
D8
100
AcDbEntity
  8
AM_4
100
AcDbLine
 10
-29.61600000000003
 20
19.09999999999999
 30
0.0
 11
29.61600000000003
 21
19.09999999999999
 31
0.0
  0
LINE
  5
12A
330
D8
100
AcDbEntity
  8
AM_4
100
AcDbLine
 10
-29.61600000000003
 20
19.09999999999999
 30
0.0
 11
-30.69321140197533
 21
18.02278859802466
 31
0.0
  0
LINE
  5
12B
330
D8
100
AcDbEntity
  8
AM_4
100
AcDbLine
 10
30.69321140197533
 20
18.02278859802466
 30
0.0
 11
29.61600000000003
 21
19.09999999999999
 31
0.0
  0
LINE
  5
12C
330
D8
100
AcDbEntity
  8
AM_4
100
AcDbLine
 10
-29.52439503058197
 20
17.86599999999999
 30
0.0
 11
29.52439503058197
 21
17.86599999999999
 31
0.0
  0
CIRCLE
  5
12D
330
D8
100
AcDbEntity
  8
AM_4
100
AcDbCircle
 10
0.0
 20
-20.625
 30
0.0
 40
4.188
  0
LINE
  5
12E
330
D8
100
AcDbEntity
  8
AM_4
100
AcDbLine
 10
-29.61600000000003
 20
-30.2
 30
0.0
 11
29.61600000000003
 21
-30.2
 31
0.0
  0
LINE
  5
12F
330
D8
100
AcDbEntity
  8
AM_4
100
AcDbLine
 10
29.61600000000003
 20
-30.2
 30
0.0
 11
30.84999999999999
 21
-28.966
 31
0.0
  0
LINE
  5
130
330
D8
100
AcDbEntity
  8
AM_4
100
AcDbLine
 10
-30.84999999999999
 20
-28.966
 30
0.0
 11
-29.61600000000003
 21
-30.2
 31
0.0
  0
LINE
  5
131
330
D8
100
AcDbEntity
  8
AM_4
100
AcDbLine
 10
-30.84999999999999
 20
-28.966
 30
0.0
 11
30.84999999999999
 21
-28.966
 31
0.0
  0
LWPOLYLINE
  5
132
330
D8
100
AcDbEntity
  8
AM_4
100
AcDbPolyline
 90
       33
 70
     0
 43
0.0
 10
1.214137685443629
 20
-16.21717902608172
 10
1.313644317097406
 20
-16.25006423578364
 10
1.934224383981521
 20
-16.52296386224218
 10
2.501646125720236
 20
-16.8913197140958
 10
3.016553812573135
 20
-17.35612748039228
 10
3.467600727859446
 20
-17.9159234097609
 10
3.834118613159161
 20
-18.55609793671989
 10
4.104540449532757
 20
-19.27256427620227
 10
4.260773179943167
 20
-20.04378135489137
 10
4.290668996192643
 20
-20.8399353043724
 10
4.186284705863732
 20
-21.65245788830835
 10
3.952407334048856
 20
-22.42177537383031
 10
3.580299575916934
 20
-23.16092804528336
 10
3.109267352074831
 20
-23.79286546259787
 10
2.515110359810774
 20
-24.34829825135767
 10
1.886183604138849
 20
-24.75262373889301
 10
1.170788597401333
 20
-25.04626746488022
 10
0.490281082658052
 20
-25.19073828142945
 10
-0.2275420114770787
 20
-25.21440634984043
 10
-0.8839667852433523
 20
-25.12216234588479
 10
-1.533851261469407
 20
-24.91687419822411
 10
-2.128941563761965
 20
-24.61487919421092
 10
-2.682290034515382
 20
-24.21209437276094
 10
-3.178223604901302
 20
-23.71355158957308
 10
-3.600163831996991
 20
-23.12857303374455
 10
-3.937978971680052
 20
-22.45759519107972
 10
-4.170797024836602
 20
-21.72197726983376
 10
-4.285165523435874
 20
-20.94127760653459
 10
-4.270331964364702
 20
-20.13023471414373
 10
-4.123364323362291
 20
-19.33957564556776
 10
-3.837497322610756
 20
-18.5632661080969
 10
-3.510641877004804
 20
-17.98007085360681
 10
-3.093601738165689
 20
-17.43962742808609
  0
LWPOLYLINE
  5
133
330
D8
100
AcDbEntity
  8
AM_4
100
AcDbPolyline
 90
        5
 70
     0
 43
0.0
 10
-3.093601738165689
 20
-17.43962742808609
 10
-2.624305047311222
 20
-16.98909365878664
 10
-2.080149998051467
 20
-16.60571016941082
 10
-1.426705657131576
 20
-16.2909096019971
 10
-1.195603864559414
 20
-16.21136522594098
  0
LWPOLYLINE
  5
134
330
D8
100
AcDbEntity
  8
AM_4
100
AcDbPolyline
 90
       18
 70
     0
 43
0.0
 10
29.22707325966247
 20
-17.82351342517424
 10
29.29156913232432
 20
-18.12933784783316
 10
29.39729743661245
 20
-18.81054867933169
 10
29.46620795324635
 20
-19.53762242705152
 10
29.49987624485914
 20
-20.32975585282896
 10
29.49484814671914
 20
-21.12990997088472
 10
29.44949683811546
 20
-21.93163697388806
 10
29.36288236161568
 20
-22.69600163604389
 10
29.23430259201134
 20
-23.39415111936882
 10
29.06218960211855
 20
-24.01014066842958
 10
28.85454545129243
 20
-24.50222042421369
 10
28.60699790742829
 20
-24.87882529436513
 10
28.34275262216102
 20
-25.10910287704196
 10
28.05235182442045
 20
-25.21476361573858
 10
27.76277942003066
 20
-25.19408450150457
 10
27.46583635867595
 20
-25.06007979003914
 10
27.17467688397858
 20
-24.82021815273092
 10
27.00229952451931
 20
-24.62628111890205
  0
LINE
  5
135
330
D8
100
AcDbEntity
  8
AM_4
100
AcDbLine
 10
30.84999999999999
 20
-28.966
 30
0.0
 11
30.84999999999999
 21
-18.04467632051785
 31
0.0
  0
LINE
  5
136
330
D8
100
AcDbEntity
  8
AM_4
100
AcDbLine
 10
-30.84999999999999
 20
-18.04467632051785
 30
0.0
 11
-30.84999999999999
 21
-28.966
 31
0.0
  0
ARC
  5
138
330
D8
100
AcDbEntity
  8
AM_5
100
AcDbCircle
 10
0.0000000000000024
 20
-20.625
 30
0.0
 40
4.999999999999996
100
AcDbArc
 50
75.0
 51
14.99999999999994
  0
ARC
  5
139
330
D8
100
AcDbEntity
  8
AM_5
100
AcDbCircle
 10
-0.0000000000000013
 20
-20.2
 30
0.0
 40
4.999999999999999
100
AcDbArc
 50
75.0
 51
15.00000000000002
  0
ENDBLK
  5
DB
330
D8
100
AcDbEntity
  8
0
100
AcDbBlockEnd
  0
BLOCK
  5
13C
330
13A
100
AcDbEntity
  8
0
100
AcDbBlockBegin
  2
4_125929H_0_in_125929_4
 70
     2
 10
0.0
 20
0.0
 30
0.0
  3
4_125929H_0_in_125929_4
  1

  0
ATTDEF
  5
13E
330
13A
100
AcDbEntity
  8
AM_6
100
AcDbText
 10
108.1
 20
31.46
 30
0.0
 40
0.5
  1
P2B-SCM -M-Housing
100
AcDbAttributeDefinition
  3

  2
NN
 70
     8
280
     0
  0
ATTDEF
  5
13F
330
13A
100
AcDbEntity
  8
AM_6
100
AcDbText
 10
108.1
 20
30.96
 30
0.0
 40
0.5
  1
SC Pillow Block Bearings -(Medium Duty)
100
AcDbAttributeDefinition
  3

  2
NT
 70
     8
280
     0
  0
ATTDEF
  5
140
330
13A
100
AcDbEntity
  8
AM_6
100
AcDbText
 10
108.1
 20
30.46
 30
0.0
 40
0.5
  1
125929H
100
AcDbAttributeDefinition
  3

  2
NB
 70
     8
280
     0
  0
ATTDEF
  5
141
330
13A
100
AcDbEntity
  8
AM_6
100
AcDbText
 10
108.1
 20
29.96
 30
0.0
 40
0.5
  1
$PN.H
100
AcDbAttributeDefinition
  3

  2
NBSYN
 70
     8
280
     0
  0
ATTDEF
  5
142
330
13A
100
AcDbEntity
  8
AM_6
100
AcDbText
 10
108.1
 20
29.46
 30
0.0
 40
0.5
  1
125929
100
AcDbAttributeDefinition
  3

  2
LINA
 70
     8
280
     0
  0
ATTDEF
  5
143
330
13A
100
AcDbEntity
  8
AM_6
100
AcDbText
 10
108.1
 20
28.96
 30
0.0
 40
0.5
  1
210
100
AcDbAttributeDefinition
  3

  2
SERIES
 70
     8
280
     0
  0
ATTDEF
  5
144
330
13A
100
AcDbEntity
  8
AM_6
100
AcDbText
 10
108.1
 20
28.46
 30
0.0
 40
0.5
  1
45
100
AcDbAttributeDefinition
  3

  2
SS
 70
     8
280
     0
  0
ATTDEF
  5
145
330
13A
100
AcDbEntity
  8
AM_6
100
AcDbText
 10
108.1
 20
27.96
 30
0.0
 40
0.5
  1
125929
100
AcDbAttributeDefinition
  3

  2
PN
 70
     8
280
     0
  0
ATTDEF
  5
146
330
13A
100
AcDbEntity
  8
AM_6
100
AcDbText
 10
108.1
 20
27.46
 30
0.0
 40
0.5
  1
P2B-SCM-45M
100
AcDbAttributeDefinition
  3

  2
DESCRIPTION
 70
     8
280
     0
  0
ATTDEF
  5
147
330
13A
100
AcDbEntity
  8
AM_6
100
AcDbText
 10
108.1
 20
26.96
 30
0.0
 40
0.5
  1
1
100
AcDbAttributeDefinition
  3

  2
LF1
 70
     8
280
     0
  0
ATTDEF
  5
148
330
13A
100
AcDbEntity
  8
AM_6
100
AcDbText
 10
108.1
 20
26.46
 30
0.0
 40
0.5
  1
49.3
100
AcDbAttributeDefinition
  3

  2
A
 70
     8
280
     0
  0
ATTDEF
  5
149
330
13A
100
AcDbEntity
  8
AM_6
100
AcDbText
 10
108.1
 20
25.96
 30
0.0
 40
0.5
  1
206.2
100
AcDbAttributeDefinition
  3

  2
B
 70
     8
280
     0
  0
ATTDEF
  5
14A
330
13A
100
AcDbEntity
  8
AM_6
100
AcDbText
 10
108.1
 20
25.46
 30
0.0
 40
0.5
  1
57.2
100
AcDbAttributeDefinition
  3

  2
C
 70
     8
280
     0
  0
ATTDEF
  5
14B
330
13A
100
AcDbEntity
  8
AM_6
100
AcDbText
 10
108.1
 20
24.96
 30
0.0
 40
0.5
  1
152.4
100
AcDbAttributeDefinition
  3

  2
DMIN
 70
     8
280
     0
  0
ATTDEF
  5
14C
330
13A
100
AcDbEntity
  8
AM_6
100
AcDbText
 10
108.1
 20
24.46
 30
0.0
 40
0.5
  1
169.7
100
AcDbAttributeDefinition
  3

  2
DMAX
 70
     8
280
     0
  0
ATTDEF
  5
14D
330
13A
100
AcDbEntity
  8
AM_6
100
AcDbText
 10
108.1
 20
23.96
 30
0.0
 40
0.5
  1
M16
100
AcDbAttributeDefinition
  3

  2
F
 70
     8
280
     0
  0
ATTDEF
  5
14E
330
13A
100
AcDbEntity
  8
AM_6
100
AcDbText
 10
108.1
 20
23.46
 30
0.0
 40
0.5
  1
25.9
100
AcDbAttributeDefinition
  3

  2
G
 70
     8
280
     0
  0
ATTDEF
  5
14F
330
13A
100
AcDbEntity
  8
AM_6
100
AcDbText
 10
108.1
 20
22.96
 30
0.0
 40
0.5
  1
19.1
100
AcDbAttributeDefinition
  3

  2
H
 70
     8
280
     0
  0
ATTDEF
  5
150
330
13A
100
AcDbEntity
  8
AM_6
100
AcDbText
 10
108.1
 20
22.46
 30
0.0
 40
0.5
  1
115.1
100
AcDbAttributeDefinition
  3

  2
J
 70
     8
280
     0
  0
ATTDEF
  5
151
330
13A
100
AcDbEntity
  8
AM_6
100
AcDbText
 10
108.1
 20
21.96
 30
0.0
 40
0.5
  1
61.7
100
AcDbAttributeDefinition
  3

  2
L
 70
     8
280
     0
  0
ATTDEF
  5
152
330
13A
100
AcDbEntity
  8
AM_6
100
AcDbText
 10
108.1
 20
21.46
 30
0.0
 40
0.5
  1
57.2
100
AcDbAttributeDefinition
  3

  2
M
 70
     8
280
     0
  0
ATTDEF
  5
153
330
13A
100
AcDbEntity
  8
AM_6
100
AcDbText
 10
108.1
 20
20.96
 30
0.0
 40
0.5
  1
19.1
100
AcDbAttributeDefinition
  3

  2
R
 70
     8
280
     0
  0
ATTDEF
  5
154
330
13A
100
AcDbEntity
  8
AM_6
100
AcDbText
 10
108.1
 20
20.46
 30
0.0
 40
0.5
  1
30.2
100
AcDbAttributeDefinition
  3

  2
S
 70
     8
280
     0
  0
ATTDEF
  5
155
330
13A
100
AcDbEntity
  8
AM_6
100
AcDbText
 10
108.1
 20
19.96
 30
0.0
 40
0.5
  1
93.7
100
AcDbAttributeDefinition
  3

  2
U
 70
     8
280
     0
  0
ATTDEF
  5
156
330
13A
100
AcDbEntity
  8
AM_6
100
AcDbText
 10
108.1
 20
19.46
 30
0.0
 40
0.5
  1
187.5
100
AcDbAttributeDefinition
  3

  2
V
 70
     8
280
     0
  0
ATTDEF
  5
157
330
13A
100
AcDbEntity
  8
AM_6
100
AcDbText
 10
108.1
 20
18.96
 30
0.0
 40
0.5
  1
20.6
100
AcDbAttributeDefinition
  3

  2
W
 70
     8
280
     0
  0
ATTDEF
  5
158
330
13A
100
AcDbEntity
  8
AM_6
100
AcDbText
 10
108.1
 20
18.46
 30
0.0
 40
0.5
  1
3.0
100
AcDbAttributeDefinition
  3

  2
X
 70
     8
280
     0
  0
ATTDEF
  5
159
330
13A
100
AcDbEntity
  8
AM_6
100
AcDbText
 10
108.1
 20
17.96
 30
0.0
 40
0.5
  1
baldor
100
AcDbAttributeDefinition
  3

  2
COMPANY
 70
     8
280
     0
  0
LINE
  5
15A
330
13A
100
AcDbEntity
  8
AM_9
100
AcDbLine
 10
-47.25
 20
-25.60380952380953
 30
0.0
 11
-47.25
 21
-14.3
 31
0.0
  0
LINE
  5
15B
330
13A
100
AcDbEntity
  8
AM_9
100
AcDbLine
 10
-45.33999999999999
 20
-23.00441490564313
 30
0.0
 11
-45.33999999999999
 21
-14.3
 31
0.0
  0
LINE
  5
15C
330
13A
100
AcDbEntity
  8
AM_9
100
AcDbLine
 10
45.34
 20
14.3
 30
0.0
 11
45.34
 21
23.00441490564314
 31
0.0
  0
LINE
  5
15D
330
13A
100
AcDbEntity
  8
AM_9
100
AcDbLine
 10
-47.25
 20
6.600909090909095
 30
0.0
 11
-47.25
 21
25.60380952380951
 31
0.0
  0
LINE
  5
15E
330
13A
100
AcDbEntity
  8
AM_9
100
AcDbLine
 10
-45.33999999999999
 20
14.3
 30
0.0
 11
-45.33999999999999
 21
23.00441490564313
 31
0.0
  0
LINE
  5
15F
330
13A
100
AcDbEntity
  8
AM_9
100
AcDbLine
 10
47.25
 20
-25.60380952380953
 30
0.0
 11
47.25
 21
-14.3
 31
0.0
  0
LINE
  5
160
330
13A
100
AcDbEntity
  8
AM_9
100
AcDbLine
 10
45.34
 20
-23.00441490564315
 30
0.0
 11
45.34
 21
-14.3
 31
0.0
  0
LINE
  5
161
330
13A
100
AcDbEntity
  8
AM_9
100
AcDbLine
 10
-89.78
 20
7.228941831277942
 30
0.0
 11
-89.78
 21
14.3
 31
0.0
  0
LINE
  5
162
330
13A
100
AcDbEntity
  8
AM_9
100
AcDbLine
 10
-93.60000000000001
 20
-14.3
 30
0.0
 11
-93.60000000000001
 21
14.3
 31
0.0
  0
LINE
  5
163
330
13A
100
AcDbEntity
  8
AM_9
100
AcDbLine
 10
-65.03456270391935
 20
-14.3
 30
0.0
 11
-65.03456270391935
 21
14.3
 31
0.0
  0
LINE
  5
164
330
13A
100
AcDbEntity
  8
AM_9
100
AcDbLine
 10
-89.78
 20
-14.3
 30
0.0
 11
-89.78
 21
-7.228941831277955
 31
0.0
  0
LINE
  5
165
330
13A
100
AcDbEntity
  8
AM_9
100
AcDbLine
 10
89.77999999999999
 20
-14.3
 30
0.0
 11
89.77999999999999
 21
-7.22894183127796
 31
0.0
  0
LINE
  5
166
330
13A
100
AcDbEntity
  8
AM_9
100
AcDbLine
 10
93.60000000000001
 20
-14.3
 30
0.0
 11
93.60000000000001
 21
14.3
 31
0.0
  0
LINE
  5
167
330
13A
100
AcDbEntity
  8
AM_9
100
AcDbLine
 10
65.03456270391926
 20
-14.3
 30
0.0
 11
65.03456270391926
 21
14.3
 31
0.0
  0
LINE
  5
168
330
13A
100
AcDbEntity
  8
AM_9
100
AcDbLine
 10
89.77999999999999
 20
7.228941831277958
 30
0.0
 11
89.77999999999999
 21
14.3
 31
0.0
  0
LINE
  5
169
330
13A
100
AcDbEntity
  8
AM_9
100
AcDbLine
 10
-60.09111894246111
 20
-14.3
 30
0.0
 11
-60.09111894246111
 21
14.3
 31
0.0
  0
LINE
  5
16A
330
13A
100
AcDbEntity
  8
AM_9
100
AcDbLine
 10
60.09111894246111
 20
-14.3
 30
0.0
 11
60.09111894246111
 21
14.3
 31
0.0
  0
LINE
  5
16B
330
13A
100
AcDbEntity
  8
AM_9
100
AcDbLine
 10
30.40959134313744
 20
-14.3
 30
0.0
 11
30.40959134313744
 21
14.3
 31
0.0
  0
LINE
  5
16C
330
13A
100
AcDbEntity
  8
AM_9
100
AcDbLine
 10
-30.40959054975583
 20
-14.3
 30
0.0
 11
-30.40959054975583
 21
14.3
 31
0.0
  0
LINE
  5
16D
330
13A
100
AcDbEntity
  8
AM_9
100
AcDbLine
 10
-38.18055317326596
 20
-14.3
 30
0.0
 11
-38.18055317326596
 21
14.3
 31
0.0
  0
LINE
  5
16E
330
13A
100
AcDbEntity
  8
AM_9
100
AcDbLine
 10
38.18055317326596
 20
-14.3
 30
0.0
 11
38.18055317326596
 21
14.3
 31
0.0
  0
LINE
  5
16F
330
13A
100
AcDbEntity
  8
AM_9
100
AcDbLine
 10
93.60000000000001
 20
14.3
 30
0.0
 11
-93.60000000000001
 21
14.3
 31
0.0
  0
LINE
  5
170
330
13A
100
AcDbEntity
  8
AM_9
100
AcDbLine
 10
93.60000000000001
 20
-14.3
 30
0.0
 11
-93.60000000000001
 21
-14.3
 31
0.0
  0
LINE
  5
171
330
13A
100
AcDbEntity
  8
AM_9
100
AcDbLine
 10
-41.54891695339364
 20
-8.579999999999995
 30
0.0
 11
-41.54891695339364
 21
19.573125
 31
0.0
  0
LINE
  5
172
330
13A
100
AcDbEntity
  8
AM_9
100
AcDbLine
 10
-38.97114317029973
 20
-8.579999999999995
 30
0.0
 11
-47.25
 21
-8.579999999999997
 31
0.0
  0
LINE
  5
173
330
13A
100
AcDbEntity
  8
AM_9
100
AcDbLine
 10
-47.25
 20
6.199090909090906
 30
0.0
 11
-47.25
 21
-8.579999999999997
 31
0.0
  0
LINE
  5
174
330
13A
100
AcDbEntity
  8
AM_9
100
AcDbLine
 10
47.24999999999999
 20
-8.579999999999997
 30
0.0
 11
38.97114317029973
 21
-8.579999999999995
 31
0.0
  0
LINE
  5
175
330
13A
100
AcDbEntity
  8
AM_9
100
AcDbLine
 10
41.54891695339361
 20
-8.579999999999995
 30
0.0
 11
41.54891695339361
 21
19.57312499999999
 31
0.0
  0
LINE
  5
176
330
13A
100
AcDbEntity
  8
AM_9
100
AcDbLine
 10
47.24999999999999
 20
-8.579999999999997
 30
0.0
 11
47.25
 21
25.60380952380945
 31
0.0
  0
LINE
  5
177
330
13A
100
AcDbEntity
  8
AM_9
100
AcDbLine
 10
37.40594872476835
 20
-2.749999999999998
 30
0.0
 11
40.94118765711388
 21
-2.749999999999997
 31
0.0
  0
LINE
  5
178
330
13A
100
AcDbEntity
  8
AM_9
100
AcDbLine
 10
40.94141601012661
 20
2.750000000000003
 30
0.0
 11
37.40594872476835
 21
2.750000000000002
 31
0.0
  0
LWPOLYLINE
  5
179
330
13A
100
AcDbEntity
  8
AM_9
100
AcDbPolyline
 90
       20
 70
     0
 43
0.0
 10
40.94129558273116
 20
-2.749999987277531
 10
41.16496954511401
 20
-2.731676803856014
 10
41.48264442296357
 20
-2.639575653317811
 10
41.78281411433899
 20
-2.473248529253405
 10
42.0571945617688
 20
-2.236303744047232
 10
42.29889740641205
 20
-1.936445261212647
 10
42.50140525994451
 20
-1.58095727106999
 10
42.65993887376156
 20
-1.180874015846767
 10
42.76993528593628
 20
-0.7469717691535291
 10
42.8293520154302
 20
-0.2919677451007351
 10
42.83606110838517
 20
0.1709510518783108
 10
42.79068373699033
 20
0.6290473853367857
 10
42.69368900156153
 20
1.068956467230741
 10
42.54811631702955
 20
1.47876945118329
 10
42.35675520007749
 20
1.846660787149125
 10
42.12508229447727
 20
2.162548205065379
 10
41.85824670576925
 20
2.416875077261059
 10
41.56383266804457
 20
2.60304749568438
 10
41.24949440911485
 20
2.714731120224114
 10
40.94137588900796
 20
2.74999999585684
  0
LWPOLYLINE
  5
17A
330
13A
100
AcDbEntity
  8
AM_9
100
AcDbPolyline
 90
       11
 70
     0
 43
0.0
 10
40.94137588900796
 20
2.74999999585684
 10
40.92398650711937
 20
2.749888730987534
 10
40.59666365936989
 20
2.706507489964532
 10
40.27661737380454
 20
2.586983074087672
 10
39.97338970190962
 20
2.393675114630804
 10
39.69577658714484
 20
2.133058397591773
 10
39.45241739680391
 20
1.811277593534098
 10
39.25061373260878
 20
1.438450340956714
 10
39.0972955735285
 20
1.024295066769438
 10
38.99672488895497
 20
0.5812080569969788
 10
38.95073419649556
 20
0.0000000000000026
  0
LINE
  5
17B
330
13A
100
AcDbEntity
  8
AM_9
100
AcDbLine
 10
30.84999999999999
 20
-22.88000000000001
 30
0.0
 11
-30.84999999999999
 21
-22.88
 31
0.0
  0
LINE
  5
17C
330
13A
100
AcDbEntity
  8
AM_9
100
AcDbLine
 10
-38.97114317029973
 20
-8.579999999999995
 30
0.0
 11
-38.97114317029974
 21
19.573125
 31
0.0
  0
LINE
  5
17D
330
13A
100
AcDbEntity
  8
AM_9
100
AcDbLine
 10
38.97114317029974
 20
19.573125
 30
0.0
 11
38.97114317029973
 21
-8.579999999999995
 31
0.0
  0
LINE
  5
17E
330
13A
100
AcDbEntity
  8
AM_9
100
AcDbLine
 10
45.0
 20
-22.92148221513682
 30
0.0
 11
45.0
 21
-8.579999999999997
 31
0.0
  0
LINE
  5
17F
330
13A
100
AcDbEntity
  8
AM_9
100
AcDbLine
 10
-45.0
 20
-8.579999999999997
 30
0.0
 11
-45.0
 21
-22.92146128888194
 31
0.0
  0
LWPOLYLINE
  5
180
330
13A
100
AcDbEntity
  8
AM_9
100
AcDbPolyline
 90
       11
 70
     0
 43
0.0
 10
38.95073419649556
 20
0.0000000000000026
 10
38.97981112945858
 20
-0.4613476255306639
 10
39.06526472526706
 20
-0.9096836732514154
 10
39.20514036070438
 20
-1.331999109287935
 10
39.39423013803175
 20
-1.716800198686303
 10
39.6274136173762
 20
-2.052821115892159
 10
39.89675642203323
 20
-2.331006093662205
 10
40.19459501102918
 20
-2.542682721782897
 10
40.51151545406596
 20
-2.682645963362117
 10
40.83806000422422
 20
-2.74584061106455
 10
40.94129558273116
 20
-2.749999987277531
  0
ELLIPSE
  5
181
330
13A
100
AcDbEntity
  8
AM_9
100
AcDbEllipse
 10
37.4059487247684
 20
-0.0000000000000047
 30
0.0
 11
-5.051668046482708E-16
 21
-2.749999999999932
 31
0.0
210
0.0
220
0.0
230
1.0
 40
0.7071067811865474
 41
0.0
 42
6.283185307179586
  0
LINE
  5
182
330
13A
100
AcDbEntity
  8
AM_7
100
AcDbLine
 10
-95.275
 20
-20.6
 30
0.0
 11
-92.125
 21
-20.6
 31
0.0
  0
LINE
  5
183
330
13A
100
AcDbEntity
  8
AM_7
100
AcDbLine
 10
-93.7
 20
-22.175
 30
0.0
 11
-93.7
 21
-19.02500000000001
 31
0.0
  0
LINE
  5
184
330
13A
100
AcDbEntity
  8
AM_7
100
AcDbLine
 10
92.125
 20
-20.6
 30
0.0
 11
95.275
 21
-20.6
 31
0.0
  0
LINE
  5
185
330
13A
100
AcDbEntity
  8
AM_7
100
AcDbLine
 10
93.7
 20
-22.175
 30
0.0
 11
93.7
 21
-19.02500000000001
 31
0.0
  0
LINE
  5
186
330
13A
100
AcDbEntity
  8
AM_7
100
AcDbLine
 10
0.0
 20
31.46
 30
0.0
 11
0.0
 21
-32.66500000000001
 31
0.0
  0
LINE
  5
187
330
13A
100
AcDbEntity
  8
AM_7
100
AcDbLine
 10
-94.03750000000002
 20
-0.0000000000000044
 30
0.0
 11
-67.0125
 21
0.0000000000000018
 31
0.0
  0
LINE
  5
188
330
13A
100
AcDbEntity
  8
AM_7
100
AcDbLine
 10
-76.20000000000005
 20
-9.187500000000043
 30
0.0
 11
-76.20000000000005
 21
9.187500000000046
 31
0.0
  0
LINE
  5
189
330
13A
100
AcDbEntity
  8
AM_7
100
AcDbLine
 10
67.0125
 20
-0.0000000000000053
 30
0.0
 11
94.03750000000002
 21
0.0
 31
0.0
  0
LINE
  5
18A
330
13A
100
AcDbEntity
  8
AM_7
100
AcDbLine
 10
84.85
 20
-9.18750000000003
 30
0.0
 11
84.85
 21
9.18750000000003
 31
0.0
  0
LINE
  5
18B
330
13A
100
AcDbEntity
  8
AM_7
100
AcDbLine
 10
-84.85
 20
-9.187500000000036
 30
0.0
 11
-84.85
 21
9.187500000000025
 31
0.0
  0
LINE
  5
18C
330
13A
100
AcDbEntity
  8
AM_7
100
AcDbLine
 10
76.20000000000005
 20
-9.18750000000005
 30
0.0
 11
76.20000000000005
 21
9.187500000000039
 31
0.0
  0
LINE
  5
18D
330
13A
100
AcDbEntity
  8
AM_4
100
AcDbLine
 10
97.38000000000001
 20
-28.6
 30
0.0
 11
103.1
 21
-22.88000000000002
 31
0.0
  0
LINE
  5
18E
330
13A
100
AcDbEntity
  8
AM_4
100
AcDbLine
 10
103.1
 20
-22.88000000000002
 30
0.0
 11
103.1
 21
22.88
 31
0.0
  0
LINE
  5
18F
330
13A
100
AcDbEntity
  8
AM_4
100
AcDbLine
 10
103.1
 20
22.88000000000001
 30
0.0
 11
97.38
 21
28.6
 31
0.0
  0
LINE
  5
190
330
13A
100
AcDbEntity
  8
AM_4
100
AcDbLine
 10
-97.38
 20
28.6
 30
0.0
 11
-103.1
 21
22.88
 31
0.0
  0
LINE
  5
191
330
13A
100
AcDbEntity
  8
AM_4
100
AcDbLine
 10
-103.1
 20
-22.87999999999999
 30
0.0
 11
-97.38
 21
-28.59999999999999
 31
0.0
  0
LINE
  5
192
330
13A
100
AcDbEntity
  8
AM_4
100
AcDbLine
 10
-99.28
 20
21.30622257996864
 30
0.0
 11
-99.28
 21
26.69999999999998
 31
0.0
  0
LINE
  5
193
330
13A
100
AcDbEntity
  8
AM_4
100
AcDbLine
 10
-103.1
 20
-22.87999999999999
 30
0.0
 11
-103.1
 21
22.88
 31
0.0
  0
LINE
  5
194
330
13A
100
AcDbEntity
  8
AM_4
100
AcDbLine
 10
-99.28
 20
-26.69999999999998
 30
0.0
 11
-99.28
 21
-21.30622257996865
 31
0.0
  0
LINE
  5
195
330
13A
100
AcDbEntity
  8
AM_4
100
AcDbLine
 10
99.28
 20
21.30622257996864
 30
0.0
 11
99.28
 21
26.7
 31
0.0
  0
LINE
  5
196
330
13A
100
AcDbEntity
  8
AM_4
100
AcDbLine
 10
99.28
 20
-26.70000000000001
 30
0.0
 11
99.28
 21
-21.30622257996866
 31
0.0
  0
LINE
  5
197
330
13A
100
AcDbEntity
  8
AM_4
100
AcDbLine
 10
81.35955533438779
 20
-28.6
 30
0.0
 11
81.35955533438779
 21
-23.6
 31
0.0
  0
LINE
  5
198
330
13A
100
AcDbEntity
  8
AM_4
100
AcDbLine
 10
81.35955533438779
 20
23.6
 30
0.0
 11
81.35955533438779
 21
28.6
 31
0.0
  0
LINE
  5
199
330
13A
100
AcDbEntity
  8
AM_4
100
AcDbLine
 10
-81.35955533438779
 20
23.6
 30
0.0
 11
-81.35955533438779
 21
28.6
 31
0.0
  0
LINE
  5
19A
330
13A
100
AcDbEntity
  8
AM_4
100
AcDbLine
 10
-81.35955533438779
 20
-28.6
 30
0.0
 11
-81.35955533438779
 21
-23.6
 31
0.0
  0
ARC
  5
19B
330
13A
100
AcDbEntity
  8
AM_4
100
AcDbCircle
 10
-84.85000000000002
 20
-0.0000000000000036
 30
0.0
 40
8.750000000000002
100
AcDbArc
 50
90.0
 51
270.0
  0
CIRCLE
  5
19C
330
13A
100
AcDbEntity
  8
AM_4
100
AcDbCircle
 10
-93.7
 20
-20.6
 30
0.0
 40
1.5
  0
ARC
  5
19D
330
13A
100
AcDbEntity
  8
AM_4
100
AcDbCircle
 10
-92.79999999999998
 20
-13.29999999999999
 30
0.0
 40
10.30000000000001
100
AcDbArc
 50
180.0
 51
270.0
  0
LINE
  5
19E
330
13A
100
AcDbEntity
  8
AM_4
100
AcDbLine
 10
-76.2
 20
-8.750000000000002
 30
0.0
 11
-84.85000000000001
 21
-8.750000000000009
 31
0.0
  0
LINE
  5
19F
330
13A
100
AcDbEntity
  8
AM_4
100
AcDbLine
 10
-84.85000000000001
 20
8.749999999999998
 30
0.0
 11
-76.2
 21
8.750000000000005
 31
0.0
  0
LINE
  5
1A0
330
13A
100
AcDbEntity
  8
AM_4
100
AcDbLine
 10
-92.8
 20
-23.59999999999999
 30
0.0
 11
-76.2
 21
-23.59999999999999
 31
0.0
  0
ARC
  5
1A1
330
13A
100
AcDbEntity
  8
AM_4
100
AcDbCircle
 10
-76.2
 20
0.0000000000000027
 30
0.0
 40
8.750000000000004
100
AcDbArc
 50
270.0
 51
90.0
  0
LINE
  5
1A2
330
13A
100
AcDbEntity
  8
AM_4
100
AcDbLine
 10
-76.19999999999999
 20
23.6
 30
0.0
 11
-92.79999999999997
 21
23.6
 31
0.0
  0
ARC
  5
1A3
330
13A
100
AcDbEntity
  8
AM_4
100
AcDbCircle
 10
-92.79999999999995
 20
13.29999999999997
 30
0.0
 40
10.30000000000003
100
AcDbArc
 50
90.0
 51
180.0
  0
ARC
  5
1A4
330
13A
100
AcDbEntity
  8
AM_4
100
AcDbCircle
 10
76.2
 20
-0.0000000000000062
 30
0.0
 40
8.750000000000004
100
AcDbArc
 50
90.0
 51
270.0
  0
LINE
  5
1A5
330
13A
100
AcDbEntity
  8
AM_4
100
AcDbLine
 10
76.2
 20
8.749999999999998
 30
0.0
 11
84.85000000000001
 21
8.750000000000005
 31
0.0
  0
LINE
  5
1A6
330
13A
100
AcDbEntity
  8
AM_4
100
AcDbLine
 10
76.2
 20
-23.6
 30
0.0
 11
92.8
 21
-23.6
 31
0.0
  0
LINE
  5
1A7
330
13A
100
AcDbEntity
  8
AM_4
100
AcDbLine
 10
92.8
 20
23.59999999999999
 30
0.0
 11
76.2
 21
23.6
 31
0.0
  0
ARC
  5
1A8
330
13A
100
AcDbEntity
  8
AM_4
100
AcDbCircle
 10
92.8
 20
13.29999999999999
 30
0.0
 40
10.3
100
AcDbArc
 50
0.0
 51
90.0
  0
CIRCLE
  5
1A9
330
13A
100
AcDbEntity
  8
AM_4
100
AcDbCircle
 10
93.7
 20
-20.6
 30
0.0
 40
1.5
  0
LINE
  5
1AA
330
13A
100
AcDbEntity
  8
AM_4
100
AcDbLine
 10
84.85000000000001
 20
-8.750000000000002
 30
0.0
 11
76.2
 21
-8.750000000000009
 31
0.0
  0
ARC
  5
1AB
330
13A
100
AcDbEntity
  8
AM_4
100
AcDbCircle
 10
84.85000000000002
 20
-0.0000000000000009
 30
0.0
 40
8.75
100
AcDbArc
 50
270.0
 51
90.0
  0
ARC
  5
1AC
330
13A
100
AcDbEntity
  8
AM_4
100
AcDbCircle
 10
92.79999999999995
 20
-13.29999999999997
 30
0.0
 40
10.30000000000004
100
AcDbArc
 50
270.0
 51
0.0000008537736463
  0
LWPOLYLINE
  5
1AD
330
13A
100
AcDbEntity
  8
AM_4
100
AcDbPolyline
 90
       15
 70
     0
 43
0.0
 10
76.19999999999999
 20
23.6
 10
74.14312447115526
 20
23.51019487496519
 10
72.10190300706044
 20
23.24146297108811
 10
70.09187053558051
 20
22.79584950042201
 10
68.12832461751422
 20
22.17674585054744
 10
66.22620902291949
 20
21.38886377406494
 10
64.4
 20
20.43819952931275
 10
62.66359610211532
 20
19.33198824522021
 10
61.03021241139768
 20
18.07864885760789
 10
59.51227996399749
 20
16.68772003600253
 10
58.12135114239213
 20
15.16978758860234
 10
56.86801175477981
 20
13.5364038978847
 10
55.76180047068726
 20
11.80000000000002
 10
54.81113622593507
 20
9.973790977080528
 10
54.19048523342945
 20
8.5171156937142
  0
LINE
  5
1AE
330
13A
100
AcDbEntity
  8
AM_4
100
AcDbLine
 10
77.78429361432389
 20
23.6
 30
0.0
 11
77.78429361432389
 21
28.6
 31
0.0
  0
LWPOLYLINE
  5
1AF
330
13A
100
AcDbEntity
  8
AM_4
100
AcDbPolyline
 90
       15
 70
     0
 43
0.0
 10
54.19048523342945
 20
-8.517115693714194
 10
55.01655362632382
 20
-10.40296110410808
 10
56.00384083703652
 20
-12.20963369902006
 10
57.14483301375368
 20
-13.92338360910409
 10
58.43084651706058
 20
-15.53116816275396
 10
59.85209400768089
 20
-17.02075114870953
 10
61.39775893403826
 20
-18.38079594101289
 10
63.05607785274513
 20
-19.6009517775771
 10
64.8144299555098
 20
-20.67193253573567
 10
66.65943312110817
 20
-21.58558740524317
 10
68.57704576140671
 20
-22.33496292086273
 10
70.55267368632656
 20
-22.91435588243518
 10
72.57128117444232
 20
-23.31935675967593
 10
74.6175054039009
 20
-23.54688325136296
 10
76.2
 20
-23.6
  0
LINE
  5
1B0
330
13A
100
AcDbEntity
  8
AM_4
100
AcDbLine
 10
77.78429361432389
 20
-28.6
 30
0.0
 11
77.78429361432389
 21
-23.6
 31
0.0
  0
LWPOLYLINE
  5
1B1
330
13A
100
AcDbEntity
  8
AM_4
100
AcDbPolyline
 90
       15
 70
     0
 43
0.0
 10
-54.19048523342943
 20
8.517115693714166
 10
-55.01655362632381
 20
10.40296110410806
 10
-56.00384083703649
 20
12.20963369902003
 10
-57.14483301375365
 20
13.92338360910406
 10
-58.43084651706057
 20
15.53116816275394
 10
-59.85209400768085
 20
17.02075114870951
 10
-61.39775893403823
 20
18.38079594101288
 10
-63.0560778527451
 20
19.60095177757709
 10
-64.81442995550975
 20
20.67193253573566
 10
-66.65943312110812
 20
21.58558740524315
 10
-68.57704576140667
 20
22.33496292086271
 10
-70.55267368632651
 20
22.91435588243518
 10
-72.57128117444228
 20
23.31935675967593
 10
-74.61750540390088
 20
23.54688325136296
 10
-76.2
 20
23.60000000000001
  0
LINE
  5
1B2
330
13A
100
AcDbEntity
  8
AM_4
100
AcDbLine
 10
-77.78429361432389
 20
23.6
 30
0.0
 11
-77.78429361432389
 21
28.6
 31
0.0
  0
LWPOLYLINE
  5
1B3
330
13A
100
AcDbEntity
  8
AM_4
100
AcDbPolyline
 90
       15
 70
     0
 43
0.0
 10
-76.2
 20
-23.59999999999999
 10
-74.14312447115528
 20
-23.51019487496519
 10
-72.10190300706044
 20
-23.2414629710881
 10
-70.09187053558051
 20
-22.795849500422
 10
-68.12832461751422
 20
-22.17674585054743
 10
-66.22620902291949
 20
-21.38886377406493
 10
-64.4
 20
-20.43819952931275
 10
-62.66359610211532
 20
-19.3319882452202
 10
-61.03021241139768
 20
-18.07864885760788
 10
-59.51227996399749
 20
-16.68772003600252
 10
-58.12135114239213
 20
-15.16978758860233
 10
-56.86801175477981
 20
-13.53640389788469
 10
-55.76180047068726
 20
-11.80000000000001
 10
-54.81113622593507
 20
-9.973790977080515
 10
-54.19048523342943
 20
-8.517115693714148
  0
LINE
  5
1B4
330
13A
100
AcDbEntity
  8
AM_4
100
AcDbLine
 10
-77.78429361432389
 20
-28.6
 30
0.0
 11
-77.78429361432389
 21
-23.6
 31
0.0
  0
LINE
  5
1B5
330
13A
100
AcDbEntity
  8
AM_4
100
AcDbLine
 10
44.52619047619048
 20
22.88000000000001
 30
0.0
 11
-44.52619047619049
 21
22.88000000000001
 31
0.0
  0
LWPOLYLINE
  5
1B6
330
13A
100
AcDbEntity
  8
AM_4
100
AcDbPolyline
 90
        7
 70
     0
 43
0.0
 10
-46.71423370240499
 20
23.9815872325645
 10
-46.41680005223424
 20
23.64301025999716
 10
-46.05214701290608
 20
23.34757483520765
 10
-45.73095639152793
 20
23.16092651162155
 10
-45.3703572436419
 20
23.01411440840963
 10
-44.96834981426521
 20
22.91612772684234
 10
-44.52619047619049
 20
22.88000000000001
  0
LINE
  5
1B7
330
13A
100
AcDbEntity
  8
AM_4
100
AcDbLine
 10
-41.54891695339364
 20
19.573125
 30
0.0
 11
-41.54891695339364
 21
22.88000000000001
 31
0.0
  0
LWPOLYLINE
  5
1B8
330
13A
100
AcDbEntity
  8
AM_4
100
AcDbPolyline
 90
        7
 70
     0
 43
0.0
 10
-47.25000000000001
 20
22.9246875
 10
-47.07019948483499
 20
22.31126086998933
 10
-46.53216632982684
 20
21.70250278703018
 10
-45.63999529215849
 20
21.10304626771203
 10
-44.40047633213418
 20
20.51745353810864
 10
-42.82304293748172
 20
19.95018131248284
 10
-41.54891695339364
 20
19.573125
  0
LINE
  5
1B9
330
13A
100
AcDbEntity
  8
AM_4
100
AcDbLine
 10
41.54891695339361
 20
19.573125
 30
0.0
 11
41.54891695339361
 21
22.88000000000001
 31
0.0
  0
LWPOLYLINE
  5
1BA
330
13A
100
AcDbEntity
  8
AM_4
100
AcDbPolyline
 90
        7
 70
     0
 43
0.0
 10
44.52619047619048
 20
22.88000000000001
 10
44.96341096410455
 20
22.91531987961455
 10
45.36358577757872
 20
23.01191688884018
 10
45.72733327825996
 20
23.15914302487105
 10
46.05214701290608
 20
23.34757483520766
 10
46.41614657469789
 20
23.64238038470965
 10
46.71423370240498
 20
23.9815872325645
  0
LWPOLYLINE
  5
1BB
330
13A
100
AcDbEntity
  8
AM_4
100
AcDbPolyline
 90
        3
 70
     0
 43
0.0
 10
47.25000000000001
 20
22.9246875
 10
47.07019948483499
 20
23.53811413001067
 10
46.71423370240502
 20
23.9815872325645
  0
LINE
  5
1BC
330
13A
100
AcDbEntity
  8
AM_4
100
AcDbLine
 10
-30.84999999999999
 20
-22.88
 30
0.0
 11
-44.52619047619048
 21
-22.88
 31
0.0
  0
LINE
  5
1BD
330
13A
100
AcDbEntity
  8
AM_4
100
AcDbLine
 10
44.52619047619049
 20
-22.88000000000001
 30
0.0
 11
30.84999999999999
 21
-22.88000000000001
 31
0.0
  0
LWPOLYLINE
  5
1BE
330
13A
100
AcDbEntity
  8
AM_4
100
AcDbPolyline
 90
        4
 70
     0
 43
0.0
 10
44.52619047619049
 20
-22.88000000000001
 10
44.83877100344188
 20
-22.89799509263013
 10
44.98716320553395
 20
-22.91929048591891
 10
44.99999499328907
 20
-22.92152549679591
  0
LWPOLYLINE
  5
1BF
330
13A
100
AcDbEntity
  8
AM_4
100
AcDbPolyline
 90
        5
 70
     0
 43
0.0
 10
-44.99999499328906
 20
-22.92152549679589
 10
-44.97110829732323
 20
-22.91658298806045
 10
-44.88278947884335
 20
-22.90344372020023
 10
-44.73444943808597
 20
-22.8879732756558
 10
-44.52619047619048
 20
-22.88
  0
LINE
  5
1C0
330
13A
100
AcDbEntity
  8
AM_4
100
AcDbLine
 10
38.97114317029974
 20
19.573125
 30
0.0
 11
38.97114317029974
 21
22.88000000000001
 31
0.0
  0
LINE
  5
1C1
330
13A
100
AcDbEntity
  8
AM_4
100
AcDbLine
 10
-38.97114317029974
 20
22.88000000000001
 30
0.0
 11
-38.97114317029974
 21
19.573125
 31
0.0
  0
LINE
  5
1C2
330
13A
100
AcDbEntity
  8
AM_4
100
AcDbLine
 10
-41.54891695339364
 20
19.573125
 30
0.0
 11
-38.97114317029974
 21
19.573125
 31
0.0
  0
LWPOLYLINE
  5
1C3
330
13A
100
AcDbEntity
  8
AM_4
100
AcDbPolyline
 90
        3
 70
     0
 43
0.0
 10
-46.71423370240503
 20
23.9815872325645
 10
-47.15486554782038
 20
23.37109440568641
 10
-47.25000000000001
 20
22.9246875
  0
LWPOLYLINE
  5
1C4
330
13A
100
AcDbEntity
  8
AM_4
100
AcDbPolyline
 90
        9
 70
     0
 43
0.0
 10
-47.25000000000001
 20
25.60380952380952
 10
-47.23963508242133
 20
25.36641388165875
 10
-47.20861921296659
 20
25.13082496368817
 10
-47.15718844113023
 20
24.89883574381599
 10
-47.08573418614067
 20
24.67221180008437
 10
-46.99480025802364
 20
24.45267787754438
 10
-46.88507871887952
 20
24.24190476190476
 10
-46.75740461587289
 20
24.04149656384382
 10
-46.71423370240499
 20
23.9815872325645
  0
LINE
  5
1C5
330
13A
100
AcDbEntity
  8
AM_4
100
AcDbLine
 10
-47.25
 20
25.60380952380952
 30
0.0
 11
-47.24999999999999
 21
25.87619047619038
 31
0.0
  0
LWPOLYLINE
  5
1C6
330
13A
100
AcDbEntity
  8
AM_4
100
AcDbPolyline
 90
       19
 70
     0
 43
0.0
 10
-47.25
 20
25.87619047619028
 10
-47.26036491757866
 20
26.11358611834104
 10
-47.29138078703338
 20
26.34917503631163
 10
-47.34281155886973
 20
26.58116425618382
 10
-47.41426581385927
 20
26.80778819991544
 10
-47.50519974197628
 20
27.02732212245544
 10
-47.61492128112038
 20
27.23809523809507
 10
-47.74259538412701
 20
27.43850343615602
 10
-47.88725037398056
 20
27.62702148924128
 10
-48.04778533886317
 20
27.80221466113655
 10
-48.22297851075842
 20
27.96274962601919
 10
-48.41149656384366
 20
28.10740461587276
 10
-48.61190476190459
 20
28.23507871887942
 10
-48.8226778775442
 20
28.34480025802356
 10
-49.04221180008418
 20
28.4357341861406
 10
-49.2688357438158
 20
28.50718844113018
 10
-49.50082496368798
 20
28.55861921296656
 10
-49.73641388165856
 20
28.58963508242131
 10
-49.97380952380933
 20
28.60000000000001
  0
LINE
  5
1C7
330
13A
100
AcDbEntity
  8
AM_4
100
AcDbLine
 10
-97.38
 20
28.6
 30
0.0
 11
-49.97380952380953
 21
28.6
 31
0.0
  0
LINE
  5
1C8
330
13A
100
AcDbEntity
  8
AM_4
100
AcDbLine
 10
-54.19048523342943
 20
19.8872473371996
 30
0.0
 11
-76.20000000000002
 21
28.6
 31
0.0
  0
LINE
  5
1C9
330
13A
100
AcDbEntity
  8
AM_4
100
AcDbLine
 10
76.19999999999996
 20
28.6
 30
0.0
 11
54.19048523342944
 21
19.8872473371996
 31
0.0
  0
LINE
  5
1CA
330
13A
100
AcDbEntity
  8
AM_4
100
AcDbLine
 10
49.97380952380953
 20
28.6
 30
0.0
 11
97.38
 21
28.6
 31
0.0
  0
LWPOLYLINE
  5
1CB
330
13A
100
AcDbEntity
  8
AM_4
100
AcDbPolyline
 90
       19
 70
     0
 43
0.0
 10
49.97380952380952
 20
28.6
 10
49.73641388165876
 20
28.58963508242132
 10
49.50082496368817
 20
28.55861921296659
 10
49.26883574381599
 20
28.50718844113022
 10
49.04221180008437
 20
28.43573418614067
 10
48.82267787754439
 20
28.34480025802364
 10
48.61190476190477
 20
28.23507871887952
 10
48.41149656384383
 20
28.10740461587288
 10
48.22297851075857
 20
27.96274962601931
 10
48.04778533886331
 20
27.80221466113669
 10
47.88725037398069
 20
27.62702148924144
 10
47.74259538412714
 20
27.43850343615619
 10
47.61492128112049
 20
27.23809523809524
 10
47.50519974197638
 20
27.02732212245563
 10
47.41426581385934
 20
26.80778819991564
 10
47.34281155886978
 20
26.58116425618402
 10
47.29138078703342
 20
26.34917503631184
 10
47.26036491757868
 20
26.11358611834125
 10
47.25000000000001
 20
25.87619047619049
  0
LINE
  5
1CC
330
13A
100
AcDbEntity
  8
AM_4
100
AcDbLine
 10
47.25000000000001
 20
25.87619047619048
 30
0.0
 11
47.25
 21
25.60380952380937
 31
0.0
  0
LWPOLYLINE
  5
1CD
330
13A
100
AcDbEntity
  8
AM_4
100
AcDbPolyline
 90
        9
 70
     0
 43
0.0
 10
46.71423370240498
 20
23.9815872325645
 10
46.8472935260362
 20
24.1784608106897
 10
46.96268835393774
 20
24.38618215317081
 10
47.05953996179198
 20
24.60317037516601
 10
47.13711125038257
 20
24.82777406528481
 10
47.19481185536447
 20
25.05828385382601
 10
47.23220264029322
 20
25.29294542211319
 10
47.24899903871832
 20
25.52997285391915
 10
47.25
 20
25.6038095238092
  0
LWPOLYLINE
  5
1CE
330
13A
100
AcDbEntity
  8
AM_4
100
AcDbPolyline
 90
        7
 70
     0
 43
0.0
 10
41.54891695339361
 20
19.57312499999999
 10
43.35181499224726
 20
20.12529060362795
 10
44.82477954246833
 20
20.69876130795936
 10
45.95660045442932
 20
21.28917265466319
 10
46.73866388757806
 20
21.89203125689088
 10
47.16501786696546
 20
22.50274899666353
 10
47.25000000000001
 20
22.9246875
  0
LINE
  5
1CF
330
13A
100
AcDbEntity
  8
AM_4
100
AcDbLine
 10
38.97114317029974
 20
19.573125
 30
0.0
 11
41.54891695339361
 21
19.57312499999999
 31
0.0
  0
LWPOLYLINE
  5
1D0
330
13A
100
AcDbEntity
  8
AM_4
100
AcDbPolyline
 90
       25
 70
     0
 43
0.0
 10
-38.97114317029974
 20
19.573125
 10
-36.86184199300463
 20
19.07993295008439
 10
-34.47199994035401
 20
18.61600180381991
 10
-31.81980515339464
 20
18.18486235735892
 10
-28.92544243589428
 20
17.7897958422181
 10
-25.81093963579709
 20
17.43380895312535
 10
-22.50000000000002
 20
17.11961096525744
 10
-19.0178217783315
 20
16.84959311501996
 10
-15.39090644965512
 20
16.62581040129446
 10
-11.64685702961347
 20
16.44996594565609
 10
-7.814167995011903
 20
16.32339803059005
 10
-3.92200842364466
 20
16.24706991435377
 10
-0.0000000000000455
 20
16.2215625
 10
3.922008423644568
 20
16.24706991435377
 10
7.814167995011815
 20
16.32339803059004
 10
11.64685702961338
 20
16.44996594565609
 10
15.39090644965503
 20
16.62581040129445
 10
19.01782177833141
 20
16.84959311501995
 10
22.49999999999994
 20
17.11961096525743
 10
25.81093963579702
 20
17.43380895312534
 10
28.92544243589421
 20
17.78979584221809
 10
31.81980515339458
 20
18.18486235735891
 10
34.47199994035396
 20
18.61600180381991
 10
36.86184199300458
 20
19.07993295008438
 10
38.97114317029969
 20
19.57312499999999
  0
LINE
  5
1D1
330
13A
100
AcDbEntity
  8
AM_4
100
AcDbLine
 10
47.25
 20
-25.60380952380952
 30
0.0
 11
47.25
 21
-25.87619047619048
 31
0.0
  0
LWPOLYLINE
  5
1D2
330
13A
100
AcDbEntity
  8
AM_4
100
AcDbPolyline
 90
       19
 70
     0
 43
0.0
 10
47.25
 20
-25.87619047619049
 10
47.26036491757867
 20
-26.11358611834125
 10
47.29138078703341
 20
-26.34917503631184
 10
47.34281155886978
 20
-26.58116425618402
 10
47.41426581385934
 20
-26.80778819991564
 10
47.50519974197637
 20
-27.02732212245563
 10
47.61492128112049
 20
-27.23809523809525
 10
47.74259538412714
 20
-27.43850343615619
 10
47.88725037398069
 20
-27.62702148924144
 10
48.04778533886331
 20
-27.8022146611367
 10
48.22297851075857
 20
-27.96274962601932
 10
48.41149656384382
 20
-28.10740461587289
 10
48.61190476190477
 20
-28.23507871887953
 10
48.82267787754439
 20
-28.34480025802365
 10
49.04221180008437
 20
-28.43573418614068
 10
49.26883574381599
 20
-28.50718844113024
 10
49.50082496368817
 20
-28.5586192129666
 10
49.73641388165877
 20
-28.58963508242134
 10
49.97380952380953
 20
-28.60000000000002
  0
LINE
  5
1D3
330
13A
100
AcDbEntity
  8
AM_4
100
AcDbLine
 10
49.97380952380953
 20
-28.60000000000002
 30
0.0
 11
97.38000000000001
 21
-28.6
 31
0.0
  0
LINE
  5
1D4
330
13A
100
AcDbEntity
  8
AM_4
100
AcDbLine
 10
54.19048523342945
 20
-19.8872473371996
 30
0.0
 11
76.19999999999996
 21
-28.6
 31
0.0
  0
LINE
  5
1D5
330
13A
100
AcDbEntity
  8
AM_4
100
AcDbLine
 10
-76.20000000000002
 20
-28.6
 30
0.0
 11
-54.19048523342943
 21
-19.8872473371996
 31
0.0
  0
LINE
  5
1D6
330
13A
100
AcDbEntity
  8
AM_4
100
AcDbLine
 10
-97.38
 20
-28.59999999999999
 30
0.0
 11
-49.97380952380953
 21
-28.6
 31
0.0
  0
LWPOLYLINE
  5
1D7
330
13A
100
AcDbEntity
  8
AM_4
100
AcDbPolyline
 90
       19
 70
     0
 43
0.0
 10
-49.97380952380952
 20
-28.59999999999999
 10
-49.73641388165876
 20
-28.58963508242132
 10
-49.50082496368817
 20
-28.55861921296658
 10
-49.26883574381599
 20
-28.50718844113022
 10
-49.04221180008437
 20
-28.43573418614066
 10
-48.82267787754439
 20
-28.34480025802363
 10
-48.61190476190477
 20
-28.23507871887951
 10
-48.41149656384383
 20
-28.10740461587287
 10
-48.22297851075857
 20
-27.96274962601931
 10
-48.04778533886331
 20
-27.80221466113669
 10
-47.88725037398069
 20
-27.62702148924143
 10
-47.74259538412714
 20
-27.43850343615618
 10
-47.61492128112049
 20
-27.23809523809524
 10
-47.50519974197638
 20
-27.02732212245562
 10
-47.41426581385934
 20
-26.80778819991563
 10
-47.34281155886978
 20
-26.58116425618401
 10
-47.29138078703342
 20
-26.34917503631183
 10
-47.26036491757868
 20
-26.11358611834125
 10
-47.25000000000001
 20
-25.87619047619048
  0
LINE
  5
1D8
330
13A
100
AcDbEntity
  8
AM_4
100
AcDbLine
 10
-47.25000000000001
 20
-25.87619047619048
 30
0.0
 11
-47.24999999999999
 21
-25.60380952380953
 31
0.0
  0
LWPOLYLINE
  5
1D9
330
13A
100
AcDbEntity
  8
AM_4
100
AcDbPolyline
 90
       17
 70
     0
 43
0.0
 10
-44.99999499328909
 20
-22.9215254967959
 10
-45.23196848069058
 20
-22.9730271819273
 10
-45.45857057131742
 20
-23.04455070919023
 10
-45.67807668643385
 20
-23.13555174135514
 10
-45.88881625196242
 20
-23.24533770561932
 10
-46.08918541256142
 20
-23.37307306450415
 10
-46.2776592379325
 20
-23.5177856747998
 10
-46.45280332846097
 20
-23.67837418616205
 10
-46.613284731863
 20
-23.85361642305344
 10
-46.75788208775742
 20
-24.04217868623707
 10
-46.88549492295555
 20
-24.2426259030331
 10
-46.99515202672684
 20
-24.45343254908839
 10
-47.0860188422988
 20
-24.67299425853792
 10
-47.15740381833805
 20
-24.89964003419778
 10
-47.2087636720735
 20
-25.13164496486276
 10
-47.23970752400631
 20
-25.36724335292207
 10
-47.25
 20
-25.60380952380952
  0
LWPOLYLINE
  5
1DA
330
13A
100
AcDbEntity
  8
AM_4
100
AcDbPolyline
 90
       37
 70
     0
 43
0.0
 10
44.99999499328908
 20
-22.92152549679591
 10
44.82690633368428
 20
-22.33732175606733
 10
44.31265784965407
 20
-21.75758822331122
 10
43.46116328267362
 20
-21.18673702076452
 10
42.27890302054415
 20
-20.629112670768
 10
40.77487477772871
 20
-20.0889590313279
 10
38.96052511731221
 20
-19.57038699779407
 10
36.8496623357447
 20
-19.07734321646404
 10
34.45835137336771
 20
-18.61358004822172
 10
31.80479155051796
 20
-18.18262701080527
 10
28.90917805971058
 20
-17.78776391704601
 10
25.79354826802982
 20
-17.4319959135123
 10
22.48161399945908
 20
-17.11803060952962
 10
18.99858107358278
 20
-16.8482574706387
 10
15.37095747407962
 20
-16.62472963331999
 10
11.62635160696084
 20
-16.44914827938529
 10
7.793262183930038
 20
-16.32284968895694
 10
3.900861329979167
 20
-16.24679507056929
 10
-0.0212274340973156
 20
-16.22156324579131
 10
-3.943154644582842
 20
-16.24734624404494
 10
-7.835072067281221
 20
-16.32394784114527
 10
-11.66735986060173
 20
-16.45078505268507
 10
-15.41085200043856
 20
-16.6268925708981
 10
-19.03705825122519
 20
-16.85093011123415
 10
-22.51838099382995
 20
-17.12119261273369
 10
-25.82832526010147
 20
-17.43562321457135
 10
-28.94170037557442
 20
-17.79182891000875
 10
-31.83481167571277
 20
-18.18709875862075
 10
-34.4856408366141
 20
-18.61842451818893
 10
-36.87401344774953
 20
-19.08252353924138
 10
-38.98175255140952
 20
-19.57586374799723
 10
-40.79281698032755
 20
-20.09469052758088
 10
-42.29342344064894
 20
-20.63505529292354
 10
-43.47215141111972
 20
-21.19284554187978
 10
-44.32003006014916
 20
-21.76381615385208
 10
-44.83060651925504
 20
-22.34362169772184
 10
-44.99999499328908
 20
-22.92152549679589
  0
LWPOLYLINE
  5
1DB
330
13A
100
AcDbEntity
  8
AM_4
100
AcDbPolyline
 90
       17
 70
     0
 43
0.0
 10
47.25000000000001
 20
-25.60380952380952
 10
47.23963508242133
 20
-25.36641388165876
 10
47.20861921296659
 20
-25.13082496368817
 10
47.15718844113023
 20
-24.898835743816
 10
47.08573418614067
 20
-24.67221180008437
 10
46.99480025802364
 20
-24.45267787754439
 10
46.88507871887952
 20
-24.24190476190477
 10
46.75740461587289
 20
-24.04149656384383
 10
46.61274962601932
 20
-23.85297851075858
 10
46.4522146611367
 20
-23.67778533886332
 10
46.27702148924144
 20
-23.5172503739807
 10
46.08850343615619
 20
-23.37259538412714
 10
45.88809523809525
 20
-23.24492128112049
 10
45.67732212245564
 20
-23.13519974197638
 10
45.45778819991565
 20
-23.04426581385935
 10
45.23116425618402
 20
-22.97281155886979
 10
44.99999499328908
 20
-22.92152549679591
  0
LINE
  5
1DC
330
13A
100
AcDbEntity
  8
AM_4
100
AcDbLine
 10
-54.19048523342943
 20
-19.8872473371996
 30
0.0
 11
-54.19048523342944
 21
-8.517115693714166
 31
0.0
  0
LWPOLYLINE
  5
1DD
330
13A
100
AcDbEntity
  8
AM_4
100
AcDbPolyline
 90
       29
 70
     0
 43
0.0
 10
-54.19048523342947
 20
-19.8872473371996
 10
-52.20706331220608
 20
-19.19527371964762
 10
-49.82631411569011
 20
-18.53168319284574
 10
-47.06635658280268
 20
-17.90152608138982
 10
-43.948195656877
 20
-17.30959826139732
 10
-40.49556242535643
 20
-16.76040466099416
 10
-36.73473351188977
 20
-16.25812497509158
 10
-32.69433109535908
 20
-15.80658185538407
 10
-28.40510507781583
 20
-15.40921181766178
 10
-23.89969905915903
 20
-15.06903908785038
 10
-19.21240189962917
 20
-14.78865258582563
 10
-14.37888676087769
 20
-14.57018622216995
 10
-9.435939611666733
 20
-14.41530265782436
 10
-4.421179264434874
 20
-14.32518065023477
 10
0.6272289265803638
 20
-14.30050608229609
 10
5.670863526733143
 20
-14.34146674236926
 10
10.67133943128647
 20
-14.44775089509839
 10
15.59059999923678
 20
-14.61854965390509
 10
20.39120668733123
 20
-14.85256313710373
 10
25.03662397998787
 20
-15.14801036078596
 10
29.4914974466299
 20
-15.50264279318365
 10
33.72192281025006
 20
-15.91376146735334
 10
37.6957039794305
 20
-16.37823752194435
 10
41.38259808003911
 20
-16.89253601372293
 10
44.7545456217627
 20
-17.45274282062474
 10
47.78588404777119
 20
-18.05459443058712
 10
50.45354304227047
 20
-18.69351038945033
 10
52.73722010953584
 20
-19.36462816097942
 10
54.19048523342946
 20
-19.8872473371996
  0
LINE
  5
1DE
330
13A
100
AcDbEntity
  8
AM_4
100
AcDbLine
 10
54.19048523342945
 20
-19.8872473371996
 30
0.0
 11
54.19048523342946
 21
-8.517115693714212
 31
0.0
  0
LWPOLYLINE
  5
1DF
330
13A
100
AcDbEntity
  8
AM_4
100
AcDbPolyline
 90
       21
 70
     0
 43
0.0
 10
54.19048523342946
 20
8.517115693714215
 10
53.91563199848716
 20
7.769600342595536
 10
53.65239686421573
 20
6.968901838250513
 10
53.40020394381116
 20
6.093252574572546
 10
53.17193178648794
 20
5.164114091868544
 10
53.00952991767728
 20
4.377287919689986
 10
52.87021371561235
 20
3.561049273009017
 10
52.75450516506366
 20
2.695602869746237
 10
52.66942509346367
 20
1.808879367974487
 10
52.61841098008046
 20
0.9305137469920424
 10
52.60004243636102
 20
0.0447548258794852
 10
52.61615903433819
 20
-0.8713389637908056
 10
52.66722511482006
 20
-1.780029832178285
 10
52.74211258884176
 20
-2.585689803967994
 10
52.84249275993354
 20
-3.37444151382761
 10
52.96974057314154
 20
-4.160979491182333
 10
53.11887201387214
 20
-4.921537451649147
 10
53.34831872975526
 20
-5.895645785333055
 10
53.60486112556047
 20
-6.813200367286384
 10
53.89043392345062
 20
-7.696937055839903
 10
54.19048523342945
 20
-8.51711569371431
  0
LINE
  5
1E0
330
13A
100
AcDbEntity
  8
AM_4
100
AcDbLine
 10
54.19048523342945
 20
8.5171156937142
 30
0.0
 11
54.19048523342944
 21
19.8872473371996
 31
0.0
  0
LWPOLYLINE
  5
1E1
330
13A
100
AcDbEntity
  8
AM_4
100
AcDbPolyline
 90
       29
 70
     0
 43
0.0
 10
54.19048523342946
 20
19.8872473371996
 10
52.20706331220608
 20
19.19527371964763
 10
49.82631411569011
 20
18.53168319284574
 10
47.06635658280268
 20
17.90152608138983
 10
43.94819565687702
 20
17.30959826139732
 10
40.49556242535645
 20
16.76040466099417
 10
36.73473351188977
 20
16.25812497509159
 10
32.69433109535908
 20
15.80658185538408
 10
28.40510507781584
 20
15.40921181766179
 10
23.89969905915904
 20
15.06903908785039
 10
19.21240189962918
 20
14.78865258582564
 10
14.3788867608777
 20
14.57018622216996
 10
9.435939611666742
 20
14.41530265782436
 10
4.421179264434885
 20
14.32518065023477
 10
-0.627228926580352
 20
14.3005060822961
 10
-5.670863526733132
 20
14.34146674236926
 10
-10.67133943128646
 20
14.44775089509839
 10
-15.59059999923677
 20
14.6185496539051
 10
-20.39120668733122
 20
14.85256313710373
 10
-25.03662397998786
 20
15.14801036078596
 10
-29.4914974466299
 20
15.50264279318366
 10
-33.72192281025005
 20
15.91376146735334
 10
-37.69570397943049
 20
16.37823752194435
 10
-41.3825980800391
 20
16.89253601372294
 10
-44.75454562176272
 20
17.45274282062474
 10
-47.78588404777121
 20
18.05459443058713
 10
-50.45354304227048
 20
18.69351038945034
 10
-52.73722010953585
 20
19.36462816097943
 10
-54.19048523342946
 20
19.8872473371996
  0
LINE
  5
1E2
330
13A
100
AcDbEntity
  8
AM_4
100
AcDbLine
 10
-54.19048523342944
 20
8.517115693714162
 30
0.0
 11
-54.19048523342943
 21
19.8872473371996
 31
0.0
  0
LWPOLYLINE
  5
1E3
330
13A
100
AcDbEntity
  8
AM_4
100
AcDbPolyline
 90
       21
 70
     0
 43
0.0
 10
-54.19048523342944
 20
-8.517115693714166
 10
-53.91563199848716
 20
-7.769600342595499
 10
-53.65239686421572
 20
-6.968901838250483
 10
-53.40020394381115
 20
-6.093252574572506
 10
-53.17193178648793
 20
-5.164114091868492
 10
-53.00952991767728
 20
-4.377287919689934
 10
-52.87021371561234
 20
-3.561049273008968
 10
-52.75450516506365
 20
-2.695602869746189
 10
-52.66942509346367
 20
-1.80887936797444
 10
-52.61841098008046
 20
-0.9305137469919985
 10
-52.60004243636102
 20
-0.0447548258794446
 10
-52.61615903433819
 20
0.8713389637908425
 10
-52.66722511482007
 20
1.780029832178319
 10
-52.74211258884178
 20
2.585689803968026
 10
-52.84249275993355
 20
3.374441513827642
 10
-52.96974057314154
 20
4.160979491182368
 10
-53.11887201387214
 20
4.921537451649184
 10
-53.34831872975526
 20
5.895645785333073
 10
-53.60486112556046
 20
6.813200367286388
 10
-53.8904339234506
 20
7.696937055839889
 10
-54.19048523342943
 20
8.517115693714281
  0
ENDBLK
  5
13D
330
13A
100
AcDbEntity
  8
0
100
AcDbBlockEnd
  0
ENDSEC
  0
SECTION
  2
ENTITIES
  0
INSERT
  5
6F
330
1F
100
AcDbEntity
  8
0
100
AcDbBlockReference
  2
1_125929_4
 10
0.0
 20
0.0
 30
0.0
  0
POINT
  5
1E5
330
1F
100
AcDbEntity
  8
ConnectionPoints
100
AcDbPoint
 10
0.0
 20
-30.2
 30
0.0000000000000018
  0
POINT
  5
1E6
330
1F
100
AcDbEntity
  8
ConnectionPoints
100
AcDbPoint
 10
40.9414826307011
 20
0.0000000000000025
 30
40.9414826307011
  0
POINT
  5
1E7
330
1F
100
AcDbEntity
  8
ConnectionPoints
100
AcDbPoint
 10
0.0
 20
-30.2
 30
0.0000000000000018
  0
ENDSEC
  0
SECTION
  2
OBJECTS
  0
DICTIONARY
  5
C
330
0
100
AcDbDictionary
281
     1
  3
ACAD_DETAILVIEWSTYLE
350
1EF
  3
ACAD_GROUP
350
D
  3
ACAD_LAYOUT
350
1A
  3
ACAD_MATERIAL
350
43
  3
ACAD_MLEADERSTYLE
350
6B
  3
ACAD_MLINESTYLE
350
17
  3
ACAD_PLOTSETTINGS
350
19
  3
ACAD_PLOTSTYLENAME
350
E
  3
ACAD_SCALELIST
350
47
  3
ACAD_SECTIONVIEWSTYLE
350
1F0
  3
ACAD_TABLESTYLE
350
69
  3
ACAD_VISUALSTYLE
350
2A
  3
ACDB_RECOMPOSE_DATA
350
1EC
  3
AcDbVariableDictionary
350
1E8
  0
SUN
  5
6D
330
29
100
AcDbSun
 90
        1
290
     0
 63
     7
421
 16777215
 40
1.0
291
     1
 91
  2455826
 92
 54000000
292
     0
 70
     2
 71
   256
280
     1
  0
DICTIONARY
  5
1EF
102
{ACAD_REACTORS
330
C
102
}
330
C
100
AcDbDictionary
281
     1
  0
DICTIONARY
  5
D
102
{ACAD_REACTORS
330
C
102
}
330
C
100
AcDbDictionary
281
     1
  0
DICTIONARY
  5
1A
102
{ACAD_REACTORS
330
C
102
}
330
C
100
AcDbDictionary
281
     1
  3
Layout1
350
1E
  3
Layout2
350
26
  3
Model
350
22
  0
DICTIONARY
  5
43
102
{ACAD_REACTORS
330
C
102
}
330
C
100
AcDbDictionary
281
     1
  3
ByBlock
350
45
  3
ByLayer
350
44
  3
Global
350
46
  0
DICTIONARY
  5
6B
102
{ACAD_REACTORS
330
C
102
}
330
C
100
AcDbDictionary
281
     1
  3
Standard
350
6C
  0
DICTIONARY
  5
17
102
{ACAD_REACTORS
330
C
102
}
330
C
100
AcDbDictionary
281
     1
  3
Standard
350
18
  0
DICTIONARY
  5
19
102
{ACAD_REACTORS
330
C
102
}
330
C
100
AcDbDictionary
281
     1
  0
ACDBDICTIONARYWDFLT
  5
E
102
{ACAD_REACTORS
330
C
102
}
330
C
100
AcDbDictionary
281
     1
  3
Normal
350
F
100
AcDbDictionaryWithDefault
340
F
  0
DICTIONARY
  5
47
102
{ACAD_REACTORS
330
C
102
}
330
C
100
AcDbDictionary
281
     1
  3
A0
350
48
  3
A1
350
49
  3
A2
350
4A
  3
A3
350
4B
  3
A4
350
4C
  3
A5
350
4D
  3
A6
350
4E
  3
A7
350
4F
  3
A8
350
50
  3
A9
350
51
  3
B0
350
52
  3
B1
350
53
  3
B2
350
54
  3
B3
350
55
  3
B4
350
56
  3
B5
350
57
  3
B6
350
58
  3
B7
350
59
  3
B8
350
5A
  3
B9
350
5B
  3
C0
350
5C
  3
C1
350
5D
  3
C2
350
5E
  3
C3
350
5F
  3
C4
350
60
  3
C5
350
61
  3
C6
350
62
  3
C7
350
63
  3
C8
350
64
  3
C9
350
65
  3
D0
350
66
  3
D1
350
67
  3
D2
350
68
  0
DICTIONARY
  5
1F0
102
{ACAD_REACTORS
330
C
102
}
330
C
100
AcDbDictionary
281
     1
  0
DICTIONARY
  5
69
102
{ACAD_REACTORS
330
C
102
}
330
C
100
AcDbDictionary
281
     1
  3
Standard
350
6A
  0
DICTIONARY
  5
2A
102
{ACAD_REACTORS
330
C
102
}
330
C
100
AcDbDictionary
281
     1
  3
2dWireframe
350
2F
  3
Basic
350
32
  3
Brighten
350
36
  3
ColorChange
350
3A
  3
Conceptual
350
34
  3
Dim
350
35
  3
EdgeColorOff
350
3D
  3
Facepattern
350
39
  3
Flat
350
2B
  3
FlatWithEdges
350
2C
  3
Gouraud
350
2D
  3
GouraudWithEdges
350
2E
  3
Hidden
350
31
  3
JitterOff
350
3B
  3
Linepattern
350
38
  3
OverhangOff
350
3C
  3
Realistic
350
33
  3
Shaded
350
42
  3
Shaded with edges
350
41
  3
Shades of Gray
350
3E
  3
Sketchy
350
3F
  3
Thicken
350
37
  3
Wireframe
350
30
  3
X-Ray
350
40
  0
XRECORD
  5
1EC
102
{ACAD_REACTORS
330
C
102
}
330
C
100
AcDbXrecord
280
     1
 90
        1
330
6A
  0
DICTIONARY
  5
1E8
102
{ACAD_REACTORS
330
C
102
}
330
C
100
AcDbDictionary
281
     1
  3
CANNOSCALE
350
1E9
  3
CMLEADERSTYLE
350
1EE
  3
CTABLESTYLE
350
1ED
  0
LAYOUT
  5
1E
102
{ACAD_REACTORS
330
1A
102
}
330
1A
100
AcDbPlotSettings
  1

  2
none_device
  4

  6

 40
0.0
 41
0.0
 42
0.0
 43
0.0
 44
0.0
 45
0.0
 46
0.0
 47
0.0
 48
0.0
 49
0.0
140
0.0
141
0.0
142
1.0
143
1.0
 70
   688
 72
     1
 73
     0
 74
     5
  7

 75
    16
 76
     0
 77
     2
 78
   300
147
1.0
148
0.0
149
0.0
100
AcDbLayout
  1
Layout1
 70
     1
 71
     1
 10
0.0
 20
0.0
 11
420.0
 21
297.0
 12
0.0
 22
0.0
 32
0.0
 14
1.000000000000000E+20
 24
1.000000000000000E+20
 34
1.000000000000000E+20
 15
-1.000000000000000E+20
 25
-1.000000000000000E+20
 35
-1.000000000000000E+20
146
0.0
 13
0.0
 23
0.0
 33
0.0
 16
1.0
 26
0.0
 36
0.0
 17
0.0
 27
1.0
 37
0.0
 76
     0
330
1B
  0
LAYOUT
  5
26
102
{ACAD_REACTORS
330
1A
102
}
330
1A
100
AcDbPlotSettings
  1

  2
none_device
  4

  6

 40
0.0
 41
0.0
 42
0.0
 43
0.0
 44
0.0
 45
0.0
 46
0.0
 47
0.0
 48
0.0
 49
0.0
140
0.0
141
0.0
142
1.0
143
1.0
 70
   688
 72
     1
 73
     0
 74
     5
  7

 75
    16
 76
     0
 77
     2
 78
   300
147
1.0
148
0.0
149
0.0
100
AcDbLayout
  1
Layout2
 70
     1
 71
     2
 10
0.0
 20
0.0
 11
0.0
 21
0.0
 12
0.0
 22
0.0
 32
0.0
 14
0.0
 24
0.0
 34
0.0
 15
0.0
 25
0.0
 35
0.0
146
0.0
 13
0.0
 23
0.0
 33
0.0
 16
1.0
 26
0.0
 36
0.0
 17
0.0
 27
1.0
 37
0.0
 76
     0
330
23
  0
LAYOUT
  5
22
102
{ACAD_REACTORS
330
1A
102
}
330
1A
100
AcDbPlotSettings
  1

  2
none_device
  4
Letter_(8.50_x_11.00_Inches)
  6

 40
6.35
 41
6.35
 42
6.35000508
 43
6.35000508
 44
215.9
 45
279.4
 46
0.0
 47
0.0
 48
0.0
 49
0.0
140
0.0
141
0.0
142
1.0
143
1.0
 70
  1712
 72
     1
 73
     0
 74
     0
  7

 75
     0
 76
     0
 77
     2
 78
   300
147
1.0
148
0.0
149
0.0
100
AcDbLayout
  1
Model
 70
     1
 71
     0
 10
0.0
 20
0.0
 11
420.0
 21
297.0
 12
0.0
 22
0.0
 32
0.0
 14
1.000000000000000E+20
 24
1.000000000000000E+20
 34
1.000000000000000E+20
 15
-1.000000000000000E+20
 25
-1.000000000000000E+20
 35
-1.000000000000000E+20
146
0.0
 13
0.0
 23
0.0
 33
0.0
 16
1.0
 26
0.0
 36
0.0
 17
0.0
 27
1.0
 37
0.0
 76
     0
330
1F
331
29
  0
MATERIAL
  5
45
102
{ACAD_REACTORS
330
43
102
}
330
43
100
AcDbMaterial
  1
ByBlock
 72
     1
 94
      127
  0
MATERIAL
  5
44
102
{ACAD_REACTORS
330
43
102
}
330
43
100
AcDbMaterial
  1
ByLayer
 72
     1
 94
      127
  0
MATERIAL
  5
46
102
{ACAD_REACTORS
330
43
102
}
330
43
100
AcDbMaterial
  1
Global
 72
     1
 94
      127
  0
MLEADERSTYLE
  5
6C
102
{ACAD_REACTORS
330
6B
102
}
330
6B
100
AcDbMLeaderStyle
179
     2
170
     2
171
     1
172
     0
 90
        2
 40
0.0
 41
0.0
173
     1
 91
-1056964608
340
14
 92
       -2
290
     1
 42
2.0
291
     1
 43
8.0
  3
Standard
341
0
 44
4.0
300

342
11
174
     1
178
     6
175
     1
176
     0
 93
-1056964608
 45
4.0
292
     0
297
     0
 46
4.0
343
0
 94
-1056964608
 47
1.0
 49
1.0
140
1.0
293
     1
141
0.0
294
     1
177
     0
142
1.0
295
     0
296
     0
143
3.75
271
     0
272
     9
273
     9
298
     0
  0
MLINESTYLE
  5
18
102
{ACAD_REACTORS
330
17
102
}
330
17
100
AcDbMlineStyle
  2
Standard
 70
     0
  3

 62
   256
 51
90.0
 52
90.0
 71
     2
 49
0.5
 62
   256
  6
BYLAYER
 49
-0.5
 62
   256
  6
BYLAYER
  0
ACDBPLACEHOLDER
  5
F
102
{ACAD_REACTORS
330
E
102
}
330
E
  0
SCALE
  5
48
102
{ACAD_REACTORS
330
47
102
}
330
47
100
AcDbScale
 70
     0
300
1:1
140
1.0
141
1.0
290
     1
  0
SCALE
  5
49
102
{ACAD_REACTORS
330
47
102
}
330
47
100
AcDbScale
 70
     0
300
1:2
140
1.0
141
2.0
290
     0
  0
SCALE
  5
4A
102
{ACAD_REACTORS
330
47
102
}
330
47
100
AcDbScale
 70
     0
300
1:4
140
1.0
141
4.0
290
     0
  0
SCALE
  5
4B
102
{ACAD_REACTORS
330
47
102
}
330
47
100
AcDbScale
 70
     0
300
1:5
140
1.0
141
5.0
290
     0
  0
SCALE
  5
4C
102
{ACAD_REACTORS
330
47
102
}
330
47
100
AcDbScale
 70
     0
300
1:8
140
1.0
141
8.0
290
     0
  0
SCALE
  5
4D
102
{ACAD_REACTORS
330
47
102
}
330
47
100
AcDbScale
 70
     0
300
1:10
140
1.0
141
10.0
290
     0
  0
SCALE
  5
4E
102
{ACAD_REACTORS
330
47
102
}
330
47
100
AcDbScale
 70
     0
300
1:16
140
1.0
141
16.0
290
     0
  0
SCALE
  5
4F
102
{ACAD_REACTORS
330
47
102
}
330
47
100
AcDbScale
 70
     0
300
1:20
140
1.0
141
20.0
290
     0
  0
SCALE
  5
50
102
{ACAD_REACTORS
330
47
102
}
330
47
100
AcDbScale
 70
     0
300
1:30
140
1.0
141
30.0
290
     0
  0
SCALE
  5
51
102
{ACAD_REACTORS
330
47
102
}
330
47
100
AcDbScale
 70
     0
300
1:40
140
1.0
141
40.0
290
     0
  0
SCALE
  5
52
102
{ACAD_REACTORS
330
47
102
}
330
47
100
AcDbScale
 70
     0
300
1:50
140
1.0
141
50.0
290
     0
  0
SCALE
  5
53
102
{ACAD_REACTORS
330
47
102
}
330
47
100
AcDbScale
 70
     0
300
1:100
140
1.0
141
100.0
290
     0
  0
SCALE
  5
54
102
{ACAD_REACTORS
330
47
102
}
330
47
100
AcDbScale
 70
     0
300
2:1
140
2.0
141
1.0
290
     0
  0
SCALE
  5
55
102
{ACAD_REACTORS
330
47
102
}
330
47
100
AcDbScale
 70
     0
300
4:1
140
4.0
141
1.0
290
     0
  0
SCALE
  5
56
102
{ACAD_REACTORS
330
47
102
}
330
47
100
AcDbScale
 70
     0
300
8:1
140
8.0
141
1.0
290
     0
  0
SCALE
  5
57
102
{ACAD_REACTORS
330
47
102
}
330
47
100
AcDbScale
 70
     0
300
10:1
140
10.0
141
1.0
290
     0
  0
SCALE
  5
58
102
{ACAD_REACTORS
330
47
102
}
330
47
100
AcDbScale
 70
     0
300
100:1
140
100.0
141
1.0
290
     0
  0
SCALE
  5
59
102
{ACAD_REACTORS
330
47
102
}
330
47
100
AcDbScale
 70
     0
300
1/128" = 1'-0"
140
0.0078125
141
12.0
290
     0
  0
SCALE
  5
5A
102
{ACAD_REACTORS
330
47
102
}
330
47
100
AcDbScale
 70
     0
300
1/64" = 1'-0"
140
0.015625
141
12.0
290
     0
  0
SCALE
  5
5B
102
{ACAD_REACTORS
330
47
102
}
330
47
100
AcDbScale
 70
     0
300
1/32" = 1'-0"
140
0.03125
141
12.0
290
     0
  0
SCALE
  5
5C
102
{ACAD_REACTORS
330
47
102
}
330
47
100
AcDbScale
 70
     0
300
1/16" = 1'-0"
140
0.0625
141
12.0
290
     0
  0
SCALE
  5
5D
102
{ACAD_REACTORS
330
47
102
}
330
47
100
AcDbScale
 70
     0
300
3/32" = 1'-0"
140
0.09375
141
12.0
290
     0
  0
SCALE
  5
5E
102
{ACAD_REACTORS
330
47
102
}
330
47
100
AcDbScale
 70
     0
300
1/8" = 1'-0"
140
0.125
141
12.0
290
     0
  0
SCALE
  5
5F
102
{ACAD_REACTORS
330
47
102
}
330
47
100
AcDbScale
 70
     0
300
3/16" = 1'-0"
140
0.1875
141
12.0
290
     0
  0
SCALE
  5
60
102
{ACAD_REACTORS
330
47
102
}
330
47
100
AcDbScale
 70
     0
300
1/4" = 1'-0"
140
0.25
141
12.0
290
     0
  0
SCALE
  5
61
102
{ACAD_REACTORS
330
47
102
}
330
47
100
AcDbScale
 70
     0
300
3/8" = 1'-0"
140
0.375
141
12.0
290
     0
  0
SCALE
  5
62
102
{ACAD_REACTORS
330
47
102
}
330
47
100
AcDbScale
 70
     0
300
1/2" = 1'-0"
140
0.5
141
12.0
290
     0
  0
SCALE
  5
63
102
{ACAD_REACTORS
330
47
102
}
330
47
100
AcDbScale
 70
     0
300
3/4" = 1'-0"
140
0.75
141
12.0
290
     0
  0
SCALE
  5
64
102
{ACAD_REACTORS
330
47
102
}
330
47
100
AcDbScale
 70
     0
300
1" = 1'-0"
140
1.0
141
12.0
290
     0
  0
SCALE
  5
65
102
{ACAD_REACTORS
330
47
102
}
330
47
100
AcDbScale
 70
     0
300
1-1/2" = 1'-0"
140
1.5
141
12.0
290
     0
  0
SCALE
  5
66
102
{ACAD_REACTORS
330
47
102
}
330
47
100
AcDbScale
 70
     0
300
3" = 1'-0"
140
3.0
141
12.0
290
     0
  0
SCALE
  5
67
102
{ACAD_REACTORS
330
47
102
}
330
47
100
AcDbScale
 70
     0
300
6" = 1'-0"
140
6.0
141
12.0
290
     0
  0
SCALE
  5
68
102
{ACAD_REACTORS
330
47
102
}
330
47
100
AcDbScale
 70
     0
300
1'-0" = 1'-0"
140
12.0
141
12.0
290
     0
  0
TABLESTYLE
  5
6A
102
{ACAD_REACTORS
330
69
102
}
102
{ACAD_XDICTIONARY
360
1EA
102
}
330
69
100
AcDbTableStyle
  3
Standard
 70
     0
 71
     0
 40
0.06
 41
0.06
280
     0
281
     0
  7
Standard
140
4.5
170
     2
 62
     0
 63
   257
283
     0
 90
        4
 91
        0
  1

274
    -2
284
     1
 64
     0
275
    -2
285
     1
 65
     0
276
    -2
286
     1
 66
     0
277
    -2
287
     1
 67
     0
278
    -2
288
     1
 68
     0
279
    -2
289
     1
 69
     0
  7
Standard
140
6.0
170
     5
 62
     0
 63
   257
283
     0
 90
        4
 91
        0
  1

274
    -2
284
     1
 64
     0
275
    -2
285
     1
 65
     0
276
    -2
286
     1
 66
     0
277
    -2
287
     1
 67
     0
278
    -2
288
     1
 68
     0
279
    -2
289
     1
 69
     0
  7
Standard
140
4.5
170
     5
 62
     0
 63
   257
283
     0
 90
        4
 91
        0
  1

274
    -2
284
     1
 64
     0
275
    -2
285
     1
 65
     0
276
    -2
286
     1
 66
     0
277
    -2
287
     1
 67
     0
278
    -2
288
     1
 68
     0
279
    -2
289
     1
 69
     0
  0
VISUALSTYLE
  5
2F
102
{ACAD_REACTORS
330
2A
102
}
330
2A
100
AcDbVisualStyle
  2
2dWireframe
 70
     4
177
     3
291
     0
 70
    58
 90
        0
176
     1
 90
        2
176
     1
 90
        0
176
     1
 90
        0
176
     1
 40
0.6
176
     1
 40
30.0
176
     1
 62
     7
420
 16777215
176
     1
 90
        1
176
     1
 90
        4
176
     1
 62
     7
176
     1
 62
   257
176
     1
 90
        1
176
     1
 90
        1
176
     1
 40
1.0
176
     1
 90
        0
176
     1
 62
   257
176
     1
 40
1.0
176
     1
 90
        1
176
     1
 90
        6
176
     1
 90
        2
176
     1
 62
     7
176
     1
 90
        5
176
     1
 90
        0
176
     1
 90
        0
176
     1
290
     0
176
     1
 90
        1
176
     1
 40
0.0
176
     1
 90
        0
176
     1
290
     1
176
     1
290
     1
176
     1
290
     0
176
     1
290
     0
176
     1
290
     0
176
     1
290
     0
176
     1
290
     0
176
     1
290
     0
176
     1
290
     0
176
     1
 90
       50
176
     1
 40
0.0
176
     1
 40
1.0
176
     1
 90
        0
176
     1
 62
    18
420
        0
176
     1
 90
       50
176
     1
 90
        3
176
     1
 62
     5
420
      255
176
     1
290
     0
176
     1
 90
       50
176
     1
 90
       50
176
     1
 90
       50
176
     1
290
     0
176
     1
 90
       50
176
     1
 62
   256
176
     0
 40
1.0
176
     0
 90
        2
176
     1
  1
strokes_ogs.tif
176
     1
290
     0
176
     1
 40
1.0
176
     1
 40
1.0
176
     1
  0
VISUALSTYLE
  5
32
102
{ACAD_REACTORS
330
2A
102
}
330
2A
100
AcDbVisualStyle
  2
Basic
 70
     7
177
     3
291
     1
 70
    58
 90
        1
176
     1
 90
        0
176
     1
 90
        1
176
     1
 90
        0
176
     1
 40
0.6
176
     1
 40
30.0
176
     1
 62
     7
420
 16777215
176
     1
 90
        0
176
     1
 90
        4
176
     1
 62
     7
176
     1
 62
   257
176
     1
 90
        1
176
     1
 90
        1
176
     1
 40
1.0
176
     1
 90
        8
176
     1
 62
     7
176
     1
 40
1.0
176
     1
 90
        1
176
     1
 90
        6
176
     1
 90
        2
176
     1
 62
     7
176
     1
 90
        5
176
     1
 90
        0
176
     1
 90
        0
176
     1
290
     0
176
     1
 90
        1
176
     1
 40
0.0
176
     1
 90
        0
176
     1
290
     0
176
     1
290
     1
176
     1
290
     1
176
     1
290
     0
176
     1
290
     0
176
     1
290
     0
176
     1
290
     0
176
     1
290
     0
176
     1
290
     0
176
     1
 90
       50
176
     1
 40
0.0
176
     1
 40
1.0
176
     1
 90
        0
176
     1
 62
    18
420
        0
176
     1
 90
       50
176
     1
 90
        3
176
     1
 62
     5
420
      255
176
     1
290
     0
176
     1
 90
       50
176
     1
 90
       50
176
     1
 90
       50
176
     1
290
     0
176
     1
 90
       50
176
     1
 62
   256
176
     0
 40
1.0
176
     0
 90
        2
176
     1
  1
strokes_ogs.tif
176
     1
290
     0
176
     1
 40
1.0
176
     1
 40
1.0
176
     1
  0
VISUALSTYLE
  5
36
102
{ACAD_REACTORS
330
2A
102
}
330
2A
100
AcDbVisualStyle
  2
Brighten
 70
    12
177
     3
291
     1
 70
    58
 90
        2
176
     1
 90
        2
176
     1
 90
        0
176
     1
 90
        0
176
     1
 40
0.6
176
     1
 40
30.0
176
     1
 62
     7
420
 16777215
176
     1
 90
        1
176
     1
 90
        4
176
     1
 62
     7
176
     1
 62
   257
176
     1
 90
        1
176
     1
 90
        1
176
     1
 40
1.0
176
     1
 90
        8
176
     1
 62
     7
176
     1
 40
1.0
176
     1
 90
        1
176
     1
 90
        6
176
     1
 90
        2
176
     1
 62
     7
176
     1
 90
        5
176
     1
 90
        0
176
     1
 90
        0
176
     1
290
     0
176
     1
 90
        1
176
     1
 40
50.0
176
     1
 90
        0
176
     1
290
     0
176
     1
290
     1
176
     1
290
     1
176
     1
290
     0
176
     1
290
     0
176
     1
290
     0
176
     1
290
     0
176
     1
290
     0
176
     1
290
     0
176
     1
 90
       50
176
     1
 40
0.0
176
     1
 40
1.0
176
     1
 90
        0
176
     1
 62
    18
420
        0
176
     1
 90
       50
176
     1
 90
        3
176
     1
 62
     5
420
      255
176
     1
290
     0
176
     1
 90
       50
176
     1
 90
       50
176
     1
 90
       50
176
     1
290
     0
176
     1
 90
       50
176
     1
 62
   256
176
     0
 40
1.0
176
     0
 90
        2
176
     1
  1
strokes_ogs.tif
176
     1
290
     0
176
     1
 40
1.0
176
     1
 40
1.0
176
     1
  0
VISUALSTYLE
  5
3A
102
{ACAD_REACTORS
330
2A
102
}
330
2A
100
AcDbVisualStyle
  2
ColorChange
 70
    16
177
     3
291
     1
 70
    58
 90
        2
176
     1
 90
        2
176
     1
 90
        3
176
     1
 90
        0
176
     1
 40
0.6
176
     1
 40
30.0
176
     1
 62
     8
420
  8421504
176
     1
 90
        1
176
     1
 90
        4
176
     1
 62
     7
176
     1
 62
   257
176
     1
 90
        1
176
     1
 90
        1
176
     1
 40
1.0
176
     1
 90
        8
176
     1
 62
     8
420
  8421504
176
     1
 40
1.0
176
     1
 90
        1
176
     1
 90
        6
176
     1
 90
        2
176
     1
 62
     7
176
     1
 90
        5
176
     1
 90
        0
176
     1
 90
        0
176
     1
290
     0
176
     1
 90
        1
176
     1
 40
0.0
176
     1
 90
        0
176
     1
290
     0
176
     1
290
     1
176
     1
290
     1
176
     1
290
     0
176
     1
290
     0
176
     1
290
     0
176
     1
290
     0
176
     1
290
     0
176
     1
290
     0
176
     1
 90
       50
176
     1
 40
0.0
176
     1
 40
1.0
176
     1
 90
        0
176
     1
 62
    18
420
        0
176
     1
 90
       50
176
     1
 90
        3
176
     1
 62
     5
420
      255
176
     1
290
     0
176
     1
 90
       50
176
     1
 90
       50
176
     1
 90
       50
176
     1
290
     0
176
     1
 90
       50
176
     1
 62
   256
176
     0
 40
1.0
176
     0
 90
        2
176
     1
  1
strokes_ogs.tif
176
     1
290
     0
176
     1
 40
1.0
176
     1
 40
1.0
176
     1
  0
VISUALSTYLE
  5
34
102
{ACAD_REACTORS
330
2A
102
}
330
2A
100
AcDbVisualStyle
  2
Conceptual
 70
     9
177
     3
291
     0
 70
    58
 90
        3
176
     1
 90
        2
176
     1
 90
        0
176
     1
 90
        0
176
     1
 40
0.6
176
     1
 40
30.0
176
     1
 62
     7
420
 16777215
176
     1
 90
        2
176
     1
 90
        2
176
     1
 62
     7
176
     1
 62
   257
176
     1
 90
        1
176
     1
 90
        1
176
     1
 40
179.0
176
     1
 90
        8
176
     1
 62
     7
176
     1
 40
1.0
176
     1
 90
        1
176
     1
 90
        6
176
     1
 90
        2
176
     1
 62
     7
176
     1
 90
        3
176
     1
 90
        0
176
     1
 90
        0
176
     1
290
     0
176
     1
 90
        1
176
     1
 40
0.0
176
     1
 90
        0
176
     1
290
     0
176
     1
290
     1
176
     1
290
     1
176
     1
290
     0
176
     1
290
     0
176
     1
290
     0
176
     1
290
     0
176
     1
290
     0
176
     1
290
     0
176
     1
 90
       50
176
     1
 40
0.0
176
     1
 40
1.0
176
     1
 90
        0
176
     1
 62
    18
420
        0
176
     1
 90
       50
176
     1
 90
        3
176
     1
 62
     5
420
      255
176
     1
290
     0
176
     1
 90
       50
176
     1
 90
       50
176
     1
 90
       50
176
     1
290
     0
176
     1
 90
       50
176
     1
 62
   256
176
     0
 40
1.0
176
     0
 90
        2
176
     1
  1
strokes_ogs.tif
176
     1
290
     0
176
     1
 40
1.0
176
     1
 40
1.0
176
     1
  0
VISUALSTYLE
  5
35
102
{ACAD_REACTORS
330
2A
102
}
330
2A
100
AcDbVisualStyle
  2
Dim
 70
    11
177
     3
291
     1
 70
    58
 90
        2
176
     1
 90
        2
176
     1
 90
        0
176
     1
 90
        0
176
     1
 40
0.6
176
     1
 40
30.0
176
     1
 62
     7
420
 16777215
176
     1
 90
        1
176
     1
 90
        4
176
     1
 62
     7
176
     1
 62
   257
176
     1
 90
        1
176
     1
 90
        1
176
     1
 40
1.0
176
     1
 90
        8
176
     1
 62
     7
176
     1
 40
1.0
176
     1
 90
        1
176
     1
 90
        6
176
     1
 90
        2
176
     1
 62
     7
176
     1
 90
        5
176
     1
 90
        0
176
     1
 90
        0
176
     1
290
     0
176
     1
 90
        1
176
     1
 40
-50.0
176
     1
 90
        0
176
     1
290
     0
176
     1
290
     1
176
     1
290
     1
176
     1
290
     0
176
     1
290
     0
176
     1
290
     0
176
     1
290
     0
176
     1
290
     0
176
     1
290
     0
176
     1
 90
       50
176
     1
 40
0.0
176
     1
 40
1.0
176
     1
 90
        0
176
     1
 62
    18
420
        0
176
     1
 90
       50
176
     1
 90
        3
176
     1
 62
     5
420
      255
176
     1
290
     0
176
     1
 90
       50
176
     1
 90
       50
176
     1
 90
       50
176
     1
290
     0
176
     1
 90
       50
176
     1
 62
   256
176
     0
 40
1.0
176
     0
 90
        2
176
     1
  1
strokes_ogs.tif
176
     1
290
     0
176
     1
 40
1.0
176
     1
 40
1.0
176
     1
  0
VISUALSTYLE
  5
3D
102
{ACAD_REACTORS
330
2A
102
}
330
2A
100
AcDbVisualStyle
  2
EdgeColorOff
 70
    22
177
     3
291
     1
 70
    58
 90
        2
176
     0
 90
        2
176
     0
 90
        0
176
     0
 90
        0
176
     0
 40
0.6
176
     0
 40
30.0
176
     0
 62
     7
420
 16777215
176
     0
 90
        1
176
     0
 90
        4
176
     0
 62
     7
176
     0
 62
   257
176
     0
 90
        1
176
     0
 90
        1
176
     0
 40
1.0
176
     0
 90
        8
176
     2
 62
     7
176
     0
 40
1.0
176
     0
 90
        1
176
     0
 90
        6
176
     0
 90
        2
176
     0
 62
     7
176
     0
 90
        5
176
     0
 90
        0
176
     0
 90
        0
176
     0
290
     0
176
     0
 90
        1
176
     0
 40
0.0
176
     0
 90
        0
176
     0
290
     0
176
     0
290
     1
176
     0
290
     1
176
     0
290
     0
176
     0
290
     0
176
     0
290
     0
176
     0
290
     0
176
     0
290
     0
176
     0
290
     0
176
     0
 90
       50
176
     0
 40
0.0
176
     0
 40
1.0
176
     0
 90
        0
176
     0
 62
    18
420
        0
176
     0
 90
       50
176
     0
 90
        3
176
     0
 62
     5
420
      255
176
     0
290
     0
176
     0
 90
       50
176
     0
 90
       50
176
     0
 90
       50
176
     0
290
     0
176
     0
 90
       50
176
     0
 62
   256
176
     0
 40
1.0
176
     0
 90
        2
176
     0
  1
strokes_ogs.tif
176
     0
290
     0
176
     0
 40
1.0
176
     0
 40
1.0
176
     0
  0
VISUALSTYLE
  5
39
102
{ACAD_REACTORS
330
2A
102
}
330
2A
100
AcDbVisualStyle
  2
Facepattern
 70
    15
177
     3
291
     1
 70
    58
 90
        2
176
     1
 90
        2
176
     1
 90
        0
176
     1
 90
        0
176
     1
 40
0.6
176
     1
 40
30.0
176
     1
 62
     7
420
 16777215
176
     1
 90
        1
176
     1
 90
        4
176
     1
 62
     7
176
     1
 62
   257
176
     1
 90
        1
176
     1
 90
        1
176
     1
 40
1.0
176
     1
 90
        8
176
     1
 62
     7
176
     1
 40
1.0
176
     1
 90
        1
176
     1
 90
        6
176
     1
 90
        2
176
     1
 62
     7
176
     1
 90
        5
176
     1
 90
        0
176
     1
 90
        0
176
     1
290
     0
176
     1
 90
        1
176
     1
 40
0.0
176
     1
 90
        0
176
     1
290
     0
176
     1
290
     1
176
     1
290
     1
176
     1
290
     0
176
     1
290
     0
176
     1
290
     0
176
     1
290
     0
176
     1
290
     0
176
     1
290
     0
176
     1
 90
       50
176
     1
 40
0.0
176
     1
 40
1.0
176
     1
 90
        0
176
     1
 62
    18
420
        0
176
     1
 90
       50
176
     1
 90
        3
176
     1
 62
     5
420
      255
176
     1
290
     0
176
     1
 90
       50
176
     1
 90
       50
176
     1
 90
       50
176
     1
290
     0
176
     1
 90
       50
176
     1
 62
   256
176
     0
 40
1.0
176
     0
 90
        2
176
     1
  1
strokes_ogs.tif
176
     1
290
     0
176
     1
 40
1.0
176
     1
 40
1.0
176
     1
  0
VISUALSTYLE
  5
2B
102
{ACAD_REACTORS
330
2A
102
}
330
2A
100
AcDbVisualStyle
  2
Flat
 70
     0
177
     3
291
     1
 70
    58
 90
        2
176
     1
 90
        1
176
     1
 90
        1
176
     1
 90
        2
176
     1
 40
0.6
176
     1
 40
30.0
176
     1
 62
     7
420
 16777215
176
     1
 90
        0
176
     1
 90
        0
176
     1
 62
     7
176
     1
 62
   257
176
     1
 90
        1
176
     1
 90
        1
176
     1
 40
1.0
176
     1
 90
        8
176
     1
 62
     7
176
     1
 40
1.0
176
     1
 90
        1
176
     1
 90
        6
176
     1
 90
        2
176
     1
 62
     7
176
     1
 90
        5
176
     1
 90
        0
176
     1
 90
        0
176
     1
290
     0
176
     1
 90
       13
176
     1
 40
0.0
176
     1
 90
        0
176
     1
290
     0
176
     1
290
     1
176
     1
290
     1
176
     1
290
     0
176
     1
290
     0
176
     1
290
     0
176
     1
290
     0
176
     1
290
     0
176
     1
290
     0
176
     1
 90
       50
176
     1
 40
0.0
176
     1
 40
1.0
176
     1
 90
        0
176
     1
 62
    18
420
        0
176
     1
 90
       50
176
     1
 90
        3
176
     1
 62
     5
420
      255
176
     1
290
     0
176
     1
 90
       50
176
     1
 90
       50
176
     1
 90
       50
176
     1
290
     0
176
     1
 90
       50
176
     1
 62
   256
176
     0
 40
1.0
176
     0
 90
        2
176
     1
  1
strokes_ogs.tif
176
     1
290
     0
176
     1
 40
1.0
176
     1
 40
1.0
176
     1
  0
VISUALSTYLE
  5
2C
102
{ACAD_REACTORS
330
2A
102
}
330
2A
100
AcDbVisualStyle
  2
FlatWithEdges
 70
     1
177
     3
291
     1
 70
    58
 90
        2
176
     1
 90
        1
176
     1
 90
        1
176
     1
 90
        2
176
     1
 40
0.6
176
     1
 40
30.0
176
     1
 62
     7
420
 16777215
176
     1
 90
        1
176
     1
 90
        0
176
     1
 62
     7
176
     1
 62
   257
176
     1
 90
        1
176
     1
 90
        1
176
     1
 40
1.0
176
     1
 90
        0
176
     1
 62
   257
176
     1
 40
1.0
176
     1
 90
        1
176
     1
 90
        6
176
     1
 90
        2
176
     1
 62
     7
176
     1
 90
        5
176
     1
 90
        0
176
     1
 90
        0
176
     1
290
     0
176
     1
 90
       13
176
     1
 40
0.0
176
     1
 90
        0
176
     1
290
     0
176
     1
290
     1
176
     1
290
     1
176
     1
290
     0
176
     1
290
     0
176
     1
290
     0
176
     1
290
     0
176
     1
290
     0
176
     1
290
     0
176
     1
 90
       50
176
     1
 40
0.0
176
     1
 40
1.0
176
     1
 90
        0
176
     1
 62
    18
420
        0
176
     1
 90
       50
176
     1
 90
        3
176
     1
 62
     5
420
      255
176
     1
290
     0
176
     1
 90
       50
176
     1
 90
       50
176
     1
 90
       50
176
     1
290
     0
176
     1
 90
       50
176
     1
 62
   256
176
     0
 40
1.0
176
     0
 90
        2
176
     1
  1
strokes_ogs.tif
176
     1
290
     0
176
     1
 40
1.0
176
     1
 40
1.0
176
     1
  0
VISUALSTYLE
  5
2D
102
{ACAD_REACTORS
330
2A
102
}
330
2A
100
AcDbVisualStyle
  2
Gouraud
 70
     2
177
     3
291
     1
 70
    58
 90
        2
176
     1
 90
        2
176
     1
 90
        1
176
     1
 90
        2
176
     1
 40
0.6
176
     1
 40
30.0
176
     1
 62
     7
420
 16777215
176
     1
 90
        0
176
     1
 90
        0
176
     1
 62
     7
176
     1
 62
   257
176
     1
 90
        1
176
     1
 90
        1
176
     1
 40
1.0
176
     1
 90
        0
176
     1
 62
     7
176
     1
 40
1.0
176
     1
 90
        1
176
     1
 90
        6
176
     1
 90
        2
176
     1
 62
     7
176
     1
 90
        5
176
     1
 90
        0
176
     1
 90
        0
176
     1
290
     0
176
     1
 90
       13
176
     1
 40
0.0
176
     1
 90
        0
176
     1
290
     0
176
     1
290
     1
176
     1
290
     1
176
     1
290
     0
176
     1
290
     0
176
     1
290
     0
176
     1
290
     0
176
     1
290
     0
176
     1
290
     0
176
     1
 90
       50
176
     1
 40
0.0
176
     1
 40
1.0
176
     1
 90
        0
176
     1
 62
    18
420
        0
176
     1
 90
       50
176
     1
 90
        3
176
     1
 62
     5
420
      255
176
     1
290
     0
176
     1
 90
       50
176
     1
 90
       50
176
     1
 90
       50
176
     1
290
     0
176
     1
 90
       50
176
     1
 62
   256
176
     0
 40
1.0
176
     0
 90
        2
176
     1
  1
strokes_ogs.tif
176
     1
290
     0
176
     1
 40
1.0
176
     1
 40
1.0
176
     1
  0
VISUALSTYLE
  5
2E
102
{ACAD_REACTORS
330
2A
102
}
330
2A
100
AcDbVisualStyle
  2
GouraudWithEdges
 70
     3
177
     3
291
     1
 70
    58
 90
        2
176
     1
 90
        2
176
     1
 90
        1
176
     1
 90
        2
176
     1
 40
0.6
176
     1
 40
30.0
176
     1
 62
     7
420
 16777215
176
     1
 90
        1
176
     1
 90
        0
176
     1
 62
     7
176
     1
 62
   257
176
     1
 90
        1
176
     1
 90
        1
176
     1
 40
1.0
176
     1
 90
        0
176
     1
 62
   257
176
     1
 40
1.0
176
     1
 90
        1
176
     1
 90
        6
176
     1
 90
        2
176
     1
 62
     7
176
     1
 90
        5
176
     1
 90
        0
176
     1
 90
        0
176
     1
290
     0
176
     1
 90
       13
176
     1
 40
0.0
176
     1
 90
        0
176
     1
290
     0
176
     1
290
     1
176
     1
290
     1
176
     1
290
     0
176
     1
290
     0
176
     1
290
     0
176
     1
290
     0
176
     1
290
     0
176
     1
290
     0
176
     1
 90
       50
176
     1
 40
0.0
176
     1
 40
1.0
176
     1
 90
        0
176
     1
 62
    18
420
        0
176
     1
 90
       50
176
     1
 90
        3
176
     1
 62
     5
420
      255
176
     1
290
     0
176
     1
 90
       50
176
     1
 90
       50
176
     1
 90
       50
176
     1
290
     0
176
     1
 90
       50
176
     1
 62
   256
176
     0
 40
1.0
176
     0
 90
        2
176
     1
  1
strokes_ogs.tif
176
     1
290
     0
176
     1
 40
1.0
176
     1
 40
1.0
176
     1
  0
VISUALSTYLE
  5
31
102
{ACAD_REACTORS
330
2A
102
}
330
2A
100
AcDbVisualStyle
  2
Hidden
 70
     6
177
     3
291
     0
 70
    58
 90
        1
176
     1
 90
        2
176
     1
 90
        2
176
     1
 90
        0
176
     1
 40
0.6
176
     1
 40
30.0
176
     1
 62
     7
420
 16777215
176
     1
 90
        2
176
     1
 90
        2
176
     1
 62
     7
176
     1
 62
   257
176
     1
 90
        2
176
     1
 90
        1
176
     1
 40
40.0
176
     1
 90
        0
176
     1
 62
   257
176
     1
 40
1.0
176
     1
 90
        1
176
     1
 90
        6
176
     1
 90
        2
176
     1
 62
     7
176
     1
 90
        3
176
     1
 90
        0
176
     1
 90
        0
176
     1
290
     0
176
     1
 90
        1
176
     1
 40
0.0
176
     1
 90
        0
176
     1
290
     0
176
     1
290
     1
176
     1
290
     1
176
     1
290
     0
176
     1
290
     0
176
     1
290
     0
176
     1
290
     0
176
     1
290
     0
176
     1
290
     0
176
     1
 90
       50
176
     1
 40
0.0
176
     1
 40
1.0
176
     1
 90
        0
176
     1
 62
    18
420
        0
176
     1
 90
       50
176
     1
 90
        3
176
     1
 62
     5
420
      255
176
     1
290
     0
176
     1
 90
       50
176
     1
 90
       50
176
     1
 90
       50
176
     1
290
     0
176
     1
 90
       50
176
     1
 62
   256
176
     0
 40
1.0
176
     0
 90
        2
176
     1
  1
strokes_ogs.tif
176
     1
290
     0
176
     1
 40
1.0
176
     1
 40
1.0
176
     1
  0
VISUALSTYLE
  5
3B
102
{ACAD_REACTORS
330
2A
102
}
330
2A
100
AcDbVisualStyle
  2
JitterOff
 70
    20
177
     3
291
     1
 70
    58
 90
        2
176
     0
 90
        2
176
     0
 90
        0
176
     0
 90
        0
176
     0
 40
0.6
176
     0
 40
30.0
176
     0
 62
     7
420
 16777215
176
     0
 90
        1
176
     0
 90
        4
176
     0
 62
     7
176
     0
 62
   257
176
     0
 90
        1
176
     0
 90
        1
176
     0
 40
1.0
176
     0
 90
       10
176
     2
 62
     7
176
     0
 40
1.0
176
     0
 90
        1
176
     0
 90
        6
176
     0
 90
        2
176
     0
 62
     7
176
     0
 90
        5
176
     0
 90
        0
176
     0
 90
        0
176
     0
290
     0
176
     0
 90
        1
176
     0
 40
0.0
176
     0
 90
        0
176
     0
290
     0
176
     0
290
     1
176
     0
290
     1
176
     0
290
     0
176
     0
290
     0
176
     0
290
     0
176
     0
290
     0
176
     0
290
     0
176
     0
290
     0
176
     0
 90
       50
176
     0
 40
0.0
176
     0
 40
1.0
176
     0
 90
        0
176
     0
 62
    18
420
        0
176
     0
 90
       50
176
     0
 90
        3
176
     0
 62
     5
420
      255
176
     0
290
     0
176
     0
 90
       50
176
     0
 90
       50
176
     0
 90
       50
176
     0
290
     0
176
     0
 90
       50
176
     0
 62
   256
176
     0
 40
1.0
176
     0
 90
        2
176
     0
  1
strokes_ogs.tif
176
     0
290
     0
176
     0
 40
1.0
176
     0
 40
1.0
176
     0
  0
VISUALSTYLE
  5
38
102
{ACAD_REACTORS
330
2A
102
}
330
2A
100
AcDbVisualStyle
  2
Linepattern
 70
    14
177
     3
291
     1
 70
    58
 90
        2
176
     1
 90
        2
176
     1
 90
        0
176
     1
 90
        0
176
     1
 40
0.6
176
     1
 40
30.0
176
     1
 62
     7
420
 16777215
176
     1
 90
        1
176
     1
 90
        4
176
     1
 62
     7
176
     1
 62
   257
176
     1
 90
        7
176
     1
 90
        7
176
     1
 40
1.0
176
     1
 90
        8
176
     1
 62
     7
176
     1
 40
1.0
176
     1
 90
        1
176
     1
 90
        6
176
     1
 90
        2
176
     1
 62
     7
176
     1
 90
        5
176
     1
 90
        0
176
     1
 90
        0
176
     1
290
     0
176
     1
 90
        1
176
     1
 40
0.0
176
     1
 90
        0
176
     1
290
     0
176
     1
290
     1
176
     1
290
     1
176
     1
290
     0
176
     1
290
     0
176
     1
290
     0
176
     1
290
     0
176
     1
290
     0
176
     1
290
     0
176
     1
 90
       50
176
     1
 40
0.0
176
     1
 40
1.0
176
     1
 90
        0
176
     1
 62
    18
420
        0
176
     1
 90
       50
176
     1
 90
        3
176
     1
 62
     5
420
      255
176
     1
290
     0
176
     1
 90
       50
176
     1
 90
       50
176
     1
 90
       50
176
     1
290
     0
176
     1
 90
       50
176
     1
 62
   256
176
     0
 40
1.0
176
     0
 90
        2
176
     1
  1
strokes_ogs.tif
176
     1
290
     0
176
     1
 40
1.0
176
     1
 40
1.0
176
     1
  0
VISUALSTYLE
  5
3C
102
{ACAD_REACTORS
330
2A
102
}
330
2A
100
AcDbVisualStyle
  2
OverhangOff
 70
    21
177
     3
291
     1
 70
    58
 90
        2
176
     0
 90
        2
176
     0
 90
        0
176
     0
 90
        0
176
     0
 40
0.6
176
     0
 40
30.0
176
     0
 62
     7
420
 16777215
176
     0
 90
        1
176
     0
 90
        4
176
     0
 62
     7
176
     0
 62
   257
176
     0
 90
        1
176
     0
 90
        1
176
     0
 40
1.0
176
     0
 90
        9
176
     2
 62
     7
176
     0
 40
1.0
176
     0
 90
        1
176
     0
 90
        6
176
     0
 90
        2
176
     0
 62
     7
176
     0
 90
        5
176
     0
 90
        0
176
     0
 90
        0
176
     0
290
     0
176
     0
 90
        1
176
     0
 40
0.0
176
     0
 90
        0
176
     0
290
     0
176
     0
290
     1
176
     0
290
     1
176
     0
290
     0
176
     0
290
     0
176
     0
290
     0
176
     0
290
     0
176
     0
290
     0
176
     0
290
     0
176
     0
 90
       50
176
     0
 40
0.0
176
     0
 40
1.0
176
     0
 90
        0
176
     0
 62
    18
420
        0
176
     0
 90
       50
176
     0
 90
        3
176
     0
 62
     5
420
      255
176
     0
290
     0
176
     0
 90
       50
176
     0
 90
       50
176
     0
 90
       50
176
     0
290
     0
176
     0
 90
       50
176
     0
 62
   256
176
     0
 40
1.0
176
     0
 90
        2
176
     0
  1
strokes_ogs.tif
176
     0
290
     0
176
     0
 40
1.0
176
     0
 40
1.0
176
     0
  0
VISUALSTYLE
  5
33
102
{ACAD_REACTORS
330
2A
102
}
330
2A
100
AcDbVisualStyle
  2
Realistic
 70
     8
177
     3
291
     0
 70
    58
 90
        2
176
     1
 90
        3
176
     1
 90
        0
176
     1
 90
        2
176
     1
 40
0.6
176
     1
 40
30.0
176
     1
 62
     7
420
 16777215
176
     1
 90
        0
176
     1
 90
        0
176
     1
 62
     7
176
     1
 62
   257
176
     1
 90
        1
176
     1
 90
        1
176
     1
 40
1.0
176
     1
 90
        8
176
     1
 62
   257
176
     1
 40
1.0
176
     1
 90
        1
176
     1
 90
        6
176
     1
 90
        2
176
     1
 62
     7
176
     1
 90
        3
176
     1
 90
        0
176
     1
 90
        0
176
     1
290
     0
176
     1
 90
       13
176
     1
 40
0.0
176
     1
 90
        0
176
     1
290
     0
176
     1
290
     1
176
     1
290
     1
176
     1
290
     0
176
     1
290
     0
176
     1
290
     0
176
     1
290
     0
176
     1
290
     0
176
     1
290
     0
176
     1
 90
       50
176
     1
 40
0.0
176
     1
 40
1.0
176
     1
 90
        0
176
     1
 62
    18
420
        0
176
     1
 90
       50
176
     1
 90
        3
176
     1
 62
     5
420
      255
176
     1
290
     0
176
     1
 90
       50
176
     1
 90
       50
176
     1
 90
       50
176
     1
290
     0
176
     1
 90
       50
176
     1
 62
   256
176
     0
 40
1.0
176
     0
 90
        2
176
     1
  1
strokes_ogs.tif
176
     1
290
     0
176
     1
 40
1.0
176
     1
 40
1.0
176
     1
  0
VISUALSTYLE
  5
42
102
{ACAD_REACTORS
330
2A
102
}
330
2A
100
AcDbVisualStyle
  2
Shaded
 70
    27
177
     3
291
     0
 70
    58
 90
        2
176
     1
 90
        2
176
     1
 90
        1
176
     1
 90
        2
176
     1
 40
0.6
176
     1
 40
30.0
176
     1
 62
     7
420
 16777215
176
     1
 90
        0
176
     1
 90
        4
176
     1
 62
     7
176
     1
 62
   257
176
     1
 90
        1
176
     1
 90
        1
176
     1
 40
1.0
176
     1
 90
        8
176
     1
 62
   257
176
     1
 40
1.0
176
     1
 90
        1
176
     1
 90
        6
176
     1
 90
        2
176
     1
 62
     8
420
  7895160
176
     1
 90
        3
176
     1
 90
        0
176
     1
 90
        0
176
     1
290
     0
176
     1
 90
        5
176
     1
 40
0.0
176
     1
 90
        0
176
     1
290
     0
176
     1
290
     1
176
     1
290
     1
176
     1
290
     0
176
     1
290
     0
176
     1
290
     0
176
     1
290
     0
176
     1
290
     0
176
     1
290
     0
176
     1
 90
       50
176
     1
 40
0.0
176
     1
 40
1.0
176
     1
 90
        0
176
     1
 62
    18
420
        0
176
     1
 90
       50
176
     1
 90
        3
176
     1
 62
     5
420
      255
176
     1
290
     0
176
     1
 90
       50
176
     1
 90
       50
176
     1
 90
       50
176
     1
290
     0
176
     1
 90
       50
176
     1
 62
   256
176
     0
 40
1.0
176
     0
 90
        2
176
     1
  1
strokes_ogs.tif
176
     1
290
     0
176
     1
 40
1.0
176
     1
 40
1.0
176
     1
  0
VISUALSTYLE
  5
41
102
{ACAD_REACTORS
330
2A
102
}
330
2A
100
AcDbVisualStyle
  2
Shaded with edges
 70
    26
177
     3
291
     0
 70
    58
 90
        2
176
     1
 90
        2
176
     1
 90
        1
176
     1
 90
        2
176
     1
 40
0.6
176
     1
 40
30.0
176
     1
 62
     7
420
 16777215
176
     1
 90
        1
176
     1
 90
       10
176
     1
 62
     7
176
     1
 62
   257
176
     1
 90
        2
176
     1
 90
        1
176
     1
 40
1.0
176
     1
 90
        8
176
     1
 62
   257
176
     1
 40
1.0
176
     1
 90
        1
176
     1
 90
        6
176
     1
 90
        2
176
     1
 62
     7
176
     1
 90
        3
176
     1
 90
        0
176
     1
 90
        0
176
     1
290
     0
176
     1
 90
        5
176
     1
 40
0.0
176
     1
 90
        0
176
     1
290
     0
176
     1
290
     1
176
     1
290
     1
176
     1
290
     0
176
     1
290
     0
176
     1
290
     0
176
     1
290
     0
176
     1
290
     0
176
     1
290
     0
176
     1
 90
       50
176
     1
 40
0.0
176
     1
 40
1.0
176
     1
 90
        0
176
     1
 62
    18
420
        0
176
     1
 90
       50
176
     1
 90
        3
176
     1
 62
     5
420
      255
176
     1
290
     0
176
     1
 90
       50
176
     1
 90
       50
176
     1
 90
       50
176
     1
290
     0
176
     1
 90
       50
176
     1
 62
   256
176
     0
 40
1.0
176
     0
 90
        2
176
     1
  1
strokes_ogs.tif
176
     1
290
     0
176
     1
 40
1.0
176
     1
 40
1.0
176
     1
  0
VISUALSTYLE
  5
3E
102
{ACAD_REACTORS
330
2A
102
}
330
2A
100
AcDbVisualStyle
  2
Shades of Gray
 70
    23
177
     3
291
     0
 70
    58
 90
        2
176
     1
 90
        2
176
     1
 90
        3
176
     1
 90
        0
176
     1
 40
0.6
176
     1
 40
30.0
176
     1
 62
     7
420
 16777215
176
     1
 90
        2
176
     1
 90
        2
176
     1
 62
     7
176
     1
 62
     7
176
     1
 90
        1
176
     1
 90
        1
176
     1
 40
40.0
176
     1
 90
        8
176
     1
 62
     7
176
     1
 40
1.0
176
     1
 90
        1
176
     1
 90
        6
176
     1
 90
        2
176
     1
 62
     7
176
     1
 90
        3
176
     1
 90
        0
176
     1
 90
        0
176
     1
290
     0
176
     1
 90
        1
176
     1
 40
0.0
176
     1
 90
        0
176
     1
290
     0
176
     1
290
     1
176
     1
290
     1
176
     1
290
     0
176
     1
290
     0
176
     1
290
     0
176
     1
290
     0
176
     1
290
     0
176
     1
290
     0
176
     1
 90
       50
176
     1
 40
0.0
176
     1
 40
1.0
176
     1
 90
        0
176
     1
 62
    18
420
        0
176
     1
 90
       50
176
     1
 90
        3
176
     1
 62
     5
420
      255
176
     1
290
     0
176
     1
 90
       50
176
     1
 90
       50
176
     1
 90
       50
176
     1
290
     0
176
     1
 90
       50
176
     1
 62
   256
176
     0
 40
1.0
176
     0
 90
        2
176
     1
  1
strokes_ogs.tif
176
     1
290
     0
176
     1
 40
1.0
176
     1
 40
1.0
176
     1
  0
VISUALSTYLE
  5
3F
102
{ACAD_REACTORS
330
2A
102
}
330
2A
100
AcDbVisualStyle
  2
Sketchy
 70
    24
177
     3
291
     0
 70
    58
 90
        1
176
     1
 90
        2
176
     1
 90
        2
176
     1
 90
        0
176
     1
 40
0.6
176
     1
 40
30.0
176
     1
 62
     7
420
 16777215
176
     1
 90
        2
176
     1
 90
        2
176
     1
 62
     7
176
     1
 62
     7
176
     1
 90
        1
176
     1
 90
        1
176
     1
 40
40.0
176
     1
 90
       11
176
     1
 62
     7
176
     1
 40
1.0
176
     1
 90
        1
176
     1
 90
        6
176
     1
 90
        2
176
     1
 62
     7
176
     1
 90
        6
176
     1
 90
        0
176
     1
 90
        0
176
     1
290
     0
176
     1
 90
        1
176
     1
 40
0.0
176
     1
 90
        0
176
     1
290
     0
176
     1
290
     1
176
     1
290
     1
176
     1
290
     0
176
     1
290
     0
176
     1
290
     0
176
     1
290
     0
176
     1
290
     0
176
     1
290
     0
176
     1
 90
       50
176
     1
 40
0.0
176
     1
 40
1.0
176
     1
 90
        0
176
     1
 62
    18
420
        0
176
     1
 90
       50
176
     1
 90
        3
176
     1
 62
     5
420
      255
176
     1
290
     0
176
     1
 90
       50
176
     1
 90
       50
176
     1
 90
       50
176
     1
290
     0
176
     1
 90
       50
176
     1
 62
   256
176
     0
 40
1.0
176
     0
 90
        2
176
     1
  1
strokes_ogs.tif
176
     1
290
     0
176
     1
 40
1.0
176
     1
 40
1.0
176
     1
  0
VISUALSTYLE
  5
37
102
{ACAD_REACTORS
330
2A
102
}
330
2A
100
AcDbVisualStyle
  2
Thicken
 70
    13
177
     3
291
     1
 70
    58
 90
        2
176
     1
 90
        2
176
     1
 90
        0
176
     1
 90
        0
176
     1
 40
0.6
176
     1
 40
30.0
176
     1
 62
     7
420
 16777215
176
     1
 90
        1
176
     1
 90
        4
176
     1
 62
     7
176
     1
 62
   257
176
     1
 90
        1
176
     1
 90
        1
176
     1
 40
1.0
176
     1
 90
       12
176
     1
 62
     7
176
     1
 40
1.0
176
     1
 90
        1
176
     1
 90
        6
176
     1
 90
        2
176
     1
 62
     7
176
     1
 90
        5
176
     1
 90
        0
176
     1
 90
        0
176
     1
290
     0
176
     1
 90
        1
176
     1
 40
0.0
176
     1
 90
        0
176
     1
290
     0
176
     1
290
     1
176
     1
290
     1
176
     1
290
     0
176
     1
290
     0
176
     1
290
     0
176
     1
290
     0
176
     1
290
     0
176
     1
290
     0
176
     1
 90
       50
176
     1
 40
0.0
176
     1
 40
1.0
176
     1
 90
        0
176
     1
 62
    18
420
        0
176
     1
 90
       50
176
     1
 90
        3
176
     1
 62
     5
420
      255
176
     1
290
     0
176
     1
 90
       50
176
     1
 90
       50
176
     1
 90
       50
176
     1
290
     0
176
     1
 90
       50
176
     1
 62
   256
176
     0
 40
1.0
176
     0
 90
        2
176
     1
  1
strokes_ogs.tif
176
     1
290
     0
176
     1
 40
1.0
176
     1
 40
1.0
176
     1
  0
VISUALSTYLE
  5
30
102
{ACAD_REACTORS
330
2A
102
}
330
2A
100
AcDbVisualStyle
  2
Wireframe
 70
     5
177
     3
291
     0
 70
    58
 90
        0
176
     1
 90
        2
176
     1
 90
        0
176
     1
 90
        0
176
     1
 40
0.6
176
     1
 40
30.0
176
     1
 62
     7
420
 16777215
176
     1
 90
        1
176
     1
 90
        4
176
     1
 62
     7
176
     1
 62
   257
176
     1
 90
        1
176
     1
 90
        1
176
     1
 40
1.0
176
     1
 90
        0
176
     1
 62
   257
176
     1
 40
1.0
176
     1
 90
        1
176
     1
 90
        6
176
     1
 90
        2
176
     1
 62
     7
176
     1
 90
        3
176
     1
 90
        0
176
     1
 90
        0
176
     1
290
     0
176
     1
 90
        1
176
     1
 40
0.0
176
     1
 90
        0
176
     1
290
     0
176
     1
290
     1
176
     1
290
     1
176
     1
290
     0
176
     1
290
     0
176
     1
290
     0
176
     1
290
     0
176
     1
290
     0
176
     1
290
     0
176
     1
 90
       50
176
     1
 40
0.0
176
     1
 40
1.0
176
     1
 90
        0
176
     1
 62
    18
420
        0
176
     1
 90
       50
176
     1
 90
        3
176
     1
 62
     5
420
      255
176
     1
290
     0
176
     1
 90
       50
176
     1
 90
       50
176
     1
 90
       50
176
     1
290
     0
176
     1
 90
       50
176
     1
 62
   256
176
     0
 40
1.0
176
     0
 90
        2
176
     1
  1
strokes_ogs.tif
176
     1
290
     0
176
     1
 40
1.0
176
     1
 40
1.0
176
     1
  0
VISUALSTYLE
  5
40
102
{ACAD_REACTORS
330
2A
102
}
330
2A
100
AcDbVisualStyle
  2
X-Ray
 70
    25
177
     3
291
     0
 70
    58
 90
        2
176
     1
 90
        2
176
     1
 90
        1
176
     1
 90
        1
176
     1
 40
0.5
176
     1
 40
30.0
176
     1
 62
     7
420
 16777215
176
     1
 90
        1
176
     1
 90
        0
176
     1
 62
     7
176
     1
 62
   257
176
     1
 90
        1
176
     1
 90
        1
176
     1
 40
1.0
176
     1
 90
        8
176
     1
 62
     7
176
     1
 40
1.0
176
     1
 90
        1
176
     1
 90
        6
176
     1
 90
        2
176
     1
 62
     7
176
     1
 90
        3
176
     1
 90
        0
176
     1
 90
        0
176
     1
290
     0
176
     1
 90
       13
176
     1
 40
0.0
176
     1
 90
        0
176
     1
290
     0
176
     1
290
     1
176
     1
290
     1
176
     1
290
     0
176
     1
290
     0
176
     1
290
     0
176
     1
290
     0
176
     1
290
     0
176
     1
290
     0
176
     1
 90
       50
176
     1
 40
0.0
176
     1
 40
1.0
176
     1
 90
        0
176
     1
 62
    18
420
        0
176
     1
 90
       50
176
     1
 90
        3
176
     1
 62
     5
420
      255
176
     1
290
     0
176
     1
 90
       50
176
     1
 90
       50
176
     1
 90
       50
176
     1
290
     0
176
     1
 90
       50
176
     1
 62
   256
176
     0
 40
1.0
176
     0
 90
        2
176
     1
  1
strokes_ogs.tif
176
     1
290
     0
176
     1
 40
1.0
176
     1
 40
1.0
176
     1
  0
DICTIONARYVAR
  5
1E9
102
{ACAD_REACTORS
330
1E8
102
}
330
1E8
100
DictionaryVariables
280
     0
  1
1:1
  0
DICTIONARYVAR
  5
1EE
102
{ACAD_REACTORS
330
1E8
102
}
330
1E8
100
DictionaryVariables
280
     0
  1
Standard
  0
DICTIONARYVAR
  5
1ED
102
{ACAD_REACTORS
330
1E8
102
}
330
1E8
100
DictionaryVariables
280
     0
  1
Standard
  0
DICTIONARY
  5
1EA
330
6A
100
AcDbDictionary
280
     1
281
     1
  3
ACAD_ROUNDTRIP_2008_TABLESTYLE_CELLSTYLEMAP
360
1EB
  0
CELLSTYLEMAP
  5
1EB
102
{ACAD_REACTORS
330
1EA
102
}
330
1EA
100
AcDbCellStyleMap
 90
        3
300
CELLSTYLE
  1
TABLEFORMAT_BEGIN
 90
        5
170
     1
 91
        0
 92
    32768
 62
   257
 93
        1
300
CONTENTFORMAT
  1
CONTENTFORMAT_BEGIN
 90
        0
 91
        0
 92
        4
 93
        0
300

 40
0.0
140
1.0
 94
        5
 62
     0
340
11
144
6.0
309
CONTENTFORMAT_END
171
     1
301
MARGIN
  1
CELLMARGIN_BEGIN
 40
1.5
 40
1.5
 40
1.5
 40
1.5
 40
1.5
 40
1.5
309
CELLMARGIN_END
 94
        6
 95
        1
302
GRIDFORMAT
  1
GRIDFORMAT_BEGIN
 90
        0
 91
        1
 62
     0
 92
       -2
340
14
 93
        0
 40
0.045
309
GRIDFORMAT_END
 95
        2
302
GRIDFORMAT
  1
GRIDFORMAT_BEGIN
 90
        0
 91
        1
 62
     0
 92
       -2
340
14
 93
        0
 40
0.045
309
GRIDFORMAT_END
 95
        4
302
GRIDFORMAT
  1
GRIDFORMAT_BEGIN
 90
        0
 91
        1
 62
     0
 92
       -2
340
14
 93
        0
 40
0.045
309
GRIDFORMAT_END
 95
        8
302
GRIDFORMAT
  1
GRIDFORMAT_BEGIN
 90
        0
 91
        1
 62
     0
 92
       -2
340
14
 93
        0
 40
0.045
309
GRIDFORMAT_END
 95
       16
302
GRIDFORMAT
  1
GRIDFORMAT_BEGIN
 90
        0
 91
        1
 62
     0
 92
       -2
340
14
 93
        0
 40
0.045
309
GRIDFORMAT_END
 95
       32
302
GRIDFORMAT
  1
GRIDFORMAT_BEGIN
 90
        0
 91
        1
 62
     0
 92
       -2
340
14
 93
        0
 40
0.045
309
GRIDFORMAT_END
309
TABLEFORMAT_END
  1
CELLSTYLE_BEGIN
 90
        1
 91
        1
300
_TITLE
309
CELLSTYLE_END
300
CELLSTYLE
  1
TABLEFORMAT_BEGIN
 90
        5
170
     1
 91
        0
 92
        0
 62
   257
 93
        1
300
CONTENTFORMAT
  1
CONTENTFORMAT_BEGIN
 90
        0
 91
        0
 92
        4
 93
        0
300

 40
0.0
140
1.0
 94
        5
 62
     0
340
11
144
4.5
309
CONTENTFORMAT_END
171
     1
301
MARGIN
  1
CELLMARGIN_BEGIN
 40
1.5
 40
1.5
 40
1.5
 40
1.5
 40
1.5
 40
1.5
309
CELLMARGIN_END
 94
        6
 95
        1
302
GRIDFORMAT
  1
GRIDFORMAT_BEGIN
 90
        0
 91
        1
 62
     0
 92
       -2
340
14
 93
        0
 40
0.045
309
GRIDFORMAT_END
 95
        2
302
GRIDFORMAT
  1
GRIDFORMAT_BEGIN
 90
        0
 91
        1
 62
     0
 92
       -2
340
14
 93
        0
 40
0.045
309
GRIDFORMAT_END
 95
        4
302
GRIDFORMAT
  1
GRIDFORMAT_BEGIN
 90
        0
 91
        1
 62
     0
 92
       -2
340
14
 93
        0
 40
0.045
309
GRIDFORMAT_END
 95
        8
302
GRIDFORMAT
  1
GRIDFORMAT_BEGIN
 90
        0
 91
        1
 62
     0
 92
       -2
340
14
 93
        0
 40
0.045
309
GRIDFORMAT_END
 95
       16
302
GRIDFORMAT
  1
GRIDFORMAT_BEGIN
 90
        0
 91
        1
 62
     0
 92
       -2
340
14
 93
        0
 40
0.045
309
GRIDFORMAT_END
 95
       32
302
GRIDFORMAT
  1
GRIDFORMAT_BEGIN
 90
        0
 91
        1
 62
     0
 92
       -2
340
14
 93
        0
 40
0.045
309
GRIDFORMAT_END
309
TABLEFORMAT_END
  1
CELLSTYLE_BEGIN
 90
        2
 91
        1
300
_HEADER
309
CELLSTYLE_END
300
CELLSTYLE
  1
TABLEFORMAT_BEGIN
 90
        5
170
     1
 91
        0
 92
        0
 62
   257
 93
        1
300
CONTENTFORMAT
  1
CONTENTFORMAT_BEGIN
 90
        0
 91
        0
 92
        4
 93
        0
300

 40
0.0
140
1.0
 94
        2
 62
     0
340
11
144
4.5
309
CONTENTFORMAT_END
171
     1
301
MARGIN
  1
CELLMARGIN_BEGIN
 40
1.5
 40
1.5
 40
1.5
 40
1.5
 40
1.5
 40
1.5
309
CELLMARGIN_END
 94
        6
 95
        1
302
GRIDFORMAT
  1
GRIDFORMAT_BEGIN
 90
        0
 91
        1
 62
     0
 92
       -2
340
14
 93
        0
 40
0.045
309
GRIDFORMAT_END
 95
        2
302
GRIDFORMAT
  1
GRIDFORMAT_BEGIN
 90
        0
 91
        1
 62
     0
 92
       -2
340
14
 93
        0
 40
0.045
309
GRIDFORMAT_END
 95
        4
302
GRIDFORMAT
  1
GRIDFORMAT_BEGIN
 90
        0
 91
        1
 62
     0
 92
       -2
340
14
 93
        0
 40
0.045
309
GRIDFORMAT_END
 95
        8
302
GRIDFORMAT
  1
GRIDFORMAT_BEGIN
 90
        0
 91
        1
 62
     0
 92
       -2
340
14
 93
        0
 40
0.045
309
GRIDFORMAT_END
 95
       16
302
GRIDFORMAT
  1
GRIDFORMAT_BEGIN
 90
        0
 91
        1
 62
     0
 92
       -2
340
14
 93
        0
 40
0.045
309
GRIDFORMAT_END
 95
       32
302
GRIDFORMAT
  1
GRIDFORMAT_BEGIN
 90
        0
 91
        1
 62
     0
 92
       -2
340
14
 93
        0
 40
0.045
309
GRIDFORMAT_END
309
TABLEFORMAT_END
  1
CELLSTYLE_BEGIN
 90
        3
 91
        2
300
_DATA
309
CELLSTYLE_END
  0
ENDSEC
  0
EOF