0
SECTION
  2
HEADER
  9
$ACADVER
  1
AC1027
  9
$ACADMAINTVER
 70
     8
  9
$DWGCODEPAGE
  3
ANSI_1252
  9
$REQUIREDVERSIONS
160
                 0
  9
$COMMENTS
  1
File was created by Cadenas
  9
$CUSTOMPROPERTYTAG
  1
NN
  9
$CUSTOMPROPERTY
  1
Set Screw Medium Duty Two-Bolt Pillow Block Metric Bore
  9
$CUSTOMPROPERTYTAG
  1
NT
  9
$CUSTOMPROPERTY
  1
SC Pillow Block Bearings -(Medium Duty)
  9
$CUSTOMPROPERTYTAG
  1
NB
  9
$CUSTOMPROPERTY
  1
125928
  9
$CUSTOMPROPERTYTAG
  1
NBSYN
  9
$CUSTOMPROPERTY
  1
$PN.
  9
$CUSTOMPROPERTYTAG
  1
LINA
  9
$CUSTOMPROPERTY
  1
125928
  9
$CUSTOMPROPERTYTAG
  1
SERIES
  9
$CUSTOMPROPERTY
  1
209
  9
$CUSTOMPROPERTYTAG
  1
SS
  9
$CUSTOMPROPERTY
  1
40
  9
$CUSTOMPROPERTYTAG
  1
PN
  9
$CUSTOMPROPERTY
  1
125928
  9
$CUSTOMPROPERTYTAG
  1
DESCRIPTION
  9
$CUSTOMPROPERTY
  1
P2B-SCM-40M
  9
$CUSTOMPROPERTYTAG
  1
WEIGHT
  9
$CUSTOMPROPERTY
  1
2.7
  9
$CUSTOMPROPERTYTAG
  1
LF
  9
$CUSTOMPROPERTY
  1
RE-LUBE
  9
$CUSTOMPROPERTYTAG
  1
A
  9
$CUSTOMPROPERTY
  1
49.3
  9
$CUSTOMPROPERTYTAG
  1
B
  9
$CUSTOMPROPERTY
  1
189.0
  9
$CUSTOMPROPERTYTAG
  1
C
  9
$CUSTOMPROPERTY
  1
50.8
  9
$CUSTOMPROPERTYTAG
  1
DMIN
  9
$CUSTOMPROPERTY
  1
139.7
  9
$CUSTOMPROPERTYTAG
  1
DMAX
  9
$CUSTOMPROPERTY
  1
157.2
  9
$CUSTOMPROPERTYTAG
  1
F
  9
$CUSTOMPROPERTY
  1
M12
  9
$CUSTOMPROPERTYTAG
  1
G
  9
$CUSTOMPROPERTY
  1
22.9
  9
$CUSTOMPROPERTYTAG
  1
H
  9
$CUSTOMPROPERTY
  1
19.1
  9
$CUSTOMPROPERTYTAG
  1
J
  9
$CUSTOMPROPERTY
  1
108.7
  9
$CUSTOMPROPERTYTAG
  1
L
  9
$CUSTOMPROPERTY
  1
56.4
  9
$CUSTOMPROPERTYTAG
  1
M
  9
$CUSTOMPROPERTY
  1
54.1
  9
$CUSTOMPROPERTYTAG
  1
R
  9
$CUSTOMPROPERTY
  1
19.1
  9
$CUSTOMPROPERTYTAG
  1
S
  9
$CUSTOMPROPERTY
  1
30.2
  9
$CUSTOMPROPERTYTAG
  1
U
  9
$CUSTOMPROPERTY
  1
85.9
  9
$CUSTOMPROPERTYTAG
  1
V
  9
$CUSTOMPROPERTY
  1
171.7
  9
$CUSTOMPROPERTYTAG
  1
W
  9
$CUSTOMPROPERTY
  1
17.5
  9
$CUSTOMPROPERTYTAG
  1
X
  9
$CUSTOMPROPERTY
  1
3.0
  9
$CUSTOMPROPERTYTAG
  1
COMPANY
  9
$CUSTOMPROPERTY
  1
baldor
  9
$INSBASE
 10
0.0
 20
0.0
 30
0.0
  9
$EXTMIN
 10
1.000000000000000E+20
 20
1.000000000000000E+20
 30
1.000000000000000E+20
  9
$EXTMAX
 10
-1.000000000000000E+20
 20
-1.000000000000000E+20
 30
-1.000000000000000E+20
  9
$LIMMIN
 10
0.0
 20
0.0
  9
$LIMMAX
 10
420.0
 20
297.0
  9
$ORTHOMODE
 70
     0
  9
$REGENMODE
 70
     1
  9
$FILLMODE
 70
     1
  9
$QTEXTMODE
 70
     0
  9
$MIRRTEXT
 70
     1
  9
$LTSCALE
 40
1.0
  9
$ATTMODE
 70
     1
  9
$TEXTSIZE
 40
2.5
  9
$TRACEWID
 40
1.0
  9
$TEXTSTYLE
  7
Standard
  9
$CLAYER
  8
0
  9
$CELTYPE
  6
ByLayer
  9
$CECOLOR
 62
   256
  9
$CELTSCALE
 40
1.0
  9
$DISPSILH
 70
     0
  9
$DIMSCALE
 40
1.0
  9
$DIMASZ
 40
2.5
  9
$DIMEXO
 40
0.625
  9
$DIMDLI
 40
3.75
  9
$DIMRND
 40
0.0
  9
$DIMDLE
 40
0.0
  9
$DIMEXE
 40
1.25
  9
$DIMTP
 40
0.0
  9
$DIMTM
 40
0.0
  9
$DIMTXT
 40
2.5
  9
$DIMCEN
 40
2.5
  9
$DIMTSZ
 40
0.0
  9
$DIMTOL
 70
     0
  9
$DIMLIM
 70
     0
  9
$DIMTIH
 70
     0
  9
$DIMTOH
 70
     0
  9
$DIMSE1
 70
     0
  9
$DIMSE2
 70
     0
  9
$DIMTAD
 70
     1
  9
$DIMZIN
 70
     8
  9
$DIMBLK
  1

  9
$DIMASO
 70
     1
  9
$DIMSHO
 70
     1
  9
$DIMPOST
  1

  9
$DIMAPOST
  1

  9
$DIMALT
 70
     0
  9
$DIMALTD
 70
     3
  9
$DIMALTF
 40
0.03937007874016
  9
$DIMLFAC
 40
1.0
  9
$DIMTOFL
 70
     1
  9
$DIMTVP
 40
0.0
  9
$DIMTIX
 70
     0
  9
$DIMSOXD
 70
     0
  9
$DIMSAH
 70
     0
  9
$DIMBLK1
  1

  9
$DIMBLK2
  1

  9
$DIMSTYLE
  2
ISO-25
  9
$DIMCLRD
 70
     0
  9
$DIMCLRE
 70
     0
  9
$DIMCLRT
 70
     0
  9
$DIMTFAC
 40
1.0
  9
$DIMGAP
 40
0.625
  9
$DIMJUST
 70
     0
  9
$DIMSD1
 70
     0
  9
$DIMSD2
 70
     0
  9
$DIMTOLJ
 70
     0
  9
$DIMTZIN
 70
     8
  9
$DIMALTZ
 70
     0
  9
$DIMALTTZ
 70
     0
  9
$DIMUPT
 70
     0
  9
$DIMDEC
 70
     2
  9
$DIMTDEC
 70
     2
  9
$DIMALTU
 70
     2
  9
$DIMALTTD
 70
     3
  9
$DIMTXSTY
  7
Standard
  9
$DIMAUNIT
 70
     0
  9
$DIMADEC
 70
     0
  9
$DIMALTRND
 40
0.0
  9
$DIMAZIN
 70
     0
  9
$DIMDSEP
 70
    44
  9
$DIMATFIT
 70
     3
  9
$DIMFRAC
 70
     0
  9
$DIMLDRBLK
  1

  9
$DIMLUNIT
 70
     2
  9
$DIMLWD
 70
    -2
  9
$DIMLWE
 70
    -2
  9
$DIMTMOVE
 70
     0
  9
$DIMFXL
 40
1.0
  9
$DIMFXLON
 70
     0
  9
$DIMJOGANG
 40
0.7853981633974483
  9
$DIMTFILL
 70
     0
  9
$DIMTFILLCLR
 70
     0
  9
$DIMARCSYM
 70
     0
  9
$DIMLTYPE
  6

  9
$DIMLTEX1
  6

  9
$DIMLTEX2
  6

  9
$DIMTXTDIRECTION
 70
     0
  9
$LUNITS
 70
     2
  9
$LUPREC
 70
     4
  9
$SKETCHINC
 40
1.0
  9
$FILLETRAD
 40
10.0
  9
$AUNITS
 70
     0
  9
$AUPREC
 70
     0
  9
$MENU
  1
.
  9
$ELEVATION
 40
0.0
  9
$PELEVATION
 40
0.0
  9
$THICKNESS
 40
0.0
  9
$LIMCHECK
 70
     0
  9
$CHAMFERA
 40
0.0
  9
$CHAMFERB
 40
0.0
  9
$CHAMFERC
 40
0.0
  9
$CHAMFERD
 40
0.0
  9
$SKPOLY
 70
     0
  9
$TDCREATE
 40
2458168.986326701
  9
$TDUCREATE
 40
2458168.944660034
  9
$TDUPDATE
 40
2458168.986326887
  9
$TDUUPDATE
 40
2458168.94466022
  9
$TDINDWG
 40
0.0000000116
  9
$TDUSRTIMER
 40
0.0000000116
  9
$USRTIMER
 70
     1
  9
$ANGBASE
 50
0.0
  9
$ANGDIR
 70
     0
  9
$PDMODE
 70
     0
  9
$PDSIZE
 40
0.0
  9
$PLINEWID
 40
0.0
  9
$SPLFRAME
 70
     0
  9
$SPLINETYPE
 70
     6
  9
$SPLINESEGS
 70
     8
  9
$HANDSEED
  5
1E9
  9
$SURFTAB1
 70
     6
  9
$SURFTAB2
 70
     6
  9
$SURFTYPE
 70
     6
  9
$SURFU
 70
     6
  9
$SURFV
 70
     6
  9
$UCSBASE
  2

  9
$UCSNAME
  2

  9
$UCSORG
 10
0.0
 20
0.0
 30
0.0
  9
$UCSXDIR
 10
1.0
 20
0.0
 30
0.0
  9
$UCSYDIR
 10
0.0
 20
1.0
 30
0.0
  9
$UCSORTHOREF
  2

  9
$UCSORTHOVIEW
 70
     0
  9
$UCSORGTOP
 10
0.0
 20
0.0
 30
0.0
  9
$UCSORGBOTTOM
 10
0.0
 20
0.0
 30
0.0
  9
$UCSORGLEFT
 10
0.0
 20
0.0
 30
0.0
  9
$UCSORGRIGHT
 10
0.0
 20
0.0
 30
0.0
  9
$UCSORGFRONT
 10
0.0
 20
0.0
 30
0.0
  9
$UCSORGBACK
 10
0.0
 20
0.0
 30
0.0
  9
$PUCSBASE
  2

  9
$PUCSNAME
  2

  9
$PUCSORG
 10
0.0
 20
0.0
 30
0.0
  9
$PUCSXDIR
 10
1.0
 20
0.0
 30
0.0
  9
$PUCSYDIR
 10
0.0
 20
1.0
 30
0.0
  9
$PUCSORTHOREF
  2

  9
$PUCSORTHOVIEW
 70
     0
  9
$PUCSORGTOP
 10
0.0
 20
0.0
 30
0.0
  9
$PUCSORGBOTTOM
 10
0.0
 20
0.0
 30
0.0
  9
$PUCSORGLEFT
 10
0.0
 20
0.0
 30
0.0
  9
$PUCSORGRIGHT
 10
0.0
 20
0.0
 30
0.0
  9
$PUCSORGFRONT
 10
0.0
 20
0.0
 30
0.0
  9
$PUCSORGBACK
 10
0.0
 20
0.0
 30
0.0
  9
$USERI1
 70
     0
  9
$USERI2
 70
     0
  9
$USERI3
 70
     0
  9
$USERI4
 70
     0
  9
$USERI5
 70
     0
  9
$USERR1
 40
0.0
  9
$USERR2
 40
0.0
  9
$USERR3
 40
0.0
  9
$USERR4
 40
0.0
  9
$USERR5
 40
0.0
  9
$WORLDVIEW
 70
     1
  9
$SHADEDGE
 70
     3
  9
$SHADEDIF
 70
    70
  9
$TILEMODE
 70
     1
  9
$MAXACTVP
 70
    64
  9
$PINSBASE
 10
0.0
 20
0.0
 30
0.0
  9
$PLIMCHECK
 70
     0
  9
$PEXTMIN
 10
1.000000000000000E+20
 20
1.000000000000000E+20
 30
1.000000000000000E+20
  9
$PEXTMAX
 10
-1.000000000000000E+20
 20
-1.000000000000000E+20
 30
-1.000000000000000E+20
  9
$PLIMMIN
 10
0.0
 20
0.0
  9
$PLIMMAX
 10
420.0
 20
297.0
  9
$UNITMODE
 70
     0
  9
$VISRETAIN
 70
     1
  9
$PLINEGEN
 70
     0
  9
$PSLTSCALE
 70
     1
  9
$TREEDEPTH
 70
  3020
  9
$CMLSTYLE
  2
Standard
  9
$CMLJUST
 70
     0
  9
$CMLSCALE
 40
20.0
  9
$PROXYGRAPHICS
 70
     1
  9
$MEASUREMENT
 70
     1
  9
$CELWEIGHT
370
    -1
  9
$ENDCAPS
280
     0
  9
$JOINSTYLE
280
     0
  9
$LWDISPLAY
290
     0
  9
$INSUNITS
 70
     4
  9
$HYPERLINKBASE
  1

  9
$STYLESHEET
  1

  9
$XEDIT
290
     1
  9
$CEPSNTYPE
380
     0
  9
$PSTYLEMODE
290
     1
  9
$FINGERPRINTGUID
  2
{8112BEBD-27E9-4EF3-AF0C-DB418F4DF4AE}
  9
$VERSIONGUID
  2
{FAEB1C32-E019-11D5-929B-00C0DF256EC4}
  9
$EXTNAMES
290
     1
  9
$PSVPSCALE
 40
0.0
  9
$OLESTARTUP
290
     0
  9
$SORTENTS
280
   127
  9
$INDEXCTL
280
     0
  9
$HIDETEXT
280
     1
  9
$XCLIPFRAME
280
     2
  9
$HALOGAP
280
     0
  9
$OBSCOLOR
 70
   257
  9
$OBSLTYPE
280
     0
  9
$INTERSECTIONDISPLAY
280
     0
  9
$INTERSECTIONCOLOR
 70
   257
  9
$DIMASSOC
280
     2
  9
$PROJECTNAME
  1

  9
$CAMERADISPLAY
290
     0
  9
$LENSLENGTH
 40
50.0
  9
$CAMERAHEIGHT
 40
0.0
  9
$STEPSPERSEC
 40
2.0
  9
$STEPSIZE
 40
6.0
  9
$3DDWFPREC
 40
2.0
  9
$PSOLWIDTH
 40
5.0
  9
$PSOLHEIGHT
 40
80.0
  9
$LOFTANG1
 40
1.570796326794897
  9
$LOFTANG2
 40
1.570796326794897
  9
$LOFTMAG1
 40
0.0
  9
$LOFTMAG2
 40
0.0
  9
$LOFTPARAM
 70
     7
  9
$LOFTNORMALS
280
     1
  9
$LATITUDE
 40
37.795
  9
$LONGITUDE
 40
-122.394
  9
$NORTHDIRECTION
 40
0.0
  9
$TIMEZONE
 70
 -8000
  9
$LIGHTGLYPHDISPLAY
280
     1
  9
$TILEMODELIGHTSYNCH
280
     1
  9
$CMATERIAL
347
44
  9
$SOLIDHIST
280
     0
  9
$SHOWHIST
280
     1
  9
$DWFFRAME
280
     2
  9
$DGNFRAME
280
     2
  9
$REALWORLDSCALE
290
     1
  9
$INTERFERECOLOR
 62
   256
  9
$CSHADOW
280
     0
  9
$SHADOWPLANELOCATION
 40
0.0
  0
ENDSEC
  0
SECTION
  2
CLASSES
  0
CLASS
  1
ACDBDICTIONARYWDFLT
  2
AcDbDictionaryWithDefault
  3
ObjectDBX Classes
 90
        0
 91
        4
280
     0
281
     0
  0
CLASS
  1
VISUALSTYLE
  2
AcDbVisualStyle
  3
ObjectDBX Classes
 90
     4095
 91
        4
280
     0
281
     0
  0
CLASS
  1
MATERIAL
  2
AcDbMaterial
  3
ObjectDBX Classes
 90
     1153
 91
        4
280
     0
281
     0
  0
CLASS
  1
SCALE
  2
AcDbScale
  3
ObjectDBX Classes
 90
     1153
 91
        4
280
     0
281
     0
  0
CLASS
  1
TABLESTYLE
  2
AcDbTableStyle
  3
ObjectDBX Classes
 90
     4095
 91
        4
280
     0
281
     0
  0
CLASS
  1
MLEADERSTYLE
  2
AcDbMLeaderStyle
  3
ACDB_MLEADERSTYLE_CLASS
 90
     4095
 91
        4
280
     0
281
     0
  0
CLASS
  1
SUN
  2
AcDbSun
  3
SCENEOE
 90
     1153
 91
        4
280
     0
281
     0
  0
CLASS
  1
DICTIONARYVAR
  2
AcDbDictionaryVar
  3
ObjectDBX Classes
 90
        0
 91
        4
280
     0
281
     0
  0
CLASS
  1
CELLSTYLEMAP
  2
AcDbCellStyleMap
  3
ObjectDBX Classes
 90
     1152
 91
        4
280
     0
281
     0
  0
ENDSEC
  0
SECTION
  2
TABLES
  0
TABLE
  2
VPORT
  5
8
330
0
100
AcDbSymbolTable
 70
     1
  0
VPORT
  5
29
330
8
100
AcDbSymbolTableRecord
100
AcDbViewportTableRecord
  2
*Active
 70
     0
 10
0.0
 20
0.0
 11
1.0
 21
1.0
 12
0.0
 22
-2.362499999999955
 13
0.0
 23
0.0
 14
10.0
 24
10.0
 15
10.0
 25
10.0
 16
0.0
 26
0.0
 36
1.0
 17
0.0
 27
0.0
 37
0.0
 40
61.81709999999992
 41
3.118554574705061
 42
50.0
 43
0.0
 44
0.0
 50
0.0
 51
0.0
 71
     0
 72
   100
 73
     1
 74
     3
 75
     0
 76
     0
 77
     0
 78
     0
281
     0
 65
     1
110
0.0
120
0.0
130
0.0
111
1.0
121
0.0
131
0.0
112
0.0
122
1.0
132
0.0
 79
     0
146
0.0
348
2F
 60
     3
 61
     5
292
     1
282
     1
141
0.0
142
0.0
 63
   250
361
6D
  0
ENDTAB
  0
TABLE
  2
LTYPE
  5
5
330
0
100
AcDbSymbolTable
 70
     3
  0
LTYPE
  5
14
330
5
100
AcDbSymbolTableRecord
100
AcDbLinetypeTableRecord
  2
ByBlock
 70
     0
  3

 72
    65
 73
     0
 40
0.0
  0
LTYPE
  5
15
330
5
100
AcDbSymbolTableRecord
100
AcDbLinetypeTableRecord
  2
ByLayer
 70
     0
  3

 72
    65
 73
     0
 40
0.0
  0
LTYPE
  5
16
330
5
100
AcDbSymbolTableRecord
100
AcDbLinetypeTableRecord
  2
Continuous
 70
     0
  3
Solid line
 72
    65
 73
     0
 40
0.0
  0
LTYPE
  5
9C
330
5
100
AcDbSymbolTableRecord
100
AcDbLinetypeTableRecord
  2
Dashed
 70
     0
  3

 72
    65
 73
     2
 40
2.0
 49
1.0
 74
     0
 49
-1.0
 74
     0
  0
LTYPE
  5
119
330
5
100
AcDbSymbolTableRecord
100
AcDbLinetypeTableRecord
  2
Center
 70
     0
  3

 72
    65
 73
     4
 40
1.5
 49
0.45
 74
     0
 49
-0.5
 74
     0
 49
0.05
 74
     0
 49
-0.5
 74
     0
  0
ENDTAB
  0
TABLE
  2
LAYER
  5
2
330
0
100
AcDbSymbolTable
 70
     7
  0
LAYER
  5
10
330
2
100
AcDbSymbolTableRecord
100
AcDbLayerTableRecord
  2
0
 70
     0
 62
     7
  6
Continuous
370
    -3
390
F
347
46
348
0
  0
LAYER
  5
72
330
2
100
AcDbSymbolTableRecord
100
AcDbLayerTableRecord
  2
AM_6
 70
     0
 62
    -2
  6
Continuous
370
    35
390
F
347
46
348
0
  0
LAYER
  5
9D
330
2
100
AcDbSymbolTableRecord
100
AcDbLayerTableRecord
  2
AM_9
 70
     0
 62
     6
  6
Dashed
370
    25
390
F
347
46
348
0
  0
LAYER
  5
BA
330
2
100
AcDbSymbolTableRecord
100
AcDbLayerTableRecord
  2
AM_4
 70
     0
 62
     7
  6
Continuous
370
    50
390
F
347
46
348
0
  0
LAYER
  5
11A
330
2
100
AcDbSymbolTableRecord
100
AcDbLayerTableRecord
  2
AM_7
 70
     0
 62
     7
  6
Center
370
    25
390
F
347
46
348
0
  0
LAYER
  5
12F
330
2
100
AcDbSymbolTableRecord
100
AcDbLayerTableRecord
  2
AM_5
 70
     0
 62
     3
  6
Continuous
370
    25
390
F
347
46
348
0
  0
LAYER
  5
1DC
330
2
100
AcDbSymbolTableRecord
100
AcDbLayerTableRecord
  2
ConnectionPoints
 70
     0
 62
     7
  6
Continuous
370
    50
390
F
347
46
348
0
  0
ENDTAB
  0
TABLE
  2
STYLE
  5
3
330
0
100
AcDbSymbolTable
 70
     1
  0
STYLE
  5
11
330
3
100
AcDbSymbolTableRecord
100
AcDbTextStyleTableRecord
  2
Standard
 70
     0
 40
0.0
 41
1.0
 50
0.0
 71
     0
 42
2.5
  3
txt
  4

  0
ENDTAB
  0
TABLE
  2
VIEW
  5
6
330
0
100
AcDbSymbolTable
 70
     0
  0
ENDTAB
  0
TABLE
  2
UCS
  5
7
330
0
100
AcDbSymbolTable
 70
     0
  0
ENDTAB
  0
TABLE
  2
APPID
  5
9
330
0
100
AcDbSymbolTable
 70
     1
  0
APPID
  5
12
330
9
100
AcDbSymbolTableRecord
100
AcDbRegAppTableRecord
  2
ACAD
 70
     0
  0
ENDTAB
  0
TABLE
  2
DIMSTYLE
  5
A
330
0
100
AcDbSymbolTable
 70
     1
100
AcDbDimStyleTable
  0
DIMSTYLE
105
27
330
A
100
AcDbSymbolTableRecord
100
AcDbDimStyleTableRecord
  2
ISO-25
 70
     0
 41
2.5
 42
0.625
 43
3.75
 44
1.25
 73
     0
 74
     0
 77
     1
 78
     8
140
2.5
141
2.5
143
0.03937007874016
147
0.625
171
     3
172
     1
178
     0
271
     2
272
     2
274
     3
278
    44
283
     0
284
     8
340
11
  0
ENDTAB
  0
TABLE
  2
BLOCK_RECORD
  5
1
330
0
100
AcDbSymbolTable
 70
     5
  0
BLOCK_RECORD
  5
1F
330
1
100
AcDbSymbolTableRecord
100
AcDbBlockTableRecord
  2
*Model_Space
340
22
 70
     0
280
     1
281
     0
  0
BLOCK_RECORD
  5
1B
330
1
100
AcDbSymbolTableRecord
100
AcDbBlockTableRecord
  2
*Paper_Space
340
1E
 70
     0
280
     1
281
     0
  0
BLOCK_RECORD
  5
23
330
1
100
AcDbSymbolTableRecord
100
AcDbBlockTableRecord
  2
*Paper_Space0
340
26
 70
     0
280
     1
281
     0
  0
BLOCK_RECORD
  5
6E
330
1
100
AcDbSymbolTableRecord
100
AcDbBlockTableRecord
  2
1_125928_4
340
0
102
{BLKREFS
331
6F
102
}
 70
     0
280
     1
281
     0
  0
BLOCK_RECORD
  5
90
330
1
100
AcDbSymbolTableRecord
100
AcDbBlockTableRecord
  2
2_405015E_Metric_0_in_125928_4
340
0
102
{BLKREFS
331
91
102
}
 70
     0
280
     1
281
     0
  0
BLOCK_RECORD
  5
D8
330
1
100
AcDbSymbolTableRecord
100
AcDbBlockTableRecord
  2
3_125830_0_in_125928_4
340
0
102
{BLKREFS
331
D9
102
}
 70
     0
280
     1
281
     0
  0
BLOCK_RECORD
  5
132
330
1
100
AcDbSymbolTableRecord
100
AcDbBlockTableRecord
  2
4_125928H_0_in_125928_4
340
0
102
{BLKREFS
331
133
102
}
 70
     0
280
     1
281
     0
  0
ENDTAB
  0
ENDSEC
  0
SECTION
  2
BLOCKS
  0
BLOCK
  5
20
330
1F
100
AcDbEntity
  8
0
100
AcDbBlockBegin
  2
*Model_Space
 70
     0
 10
0.0
 20
0.0
 30
0.0
  3
*Model_Space
  1

  0
ENDBLK
  5
21
330
1F
100
AcDbEntity
  8
0
100
AcDbBlockEnd
  0
BLOCK
  5
1C
330
1B
100
AcDbEntity
 67
     1
  8
0
100
AcDbBlockBegin
  2
*Paper_Space
 70
     0
 10
0.0
 20
0.0
 30
0.0
  3
*Paper_Space
  1

  0
ENDBLK
  5
1D
330
1B
100
AcDbEntity
 67
     1
  8
0
100
AcDbBlockEnd
  0
BLOCK
  5
24
330
23
100
AcDbEntity
  8
0
100
AcDbBlockBegin
  2
*Paper_Space0
 70
     0
 10
0.0
 20
0.0
 30
0.0
  3
*Paper_Space0
  1

  0
ENDBLK
  5
25
330
23
100
AcDbEntity
  8
0
100
AcDbBlockEnd
  0
BLOCK
  5
70
330
6E
100
AcDbEntity
  8
0
100
AcDbBlockBegin
  2
1_125928_4
 70
     2
 10
0.0
 20
0.0
 30
0.0
  3
1_125928_4
  1

  0
ATTDEF
  5
73
330
6E
100
AcDbEntity
  8
AM_6
100
AcDbText
 10
99.5
 20
27.94
 30
0.0
 40
0.5
  1
Set Screw Medium Duty Two-Bolt Pillow Block Metric Bore
100
AcDbAttributeDefinition
  3

  2
NN
 70
     8
280
     0
  0
ATTDEF
  5
74
330
6E
100
AcDbEntity
  8
AM_6
100
AcDbText
 10
99.5
 20
27.44
 30
0.0
 40
0.5
  1
SC Pillow Block Bearings -(Medium Duty)
100
AcDbAttributeDefinition
  3

  2
NT
 70
     8
280
     0
  0
ATTDEF
  5
75
330
6E
100
AcDbEntity
  8
AM_6
100
AcDbText
 10
99.5
 20
26.94
 30
0.0
 40
0.5
  1
125928
100
AcDbAttributeDefinition
  3

  2
NB
 70
     8
280
     0
  0
ATTDEF
  5
76
330
6E
100
AcDbEntity
  8
AM_6
100
AcDbText
 10
99.5
 20
26.44
 30
0.0
 40
0.5
  1
$PN.
100
AcDbAttributeDefinition
  3

  2
NBSYN
 70
     8
280
     0
  0
ATTDEF
  5
77
330
6E
100
AcDbEntity
  8
AM_6
100
AcDbText
 10
99.5
 20
25.94
 30
0.0
 40
0.5
  1
125928
100
AcDbAttributeDefinition
  3

  2
LINA
 70
     8
280
     0
  0
ATTDEF
  5
78
330
6E
100
AcDbEntity
  8
AM_6
100
AcDbText
 10
99.5
 20
25.44
 30
0.0
 40
0.5
  1
209
100
AcDbAttributeDefinition
  3

  2
SERIES
 70
     8
280
     0
  0
ATTDEF
  5
79
330
6E
100
AcDbEntity
  8
AM_6
100
AcDbText
 10
99.5
 20
24.94
 30
0.0
 40
0.5
  1
40
100
AcDbAttributeDefinition
  3

  2
SS
 70
     8
280
     0
  0
ATTDEF
  5
7A
330
6E
100
AcDbEntity
  8
AM_6
100
AcDbText
 10
99.5
 20
24.44
 30
0.0
 40
0.5
  1
125928
100
AcDbAttributeDefinition
  3

  2
PN
 70
     8
280
     0
  0
ATTDEF
  5
7B
330
6E
100
AcDbEntity
  8
AM_6
100
AcDbText
 10
99.5
 20
23.94
 30
0.0
 40
0.5
  1
P2B-SCM-40M
100
AcDbAttributeDefinition
  3

  2
DESCRIPTION
 70
     8
280
     0
  0
ATTDEF
  5
7C
330
6E
100
AcDbEntity
  8
AM_6
100
AcDbText
 10
99.5
 20
23.44
 30
0.0
 40
0.5
  1
2.7
100
AcDbAttributeDefinition
  3

  2
WEIGHT
 70
     8
280
     0
  0
ATTDEF
  5
7D
330
6E
100
AcDbEntity
  8
AM_6
100
AcDbText
 10
99.5
 20
22.94
 30
0.0
 40
0.5
  1
RE-LUBE
100
AcDbAttributeDefinition
  3

  2
LF
 70
     8
280
     0
  0
ATTDEF
  5
7E
330
6E
100
AcDbEntity
  8
AM_6
100
AcDbText
 10
99.5
 20
22.44
 30
0.0
 40
0.5
  1
49.3
100
AcDbAttributeDefinition
  3

  2
A
 70
     8
280
     0
  0
ATTDEF
  5
7F
330
6E
100
AcDbEntity
  8
AM_6
100
AcDbText
 10
99.5
 20
21.94
 30
0.0
 40
0.5
  1
189.0
100
AcDbAttributeDefinition
  3

  2
B
 70
     8
280
     0
  0
ATTDEF
  5
80
330
6E
100
AcDbEntity
  8
AM_6
100
AcDbText
 10
99.5
 20
21.44
 30
0.0
 40
0.5
  1
50.8
100
AcDbAttributeDefinition
  3

  2
C
 70
     8
280
     0
  0
ATTDEF
  5
81
330
6E
100
AcDbEntity
  8
AM_6
100
AcDbText
 10
99.5
 20
20.94
 30
0.0
 40
0.5
  1
139.7
100
AcDbAttributeDefinition
  3

  2
DMIN
 70
     8
280
     0
  0
ATTDEF
  5
82
330
6E
100
AcDbEntity
  8
AM_6
100
AcDbText
 10
99.5
 20
20.44
 30
0.0
 40
0.5
  1
157.2
100
AcDbAttributeDefinition
  3

  2
DMAX
 70
     8
280
     0
  0
ATTDEF
  5
83
330
6E
100
AcDbEntity
  8
AM_6
100
AcDbText
 10
99.5
 20
19.94
 30
0.0
 40
0.5
  1
M12
100
AcDbAttributeDefinition
  3

  2
F
 70
     8
280
     0
  0
ATTDEF
  5
84
330
6E
100
AcDbEntity
  8
AM_6
100
AcDbText
 10
99.5
 20
19.44
 30
0.0
 40
0.5
  1
22.9
100
AcDbAttributeDefinition
  3

  2
G
 70
     8
280
     0
  0
ATTDEF
  5
85
330
6E
100
AcDbEntity
  8
AM_6
100
AcDbText
 10
99.5
 20
18.94
 30
0.0
 40
0.5
  1
19.1
100
AcDbAttributeDefinition
  3

  2
H
 70
     8
280
     0
  0
ATTDEF
  5
86
330
6E
100
AcDbEntity
  8
AM_6
100
AcDbText
 10
99.5
 20
18.44
 30
0.0
 40
0.5
  1
108.7
100
AcDbAttributeDefinition
  3

  2
J
 70
     8
280
     0
  0
ATTDEF
  5
87
330
6E
100
AcDbEntity
  8
AM_6
100
AcDbText
 10
99.5
 20
17.94
 30
0.0
 40
0.5
  1
56.4
100
AcDbAttributeDefinition
  3

  2
L
 70
     8
280
     0
  0
ATTDEF
  5
88
330
6E
100
AcDbEntity
  8
AM_6
100
AcDbText
 10
99.5
 20
17.44
 30
0.0
 40
0.5
  1
54.1
100
AcDbAttributeDefinition
  3

  2
M
 70
     8
280
     0
  0
ATTDEF
  5
89
330
6E
100
AcDbEntity
  8
AM_6
100
AcDbText
 10
99.5
 20
16.94
 30
0.0
 40
0.5
  1
19.1
100
AcDbAttributeDefinition
  3

  2
R
 70
     8
280
     0
  0
ATTDEF
  5
8A
330
6E
100
AcDbEntity
  8
AM_6
100
AcDbText
 10
99.5
 20
16.44
 30
0.0
 40
0.5
  1
30.2
100
AcDbAttributeDefinition
  3

  2
S
 70
     8
280
     0
  0
ATTDEF
  5
8B
330
6E
100
AcDbEntity
  8
AM_6
100
AcDbText
 10
99.5
 20
15.94
 30
0.0
 40
0.5
  1
85.9
100
AcDbAttributeDefinition
  3

  2
U
 70
     8
280
     0
  0
ATTDEF
  5
8C
330
6E
100
AcDbEntity
  8
AM_6
100
AcDbText
 10
99.5
 20
15.44
 30
0.0
 40
0.5
  1
171.7
100
AcDbAttributeDefinition
  3

  2
V
 70
     8
280
     0
  0
ATTDEF
  5
8D
330
6E
100
AcDbEntity
  8
AM_6
100
AcDbText
 10
99.5
 20
14.94
 30
0.0
 40
0.5
  1
17.5
100
AcDbAttributeDefinition
  3

  2
W
 70
     8
280
     0
  0
ATTDEF
  5
8E
330
6E
100
AcDbEntity
  8
AM_6
100
AcDbText
 10
99.5
 20
14.44
 30
0.0
 40
0.5
  1
3.0
100
AcDbAttributeDefinition
  3

  2
X
 70
     8
280
     0
  0
ATTDEF
  5
8F
330
6E
100
AcDbEntity
  8
AM_6
100
AcDbText
 10
99.5
 20
13.94
 30
0.0
 40
0.5
  1
baldor
100
AcDbAttributeDefinition
  3

  2
COMPANY
 70
     8
280
     0
  0
INSERT
  5
91
330
6E
100
AcDbEntity
  8
0
100
AcDbBlockReference
  2
2_405015E_Metric_0_in_125928_4
 10
0.0
 20
0.0
 30
0.0
  0
INSERT
  5
D9
330
6E
100
AcDbEntity
  8
0
100
AcDbBlockReference
  2
3_125830_0_in_125928_4
 10
0.0
 20
0.0
 30
0.0
  0
INSERT
  5
133
330
6E
100
AcDbEntity
  8
0
100
AcDbBlockReference
  2
4_125928H_0_in_125928_4
 10
0.0
 20
0.0
 30
0.0
  0
ENDBLK
  5
71
330
6E
100
AcDbEntity
  8
0
100
AcDbBlockEnd
  0
BLOCK
  5
92
330
90
100
AcDbEntity
  8
0
100
AcDbBlockBegin
  2
2_405015E_Metric_0_in_125928_4
 70
     2
 10
0.0
 20
0.0
 30
0.0
  3
2_405015E_Metric_0_in_125928_4
  1

  0
ATTDEF
  5
94
330
90
100
AcDbEntity
  8
AM_6
100
AcDbText
 10
52.01690700572415
 20
5.000000000000003
 30
0.0
 40
0.5
  1
405015E -Metric
100
AcDbAttributeDefinition
  3

  2
NN
 70
     8
280
     0
  0
ATTDEF
  5
95
330
90
100
AcDbEntity
  8
AM_6
100
AcDbText
 10
52.01690700572415
 20
4.500000000000003
 30
0.0
 40
0.5
  1
Grease Fitting
100
AcDbAttributeDefinition
  3

  2
NT
 70
     8
280
     0
  0
ATTDEF
  5
96
330
90
100
AcDbEntity
  8
AM_6
100
AcDbText
 10
52.01690700572415
 20
4.000000000000003
 30
0.0
 40
0.5
  1
405015E-Metric
100
AcDbAttributeDefinition
  3

  2
NB
 70
     8
280
     0
  0
ATTDEF
  5
97
330
90
100
AcDbEntity
  8
AM_6
100
AcDbText
 10
52.01690700572415
 20
3.500000000000003
 30
0.0
 40
0.5
  1
$MN.-Metric
100
AcDbAttributeDefinition
  3

  2
NBSYN
 70
     8
280
     0
  0
ATTDEF
  5
98
330
90
100
AcDbEntity
  8
AM_6
100
AcDbText
 10
52.01690700572415
 20
3.000000000000003
 30
0.0
 40
0.5
  1
405015E
100
AcDbAttributeDefinition
  3

  2
LINA
 70
     8
280
     0
  0
ATTDEF
  5
99
330
90
100
AcDbEntity
  8
AM_6
100
AcDbText
 10
52.01690700572415
 20
2.500000000000003
 30
0.0
 40
0.5
  1
405015E
100
AcDbAttributeDefinition
  3

  2
MN
 70
     8
280
     0
  0
ATTDEF
  5
9A
330
90
100
AcDbEntity
  8
AM_6
100
AcDbText
 10
52.01690700572415
 20
2.000000000000003
 30
0.0
 40
0.5
  1
1/8 x 27PTF
100
AcDbAttributeDefinition
  3

  2
T
 70
     8
280
     0
  0
ATTDEF
  5
9B
330
90
100
AcDbEntity
  8
AM_6
100
AcDbText
 10
52.01690700572415
 20
1.500000000000003
 30
0.0
 40
0.5
  1
baldor
100
AcDbAttributeDefinition
  3

  2
COMPANY
 70
     8
280
     0
  0
LWPOLYLINE
  5
9E
330
90
100
AcDbEntity
  8
AM_9
100
AcDbPolyline
 90
        3
 70
     0
 43
0.0
 10
42.83706769992838
 20
0.0000000000000021
 10
42.22152190349724
 20
-1.24437966340913
 10
41.66989243126447
 20
-2.499999999999997
  0
LWPOLYLINE
  5
9F
330
90
100
AcDbEntity
  8
AM_9
100
AcDbPolyline
 90
        3
 70
     0
 43
0.0
 10
41.66989243126447
 20
2.500000000000002
 10
42.21888566938566
 20
1.250000000000002
 10
42.83706769992838
 20
0.0000000000000021
  0
ELLIPSE
  5
A0
330
90
100
AcDbEntity
  8
AM_9
100
AcDbEllipse
 10
33.84849450861885
 20
0.0000000000000021
 30
0.0
 11
2.546036870355444E-16
 21
4.15799375318352
 31
0.0
210
0.0
220
0.0
230
1.0
 40
0.7071067811865476
 41
0.0
 42
6.283185307179586
  0
LWPOLYLINE
  5
A1
330
90
100
AcDbEntity
  8
AM_9
100
AcDbPolyline
 90
        3
 70
     0
 43
0.0
 10
43.79121277482411
 20
-2.499999999999996
 10
44.26284026286258
 20
-1.249999999999996
 10
44.66527895847951
 20
0.0000000000000024
  0
LWPOLYLINE
  5
A2
330
90
100
AcDbEntity
  8
AM_9
100
AcDbPolyline
 90
        3
 70
     0
 43
0.0
 10
44.66527895847951
 20
0.0000000000000024
 10
44.26479301436109
 20
1.244379663409137
 10
43.79121277482411
 20
2.500000000000002
  0
LWPOLYLINE
  5
A3
330
90
100
AcDbEntity
  8
AM_9
100
AcDbPolyline
 90
        3
 70
     0
 43
0.0
 10
40.79582624760906
 20
5.000000000000003
 10
41.19631219172748
 20
3.755620336590868
 10
41.66989243126447
 20
2.500000000000002
  0
LINE
  5
A4
330
90
100
AcDbEntity
  8
AM_9
100
AcDbLine
 10
44.66527895847951
 20
0.0000000000000024
 30
0.0
 11
42.83706769992838
 21
0.0000000000000021
 31
0.0
  0
LWPOLYLINE
  5
A5
330
90
100
AcDbEntity
  8
AM_9
100
AcDbPolyline
 90
        3
 70
     0
 43
0.0
 10
41.66989243126447
 20
-2.499999999999997
 10
41.198264943226
 20
-3.749999999999997
 10
40.79582624760906
 20
-4.999999999999997
  0
LINE
  5
A6
330
90
100
AcDbEntity
  8
AM_9
100
AcDbLine
 10
43.79121277482411
 20
2.500000000000002
 30
0.0
 11
43.53615645490059
 21
3.102409314047781
 31
0.0
  0
LINE
  5
A7
330
90
100
AcDbEntity
  8
AM_9
100
AcDbLine
 10
43.53149233886821
 20
-3.11304206604066
 30
0.0
 11
43.79121277482411
 21
-2.499999999999996
 31
0.0
  0
LINE
  5
A8
330
90
100
AcDbEntity
  8
AM_9
100
AcDbLine
 10
34.16763997871368
 20
-4.755705400136177
 30
0.0
 11
38.4984975615624
 21
-4.947207176936948
 31
0.0
  0
LINE
  5
A9
330
90
100
AcDbEntity
  8
AM_9
100
AcDbLine
 10
38.4984975615624
 20
4.947207176936955
 30
0.0
 11
34.16763997871368
 21
4.755705400136183
 31
0.0
  0
ELLIPSE
  5
AA
330
90
100
AcDbEntity
  8
AM_9
100
AcDbEllipse
 10
40.72935059634542
 20
0.0000000000002918
 30
0.0
 11
-9.184850993604249E-16
 21
-4.99999999999951
 31
0.0
210
0.0
220
0.0
230
1.0
 40
0.7071067811865472
 41
0.8982051386271745
 42
2.243387514962528
  0
LINE
  5
AB
330
90
100
AcDbEntity
  8
AM_9
100
AcDbLine
 10
43.50903962675508
 20
1.989928832732517
 30
0.0
 11
43.2452201548682
 21
2.40658641745395
 31
0.0
  0
LINE
  5
AC
330
90
100
AcDbEntity
  8
AM_9
100
AcDbLine
 10
43.2452201548682
 20
-2.406586417453945
 30
0.0
 11
43.50903962675508
 21
-1.989928832732512
 31
0.0
  0
ELLIPSE
  5
AD
330
90
100
AcDbEntity
  8
AM_9
100
AcDbEllipse
 10
41.93766406587654
 20
-0.0000000000000241
 30
0.0
 11
-5.479672885901582E-16
 21
-2.982994982562452
 31
0.0
210
0.0
220
0.0
230
1.0
 40
0.7071067811865487
 41
0.3869422381883734
 42
2.754650415401425
  0
ELLIPSE
  5
AE
330
90
100
AcDbEntity
  8
AM_9
100
AcDbEllipse
 10
41.34482501542513
 20
-0.0000000000051883
 30
0.0
 11
-6.627024103754208E-16
 21
-3.6075838945935
 31
0.0
210
0.0
220
0.0
230
1.0
 40
0.7071067811906813
 41
0.6633833151921049
 42
2.478209338399463
  0
LINE
  5
AF
330
90
100
AcDbEntity
  8
AM_9
100
AcDbLine
 10
43.22857281871816
 20
2.477229919855584
 30
0.0
 11
42.75701116785317
 21
2.748977116714939
 31
0.0
  0
LINE
  5
B0
330
90
100
AcDbEntity
  8
AM_9
100
AcDbLine
 10
42.75701116785317
 20
-2.748977116714934
 30
0.0
 11
43.22857281871816
 21
-2.477229919855579
 31
0.0
  0
ELLIPSE
  5
B1
330
90
100
AcDbEntity
  8
AM_9
100
AcDbEllipse
 10
42.51479521884118
 20
-0.0000000000000063
 30
0.0
 11
-4.913895281578731E-16
 21
-2.674999999999987
 31
0.0
210
0.0
220
0.0
230
1.0
 40
0.7071067811865466
 41
0.0
 42
3.141592653589793
  0
ELLIPSE
  5
B2
330
90
100
AcDbEntity
  8
AM_9
100
AcDbEllipse
 10
40.72935059634516
 20
0.0000000000000012
 30
0.0
 11
-8.725608443924852E-16
 21
-4.749999999999979
 31
0.0
210
0.0
220
0.0
230
1.0
 40
0.7071067811865475
 41
0.8736482899485596
 42
2.267944363641234
  0
LINE
  5
B3
330
90
100
AcDbEntity
  8
AM_9
100
AcDbLine
 10
42.63146783773695
 20
-2.674999999999997
 30
0.0
 11
43.00976996567175
 21
-2.674999999999997
 31
0.0
  0
LINE
  5
B4
330
90
100
AcDbEntity
  8
AM_9
100
AcDbLine
 10
43.00976996567175
 20
2.675000000000002
 30
0.0
 11
42.63146783773695
 21
2.675000000000002
 31
0.0
  0
ELLIPSE
  5
B5
330
90
100
AcDbEntity
  8
AM_9
100
AcDbEllipse
 10
43.00976996567174
 20
0.0000000000000053
 30
0.0
 11
-4.913895281578774E-16
 21
-2.675000000000011
 31
0.0
210
0.0
220
0.0
230
1.0
 40
0.7071067811865456
 41
5.888394187479829
 42
9.819569080469137
  0
ELLIPSE
  5
B6
330
90
100
AcDbEntity
  8
AM_9
100
AcDbEllipse
 10
43.92900878121429
 20
0.0000000000000226
 30
0.0
 11
-5.832380380939202E-16
 21
-3.174999999999963
 31
0.0
210
0.0
220
0.0
230
1.0
 40
0.7071067811865483
 41
0.4159140521025391
 42
2.725678601487251
  0
ELLIPSE
  5
B7
330
90
100
AcDbEntity
  8
AM_9
100
AcDbEllipse
 10
38.60803025278548
 20
0.000000000000016
 30
0.0
 11
-9.184850993605109E-16
 21
-4.999999999999978
 31
0.0
210
0.0
220
0.0
230
1.0
 40
0.7071067811865478
 41
0.0
 42
6.283185307179586
  0
ELLIPSE
  5
B8
330
90
100
AcDbEntity
  8
AM_9
100
AcDbEllipse
 10
38.60803025278548
 20
-0.0000000000000009
 30
0.0
 11
-9.092325864233689E-16
 21
-4.949631665534977
 31
0.0
210
0.0
220
0.0
230
1.0
 40
0.7071067811865469
 41
0.0
 42
6.283185307179586
  0
ELLIPSE
  5
B9
330
90
100
AcDbEntity
  8
AM_9
100
AcDbEllipse
 10
34.27278382339629
 20
0.0
 30
0.0
 11
-8.740358316248951E-16
 21
-4.758029456511776
 31
0.0
210
0.0
220
0.0
230
1.0
 40
0.707106781186547
 41
0.0
 42
6.283185307179586
  0
LWPOLYLINE
  5
BB
330
90
100
AcDbEntity
  8
AM_4
100
AcDbPolyline
 90
        3
 70
     0
 43
0.0
 10
43.53615645490059
 20
3.102409314047781
 10
43.24221953670292
 20
3.750000000000003
 10
42.6240375061602
 20
5.000000000000003
  0
LWPOLYLINE
  5
BC
330
90
100
AcDbEntity
  8
AM_4
100
AcDbPolyline
 90
        3
 70
     0
 43
0.0
 10
42.6240375061602
 20
-4.999999999999997
 10
43.23958330259133
 20
-3.755620336590864
 10
43.53149233886821
 20
-3.11304206604066
  0
ELLIPSE
  5
BD
330
90
100
AcDbEntity
  8
AM_4
100
AcDbEllipse
 10
40.72935059634514
 20
-0.000000000000024
 30
0.0
 11
-9.184850993605213E-16
 21
-5.000000000000036
 31
0.0
210
0.0
220
0.0
230
1.0
 40
0.7071067811865468
 41
2.243387514962527
 42
7.18139044580686
  0
ELLIPSE
  5
BE
330
90
100
AcDbEntity
  8
AM_4
100
AcDbEllipse
 10
41.34482501544174
 20
0.0000000000000027
 30
0.0
 11
-6.627024103768196E-16
 21
-3.607583894601115
 31
0.0
210
0.0
220
0.0
230
1.0
 40
0.7071067811865476
 41
2.478209338400867
 42
6.946568622368511
  0
LINE
  5
BF
330
90
100
AcDbEntity
  8
AM_4
100
AcDbLine
 10
42.75701116785317
 20
2.748977116714939
 30
0.0
 11
42.73362481320307
 21
2.762453989376799
 31
0.0
  0
LINE
  5
C0
330
90
100
AcDbEntity
  8
AM_4
100
AcDbLine
 10
42.73362481320307
 20
-2.762453989376794
 30
0.0
 11
42.75701116785317
 21
-2.748977116714934
 31
0.0
  0
ELLIPSE
  5
C1
330
90
100
AcDbEntity
  8
AM_4
100
AcDbEllipse
 10
41.93766406587651
 20
0.0000000000000024
 30
0.0
 11
-5.479672885901704E-16
 21
-2.982994982562518
 31
0.0
210
0.0
220
0.0
230
1.0
 40
0.7071067811865475
 41
2.75465041540141
 42
6.670127545367968
  0
ELLIPSE
  5
C2
330
90
100
AcDbEntity
  8
AM_4
100
AcDbEllipse
 10
40.72935059634514
 20
0.0000000000000027
 30
0.0
 11
-8.725608443924888E-16
 21
-4.749999999999998
 31
0.0
210
0.0
220
0.0
230
1.0
 40
0.7071067811865475
 41
2.26794436364123
 42
7.156833597128147
  0
LINE
  5
C3
330
90
100
AcDbEntity
  8
AM_4
100
AcDbLine
 10
42.6240375061602
 20
-4.999999999999997
 30
0.0
 11
36.71334334297043
 21
-4.999999999999997
 31
0.0
  0
LWPOLYLINE
  5
C4
330
90
100
AcDbEntity
  8
AM_4
100
AcDbPolyline
 90
        3
 70
     0
 43
0.0
 10
37.66748841786617
 20
-2.499999999999996
 10
38.13911590590463
 20
-3.749999999999997
 10
38.54155460152157
 20
-4.999999999999997
  0
LWPOLYLINE
  5
C5
330
90
100
AcDbEntity
  8
AM_4
100
AcDbPolyline
 90
        3
 70
     0
 43
0.0
 10
35.54616807430652
 20
-2.499999999999997
 10
35.07454058626806
 20
-1.249999999999997
 10
34.67210189065112
 20
0.0000000000000026
  0
LWPOLYLINE
  5
C6
330
90
100
AcDbEntity
  8
AM_4
100
AcDbPolyline
 90
        3
 70
     0
 43
0.0
 10
36.71334334297043
 20
-4.999999999999997
 10
36.0977975465393
 20
-3.755620336590864
 10
35.54616807430652
 20
-2.499999999999997
  0
LWPOLYLINE
  5
C7
330
90
100
AcDbEntity
  8
AM_4
100
AcDbPolyline
 90
        3
 70
     0
 43
0.0
 10
36.50031314920226
 20
0.0000000000000027
 10
37.11585894563339
 20
-1.24437966340913
 10
37.66748841786617
 20
-2.499999999999996
  0
LINE
  5
C8
330
90
100
AcDbEntity
  8
AM_4
100
AcDbLine
 10
36.50031314920226
 20
0.0000000000000027
 30
0.0
 11
34.67210189065112
 21
0.0000000000000026
 31
0.0
  0
LWPOLYLINE
  5
C9
330
90
100
AcDbEntity
  8
AM_4
100
AcDbPolyline
 90
        3
 70
     0
 43
0.0
 10
37.66748841786617
 20
2.500000000000002
 10
37.11849517974498
 20
1.250000000000003
 10
36.50031314920226
 20
0.0000000000000027
  0
LWPOLYLINE
  5
CA
330
90
100
AcDbEntity
  8
AM_4
100
AcDbPolyline
 90
        3
 70
     0
 43
0.0
 10
38.54155460152157
 20
5.000000000000003
 10
38.14106865740315
 20
3.755620336590869
 10
37.66748841786617
 20
2.500000000000002
  0
LINE
  5
CB
330
90
100
AcDbEntity
  8
AM_4
100
AcDbLine
 10
42.6240375061602
 20
5.000000000000003
 30
0.0
 11
36.71334334297043
 21
5.000000000000003
 31
0.0
  0
LWPOLYLINE
  5
CC
330
90
100
AcDbEntity
  8
AM_4
100
AcDbPolyline
 90
        3
 70
     0
 43
0.0
 10
35.54616807430652
 20
2.500000000000002
 10
36.09516131242771
 20
3.750000000000002
 10
36.71334334297043
 20
5.000000000000003
  0
LWPOLYLINE
  5
CD
330
90
100
AcDbEntity
  8
AM_4
100
AcDbPolyline
 90
        3
 70
     0
 43
0.0
 10
34.67210189065112
 20
0.0000000000000026
 10
35.07258783476954
 20
1.244379663409135
 10
35.54616807430652
 20
2.500000000000002
  0
LINE
  5
CE
330
90
100
AcDbEntity
  8
AM_4
100
AcDbLine
 10
42.51479521884117
 20
-2.674999999999997
 30
0.0
 11
42.63146783773695
 21
-2.674999999999997
 31
0.0
  0
LINE
  5
CF
330
90
100
AcDbEntity
  8
AM_4
100
AcDbLine
 10
42.63146783773695
 20
2.675000000000002
 30
0.0
 11
42.51479521884117
 21
2.675000000000002
 31
0.0
  0
ELLIPSE
  5
D0
330
90
100
AcDbEntity
  8
AM_4
100
AcDbEllipse
 10
42.51479521884117
 20
0.0000000000000024
 30
0.0
 11
-4.913895281578753E-16
 21
-2.674999999999999
 31
0.0
210
0.0
220
0.0
230
1.0
 40
0.707106781186546
 41
3.141592653589793
 42
6.283185307179586
  0
LINE
  5
D1
330
90
100
AcDbEntity
  8
AM_4
100
AcDbLine
 10
42.28226587348944
 20
-2.469230769230767
 30
0.0
 11
43.06552261572685
 21
-2.930769230769228
 31
0.0
  0
LINE
  5
D2
330
90
100
AcDbEntity
  8
AM_4
100
AcDbLine
 10
43.06552261572685
 20
2.930769230769234
 30
0.0
 11
42.28226587348944
 21
2.469230769230772
 31
0.0
  0
ELLIPSE
  5
D3
330
90
100
AcDbEntity
  8
AM_4
100
AcDbEllipse
 10
43.92900878121428
 20
0.0000000000000029
 30
0.0
 11
-5.832380380939274E-16
 21
-3.175000000000002
 31
0.0
210
0.0
220
0.0
230
1.0
 40
0.7071067811865487
 41
2.725678601487253
 42
6.699099359282123
  0
ELLIPSE
  5
D4
330
90
100
AcDbEntity
  8
AM_4
100
AcDbEllipse
 10
43.00976996567175
 20
0.0000000000000024
 30
0.0
 11
-4.913895281578743E-16
 21
-2.674999999999994
 31
0.0
210
0.0
220
0.0
230
1.0
 40
0.7071067811865475
 41
3.536383773289552
 42
5.888394187479827
  0
LINE
  5
D5
330
90
100
AcDbEntity
  8
AM_4
100
AcDbLine
 10
46.01943484086868
 20
2.165159119691911
 30
0.0
 11
44.83607352812142
 21
2.90432300025953
 31
0.0
  0
LINE
  5
D6
330
90
100
AcDbEntity
  8
AM_4
100
AcDbLine
 10
44.83607352812142
 20
-2.904323000259526
 30
0.0
 11
46.01943484086868
 21
-2.165159119691905
 31
0.0
  0
ELLIPSE
  5
D7
330
90
100
AcDbEntity
  8
AM_4
100
AcDbEllipse
 10
45.34322234358735
 20
-0.0000000000000098
 30
0.0
 11
-4.348012108217479E-16
 21
-2.366947548329709
 31
0.0
210
0.0
220
0.0
230
1.0
 40
0.7071067811865431
 41
0.0
 42
6.283185307179586
  0
ENDBLK
  5
93
330
90
100
AcDbEntity
  8
0
100
AcDbBlockEnd
  0
BLOCK
  5
DA
330
D8
100
AcDbEntity
  8
0
100
AcDbBlockBegin
  2
3_125830_0_in_125928_4
 70
     2
 10
0.0
 20
0.0
 30
0.0
  3
3_125830_0_in_125928_4
  1

  0
ATTDEF
  5
DC
330
D8
100
AcDbEntity
  8
AM_6
100
AcDbText
 10
47.49121541230438
 20
19.09999999999999
 30
0.0
 40
0.5
  1
Set Screw Medium Duty Insert Metric Bore
100
AcDbAttributeDefinition
  3

  2
NN
 70
     8
280
     0
  0
ATTDEF
  5
DD
330
D8
100
AcDbEntity
  8
AM_6
100
AcDbText
 10
47.49121541230438
 20
18.59999999999999
 30
0.0
 40
0.5
  1
SC Medium Duty Bearing Inserts
100
AcDbAttributeDefinition
  3

  2
NT
 70
     8
280
     0
  0
ATTDEF
  5
DE
330
D8
100
AcDbEntity
  8
AM_6
100
AcDbText
 10
47.49121541230438
 20
18.09999999999999
 30
0.0
 40
0.5
  1
125830
100
AcDbAttributeDefinition
  3

  2
NB
 70
     8
280
     0
  0
ATTDEF
  5
DF
330
D8
100
AcDbEntity
  8
AM_6
100
AcDbText
 10
47.49121541230438
 20
17.59999999999999
 30
0.0
 40
0.5
  1
$PN.
100
AcDbAttributeDefinition
  3

  2
NBSYN
 70
     8
280
     0
  0
ATTDEF
  5
E0
330
D8
100
AcDbEntity
  8
AM_6
100
AcDbText
 10
47.49121541230438
 20
17.09999999999999
 30
0.0
 40
0.5
  1
125830
100
AcDbAttributeDefinition
  3

  2
LINA
 70
     8
280
     0
  0
ATTDEF
  5
E1
330
D8
100
AcDbEntity
  8
AM_6
100
AcDbText
 10
47.49121541230438
 20
16.59999999999999
 30
0.0
 40
0.5
  1
209
100
AcDbAttributeDefinition
  3

  2
SERIES
 70
     8
280
     0
  0
ATTDEF
  5
E2
330
D8
100
AcDbEntity
  8
AM_6
100
AcDbText
 10
47.49121541230438
 20
16.09999999999999
 30
0.0
 40
0.5
  1
40
100
AcDbAttributeDefinition
  3

  2
SS
 70
     8
280
     0
  0
ATTDEF
  5
E3
330
D8
100
AcDbEntity
  8
AM_6
100
AcDbText
 10
47.49121541230438
 20
15.59999999999999
 30
0.0
 40
0.5
  1
125830
100
AcDbAttributeDefinition
  3

  2
PN
 70
     8
280
     0
  0
ATTDEF
  5
E4
330
D8
100
AcDbEntity
  8
AM_6
100
AcDbText
 10
47.49121541230438
 20
15.09999999999999
 30
0.0
 40
0.5
  1
INS-SCM-40M
100
AcDbAttributeDefinition
  3

  2
DESCRIPTION
 70
     8
280
     0
  0
ATTDEF
  5
E5
330
D8
100
AcDbEntity
  8
AM_6
100
AcDbText
 10
47.49121541230438
 20
14.59999999999999
 30
0.0
 40
0.5
  1
0.71
100
AcDbAttributeDefinition
  3

  2
WEIGHT
 70
     8
280
     0
  0
ATTDEF
  5
E6
330
D8
100
AcDbEntity
  8
AM_6
100
AcDbText
 10
47.49121541230438
 20
14.09999999999999
 30
0.0
 40
0.5
  1
49.3
100
AcDbAttributeDefinition
  3

  2
A
 70
     8
280
     0
  0
ATTDEF
  5
E7
330
D8
100
AcDbEntity
  8
AM_6
100
AcDbText
 10
47.49121541230438
 20
13.59999999999999
 30
0.0
 40
0.5
  1
22.1
100
AcDbAttributeDefinition
  3

  2
C
 70
     8
280
     0
  0
ATTDEF
  5
E8
330
D8
100
AcDbEntity
  8
AM_6
100
AcDbText
 10
47.49121541230438
 20
13.09999999999999
 30
0.0
 40
0.5
  1
85.0
100
AcDbAttributeDefinition
  3

  2
D
 70
     8
280
     0
  0
ATTDEF
  5
E9
330
D8
100
AcDbEntity
  8
AM_6
100
AcDbText
 10
47.49121541230438
 20
12.59999999999999
 30
0.0
 40
0.5
  1
6.4
100
AcDbAttributeDefinition
  3

  2
J
 70
     8
280
     0
  0
ATTDEF
  5
EA
330
D8
100
AcDbEntity
  8
AM_6
100
AcDbText
 10
47.49121541230438
 20
12.09999999999999
 30
0.0
 40
0.5
  1
56.4
100
AcDbAttributeDefinition
  3

  2
L
 70
     8
280
     0
  0
ATTDEF
  5
EB
330
D8
100
AcDbEntity
  8
AM_6
100
AcDbText
 10
47.49121541230438
 20
11.59999999999999
 30
0.0
 40
0.5
  1
M8 x 1.25
100
AcDbAttributeDefinition
  3

  2
N
 70
     8
280
     0
  0
ATTDEF
  5
EC
330
D8
100
AcDbEntity
  8
AM_6
100
AcDbText
 10
47.49121541230438
 20
11.09999999999999
 30
0.0
 40
0.5
  1
19.1
100
AcDbAttributeDefinition
  3

  2
W
 70
     8
280
     0
  0
ATTDEF
  5
ED
330
D8
100
AcDbEntity
  8
AM_6
100
AcDbText
 10
47.49121541230438
 20
10.59999999999999
 30
0.0
 40
0.5
  1
30.2
100
AcDbAttributeDefinition
  3

  2
Y
 70
     8
280
     0
  0
ATTDEF
  5
EE
330
D8
100
AcDbEntity
  8
AM_6
100
AcDbText
 10
47.49121541230438
 20
10.09999999999999
 30
0.0
 40
0.5
  1
baldor
100
AcDbAttributeDefinition
  3

  2
COMPANY
 70
     8
280
     0
  0
LINE
  5
EF
330
D8
100
AcDbEntity
  8
AM_9
100
AcDbLine
 10
-42.49090909090909
 20
4.189999999999997
 30
0.0
 11
-42.19124095258576
 21
4.189999999999997
 31
0.0
  0
LINE
  5
F0
330
D8
100
AcDbEntity
  8
AM_9
100
AcDbLine
 10
-41.18051901873837
 20
8.610000000000003
 30
0.0
 11
-42.49090909090909
 21
8.610000000000003
 31
0.0
  0
LINE
  5
F1
330
D8
100
AcDbEntity
  8
AM_9
100
AcDbLine
 10
-44.5
 20
6.600909090909095
 30
0.0
 11
-44.5
 21
6.199090909090906
 31
0.0
  0
LINE
  5
F2
330
D8
100
AcDbEntity
  8
AM_9
100
AcDbLine
 10
-42.49090909090909
 20
8.610000000000005
 30
0.0
 11
-42.49090909090909
 21
4.189999999999996
 31
0.0
  0
ARC
  5
F3
330
D8
100
AcDbEntity
  8
AM_9
100
AcDbCircle
 10
-42.49090909090908
 20
6.199090909090916
 30
0.0
 40
2.009090909090922
100
AcDbArc
 50
180.0
 51
270.0
  0
ARC
  5
F4
330
D8
100
AcDbEntity
  8
AM_9
100
AcDbCircle
 10
-42.49090909090908
 20
6.600909090909084
 30
0.0
 40
2.00909090909092
100
AcDbArc
 50
90.0
 51
180.0
  0
LINE
  5
F5
330
D8
100
AcDbEntity
  8
AM_9
100
AcDbLine
 10
18.12448364751883
 20
-23.9485
 30
0.0
 11
25.29946458892104
 21
-23.9485
 31
0.0
  0
LINE
  5
F6
330
D8
100
AcDbEntity
  8
AM_9
100
AcDbLine
 10
25.29946458892104
 20
-17.3015
 30
0.0
 11
18.12574054777208
 21
-17.3015
 31
0.0
  0
LWPOLYLINE
  5
F7
330
D8
100
AcDbEntity
  8
AM_9
100
AcDbPolyline
 90
       21
 70
     0
 43
0.0
 10
18.1260421246815
 20
-23.94849998912712
 10
18.27653403805873
 20
-23.92862921684328
 10
18.4872752865506
 20
-23.82496422379309
 10
18.68129210006214
 20
-23.62886332198548
 10
18.84545959918562
 20
-23.35533688328377
 10
18.98661512844376
 20
-22.99749743208018
 10
19.09774701436281
 20
-22.57933571498986
 10
19.18377897245285
 20
-22.09251097626999
 10
19.2406503898593
 20
-21.57714606343201
 10
19.27238794336776
 20
-21.01838786458472
 10
19.27773987830302
 20
-20.470771753997
 10
19.25766138055424
 20
-19.91168026533477
 10
19.21331442280169
 20
-19.39152988808306
 10
19.14146000452442
 20
-18.89169397602915
 10
19.04431615448101
 20
-18.44919649313104
 10
18.91626022495888
 20
-18.0560429153915
 10
18.76268141579479
 20
-17.7416543430119
 10
18.57680061450554
 20
-17.50149299870851
 10
18.37260273335037
 20
-17.35658983181692
 10
18.14142915909458
 20
-17.30169726545804
 10
18.12623954722678
 20
-17.3015000059162
  0
LWPOLYLINE
  5
F8
330
D8
100
AcDbEntity
  8
AM_9
100
AcDbPolyline
 90
       11
 70
     0
 43
0.0
 10
18.12623954722678
 20
-17.3015000059162
 10
17.90536415783001
 20
-17.34064158920057
 10
17.65534220286347
 20
-17.47319028257666
 10
17.41402980747233
 20
-17.68780852404532
 10
17.17668741722996
 20
-17.99042884352522
 10
16.96337798419364
 20
-18.36074708912684
 10
16.77433864127988
 20
-18.80638100021212
 10
16.62781810094393
 20
-19.29383651006255
 10
16.52417556978701
 20
-19.83484993436846
 10
16.48351501494432
 20
-20.22405056719105
 10
16.46956291647477
 20
-20.625
  0
ELLIPSE
  5
F9
330
D8
100
AcDbEntity
  8
AM_9
100
AcDbEllipse
 10
25.29946458892102
 20
-20.625
 30
0.0
 11
-6.105170455449354E-16
 21
-3.323500000000006
 31
0.0
210
0.0
220
0.0
230
1.0
 40
0.4226182617406945
 41
3.566043774804898
 42
5.849014194128838
  0
LINE
  5
FA
330
D8
100
AcDbEntity
  8
AM_9
100
AcDbLine
 10
24.64450200546551
 20
-23.56504325527303
 30
0.0
 11
24.80807169335747
 21
-23.76906153280736
 31
0.0
  0
LINE
  5
FB
330
D8
100
AcDbEntity
  8
AM_9
100
AcDbLine
 10
24.8119533721115
 20
-17.47609690135275
 30
0.0
 11
24.64450200546551
 21
-17.68495674472697
 31
0.0
  0
LWPOLYLINE
  5
FC
330
D8
100
AcDbEntity
  8
AM_9
100
AcDbPolyline
 90
       11
 70
     0
 43
0.0
 10
16.46956291647477
 20
-20.625
 10
16.49546962634357
 20
-21.17072978653418
 10
16.57481688902361
 20
-21.71645957306835
 10
16.69908588360092
 20
-22.21619247185297
 10
16.86904450071839
 20
-22.68473897034339
 10
17.06936303930173
 20
-23.08700281199561
 10
17.3009127673037
 20
-23.4303196368321
 10
17.54264214166734
 20
-23.68741349864729
 10
17.79741915493884
 20
-23.86326433774657
 10
18.03922784878912
 20
-23.94226581560186
 10
18.1260421246815
 20
-23.94849998912712
  0
LINE
  5
FD
330
D8
100
AcDbEntity
  8
AM_9
100
AcDbLine
 10
20.0
 20
-29.072
 30
0.0
 11
20.0
 21
17.972
 31
0.0
  0
LINE
  5
FE
330
D8
100
AcDbEntity
  8
AM_9
100
AcDbLine
 10
-20.0
 20
17.972
 30
0.0
 11
-20.0
 21
-29.072
 31
0.0
  0
LINE
  5
FF
330
D8
100
AcDbEntity
  8
AM_9
100
AcDbLine
 10
20.0
 20
17.972
 30
0.0
 11
21.12799999999997
 21
19.09999999999999
 31
0.0
  0
LINE
  5
100
330
D8
100
AcDbEntity
  8
AM_9
100
AcDbLine
 10
-21.12799999999997
 20
19.09999999999999
 30
0.0
 11
-20.0
 21
17.972
 31
0.0
  0
LINE
  5
101
330
D8
100
AcDbEntity
  8
AM_9
100
AcDbLine
 10
-20.0
 20
-29.072
 30
0.0
 11
-21.12799999999997
 21
-30.2
 31
0.0
  0
LINE
  5
102
330
D8
100
AcDbEntity
  8
AM_9
100
AcDbLine
 10
21.12799999999997
 20
-30.2
 30
0.0
 11
20.0
 21
-29.072
 31
0.0
  0
LINE
  5
103
330
D8
100
AcDbEntity
  8
AM_9
100
AcDbLine
 10
28.20000000000001
 20
11.05
 30
0.0
 11
28.20000000000001
 21
15.93220904335648
 31
0.0
  0
LINE
  5
104
330
D8
100
AcDbEntity
  8
AM_9
100
AcDbLine
 10
-28.20000000000001
 20
15.93220904335648
 30
0.0
 11
-28.20000000000001
 21
11.05
 31
0.0
  0
LINE
  5
105
330
D8
100
AcDbEntity
  8
AM_9
100
AcDbLine
 10
28.2
 20
-15.93220904335648
 30
0.0
 11
28.2
 21
-11.05
 31
0.0
  0
LINE
  5
106
330
D8
100
AcDbEntity
  8
AM_9
100
AcDbLine
 10
-28.2
 20
-11.05
 30
0.0
 11
-28.2
 21
-15.93220904335648
 31
0.0
  0
LINE
  5
107
330
D8
100
AcDbEntity
  8
AM_9
100
AcDbLine
 10
40.29000000000001
 20
-7.233333333333334
 30
0.0
 11
40.29000000000001
 21
-4.286666666666664
 31
0.0
  0
LINE
  5
108
330
D8
100
AcDbEntity
  8
AM_9
100
AcDbLine
 10
-40.29000000000001
 20
-4.286666666666664
 30
0.0
 11
-40.29000000000001
 21
-7.233333333333334
 31
0.0
  0
LINE
  5
109
330
D8
100
AcDbEntity
  8
AM_9
100
AcDbLine
 10
-39.69396883195166
 20
11.05
 30
0.0
 11
39.69396883190618
 21
11.05
 31
0.0
  0
ARC
  5
10A
330
D8
100
AcDbEntity
  8
AM_9
100
AcDbCircle
 10
39.69396883195168
 20
10.16600000000001
 30
0.0
 40
0.8839999999999867
100
AcDbArc
 50
21.4124811754265
 51
90.0
  0
ARC
  5
10B
330
D8
100
AcDbEntity
  8
AM_9
100
AcDbCircle
 10
-39.69396883195168
 20
10.16600000000001
 30
0.0
 40
0.8839999999999932
100
AcDbArc
 50
90.0
 51
158.5875188245735
  0
LINE
  5
10C
330
D8
100
AcDbEntity
  8
AM_9
100
AcDbLine
 10
-39.69396884512427
 20
-11.05
 30
0.0
 11
39.69396884507879
 21
-11.05
 31
0.0
  0
ARC
  5
10D
330
D8
100
AcDbEntity
  8
AM_9
100
AcDbCircle
 10
39.69396883195164
 20
-10.16599999999998
 30
0.0
 40
0.8840000000000199
100
AcDbArc
 50
270.0
 51
338.587532953115
  0
ARC
  5
10E
330
D8
100
AcDbEntity
  8
AM_9
100
AcDbCircle
 10
-39.69396883195164
 20
-10.16599999999998
 30
0.0
 40
0.8840000000000182
100
AcDbArc
 50
201.412467046885
 51
270.0
  0
LINE
  5
10F
330
D8
100
AcDbEntity
  8
AM_9
100
AcDbLine
 10
-41.57452820834926
 20
-7.233333333333334
 30
0.0
 11
41.57452820834926
 21
-7.233333333333334
 31
0.0
  0
LINE
  5
110
330
D8
100
AcDbEntity
  8
AM_9
100
AcDbLine
 10
-40.51695196947392
 20
-10.48873015873016
 30
0.0
 11
40.51695196947392
 21
-10.48873015873016
 31
0.0
  0
ARC
  5
111
330
D8
100
AcDbEntity
  8
AM_9
100
AcDbCircle
 10
13.77000000000566
 20
-0.0000000000017479
 30
0.0
 40
28.7299999999941
100
AcDbArc
 50
338.587532953115
 51
345.4177622541458
  0
ARC
  5
112
330
D8
100
AcDbEntity
  8
AM_9
100
AcDbCircle
 10
-13.77000000000461
 20
-0.0000000000014104
 30
0.0
 40
28.7299999999952
100
AcDbArc
 50
194.5822377458543
 51
201.4124670468848
  0
LINE
  5
113
330
D8
100
AcDbEntity
  8
AM_9
100
AcDbLine
 10
-42.17840349067314
 20
-4.286666666666668
 30
0.0
 11
42.17840349067315
 21
-4.286666666666668
 31
0.0
  0
LINE
  5
114
330
D8
100
AcDbEntity
  8
AM_9
100
AcDbLine
 10
-40.51695188989202
 20
10.48873036166922
 30
0.0
 11
40.51695188989202
 21
10.48873036166922
 31
0.0
  0
ARC
  5
115
330
D8
100
AcDbEntity
  8
AM_9
100
AcDbCircle
 10
13.7700000000001
 20
-0.0000000000000347
 30
0.0
 40
28.72999999999992
100
AcDbArc
 50
351.4191278814028
 51
21.41246748160856
  0
ARC
  5
116
330
D8
100
AcDbEntity
  8
AM_9
100
AcDbCircle
 10
-13.77000000001665
 20
0.0000000000058247
 30
0.0
 40
28.72999999998238
100
AcDbArc
 50
158.5875325183902
 51
162.569129683837
  0
ARC
  5
117
330
D8
100
AcDbEntity
  8
AM_9
100
AcDbCircle
 10
-13.76999999999913
 20
-0.0000000000000346
 30
0.0
 40
28.73000000000088
100
AcDbArc
 50
171.5978368699141
 51
188.5808721185969
  0
LWPOLYLINE
  5
118
330
D8
100
AcDbEntity
  8
AM_9
100
AcDbPolyline
 90
       21
 70
     0
 43
0.0
 10
-41.17950200204628
 20
8.609999999987485
 10
-41.17969528788531
 20
8.6092578818581
 10
-41.19021561746369
 20
8.568817142980288
 10
-41.2150562669197
 20
8.472951390500716
 10
-41.2545766045977
 20
8.319328760113482
 10
-41.30578860808706
 20
8.118202302067798
 10
-41.3690946706676
 20
7.866287158766442
 10
-41.44097832597258
 20
7.575684767504202
 10
-41.52122862756648
 20
7.245316469163916
 10
-41.60540306810768
 20
6.891761253165313
 10
-41.69337138484816
 20
6.514200107566567
 10
-41.77906590638899
 20
6.138052615140664
 10
-41.86366680867975
 20
5.758184109602275
 10
-41.93992648170224
 20
5.408116811217113
 10
-42.01065729062111
 20
5.076596827450627
 10
-42.06909500707057
 20
4.797489331744452
 10
-42.11863974499811
 20
4.557001765829387
 10
-42.15459705975255
 20
4.380170069586315
 10
-42.17953292004959
 20
4.256372689996271
 10
-42.19136505234365
 20
4.197289595273228
 10
-42.19282181627976
 20
4.190000000001027
  0
LINE
  5
11B
330
D8
100
AcDbEntity
  8
AM_7
100
AcDbLine
 10
-3.489675
 20
-20.625
 30
0.0
 11
3.489674999999997
 21
-20.625
 31
0.0
  0
LINE
  5
11C
330
D8
100
AcDbEntity
  8
AM_7
100
AcDbLine
 10
-45.315
 20
6.4
 30
0.0
 11
-27.385
 21
6.4
 31
0.0
  0
ELLIPSE
  5
11D
330
D8
100
AcDbEntity
  8
AM_4
100
AcDbEllipse
 10
25.29946458892103
 20
-20.625
 30
0.0
 11
-6.105170455449354E-16
 21
-3.323500000000006
 31
0.0
210
0.0
220
0.0
230
1.0
 40
0.4226182617406998
 41
5.849014194128833
 42
9.849229081984486
  0
LWPOLYLINE
  5
11E
330
D8
100
AcDbEntity
  8
AM_4
100
AcDbPolyline
 90
       14
 70
     0
 43
0.0
 10
24.81178584692905
 20
-23.77369408211741
 10
24.72329443128065
 20
-23.65566706533288
 10
24.51260028631053
 20
-23.30538347493493
 10
24.32674578719046
 20
-22.89147880239478
 10
24.16419356459778
 20
-22.39655382295125
 10
24.04172828163975
 20
-21.85733377355803
 10
23.96149038564123
 20
-21.25793533631085
 10
23.93317134979715
 20
-20.64162711622513
 10
23.96008447552208
 20
-20.00825032321384
 10
24.04180327889648
 20
-19.39225114508618
 10
24.17611435554825
 20
-18.81111962654662
 10
24.35671740928776
 20
-18.28306319277116
 10
24.57074375177509
 20
-17.83742015746282
 10
24.81204609136309
 20
-17.47598125387376
  0
LWPOLYLINE
  5
11F
330
D8
100
AcDbEntity
  8
AM_4
100
AcDbPolyline
 90
        5
 70
     0
 43
0.0
 10
24.81204609136309
 20
-17.47598125387376
 10
24.81317163145894
 20
-17.47457857724962
 10
25.06007259144138
 20
-17.22191624695042
 10
25.3142262345481
 20
-17.06650316836522
 10
25.62557610775247
 20
-17.02043259679276
  0
LINE
  5
120
330
D8
100
AcDbEntity
  8
AM_4
100
AcDbLine
 10
-27.07200000000001
 20
-30.2
 30
0.0
 11
27.07200000000001
 21
-30.2
 31
0.0
  0
LINE
  5
121
330
D8
100
AcDbEntity
  8
AM_4
100
AcDbLine
 10
27.07200000000001
 20
-30.2
 30
0.0
 11
28.19999999999998
 21
-29.072
 31
0.0
  0
LINE
  5
122
330
D8
100
AcDbEntity
  8
AM_4
100
AcDbLine
 10
-28.19999999999998
 20
-29.072
 30
0.0
 11
-27.07200000000001
 21
-30.2
 31
0.0
  0
CIRCLE
  5
123
330
D8
100
AcDbEntity
  8
AM_4
100
AcDbCircle
 10
-0.0000000000000016
 20
-20.625
 30
0.0
 40
3.323499999999998
  0
LINE
  5
124
330
D8
100
AcDbEntity
  8
AM_4
100
AcDbLine
 10
-27.07200000000001
 20
19.09999999999999
 30
0.0
 11
27.07200000000001
 21
19.09999999999999
 31
0.0
  0
LINE
  5
125
330
D8
100
AcDbEntity
  8
AM_4
100
AcDbLine
 10
-27.07200000000001
 20
19.09999999999999
 30
0.0
 11
-28.20000000000001
 21
17.97199999999999
 31
0.0
  0
LINE
  5
126
330
D8
100
AcDbEntity
  8
AM_4
100
AcDbLine
 10
28.20000000000001
 20
17.97199999999999
 30
0.0
 11
27.07200000000001
 21
19.09999999999999
 31
0.0
  0
LINE
  5
127
330
D8
100
AcDbEntity
  8
AM_4
100
AcDbLine
 10
-28.20000000000001
 20
17.97199999999999
 30
0.0
 11
28.20000000000001
 21
17.97199999999999
 31
0.0
  0
LINE
  5
128
330
D8
100
AcDbEntity
  8
AM_4
100
AcDbLine
 10
28.20000000000001
 20
15.93220904335648
 30
0.0
 11
28.20000000000001
 21
17.97199999999999
 31
0.0
  0
LINE
  5
129
330
D8
100
AcDbEntity
  8
AM_4
100
AcDbLine
 10
-28.20000000000001
 20
17.97199999999999
 30
0.0
 11
-28.20000000000001
 21
15.93220904335648
 31
0.0
  0
LINE
  5
12A
330
D8
100
AcDbEntity
  8
AM_4
100
AcDbLine
 10
-28.19999999999998
 20
-29.072
 30
0.0
 11
28.2
 21
-29.072
 31
0.0
  0
LWPOLYLINE
  5
12B
330
D8
100
AcDbEntity
  8
AM_4
100
AcDbPolyline
 90
       39
 70
     0
 43
0.0
 10
-2.441591872421116
 20
-18.11347373331683
 10
-2.068198180498091
 20
-17.76101216530141
 10
-1.636206672050146
 20
-17.46202415396872
 10
-1.118652174550763
 20
-17.21749075459865
 10
-0.5478009937864831
 20
-17.06357552118915
 10
-0.0072166751231419
 20
-17.01637872850085
 10
0.5500167613887168
 20
-17.06396069471441
 10
1.06182828699306
 20
-17.19705643164087
 10
1.558182060303779
 20
-17.41794500449903
 10
2.009841889063654
 20
-17.71461960609227
 10
2.418852106933348
 20
-18.08884679583436
 10
2.772655841151487
 20
-18.5352355560409
 10
3.058414360289627
 20
-19.04529779813616
 10
3.264989914684638
 20
-19.61046690850602
 10
3.380811886371273
 20
-20.21786479364518
 10
3.396497393325498
 20
-20.84070055142454
 10
3.306588233656703
 20
-21.47503776294602
 10
3.115835586184006
 20
-22.07324982670351
 10
2.817331598021407
 20
-22.6465089579975
 10
2.442682913068984
 20
-23.13533281652439
 10
1.973193662092097
 20
-23.56347679456355
 10
1.475746362090478
 20
-23.8756913079427
 10
0.9122571500361525
 20
-24.10116001470245
 10
0.3713138972810147
 20
-24.21201746572496
 10
-0.1981967582821709
 20
-24.22748496954819
 10
-0.7231830623432822
 20
-24.15095551510192
 10
-1.242478706289464
 20
-23.98380329273783
 10
-1.717256925964852
 20
-23.73920239039647
 10
-2.157961954727113
 20
-23.41345096501819
 10
-2.548751300630724
 20
-23.01380886249743
 10
-2.879644358382976
 20
-22.54533037975779
 10
-3.139884791800403
 20
-22.01372070757822
 10
-3.316221227943872
 20
-21.4318397635929
 10
-3.397642572184811
 20
-20.81942313908126
 10
-3.377089741839094
 20
-20.18457677510563
 10
-3.25318663420955
 20
-19.5687775744664
 10
-3.020676003315126
 20
-18.96576560878855
 10
-2.764538969650725
 20
-18.52318620236283
 10
-2.441591872515057
 20
-18.11347373325527
  0
LWPOLYLINE
  5
12C
330
D8
100
AcDbEntity
  8
AM_4
100
AcDbPolyline
 90
       23
 70
     0
 43
0.0
 10
25.62557610775247
 20
-17.02043259679276
 10
25.84337994103177
 20
-17.09279507745524
 10
26.04475930990822
 20
-17.25185760593594
 10
26.2263082209924
 20
-17.49467095486156
 10
26.38452418086044
 20
-17.81119775398682
 10
26.52316546773511
 20
-18.21129624189749
 10
26.63427906115691
 20
-18.66943587394139
 10
26.72177529356318
 20
-19.20445963671913
 10
26.77906181080527
 20
-19.77578799492785
 10
26.80693072298012
 20
-20.39521666053312
 10
26.80270985712192
 20
-21.02090416510911
 10
26.76511676267259
 20
-21.64690482384299
 10
26.69376210437886
 20
-22.24371132094526
 10
26.58856222251211
 20
-22.7890974338618
 10
26.44902966668315
 20
-23.27060891959828
 10
26.28164008313468
 20
-23.65746232164664
 10
26.08395046762556
 20
-23.95472396139136
 10
25.87261460728266
 20
-24.1399674132244
 10
25.64188465886568
 20
-24.22735385651684
 10
25.41088609991444
 20
-24.21479776894054
 10
25.17496821650451
 20
-24.11143081950773
 10
24.9442408805482
 20
-23.92264585343933
 10
24.81178584692905
 20
-23.77369408211741
  0
LINE
  5
12D
330
D8
100
AcDbEntity
  8
AM_4
100
AcDbLine
 10
28.2
 20
-29.072
 30
0.0
 11
28.2
 21
-15.93220904335648
 31
0.0
  0
LINE
  5
12E
330
D8
100
AcDbEntity
  8
AM_4
100
AcDbLine
 10
-28.2
 20
-15.93220904335648
 30
0.0
 11
-28.2
 21
-29.072
 31
0.0
  0
ARC
  5
130
330
D8
100
AcDbEntity
  8
AM_5
100
AcDbCircle
 10
-0.0000000000000002
 20
-22.2
 30
0.0
 40
4.000000000000004
100
AcDbArc
 50
75.00000000000003
 51
14.99999999999997
  0
ARC
  5
131
330
D8
100
AcDbEntity
  8
AM_5
100
AcDbCircle
 10
-0.000000000000001
 20
-20.625
 30
0.0
 40
3.999999999999998
100
AcDbArc
 50
74.99999999999996
 51
15.0
  0
ENDBLK
  5
DB
330
D8
100
AcDbEntity
  8
0
100
AcDbBlockEnd
  0
BLOCK
  5
134
330
132
100
AcDbEntity
  8
0
100
AcDbBlockBegin
  2
4_125928H_0_in_125928_4
 70
     2
 10
0.0
 20
0.0
 30
0.0
  3
4_125928H_0_in_125928_4
  1

  0
ATTDEF
  5
136
330
132
100
AcDbEntity
  8
AM_6
100
AcDbText
 10
99.5
 20
27.94
 30
0.0
 40
0.5
  1
P2B-SCM -M-Housing
100
AcDbAttributeDefinition
  3

  2
NN
 70
     8
280
     0
  0
ATTDEF
  5
137
330
132
100
AcDbEntity
  8
AM_6
100
AcDbText
 10
99.5
 20
27.44
 30
0.0
 40
0.5
  1
SC Pillow Block Bearings -(Medium Duty)
100
AcDbAttributeDefinition
  3

  2
NT
 70
     8
280
     0
  0
ATTDEF
  5
138
330
132
100
AcDbEntity
  8
AM_6
100
AcDbText
 10
99.5
 20
26.94
 30
0.0
 40
0.5
  1
125928H
100
AcDbAttributeDefinition
  3

  2
NB
 70
     8
280
     0
  0
ATTDEF
  5
139
330
132
100
AcDbEntity
  8
AM_6
100
AcDbText
 10
99.5
 20
26.44
 30
0.0
 40
0.5
  1
$PN.H
100
AcDbAttributeDefinition
  3

  2
NBSYN
 70
     8
280
     0
  0
ATTDEF
  5
13A
330
132
100
AcDbEntity
  8
AM_6
100
AcDbText
 10
99.5
 20
25.94
 30
0.0
 40
0.5
  1
125928
100
AcDbAttributeDefinition
  3

  2
LINA
 70
     8
280
     0
  0
ATTDEF
  5
13B
330
132
100
AcDbEntity
  8
AM_6
100
AcDbText
 10
99.5
 20
25.44
 30
0.0
 40
0.5
  1
209
100
AcDbAttributeDefinition
  3

  2
SERIES
 70
     8
280
     0
  0
ATTDEF
  5
13C
330
132
100
AcDbEntity
  8
AM_6
100
AcDbText
 10
99.5
 20
24.94
 30
0.0
 40
0.5
  1
40
100
AcDbAttributeDefinition
  3

  2
SS
 70
     8
280
     0
  0
ATTDEF
  5
13D
330
132
100
AcDbEntity
  8
AM_6
100
AcDbText
 10
99.5
 20
24.44
 30
0.0
 40
0.5
  1
125928
100
AcDbAttributeDefinition
  3

  2
PN
 70
     8
280
     0
  0
ATTDEF
  5
13E
330
132
100
AcDbEntity
  8
AM_6
100
AcDbText
 10
99.5
 20
23.94
 30
0.0
 40
0.5
  1
P2B-SCM-40M
100
AcDbAttributeDefinition
  3

  2
DESCRIPTION
 70
     8
280
     0
  0
ATTDEF
  5
13F
330
132
100
AcDbEntity
  8
AM_6
100
AcDbText
 10
99.5
 20
23.44
 30
0.0
 40
0.5
  1
1
100
AcDbAttributeDefinition
  3

  2
LF1
 70
     8
280
     0
  0
ATTDEF
  5
140
330
132
100
AcDbEntity
  8
AM_6
100
AcDbText
 10
99.5
 20
22.94
 30
0.0
 40
0.5
  1
49.3
100
AcDbAttributeDefinition
  3

  2
A
 70
     8
280
     0
  0
ATTDEF
  5
141
330
132
100
AcDbEntity
  8
AM_6
100
AcDbText
 10
99.5
 20
22.44
 30
0.0
 40
0.5
  1
189.0
100
AcDbAttributeDefinition
  3

  2
B
 70
     8
280
     0
  0
ATTDEF
  5
142
330
132
100
AcDbEntity
  8
AM_6
100
AcDbText
 10
99.5
 20
21.94
 30
0.0
 40
0.5
  1
50.8
100
AcDbAttributeDefinition
  3

  2
C
 70
     8
280
     0
  0
ATTDEF
  5
143
330
132
100
AcDbEntity
  8
AM_6
100
AcDbText
 10
99.5
 20
21.44
 30
0.0
 40
0.5
  1
139.7
100
AcDbAttributeDefinition
  3

  2
DMIN
 70
     8
280
     0
  0
ATTDEF
  5
144
330
132
100
AcDbEntity
  8
AM_6
100
AcDbText
 10
99.5
 20
20.94
 30
0.0
 40
0.5
  1
157.2
100
AcDbAttributeDefinition
  3

  2
DMAX
 70
     8
280
     0
  0
ATTDEF
  5
145
330
132
100
AcDbEntity
  8
AM_6
100
AcDbText
 10
99.5
 20
20.44
 30
0.0
 40
0.5
  1
M12
100
AcDbAttributeDefinition
  3

  2
F
 70
     8
280
     0
  0
ATTDEF
  5
146
330
132
100
AcDbEntity
  8
AM_6
100
AcDbText
 10
99.5
 20
19.94
 30
0.0
 40
0.5
  1
22.9
100
AcDbAttributeDefinition
  3

  2
G
 70
     8
280
     0
  0
ATTDEF
  5
147
330
132
100
AcDbEntity
  8
AM_6
100
AcDbText
 10
99.5
 20
19.44
 30
0.0
 40
0.5
  1
19.1
100
AcDbAttributeDefinition
  3

  2
H
 70
     8
280
     0
  0
ATTDEF
  5
148
330
132
100
AcDbEntity
  8
AM_6
100
AcDbText
 10
99.5
 20
18.94
 30
0.0
 40
0.5
  1
108.7
100
AcDbAttributeDefinition
  3

  2
J
 70
     8
280
     0
  0
ATTDEF
  5
149
330
132
100
AcDbEntity
  8
AM_6
100
AcDbText
 10
99.5
 20
18.44
 30
0.0
 40
0.5
  1
56.4
100
AcDbAttributeDefinition
  3

  2
L
 70
     8
280
     0
  0
ATTDEF
  5
14A
330
132
100
AcDbEntity
  8
AM_6
100
AcDbText
 10
99.5
 20
17.94
 30
0.0
 40
0.5
  1
54.1
100
AcDbAttributeDefinition
  3

  2
M
 70
     8
280
     0
  0
ATTDEF
  5
14B
330
132
100
AcDbEntity
  8
AM_6
100
AcDbText
 10
99.5
 20
17.44
 30
0.0
 40
0.5
  1
19.1
100
AcDbAttributeDefinition
  3

  2
R
 70
     8
280
     0
  0
ATTDEF
  5
14C
330
132
100
AcDbEntity
  8
AM_6
100
AcDbText
 10
99.5
 20
16.94
 30
0.0
 40
0.5
  1
30.2
100
AcDbAttributeDefinition
  3

  2
S
 70
     8
280
     0
  0
ATTDEF
  5
14D
330
132
100
AcDbEntity
  8
AM_6
100
AcDbText
 10
99.5
 20
16.44
 30
0.0
 40
0.5
  1
85.9
100
AcDbAttributeDefinition
  3

  2
U
 70
     8
280
     0
  0
ATTDEF
  5
14E
330
132
100
AcDbEntity
  8
AM_6
100
AcDbText
 10
99.5
 20
15.94
 30
0.0
 40
0.5
  1
171.7
100
AcDbAttributeDefinition
  3

  2
V
 70
     8
280
     0
  0
ATTDEF
  5
14F
330
132
100
AcDbEntity
  8
AM_6
100
AcDbText
 10
99.5
 20
15.44
 30
0.0
 40
0.5
  1
17.5
100
AcDbAttributeDefinition
  3

  2
W
 70
     8
280
     0
  0
ATTDEF
  5
150
330
132
100
AcDbEntity
  8
AM_6
100
AcDbText
 10
99.5
 20
14.94
 30
0.0
 40
0.5
  1
3.0
100
AcDbAttributeDefinition
  3

  2
X
 70
     8
280
     0
  0
ATTDEF
  5
151
330
132
100
AcDbEntity
  8
AM_6
100
AcDbText
 10
99.5
 20
14.44
 30
0.0
 40
0.5
  1
baldor
100
AcDbAttributeDefinition
  3

  2
COMPANY
 70
     8
280
     0
  0
LINE
  5
152
330
132
100
AcDbEntity
  8
AM_9
100
AcDbLine
 10
44.5
 20
-22.73904761904761
 30
0.0
 11
44.5
 21
-12.7
 31
0.0
  0
LINE
  5
153
330
132
100
AcDbEntity
  8
AM_9
100
AcDbLine
 10
42.59000000000002
 20
-20.37416666966309
 30
0.0
 11
42.59000000000002
 21
-12.7
 31
0.0
  0
LINE
  5
154
330
132
100
AcDbEntity
  8
AM_9
100
AcDbLine
 10
44.5
 20
-7.619999999999995
 30
0.0
 11
44.5
 21
22.73904761904755
 31
0.0
  0
LINE
  5
155
330
132
100
AcDbEntity
  8
AM_9
100
AcDbLine
 10
42.59000000000002
 20
12.69999999999999
 30
0.0
 11
42.59000000000002
 21
20.37416666966309
 31
0.0
  0
LINE
  5
156
330
132
100
AcDbEntity
  8
AM_9
100
AcDbLine
 10
-44.5
 20
-22.73904761904763
 30
0.0
 11
-44.50000000000001
 21
-12.7
 31
0.0
  0
LINE
  5
157
330
132
100
AcDbEntity
  8
AM_9
100
AcDbLine
 10
-42.59
 20
-20.37416666966308
 30
0.0
 11
-42.59
 21
-12.7
 31
0.0
  0
LINE
  5
158
330
132
100
AcDbEntity
  8
AM_9
100
AcDbLine
 10
-44.5
 20
6.600909090909095
 30
0.0
 11
-44.5
 21
22.73904761904761
 31
0.0
  0
LINE
  5
159
330
132
100
AcDbEntity
  8
AM_9
100
AcDbLine
 10
-42.59
 20
12.69999999999999
 30
0.0
 11
-42.59
 21
20.37416666966308
 31
0.0
  0
LINE
  5
15A
330
132
100
AcDbEntity
  8
AM_9
100
AcDbLine
 10
81.93000000000002
 20
-12.7
 30
0.0
 11
81.93000000000002
 21
-6.327211075979681
 31
0.0
  0
LINE
  5
15B
330
132
100
AcDbEntity
  8
AM_9
100
AcDbLine
 10
85.75
 20
-12.7
 30
0.0
 11
85.75
 21
12.7
 31
0.0
  0
LINE
  5
15C
330
132
100
AcDbEntity
  8
AM_9
100
AcDbLine
 10
-60.78456270391928
 20
-12.7
 30
0.0
 11
-60.78456270391928
 21
12.7
 31
0.0
  0
LINE
  5
15D
330
132
100
AcDbEntity
  8
AM_9
100
AcDbLine
 10
60.78456270391926
 20
-12.7
 30
0.0
 11
60.78456270391926
 21
12.7
 31
0.0
  0
LINE
  5
15E
330
132
100
AcDbEntity
  8
AM_9
100
AcDbLine
 10
-85.75
 20
-12.7
 30
0.0
 11
-85.75
 21
12.7
 31
0.0
  0
LINE
  5
15F
330
132
100
AcDbEntity
  8
AM_9
100
AcDbLine
 10
-81.93
 20
6.327211075979682
 30
0.0
 11
-81.93
 21
12.7
 31
0.0
  0
LINE
  5
160
330
132
100
AcDbEntity
  8
AM_9
100
AcDbLine
 10
-81.93
 20
-12.7
 30
0.0
 11
-81.93
 21
-6.327211075979685
 31
0.0
  0
LINE
  5
161
330
132
100
AcDbEntity
  8
AM_9
100
AcDbLine
 10
81.93000000000002
 20
6.327211075979676
 30
0.0
 11
81.93000000000002
 21
12.7
 31
0.0
  0
LINE
  5
162
330
132
100
AcDbEntity
  8
AM_9
100
AcDbLine
 10
-55.84111894246112
 20
-12.7
 30
0.0
 11
-55.84111894246112
 21
12.7
 31
0.0
  0
LINE
  5
163
330
132
100
AcDbEntity
  8
AM_9
100
AcDbLine
 10
55.84111894246112
 20
-12.7
 30
0.0
 11
55.84111894246112
 21
12.7
 31
0.0
  0
LINE
  5
164
330
132
100
AcDbEntity
  8
AM_9
100
AcDbLine
 10
28.54747859639767
 20
-12.7
 30
0.0
 11
28.54747859639767
 21
12.7
 31
0.0
  0
LINE
  5
165
330
132
100
AcDbEntity
  8
AM_9
100
AcDbLine
 10
-28.54747873695667
 20
-12.7
 30
0.0
 11
-28.54747873695667
 21
12.7
 31
0.0
  0
LINE
  5
166
330
132
100
AcDbEntity
  8
AM_9
100
AcDbLine
 10
-36.29222265603855
 20
-12.7
 30
0.0
 11
-36.29222265603855
 21
12.7
 31
0.0
  0
LINE
  5
167
330
132
100
AcDbEntity
  8
AM_9
100
AcDbLine
 10
36.29222265603853
 20
-12.7
 30
0.0
 11
36.29222265603853
 21
12.7
 31
0.0
  0
LINE
  5
168
330
132
100
AcDbEntity
  8
AM_9
100
AcDbLine
 10
85.75
 20
12.7
 30
0.0
 11
-85.75
 21
12.7
 31
0.0
  0
LINE
  5
169
330
132
100
AcDbEntity
  8
AM_9
100
AcDbLine
 10
85.75
 20
-12.7
 30
0.0
 11
-85.75
 21
-12.7
 31
0.0
  0
LINE
  5
16A
330
132
100
AcDbEntity
  8
AM_9
100
AcDbLine
 10
-39.75235842060192
 20
-7.619999999999994
 30
0.0
 11
-39.75235842060192
 21
17.60424107142857
 31
0.0
  0
LINE
  5
16B
330
132
100
AcDbEntity
  8
AM_9
100
AcDbLine
 10
-37.50000000000001
 20
-7.619999999999994
 30
0.0
 11
-44.5
 21
-7.619999999999995
 31
0.0
  0
LINE
  5
16C
330
132
100
AcDbEntity
  8
AM_9
100
AcDbLine
 10
-44.5
 20
6.199090909090906
 30
0.0
 11
-44.5
 21
-7.619999999999995
 31
0.0
  0
LINE
  5
16D
330
132
100
AcDbEntity
  8
AM_9
100
AcDbLine
 10
44.5
 20
-7.619999999999995
 30
0.0
 11
37.50000000000001
 21
-7.619999999999994
 31
0.0
  0
LINE
  5
16E
330
132
100
AcDbEntity
  8
AM_9
100
AcDbLine
 10
39.7523584206019
 20
-7.619999999999994
 30
0.0
 11
39.7523584206019
 21
17.60424107142857
 31
0.0
  0
LINE
  5
16F
330
132
100
AcDbEntity
  8
AM_9
100
AcDbLine
 10
35.07249634685276
 20
-2.750000000000012
 30
0.0
 11
38.60771727949616
 21
-2.750000000000012
 31
0.0
  0
LINE
  5
170
330
132
100
AcDbEntity
  8
AM_9
100
AcDbLine
 10
38.60796125505588
 20
2.750000000000017
 30
0.0
 11
35.07249634685276
 21
2.750000000000017
 31
0.0
  0
LWPOLYLINE
  5
171
330
132
100
AcDbEntity
  8
AM_9
100
AcDbPolyline
 90
       20
 70
     0
 43
0.0
 10
38.60784349823963
 20
-2.749999987317433
 10
38.83134948392463
 20
-2.731698352936962
 10
39.14880425303603
 20
-2.639645946383829
 10
39.44862980230701
 20
-2.473387877434892
 10
39.72259052353952
 20
-2.236518449040004
 10
39.96383409131833
 20
-1.936744776415308
 10
40.16591985691759
 20
-1.581298954748822
 10
40.32408786699769
 20
-1.181244487083288
 10
40.43382213402673
 20
-0.7473522812823803
 10
40.49310832210517
 20
-0.2923418256727723
 10
40.49984174026242
 20
0.1705404300101411
 10
40.45465073113
 20
0.628611349268865
 10
40.35799974010112
 20
1.068481566266443
 10
40.212891523673
 20
1.478273535297541
 10
40.02205271624128
 20
1.84620145267097
 10
39.79091591983067
 20
2.162144720162475
 10
39.52454494110301
 20
2.416571280268978
 10
39.23049564782739
 20
2.602848686847084
 10
38.9163958794919
 20
2.714633211211386
 10
38.60792569400216
 20
2.749999996024582
  0
LWPOLYLINE
  5
172
330
132
100
AcDbEntity
  8
AM_9
100
AcDbPolyline
 90
       11
 70
     0
 43
0.0
 10
38.60792569400216
 20
2.749999996024582
 10
38.59096527008418
 20
2.749894148876487
 10
38.26358826895237
 20
2.706624383546777
 10
37.94332974532604
 20
2.587226577312738
 10
37.63975260476736
 20
2.394059173507616
 10
37.3616909149365
 20
2.133592806923819
 10
37.11779885131185
 20
1.811923937263833
 10
36.91546707566327
 20
1.439191884785746
 10
36.76167116304815
 20
1.025084188250512
 10
36.66073116374764
 20
0.5820151973865314
 10
36.6144857741693
 20
0.0000000000000025
  0
LINE
  5
173
330
132
100
AcDbEntity
  8
AM_9
100
AcDbLine
 10
28.2
 20
-20.32
 30
0.0
 11
-28.2
 21
-20.32
 31
0.0
  0
LINE
  5
174
330
132
100
AcDbEntity
  8
AM_9
100
AcDbLine
 10
-37.50000000000001
 20
-7.619999999999994
 30
0.0
 11
-37.50000000000001
 21
17.60424107142856
 31
0.0
  0
LINE
  5
175
330
132
100
AcDbEntity
  8
AM_9
100
AcDbLine
 10
37.50000000000001
 20
17.60424107142857
 30
0.0
 11
37.50000000000001
 21
-7.619999999999994
 31
0.0
  0
LINE
  5
176
330
132
100
AcDbEntity
  8
AM_9
100
AcDbLine
 10
42.5
 20
-20.35522486273242
 30
0.0
 11
42.5
 21
-7.619999999999995
 31
0.0
  0
LINE
  5
177
330
132
100
AcDbEntity
  8
AM_9
100
AcDbLine
 10
-42.5
 20
-7.619999999999995
 30
0.0
 11
-42.5
 21
-20.35531553073582
 31
0.0
  0
LWPOLYLINE
  5
178
330
132
100
AcDbEntity
  8
AM_9
100
AcDbPolyline
 90
       11
 70
     0
 43
0.0
 10
36.6144857741693
 20
0.0000000000000025
 10
36.64363804393455
 20
-0.4613113112911445
 10
36.72930393408767
 20
-0.9096112061402295
 10
36.86950499599411
 20
-1.331890477053236
 10
37.05899178147317
 20
-1.716662519790984
 10
37.2926212170001
 20
-2.052695137882322
 10
37.56239385526018
 20
-2.330899094772556
 10
37.86061602288295
 20
-2.542613381503068
 10
38.17781832567081
 20
-2.682611361456319
 10
38.50447639179033
 20
-2.745831323697808
 10
38.60784349823963
 20
-2.749999987317433
  0
ELLIPSE
  5
179
330
132
100
AcDbEntity
  8
AM_9
100
AcDbEllipse
 10
35.07249634685272
 20
0.0000000000000018
 30
0.0
 11
-5.051668046482883E-16
 21
-2.750000000000028
 31
0.0
210
0.0
220
0.0
230
1.0
 40
0.7071067811865616
 41
0.0
 42
6.283185307179586
  0
LINE
  5
17A
330
132
100
AcDbEntity
  8
AM_7
100
AcDbLine
 10
-87.47500000000001
 20
-17.5
 30
0.0
 11
-84.325
 21
-17.5
 31
0.0
  0
LINE
  5
17B
330
132
100
AcDbEntity
  8
AM_7
100
AcDbLine
 10
-85.9
 20
-19.075
 30
0.0
 11
-85.9
 21
-15.925
 31
0.0
  0
LINE
  5
17C
330
132
100
AcDbEntity
  8
AM_7
100
AcDbLine
 10
84.325
 20
-17.5
 30
0.0
 11
87.47500000000001
 21
-17.5
 31
0.0
  0
LINE
  5
17D
330
132
100
AcDbEntity
  8
AM_7
100
AcDbLine
 10
85.9
 20
-19.075
 30
0.0
 11
85.9
 21
-15.925
 31
0.0
  0
LINE
  5
17E
330
132
100
AcDbEntity
  8
AM_7
100
AcDbLine
 10
0.0
 20
27.94
 30
0.0
 11
0.0
 21
-32.66500000000001
 31
0.0
  0
LINE
  5
17F
330
132
100
AcDbEntity
  8
AM_7
100
AcDbLine
 10
62.34249999999999
 20
0.0
 30
0.0
 11
86.1075
 21
-0.0000000000000027
 31
0.0
  0
LINE
  5
180
330
132
100
AcDbEntity
  8
AM_7
100
AcDbLine
 10
78.59999999999998
 20
-7.507500000000024
 30
0.0
 11
78.59999999999998
 21
7.507500000000019
 31
0.0
  0
LINE
  5
181
330
132
100
AcDbEntity
  8
AM_7
100
AcDbLine
 10
69.85000000000002
 20
-7.507500000000036
 30
0.0
 11
69.85000000000002
 21
7.507500000000036
 31
0.0
  0
LINE
  5
182
330
132
100
AcDbEntity
  8
AM_7
100
AcDbLine
 10
-86.1075
 20
-0.0000000000000004
 30
0.0
 11
-62.34249999999999
 21
-0.0000000000000067
 31
0.0
  0
LINE
  5
183
330
132
100
AcDbEntity
  8
AM_7
100
AcDbLine
 10
-78.59999999999998
 20
-7.507500000000022
 30
0.0
 11
-78.59999999999998
 21
7.507500000000022
 31
0.0
  0
LINE
  5
184
330
132
100
AcDbEntity
  8
AM_7
100
AcDbLine
 10
-69.85000000000001
 20
-7.507500000000029
 30
0.0
 11
-69.85000000000001
 21
7.507500000000014
 31
0.0
  0
LINE
  5
185
330
132
100
AcDbEntity
  8
AM_4
100
AcDbLine
 10
-94.5
 20
-20.32
 30
0.0
 11
-89.42
 21
-25.4
 31
0.0
  0
LINE
  5
186
330
132
100
AcDbEntity
  8
AM_4
100
AcDbLine
 10
-89.42
 20
25.4
 30
0.0
 11
-94.5
 21
20.32
 31
0.0
  0
LINE
  5
187
330
132
100
AcDbEntity
  8
AM_4
100
AcDbLine
 10
89.42
 20
-25.4
 30
0.0
 11
94.5
 21
-20.32000000000002
 31
0.0
  0
LINE
  5
188
330
132
100
AcDbEntity
  8
AM_4
100
AcDbLine
 10
-90.68000000000004
 20
18.97894183127789
 30
0.0
 11
-90.68000000000004
 21
24.13999999999997
 31
0.0
  0
LINE
  5
189
330
132
100
AcDbEntity
  8
AM_4
100
AcDbLine
 10
-94.5
 20
-20.32
 30
0.0
 11
-94.5
 21
20.32
 31
0.0
  0
LINE
  5
18A
330
132
100
AcDbEntity
  8
AM_4
100
AcDbLine
 10
-90.68000000000004
 20
-24.13999999999997
 30
0.0
 11
-90.68000000000004
 21
-18.97894183127791
 31
0.0
  0
LINE
  5
18B
330
132
100
AcDbEntity
  8
AM_4
100
AcDbLine
 10
94.5
 20
20.32
 30
0.0
 11
89.42
 21
25.4
 31
0.0
  0
LINE
  5
18C
330
132
100
AcDbEntity
  8
AM_4
100
AcDbLine
 10
90.67999999999999
 20
-24.14000000000003
 30
0.0
 11
90.67999999999999
 21
-18.97894183127793
 31
0.0
  0
LINE
  5
18D
330
132
100
AcDbEntity
  8
AM_4
100
AcDbLine
 10
94.5
 20
-20.32000000000002
 30
0.0
 11
94.5
 21
20.32
 31
0.0
  0
LINE
  5
18E
330
132
100
AcDbEntity
  8
AM_4
100
AcDbLine
 10
90.67999999999999
 20
18.97894183127793
 30
0.0
 11
90.67999999999999
 21
24.14
 31
0.0
  0
LINE
  5
18F
330
132
100
AcDbEntity
  8
AM_4
100
AcDbLine
 10
-74.88069228344588
 20
20.49999999999999
 30
0.0
 11
-74.88069228344588
 21
25.4
 31
0.0
  0
LINE
  5
190
330
132
100
AcDbEntity
  8
AM_4
100
AcDbLine
 10
-74.88069228344588
 20
-25.4
 30
0.0
 11
-74.88069228344588
 21
-20.5
 31
0.0
  0
LINE
  5
191
330
132
100
AcDbEntity
  8
AM_4
100
AcDbLine
 10
74.88069228344587
 20
-25.4
 30
0.0
 11
74.88069228344587
 21
-20.5
 31
0.0
  0
LINE
  5
192
330
132
100
AcDbEntity
  8
AM_4
100
AcDbLine
 10
74.88069228344587
 20
20.49999999999999
 30
0.0
 11
74.88069228344587
 21
25.4
 31
0.0
  0
CIRCLE
  5
193
330
132
100
AcDbEntity
  8
AM_4
100
AcDbCircle
 10
-85.9
 20
-17.5
 30
0.0
 40
1.5
  0
ARC
  5
194
330
132
100
AcDbEntity
  8
AM_4
100
AcDbCircle
 10
-78.60000000000001
 20
-0.0000000000000013
 30
0.0
 40
7.15
100
AcDbArc
 50
90.0
 51
270.0
  0
ARC
  5
195
330
132
100
AcDbEntity
  8
AM_4
100
AcDbCircle
 10
-85.75000000000003
 20
-11.75000000000001
 30
0.0
 40
8.749999999999972
100
AcDbArc
 50
180.0
 51
270.0
  0
LINE
  5
196
330
132
100
AcDbEntity
  8
AM_4
100
AcDbLine
 10
-69.85
 20
-7.150000000000002
 30
0.0
 11
-78.60000000000001
 21
-7.15
 31
0.0
  0
LINE
  5
197
330
132
100
AcDbEntity
  8
AM_4
100
AcDbLine
 10
-78.60000000000001
 20
7.149999999999999
 30
0.0
 11
-69.85
 21
7.149999999999995
 31
0.0
  0
LINE
  5
198
330
132
100
AcDbEntity
  8
AM_4
100
AcDbLine
 10
-85.75000000000001
 20
-20.49999999999999
 30
0.0
 11
-69.85000000000001
 21
-20.5
 31
0.0
  0
ARC
  5
199
330
132
100
AcDbEntity
  8
AM_4
100
AcDbCircle
 10
-69.85
 20
-0.0000000000000022
 30
0.0
 40
7.15
100
AcDbArc
 50
270.0
 51
90.0
  0
LINE
  5
19A
330
132
100
AcDbEntity
  8
AM_4
100
AcDbLine
 10
-69.85
 20
20.49999999999999
 30
0.0
 11
-85.75
 21
20.5
 31
0.0
  0
ARC
  5
19B
330
132
100
AcDbEntity
  8
AM_4
100
AcDbCircle
 10
-85.74999999999996
 20
11.74999999999996
 30
0.0
 40
8.750000000000036
100
AcDbArc
 50
90.0
 51
180.0
  0
ARC
  5
19C
330
132
100
AcDbEntity
  8
AM_4
100
AcDbCircle
 10
69.84999999999998
 20
-0.0000000000000018
 30
0.0
 40
7.15
100
AcDbArc
 50
90.0
 51
270.0
  0
LINE
  5
19D
330
132
100
AcDbEntity
  8
AM_4
100
AcDbLine
 10
69.85
 20
7.149999999999999
 30
0.0
 11
78.60000000000001
 21
7.149999999999999
 31
0.0
  0
CIRCLE
  5
19E
330
132
100
AcDbEntity
  8
AM_4
100
AcDbCircle
 10
85.9
 20
-17.5
 30
0.0
 40
1.5
  0
ARC
  5
19F
330
132
100
AcDbEntity
  8
AM_4
100
AcDbCircle
 10
78.60000000000001
 20
0.0000000000000004
 30
0.0
 40
7.150000000000002
100
AcDbArc
 50
270.0
 51
90.0
  0
LINE
  5
1A0
330
132
100
AcDbEntity
  8
AM_4
100
AcDbLine
 10
78.60000000000001
 20
-7.150000000000002
 30
0.0
 11
69.85
 21
-7.15
 31
0.0
  0
ARC
  5
1A1
330
132
100
AcDbEntity
  8
AM_4
100
AcDbCircle
 10
85.75000000000001
 20
11.75000000000001
 30
0.0
 40
8.749999999999986
100
AcDbArc
 50
0.0
 51
90.0
  0
LINE
  5
1A2
330
132
100
AcDbEntity
  8
AM_4
100
AcDbLine
 10
85.75000000000001
 20
20.49999999999998
 30
0.0
 11
69.85000000000001
 21
20.49999999999999
 31
0.0
  0
LINE
  5
1A3
330
132
100
AcDbEntity
  8
AM_4
100
AcDbLine
 10
69.85000000000001
 20
-20.5
 30
0.0
 11
85.75
 21
-20.5
 31
0.0
  0
ARC
  5
1A4
330
132
100
AcDbEntity
  8
AM_4
100
AcDbCircle
 10
85.74999999999996
 20
-11.74999999999998
 30
0.0
 40
8.750000000000021
100
AcDbArc
 50
270.0
 51
0.0
  0
LWPOLYLINE
  5
1A5
330
132
100
AcDbEntity
  8
AM_4
100
AcDbPolyline
 90
       14
 70
     0
 43
0.0
 10
-51.6095135869672
 20
9.35599569345593
 10
-52.49435289852924
 20
10.91015644659644
 10
-53.51127916415972
 20
12.38128432144577
 10
-54.65255296094032
 20
13.75818314658503
 10
-55.90948850615758
 20
15.03037389056066
 10
-57.27251976135396
 20
16.18817441364123
 10
-58.73127323565664
 20
17.22277315474703
 10
-60.27464693430677
 20
18.12629619275045
 10
-61.89089485154307
 20
18.89186717177015
 10
-63.56771636479822
 20
19.51365963439139
 10
-65.29234984986381
 20
19.98694136452508
 10
-67.05166980455635
 20
20.30811040242958
 10
-68.8322867417142
 20
20.47472245779926
 10
-69.85
 20
20.5
  0
LINE
  5
1A6
330
132
100
AcDbEntity
  8
AM_4
100
AcDbLine
 10
-71.2699167907313
 20
20.49999999999999
 30
0.0
 11
-71.2699167907313
 21
25.4
 31
0.0
  0
LWPOLYLINE
  5
1A7
330
132
100
AcDbEntity
  8
AM_4
100
AcDbPolyline
 90
       14
 70
     0
 43
0.0
 10
-69.85
 20
-20.5
 10
-68.063307273673
 20
-20.42199131088078
 10
-66.29021235782793
 20
-20.18855893675026
 10
-64.54420957539831
 20
-19.8014794389259
 10
-62.83858706182379
 20
-19.26369872611112
 10
-61.18632563431566
 20
-18.57930963425132
 10
-59.6
 20
-17.75352077758099
 10
-58.09168305480355
 20
-16.79261690792433
 10
-56.67285400142595
 20
-15.70391108393905
 10
-55.35431098567578
 20
-14.49568901432423
 10
-54.14608891606096
 20
-13.17714599857406
 10
-53.05738309207568
 20
-11.75831694519645
 10
-52.09647922241901
 20
-10.25000000000001
 10
-51.6095135869672
 20
-9.355995693455919
  0
LINE
  5
1A8
330
132
100
AcDbEntity
  8
AM_4
100
AcDbLine
 10
-71.2699167907313
 20
-25.4
 30
0.0
 11
-71.2699167907313
 21
-20.5
 31
0.0
  0
LWPOLYLINE
  5
1A9
330
132
100
AcDbEntity
  8
AM_4
100
AcDbPolyline
 90
       14
 70
     0
 43
0.0
 10
69.85
 20
20.5
 10
68.06330727367302
 20
20.42199131088078
 10
66.29021235782794
 20
20.18855893675026
 10
64.54420957539833
 20
19.8014794389259
 10
62.83858706182379
 20
19.26369872611112
 10
61.18632563431568
 20
18.57930963425132
 10
59.60000000000002
 20
17.75352077758099
 10
58.09168305480357
 20
16.79261690792433
 10
56.67285400142597
 20
15.70391108393906
 10
55.3543109856758
 20
14.49568901432423
 10
54.14608891606098
 20
13.17714599857407
 10
53.0573830920757
 20
11.75831694519646
 10
52.09647922241903
 20
10.25000000000002
 10
51.6095135869672
 20
9.355995693455895
  0
LINE
  5
1AA
330
132
100
AcDbEntity
  8
AM_4
100
AcDbLine
 10
71.26991679073132
 20
20.49999999999999
 30
0.0
 11
71.26991679073132
 21
25.4
 31
0.0
  0
LWPOLYLINE
  5
1AB
330
132
100
AcDbEntity
  8
AM_4
100
AcDbPolyline
 90
       14
 70
     0
 43
0.0
 10
51.6095135869672
 20
-9.355995693455883
 10
52.49435289852923
 20
-10.9101564465964
 10
53.51127916415971
 20
-12.38128432144573
 10
54.65255296094031
 20
-13.75818314658499
 10
55.90948850615757
 20
-15.03037389056063
 10
57.27251976135395
 20
-16.1881744136412
 10
58.73127323565663
 20
-17.222773154747
 10
60.27464693430674
 20
-18.12629619275042
 10
61.89089485154305
 20
-18.89186717177013
 10
63.56771636479819
 20
-19.51365963439137
 10
65.2923498498638
 20
-19.98694136452507
 10
67.05166980455634
 20
-20.30811040242957
 10
68.83228674171419
 20
-20.47472245779925
 10
69.85000000000001
 20
-20.5
  0
LINE
  5
1AC
330
132
100
AcDbEntity
  8
AM_4
100
AcDbLine
 10
71.26991679073132
 20
-25.4
 30
0.0
 11
71.26991679073132
 21
-20.5
 31
0.0
  0
LINE
  5
1AD
330
132
100
AcDbEntity
  8
AM_4
100
AcDbLine
 10
42.08095238095239
 20
20.32000000000001
 30
0.0
 11
-42.08095238095237
 21
20.32
 31
0.0
  0
LWPOLYLINE
  5
1AE
330
132
100
AcDbEntity
  8
AM_4
100
AcDbPolyline
 90
        7
 70
     0
 43
0.0
 10
-44.04998891400799
 20
21.33381222427837
 10
-43.76353405065638
 20
21.00102854320407
 10
-43.40493946563927
 20
20.71448604112457
 10
-43.12410778144154
 20
20.55642515640968
 10
-42.8107450896761
 20
20.43270983253116
 10
-42.46212360361667
 20
20.35009280046912
 10
-42.08095238095237
 20
20.32
  0
LINE
  5
1AF
330
132
100
AcDbEntity
  8
AM_4
100
AcDbLine
 10
-39.75235842060191
 20
17.60424107142857
 30
0.0
 11
-39.75235842060191
 21
20.32
 31
0.0
  0
LWPOLYLINE
  5
1B0
330
132
100
AcDbEntity
  8
AM_4
100
AcDbPolyline
 90
        7
 70
     0
 43
0.0
 10
-44.50000000000001
 20
20.4390625
 10
-44.33066406508268
 20
19.88932959805983
 10
-43.82394500904327
 20
19.34378049544123
 10
-42.98369926986355
 20
18.80656715022668
 10
-41.81632162497293
 20
18.28177808035154
 10
-40.33069652313093
 20
17.77340724751388
 10
-39.75235842060192
 20
17.60424107142857
  0
LINE
  5
1B1
330
132
100
AcDbEntity
  8
AM_4
100
AcDbLine
 10
39.75235842060192
 20
17.60424107142856
 30
0.0
 11
39.75235842060192
 21
20.32
 31
0.0
  0
LWPOLYLINE
  5
1B2
330
132
100
AcDbEntity
  8
AM_4
100
AcDbPolyline
 90
        7
 70
     0
 43
0.0
 10
42.08095238095239
 20
20.32000000000001
 10
42.45876328141033
 20
20.34968571537646
 10
42.80544580939645
 20
20.43103967812512
 10
43.12149085200551
 20
20.55522732573629
 10
43.40493946563927
 20
20.71448604112458
 10
43.76280780391568
 20
21.00032575530147
 10
44.04998891400799
 20
21.33381222427837
  0
LWPOLYLINE
  5
1B3
330
132
100
AcDbEntity
  8
AM_4
100
AcDbPolyline
 90
        3
 70
     0
 43
0.0
 10
44.50000000000001
 20
20.4390625
 10
44.33066406508268
 20
20.98879540194016
 10
44.049988914008
 20
21.33381222427836
  0
LINE
  5
1B4
330
132
100
AcDbEntity
  8
AM_4
100
AcDbLine
 10
-28.2
 20
-20.32
 30
0.0
 11
-42.0809523809524
 21
-20.32
 31
0.0
  0
LINE
  5
1B5
330
132
100
AcDbEntity
  8
AM_4
100
AcDbLine
 10
42.08095238095237
 20
-20.32
 30
0.0
 11
28.2
 21
-20.32
 31
0.0
  0
LWPOLYLINE
  5
1B6
330
132
100
AcDbEntity
  8
AM_4
100
AcDbPolyline
 90
        4
 70
     0
 43
0.0
 10
42.08095238095237
 20
-20.32
 10
42.3515937426667
 20
-20.33518725776426
 10
42.48512497237461
 20
-20.35400340571257
 10
42.49999999997163
 20
-20.35657191587366
  0
LINE
  5
1B7
330
132
100
AcDbEntity
  8
AM_4
100
AcDbLine
 10
37.50000000000001
 20
17.60424107142856
 30
0.0
 11
37.50000000000001
 21
20.32
 31
0.0
  0
LINE
  5
1B8
330
132
100
AcDbEntity
  8
AM_4
100
AcDbLine
 10
-37.50000000000001
 20
20.32
 30
0.0
 11
-37.50000000000001
 21
17.60424107142856
 31
0.0
  0
LWPOLYLINE
  5
1B9
330
132
100
AcDbEntity
  8
AM_4
100
AcDbPolyline
 90
        5
 70
     0
 43
0.0
 10
-42.49999999998199
 20
-20.35657191587548
 10
-42.48710660199757
 20
-20.35434006214527
 10
-42.41532462636577
 20
-20.3432207086225
 10
-42.27993046028537
 20
-20.32819733187404
 10
-42.08095238095241
 20
-20.31999999999999
  0
LINE
  5
1BA
330
132
100
AcDbEntity
  8
AM_4
100
AcDbLine
 10
44.5
 20
-22.73904761904761
 30
0.0
 11
44.5
 21
-22.9809523809524
 31
0.0
  0
LWPOLYLINE
  5
1BB
330
132
100
AcDbEntity
  8
AM_4
100
AcDbPolyline
 90
       19
 70
     0
 43
0.0
 10
44.5
 20
-22.9809523809524
 10
44.50920520652092
 20
-23.19178627293244
 10
44.5367507689038
 20
-23.40101559168954
 10
44.58242704878644
 20
-23.60704797577182
 10
44.64588642209885
 20
-23.80831539433068
 10
44.72664592469229
 20
-24.00328608078227
 10
44.82409092798812
 20
-24.1904761904762
 10
44.93747981667234
 20
-24.36846109364921
 10
45.06594963283599
 20
-24.53588621771792
 10
45.20852264360587
 20
-24.69147735639413
 10
45.36411378228208
 20
-24.83405036716401
 10
45.5315389063508
 20
-24.96252018332767
 10
45.70952380952381
 20
-25.07590907201189
 10
45.89671391921774
 20
-25.17335407530771
 10
46.09168460566934
 20
-25.25411357790116
 10
46.29295202422819
 20
-25.31757295121356
 10
46.49898440831048
 20
-25.3632492310962
 10
46.70821372706757
 20
-25.39079479347908
 10
46.91904761904762
 20
-25.40000000000001
  0
LINE
  5
1BC
330
132
100
AcDbEntity
  8
AM_4
100
AcDbLine
 10
46.91904761904762
 20
-25.40000000000001
 30
0.0
 11
89.42
 21
-25.4
 31
0.0
  0
LINE
  5
1BD
330
132
100
AcDbEntity
  8
AM_4
100
AcDbLine
 10
51.6095135869672
 20
-17.91297530120196
 30
0.0
 11
69.85000000000002
 21
-25.4
 31
0.0
  0
LINE
  5
1BE
330
132
100
AcDbEntity
  8
AM_4
100
AcDbLine
 10
-69.85
 20
-25.4
 30
0.0
 11
-51.6095135869672
 21
-17.91297530120196
 31
0.0
  0
LINE
  5
1BF
330
132
100
AcDbEntity
  8
AM_4
100
AcDbLine
 10
-89.42
 20
-25.4
 30
0.0
 11
-46.91904761904762
 21
-25.4
 31
0.0
  0
LWPOLYLINE
  5
1C0
330
132
100
AcDbEntity
  8
AM_4
100
AcDbPolyline
 90
       19
 70
     0
 43
0.0
 10
-46.91904761904763
 20
-25.39999999999999
 10
-46.70821372706758
 20
-25.39079479347907
 10
-46.49898440831048
 20
-25.36324923109619
 10
-46.2929520242282
 20
-25.31757295121355
 10
-46.09168460566934
 20
-25.25411357790114
 10
-45.89671391921775
 20
-25.1733540753077
 10
-45.70952380952382
 20
-25.07590907201187
 10
-45.53153890635081
 20
-24.96252018332765
 10
-45.36411378228209
 20
-24.83405036716399
 10
-45.20852264360588
 20
-24.69147735639412
 10
-45.065949632836
 20
-24.5358862177179
 10
-44.93747981667235
 20
-24.36846109364919
 10
-44.82409092798813
 20
-24.19047619047618
 10
-44.7266459246923
 20
-24.00328608078225
 10
-44.64588642209885
 20
-23.80831539433066
 10
-44.58242704878645
 20
-23.6070479757718
 10
-44.53675076890381
 20
-23.40101559168951
 10
-44.50920520652092
 20
-23.19178627293242
 10
-44.50000000000001
 20
-22.98095238095237
  0
LINE
  5
1C1
330
132
100
AcDbEntity
  8
AM_4
100
AcDbLine
 10
-44.50000000000001
 20
-22.98095238095237
 30
0.0
 11
-44.50000000000001
 21
-22.73904761904762
 31
0.0
  0
LWPOLYLINE
  5
1C2
330
132
100
AcDbEntity
  8
AM_4
100
AcDbPolyline
 90
       18
 70
     0
 43
0.0
 10
-42.49594624614434
 20
-20.35586246571332
 10
-42.70207534134125
 20
-20.40110030328155
 10
-42.9034773157653
 20
-20.46413133161395
 10
-43.09861937878129
 20
-20.54447584652573
 10
-43.28601638145967
 20
-20.64152237774506
 10
-43.46424211945666
 20
-20.75453234257108
 10
-43.63194018729045
 20
-20.88264566693417
 10
-43.78783430140595
 20
-21.02488733107899
 10
-43.93073801346333
 20
-21.18017479005352
 10
-44.0595637399262
 20
-21.34732621252986
 10
-44.17333103922908
 20
-21.52506947525415
 10
-44.27117407352968
 20
-21.71205184467276
 10
-44.35234819825776
 20
-21.90685027205136
 10
-44.41623562930985
 20
-22.10798222373511
 10
-44.46235014475937
 20
-22.31391696412488
 10
-44.49034078529903
 20
-22.52308720549953
 10
-44.49999452525312
 20
-22.73390103602173
 10
-44.5
 20
-22.73904761904762
  0
LWPOLYLINE
  5
1C3
330
132
100
AcDbEntity
  8
AM_4
100
AcDbPolyline
 90
       37
 70
     0
 43
0.0
 10
42.49594624614436
 20
-20.35586246571334
 10
42.28307713400352
 20
-19.8312033399831
 10
41.7484082736529
 20
-19.311170389496
 10
40.89600881796165
 20
-18.79972137900971
 10
39.73236604148043
 20
-18.30074874431538
 10
38.266335968365
 20
-17.81804996845097
 10
36.5090759726849
 20
-17.35529868056227
 10
34.47395986406989
 20
-16.91601669736701
 10
32.17647610494321
 20
-16.503547220003
 10
29.63410993397044
 20
-16.12102939024886
 10
26.86621029283534
 20
-15.7713743997596
 10
23.89384256911047
 20
-15.45724333414031
 10
20.73962827593806
 20
-15.18102692047787
 10
17.42757288865581
 20
-14.94482733246427
 10
13.98288314863468
 20
-14.75044219158553
 10
10.43177522475675
 20
-14.59935088613667
 10
6.801275192540323
 20
-14.49270331218359
 10
3.119013349386421
 20
-14.43131112215964
 10
-0.5869860686680638
 20
-14.41564154770052
 10
-4.288518168308105
 20
-14.44581384372941
 10
-7.957412055209255
 20
-14.521598380855
 10
-11.56574523155349
 20
-14.64241839298981
 10
-15.0860561030977
 20
-14.80735436688837
 10
-18.4915529784876
 20
-15.01515104019826
 10
-21.75631797020626
 20
-15.26422695476452
 10
-24.85550424534768
 20
-15.55268649248116
 10
-27.7655251250182
 20
-15.87833430208951
 10
-30.46423359320488
 20
-16.23869200712695
 10
-32.93109084894009
 20
-16.6310170678682
 10
-35.14732261897856
 20
-17.05232365370867
 10
-37.09606204135297
 20
-17.49940536713823
 10
-38.76247803237801
 20
-17.96885964636239
 10
-40.13388816015248
 20
-18.457113660852
 10
-41.19985516552395
 20
-18.96045150274094
 10
-41.95226639593307
 20
-19.47504246712876
 10
-42.38539554759812
 20
-19.99697020605794
 10
-42.49594624614435
 20
-20.35586246571332
  0
LWPOLYLINE
  5
1C4
330
132
100
AcDbEntity
  8
AM_4
100
AcDbPolyline
 90
       18
 70
     0
 43
0.0
 10
44.5
 20
-22.73904761904761
 10
44.49079479347908
 20
-22.52821372706756
 10
44.46324923109619
 20
-22.31898440831047
 10
44.41757295121356
 20
-22.11295202422818
 10
44.35411357790115
 20
-21.91168460566933
 10
44.27335407530771
 20
-21.71671391921773
 10
44.17590907201188
 20
-21.52952380952381
 10
44.06252018332765
 20
-21.3515389063508
 10
43.93405036716401
 20
-21.18411378228208
 10
43.79147735639413
 20
-21.02852264360588
 10
43.63588621771792
 20
-20.885949632836
 10
43.4684610936492
 20
-20.75747981667235
 10
43.2904761904762
 20
-20.64409092798812
 10
43.10328608078228
 20
-20.5466459246923
 10
42.90831539433067
 20
-20.46588642209885
 10
42.70704797577182
 20
-20.40242704878645
 10
42.50101559168954
 20
-20.3567507689038
 10
42.49594624614434
 20
-20.35586246571333
  0
LINE
  5
1C5
330
132
100
AcDbEntity
  8
AM_4
100
AcDbLine
 10
-39.75235842060192
 20
17.60424107142857
 30
0.0
 11
-37.50000000000001
 21
17.60424107142856
 31
0.0
  0
LWPOLYLINE
  5
1C6
330
132
100
AcDbEntity
  8
AM_4
100
AcDbPolyline
 90
        3
 70
     0
 43
0.0
 10
-44.04998891400799
 20
21.33381222427836
 10
-44.43254169694831
 20
20.78623376321752
 10
-44.50000000000001
 20
20.4390625
  0
LWPOLYLINE
  5
1C7
330
132
100
AcDbEntity
  8
AM_4
100
AcDbPolyline
 90
        9
 70
     0
 43
0.0
 10
-44.5
 20
22.73904761904762
 10
-44.49079479347908
 20
22.52821372706757
 10
-44.4632492310962
 20
22.31898440831047
 10
-44.41757295121356
 20
22.11295202422819
 10
-44.35411357790115
 20
21.91168460566934
 10
-44.27335407530771
 20
21.71671391921774
 10
-44.17590907201188
 20
21.52952380952381
 10
-44.06252018332766
 20
21.3515389063508
 10
-44.04998891400799
 20
21.33381222427837
  0
LINE
  5
1C8
330
132
100
AcDbEntity
  8
AM_4
100
AcDbLine
 10
-44.5
 20
22.73904761904762
 30
0.0
 11
-44.50000000000001
 21
22.98095238095232
 31
0.0
  0
LWPOLYLINE
  5
1C9
330
132
100
AcDbEntity
  8
AM_4
100
AcDbPolyline
 90
       19
 70
     0
 43
0.0
 10
-44.5
 20
22.98095238095226
 10
-44.50920520652091
 20
23.19178627293231
 10
-44.53675076890378
 20
23.40101559168941
 10
-44.58242704878641
 20
23.6070479757717
 10
-44.64588642209881
 20
23.80831539433056
 10
-44.72664592469224
 20
24.00328608078215
 10
-44.82409092798806
 20
24.19047619047609
 10
-44.93747981667227
 20
24.3684610936491
 10
-45.06594963283592
 20
24.53588621771782
 10
-45.20852264360579
 20
24.69147735639404
 10
-45.364113782282
 20
24.83405036716393
 10
-45.5315389063507
 20
24.96252018332758
 10
-45.70952380952371
 20
25.07590907201182
 10
-45.89671391921762
 20
25.17335407530765
 10
-46.09168460566922
 20
25.25411357790111
 10
-46.29295202422807
 20
25.31757295121352
 10
-46.49898440831035
 20
25.36324923109617
 10
-46.70821372706745
 20
25.39079479347907
 10
-46.9190476190475
 20
25.4
  0
LINE
  5
1CA
330
132
100
AcDbEntity
  8
AM_4
100
AcDbLine
 10
-89.42
 20
25.4
 30
0.0
 11
-46.91904761904762
 21
25.4
 31
0.0
  0
LINE
  5
1CB
330
132
100
AcDbEntity
  8
AM_4
100
AcDbLine
 10
-51.6095135869672
 20
17.91297530120196
 30
0.0
 11
-69.84999999999998
 21
25.4
 31
0.0
  0
LINE
  5
1CC
330
132
100
AcDbEntity
  8
AM_4
100
AcDbLine
 10
69.85
 20
25.4
 30
0.0
 11
51.6095135869672
 21
17.91297530120196
 31
0.0
  0
LINE
  5
1CD
330
132
100
AcDbEntity
  8
AM_4
100
AcDbLine
 10
46.91904761904762
 20
25.4
 30
0.0
 11
89.42
 21
25.4
 31
0.0
  0
LWPOLYLINE
  5
1CE
330
132
100
AcDbEntity
  8
AM_4
100
AcDbPolyline
 90
       19
 70
     0
 43
0.0
 10
46.91904761904762
 20
25.4
 10
46.70821372706757
 20
25.39079479347907
 10
46.49898440831048
 20
25.36324923109619
 10
46.29295202422819
 20
25.31757295121355
 10
46.09168460566934
 20
25.25411357790114
 10
45.89671391921774
 20
25.1733540753077
 10
45.70952380952381
 20
25.07590907201187
 10
45.5315389063508
 20
24.96252018332765
 10
45.36411378228208
 20
24.834050367164
 10
45.20852264360587
 20
24.69147735639412
 10
45.06594963283599
 20
24.53588621771791
 10
44.93747981667234
 20
24.36846109364919
 10
44.82409092798812
 20
24.19047619047619
 10
44.72664592469229
 20
24.00328608078226
 10
44.64588642209885
 20
23.80831539433066
 10
44.58242704878644
 20
23.60704797577181
 10
44.5367507689038
 20
23.40101559168952
 10
44.50920520652092
 20
23.19178627293243
 10
44.5
 20
22.98095238095238
  0
LINE
  5
1CF
330
132
100
AcDbEntity
  8
AM_4
100
AcDbLine
 10
44.5
 20
22.98095238095237
 30
0.0
 11
44.5
 21
22.73904761904748
 31
0.0
  0
LWPOLYLINE
  5
1D0
330
132
100
AcDbEntity
  8
AM_4
100
AcDbPolyline
 90
        9
 70
     0
 43
0.0
 10
44.04998891400799
 20
21.33381222427837
 10
44.16497047009774
 20
21.51077241074336
 10
44.26409139016457
 20
21.6970805131964
 10
44.34659730415592
 20
21.89131861448191
 10
44.41186029224788
 20
22.09200844536493
 10
44.45938366369422
 20
22.29762263505262
 10
44.4888057369428
 20
22.50659633540819
 10
44.49990259225069
 20
22.71733913039018
 10
44.5
 20
22.73904761904734
  0
LWPOLYLINE
  5
1D1
330
132
100
AcDbEntity
  8
AM_4
100
AcDbPolyline
 90
        7
 70
     0
 43
0.0
 10
39.7523584206019
 20
17.60424107142856
 10
41.34420355019954
 20
18.10611110492191
 10
42.6213943264675
 20
18.62573630720637
 10
43.57421055640952
 20
19.15916201673428
 10
44.19540073318956
 20
19.70232854176488
 10
44.48023722447745
 20
20.25110205706978
 10
44.50000000000001
 20
20.4390625
  0
LINE
  5
1D2
330
132
100
AcDbEntity
  8
AM_4
100
AcDbLine
 10
37.50000000000001
 20
17.60424107142857
 30
0.0
 11
39.7523584206019
 21
17.60424107142857
 31
0.0
  0
LWPOLYLINE
  5
1D3
330
132
100
AcDbEntity
  8
AM_4
100
AcDbPolyline
 90
       26
 70
     0
 43
0.0
 10
-37.50000000000001
 20
17.60424107142857
 10
-35.6141863234873
 20
17.15177035938754
 10
-33.45732718461921
 20
16.72431792545785
 10
-31.04583758378966
 20
16.32513694076452
 10
-28.39807041295821
 20
15.95726541363314
 10
-25.53417677906041
 20
15.62350306851208
 10
-22.47595264191647
 20
15.32639003837893
 10
-19.2466729338163
 20
15.06818753279476
 10
-15.87091442323092
 20
14.85086062873398
 10
-12.37436867076462
 20
14.67606331516209
 10
-8.783646500865705
 20
14.54512590518087
 10
-5.126075477384437
 20
14.45904491154243
 10
-1.429491924311276
 20
14.4184754625855
 10
2.277970925456719
 20
14.42372631631314
 10
5.968097041005536
 20
14.47475751055793
 10
9.61280233443678
 20
14.5711806671182
 10
13.18434839773422
 20
14.71226194755062
 10
16.65555360879767
 20
14.89692763812389
 10
19.99999999999994
 20
15.12377232142856
 10
23.19223431487203
 20
15.39106957245213
 10
26.20796172275399
 20
15.69678509771579
 10
29.02423071712584
 20
16.03859221747623
 10
31.6196077904307
 20
16.41388957316328
 10
33.97434055600917
 20
16.81982092528942
 10
36.07050807568873
 20
17.25329689115691
 10
37.50000000000001
 20
17.60424107142856
  0
LINE
  5
1D4
330
132
100
AcDbEntity
  8
AM_4
100
AcDbLine
 10
-51.6095135869672
 20
-17.91297530120196
 30
0.0
 11
-51.6095135869672
 21
-9.355995693455904
 31
0.0
  0
LWPOLYLINE
  5
1D5
330
132
100
AcDbEntity
  8
AM_4
100
AcDbPolyline
 90
       30
 70
     0
 43
0.0
 10
-51.6095135869672
 20
-17.91297530120196
 10
-49.85984779519671
 20
-17.28502720379987
 10
-47.73071845550554
 20
-16.68108321946045
 10
-45.23832952777218
 20
-16.10573972657587
 10
-42.40164959668228
 20
-15.56337543652887
 10
-39.24226750934558
 20
-15.05811806905523
 10
-35.78422807113381
 20
-14.59381293780416
 10
-32.05384905019303
 20
-14.17399368517958
 10
-28.07952088333706
 20
-13.80185538918777
 10
-23.89149060768062
 20
-13.48023024696446
 10
-19.52163166242327
 20
-13.21156602004455
 10
-15.00320131273141
 20
-12.9979074054188
 10
-10.37058754186903
 20
-12.8408804741551
 10
-5.659047337881049
 20
-12.74168029601582
 10
-0.9044383666255909
 20
-12.70106184425532
 10
3.857053926714706
 20
-12.71933424981757
 10
8.589191710719867
 20
-12.79635844866307
 10
13.2559605595107
 20
-12.93154824013013
 10
17.82184354427582
 20
-13.12387474827585
 10
22.25209153854566
 20
-13.37187425224332
 10
26.51298768002693
 20
-13.67365932606115
 10
30.57210397628354
 20
-14.02693320309478
 10
34.39854810133954
 20
-14.42900725582739
 10
37.96319850493311
 20
-14.87682145793872
 10
41.23892604509815
 20
-15.36696767295312
 10
44.20080045731565
 20
-15.89571559221593
 10
46.82628008887994
 20
-16.45904112479484
 10
49.09538345448691
 20
-17.05265702324168
 10
50.99084130740217
 20
-17.67204551213418
 10
51.6095135869672
 20
-17.91297530120196
  0
LINE
  5
1D6
330
132
100
AcDbEntity
  8
AM_4
100
AcDbLine
 10
51.6095135869672
 20
-17.91297530120196
 30
0.0
 11
51.6095135869672
 21
-9.355995693455899
 31
0.0
  0
LWPOLYLINE
  5
1D7
330
132
100
AcDbEntity
  8
AM_4
100
AcDbPolyline
 90
       27
 70
     0
 43
0.0
 10
51.6095135869672
 20
9.355995693455903
 10
51.33813647414593
 20
8.806888867282213
 10
51.06690930020016
 20
8.212521157543053
 10
50.79508244278658
 20
7.560436174046098
 10
50.5312484737108
 20
6.858267963961493
 10
50.28345166705585
 20
6.115512449928078
 10
50.05331601926147
 20
5.323655075863762
 10
49.84052792405657
 20
4.457422710199399
 10
49.65880323426695
 20
3.544795222216797
 10
49.54726691223775
 20
2.836845018559929
 10
49.45886766385225
 20
2.109910436418822
 10
49.39435207804651
 20
1.347027515333924
 10
49.35803418401057
 20
0.5738789038816882
 10
49.35086417263789
 20
-0.1830375886907374
 10
49.37149848092663
 20
-0.9386029689433483
 10
49.42150216805074
 20
-1.710134981768785
 10
49.49919145265542
 20
-2.468722639205638
 10
49.59676644822143
 20
-3.171027648516899
 10
49.7154427839085
 20
-3.853518614453174
 10
49.85633339569363
 20
-4.527976756848676
 10
50.0142650476586
 20
-5.176255297071564
 10
50.25856077703352
 20
-6.035271523059922
 10
50.52394931445209
 20
-6.83767247677399
 10
50.81190640051589
 20
-7.602705006792521
 10
51.10906029244671
 20
-8.308259678046479
 10
51.35933485614059
 20
-8.851304089421127
 10
51.6095135869672
 20
-9.355995693455897
  0
LINE
  5
1D8
330
132
100
AcDbEntity
  8
AM_4
100
AcDbLine
 10
51.6095135869672
 20
9.355995693455903
 30
0.0
 11
51.6095135869672
 21
17.91297530120196
 31
0.0
  0
LWPOLYLINE
  5
1D9
330
132
100
AcDbEntity
  8
AM_4
100
AcDbPolyline
 90
       30
 70
     0
 43
0.0
 10
51.60951358696721
 20
17.91297530120196
 10
49.85984779519672
 20
17.28502720379987
 10
47.73071845550553
 20
16.68108321946045
 10
45.23832952777217
 20
16.10573972657586
 10
42.40164959668227
 20
15.56337543652887
 10
39.24226750934557
 20
15.05811806905523
 10
35.7842280711338
 20
14.59381293780415
 10
32.05384905019302
 20
14.17399368517958
 10
28.07952088333705
 20
13.80185538918777
 10
23.89149060768061
 20
13.48023024696446
 10
19.52163166242326
 20
13.21156602004455
 10
15.0032013127314
 20
12.9979074054188
 10
10.37058754186901
 20
12.8408804741551
 10
5.659047337881033
 20
12.74168029601582
 10
0.9044383666255738
 20
12.70106184425532
 10
-3.857053926714723
 20
12.71933424981757
 10
-8.589191710719884
 20
12.79635844866308
 10
-13.25596055951071
 20
12.93154824013013
 10
-17.82184354427584
 20
13.12387474827585
 10
-22.25209153854567
 20
13.37187425224332
 10
-26.51298768002695
 20
13.67365932606115
 10
-30.57210397628355
 20
14.02693320309478
 10
-34.39854810133954
 20
14.42900725582739
 10
-37.96319850493312
 20
14.87682145793873
 10
-41.23892604509816
 20
15.36696767295312
 10
-44.20080045731567
 20
15.89571559221593
 10
-46.82628008887996
 20
16.45904112479485
 10
-49.09538345448692
 20
17.05265702324169
 10
-50.99084130740218
 20
17.67204551213419
 10
-51.6095135869672
 20
17.91297530120196
  0
LINE
  5
1DA
330
132
100
AcDbEntity
  8
AM_4
100
AcDbLine
 10
-51.6095135869672
 20
9.355995693455926
 30
0.0
 11
-51.6095135869672
 21
17.91297530120196
 31
0.0
  0
LWPOLYLINE
  5
1DB
330
132
100
AcDbEntity
  8
AM_4
100
AcDbPolyline
 90
       27
 70
     0
 43
0.0
 10
-51.6095135869672
 20
-9.355995693455904
 10
-51.33813647414592
 20
-8.806888867282217
 10
-51.06690930020015
 20
-8.212521157543057
 10
-50.79508244278656
 20
-7.560436174046104
 10
-50.53124847371079
 20
-6.858267963961501
 10
-50.28345166705584
 20
-6.115512449928083
 10
-50.05331601926146
 20
-5.323655075863766
 10
-49.84052792405657
 20
-4.457422710199404
 10
-49.65880323426694
 20
-3.544795222216806
 10
-49.54726691223772
 20
-2.836845018559938
 10
-49.45886766385223
 20
-2.10991043641883
 10
-49.3943520780465
 20
-1.347027515333931
 10
-49.35803418401056
 20
-0.5738789038816946
 10
-49.35086417263787
 20
0.1830375886907321
 10
-49.37149848092662
 20
0.938602968943344
 10
-49.42150216805072
 20
1.710134981768782
 10
-49.49919145265541
 20
2.468722639205636
 10
-49.59676644822142
 20
3.171027648516895
 10
-49.71544278390848
 20
3.853518614453169
 10
-49.85633339569362
 20
4.527976756848675
 10
-50.01426504765859
 20
5.176255297071566
 10
-50.25856077703351
 20
6.035271523059927
 10
-50.52394931445208
 20
6.837672476773996
 10
-50.81190640051587
 20
7.60270500679252
 10
-51.10906029244669
 20
8.308259678046472
 10
-51.35933485614058
 20
8.85130408942114
 10
-51.6095135869672
 20
9.355995693455926
  0
ENDBLK
  5
135
330
132
100
AcDbEntity
  8
0
100
AcDbBlockEnd
  0
ENDSEC
  0
SECTION
  2
ENTITIES
  0
INSERT
  5
6F
330
1F
100
AcDbEntity
  8
0
100
AcDbBlockReference
  2
1_125928_4
 10
0.0
 20
0.0
 30
0.0
  0
POINT
  5
1DD
330
1F
100
AcDbEntity
  8
ConnectionPoints
100
AcDbPoint
 10
0.0
 20
-30.2
 30
0.0000000000000018
  0
POINT
  5
1DE
330
1F
100
AcDbEntity
  8
ConnectionPoints
100
AcDbPoint
 10
38.6080302527855
 20
0.0000000000000024
 30
38.60803025278549
  0
POINT
  5
1DF
330
1F
100
AcDbEntity
  8
ConnectionPoints
100
AcDbPoint
 10
0.0
 20
-30.2
 30
0.0000000000000018
  0
ENDSEC
  0
SECTION
  2
OBJECTS
  0
DICTIONARY
  5
C
330
0
100
AcDbDictionary
281
     1
  3
ACAD_DETAILVIEWSTYLE
350
1E7
  3
ACAD_GROUP
350
D
  3
ACAD_LAYOUT
350
1A
  3
ACAD_MATERIAL
350
43
  3
ACAD_MLEADERSTYLE
350
6B
  3
ACAD_MLINESTYLE
350
17
  3
ACAD_PLOTSETTINGS
350
19
  3
ACAD_PLOTSTYLENAME
350
E
  3
ACAD_SCALELIST
350
47
  3
ACAD_SECTIONVIEWSTYLE
350
1E8
  3
ACAD_TABLESTYLE
350
69
  3
ACAD_VISUALSTYLE
350
2A
  3
ACDB_RECOMPOSE_DATA
350
1E4
  3
AcDbVariableDictionary
350
1E0
  0
SUN
  5
6D
330
29
100
AcDbSun
 90
        1
290
     0
 63
     7
421
 16777215
 40
1.0
291
     1
 91
  2455826
 92
 54000000
292
     0
 70
     2
 71
   256
280
     1
  0
DICTIONARY
  5
1E7
102
{ACAD_REACTORS
330
C
102
}
330
C
100
AcDbDictionary
281
     1
  0
DICTIONARY
  5
D
102
{ACAD_REACTORS
330
C
102
}
330
C
100
AcDbDictionary
281
     1
  0
DICTIONARY
  5
1A
102
{ACAD_REACTORS
330
C
102
}
330
C
100
AcDbDictionary
281
     1
  3
Layout1
350
1E
  3
Layout2
350
26
  3
Model
350
22
  0
DICTIONARY
  5
43
102
{ACAD_REACTORS
330
C
102
}
330
C
100
AcDbDictionary
281
     1
  3
ByBlock
350
45
  3
ByLayer
350
44
  3
Global
350
46
  0
DICTIONARY
  5
6B
102
{ACAD_REACTORS
330
C
102
}
330
C
100
AcDbDictionary
281
     1
  3
Standard
350
6C
  0
DICTIONARY
  5
17
102
{ACAD_REACTORS
330
C
102
}
330
C
100
AcDbDictionary
281
     1
  3
Standard
350
18
  0
DICTIONARY
  5
19
102
{ACAD_REACTORS
330
C
102
}
330
C
100
AcDbDictionary
281
     1
  0
ACDBDICTIONARYWDFLT
  5
E
102
{ACAD_REACTORS
330
C
102
}
330
C
100
AcDbDictionary
281
     1
  3
Normal
350
F
100
AcDbDictionaryWithDefault
340
F
  0
DICTIONARY
  5
47
102
{ACAD_REACTORS
330
C
102
}
330
C
100
AcDbDictionary
281
     1
  3
A0
350
48
  3
A1
350
49
  3
A2
350
4A
  3
A3
350
4B
  3
A4
350
4C
  3
A5
350
4D
  3
A6
350
4E
  3
A7
350
4F
  3
A8
350
50
  3
A9
350
51
  3
B0
350
52
  3
B1
350
53
  3
B2
350
54
  3
B3
350
55
  3
B4
350
56
  3
B5
350
57
  3
B6
350
58
  3
B7
350
59
  3
B8
350
5A
  3
B9
350
5B
  3
C0
350
5C
  3
C1
350
5D
  3
C2
350
5E
  3
C3
350
5F
  3
C4
350
60
  3
C5
350
61
  3
C6
350
62
  3
C7
350
63
  3
C8
350
64
  3
C9
350
65
  3
D0
350
66
  3
D1
350
67
  3
D2
350
68
  0
DICTIONARY
  5
1E8
102
{ACAD_REACTORS
330
C
102
}
330
C
100
AcDbDictionary
281
     1
  0
DICTIONARY
  5
69
102
{ACAD_REACTORS
330
C
102
}
330
C
100
AcDbDictionary
281
     1
  3
Standard
350
6A
  0
DICTIONARY
  5
2A
102
{ACAD_REACTORS
330
C
102
}
330
C
100
AcDbDictionary
281
     1
  3
2dWireframe
350
2F
  3
Basic
350
32
  3
Brighten
350
36
  3
ColorChange
350
3A
  3
Conceptual
350
34
  3
Dim
350
35
  3
EdgeColorOff
350
3D
  3
Facepattern
350
39
  3
Flat
350
2B
  3
FlatWithEdges
350
2C
  3
Gouraud
350
2D
  3
GouraudWithEdges
350
2E
  3
Hidden
350
31
  3
JitterOff
350
3B
  3
Linepattern
350
38
  3
OverhangOff
350
3C
  3
Realistic
350
33
  3
Shaded
350
42
  3
Shaded with edges
350
41
  3
Shades of Gray
350
3E
  3
Sketchy
350
3F
  3
Thicken
350
37
  3
Wireframe
350
30
  3
X-Ray
350
40
  0
XRECORD
  5
1E4
102
{ACAD_REACTORS
330
C
102
}
330
C
100
AcDbXrecord
280
     1
 90
        1
330
6A
  0
DICTIONARY
  5
1E0
102
{ACAD_REACTORS
330
C
102
}
330
C
100
AcDbDictionary
281
     1
  3
CANNOSCALE
350
1E1
  3
CMLEADERSTYLE
350
1E6
  3
CTABLESTYLE
350
1E5
  0
LAYOUT
  5
1E
102
{ACAD_REACTORS
330
1A
102
}
330
1A
100
AcDbPlotSettings
  1

  2
none_device
  4

  6

 40
0.0
 41
0.0
 42
0.0
 43
0.0
 44
0.0
 45
0.0
 46
0.0
 47
0.0
 48
0.0
 49
0.0
140
0.0
141
0.0
142
1.0
143
1.0
 70
   688
 72
     1
 73
     0
 74
     5
  7

 75
    16
 76
     0
 77
     2
 78
   300
147
1.0
148
0.0
149
0.0
100
AcDbLayout
  1
Layout1
 70
     1
 71
     1
 10
0.0
 20
0.0
 11
420.0
 21
297.0
 12
0.0
 22
0.0
 32
0.0
 14
1.000000000000000E+20
 24
1.000000000000000E+20
 34
1.000000000000000E+20
 15
-1.000000000000000E+20
 25
-1.000000000000000E+20
 35
-1.000000000000000E+20
146
0.0
 13
0.0
 23
0.0
 33
0.0
 16
1.0
 26
0.0
 36
0.0
 17
0.0
 27
1.0
 37
0.0
 76
     0
330
1B
  0
LAYOUT
  5
26
102
{ACAD_REACTORS
330
1A
102
}
330
1A
100
AcDbPlotSettings
  1

  2
none_device
  4

  6

 40
0.0
 41
0.0
 42
0.0
 43
0.0
 44
0.0
 45
0.0
 46
0.0
 47
0.0
 48
0.0
 49
0.0
140
0.0
141
0.0
142
1.0
143
1.0
 70
   688
 72
     1
 73
     0
 74
     5
  7

 75
    16
 76
     0
 77
     2
 78
   300
147
1.0
148
0.0
149
0.0
100
AcDbLayout
  1
Layout2
 70
     1
 71
     2
 10
0.0
 20
0.0
 11
0.0
 21
0.0
 12
0.0
 22
0.0
 32
0.0
 14
0.0
 24
0.0
 34
0.0
 15
0.0
 25
0.0
 35
0.0
146
0.0
 13
0.0
 23
0.0
 33
0.0
 16
1.0
 26
0.0
 36
0.0
 17
0.0
 27
1.0
 37
0.0
 76
     0
330
23
  0
LAYOUT
  5
22
102
{ACAD_REACTORS
330
1A
102
}
330
1A
100
AcDbPlotSettings
  1

  2
none_device
  4
Letter_(8.50_x_11.00_Inches)
  6

 40
6.35
 41
6.35
 42
6.35000508
 43
6.35000508
 44
215.9
 45
279.4
 46
0.0
 47
0.0
 48
0.0
 49
0.0
140
0.0
141
0.0
142
1.0
143
1.0
 70
  1712
 72
     1
 73
     0
 74
     0
  7

 75
     0
 76
     0
 77
     2
 78
   300
147
1.0
148
0.0
149
0.0
100
AcDbLayout
  1
Model
 70
     1
 71
     0
 10
0.0
 20
0.0
 11
420.0
 21
297.0
 12
0.0
 22
0.0
 32
0.0
 14
1.000000000000000E+20
 24
1.000000000000000E+20
 34
1.000000000000000E+20
 15
-1.000000000000000E+20
 25
-1.000000000000000E+20
 35
-1.000000000000000E+20
146
0.0
 13
0.0
 23
0.0
 33
0.0
 16
1.0
 26
0.0
 36
0.0
 17
0.0
 27
1.0
 37
0.0
 76
     0
330
1F
331
29
  0
MATERIAL
  5
45
102
{ACAD_REACTORS
330
43
102
}
330
43
100
AcDbMaterial
  1
ByBlock
 72
     1
 94
      127
  0
MATERIAL
  5
44
102
{ACAD_REACTORS
330
43
102
}
330
43
100
AcDbMaterial
  1
ByLayer
 72
     1
 94
      127
  0
MATERIAL
  5
46
102
{ACAD_REACTORS
330
43
102
}
330
43
100
AcDbMaterial
  1
Global
 72
     1
 94
      127
  0
MLEADERSTYLE
  5
6C
102
{ACAD_REACTORS
330
6B
102
}
330
6B
100
AcDbMLeaderStyle
179
     2
170
     2
171
     1
172
     0
 90
        2
 40
0.0
 41
0.0
173
     1
 91
-1056964608
340
14
 92
       -2
290
     1
 42
2.0
291
     1
 43
8.0
  3
Standard
341
0
 44
4.0
300

342
11
174
     1
178
     6
175
     1
176
     0
 93
-1056964608
 45
4.0
292
     0
297
     0
 46
4.0
343
0
 94
-1056964608
 47
1.0
 49
1.0
140
1.0
293
     1
141
0.0
294
     1
177
     0
142
1.0
295
     0
296
     0
143
3.75
271
     0
272
     9
273
     9
298
     0
  0
MLINESTYLE
  5
18
102
{ACAD_REACTORS
330
17
102
}
330
17
100
AcDbMlineStyle
  2
Standard
 70
     0
  3

 62
   256
 51
90.0
 52
90.0
 71
     2
 49
0.5
 62
   256
  6
BYLAYER
 49
-0.5
 62
   256
  6
BYLAYER
  0
ACDBPLACEHOLDER
  5
F
102
{ACAD_REACTORS
330
E
102
}
330
E
  0
SCALE
  5
48
102
{ACAD_REACTORS
330
47
102
}
330
47
100
AcDbScale
 70
     0
300
1:1
140
1.0
141
1.0
290
     1
  0
SCALE
  5
49
102
{ACAD_REACTORS
330
47
102
}
330
47
100
AcDbScale
 70
     0
300
1:2
140
1.0
141
2.0
290
     0
  0
SCALE
  5
4A
102
{ACAD_REACTORS
330
47
102
}
330
47
100
AcDbScale
 70
     0
300
1:4
140
1.0
141
4.0
290
     0
  0
SCALE
  5
4B
102
{ACAD_REACTORS
330
47
102
}
330
47
100
AcDbScale
 70
     0
300
1:5
140
1.0
141
5.0
290
     0
  0
SCALE
  5
4C
102
{ACAD_REACTORS
330
47
102
}
330
47
100
AcDbScale
 70
     0
300
1:8
140
1.0
141
8.0
290
     0
  0
SCALE
  5
4D
102
{ACAD_REACTORS
330
47
102
}
330
47
100
AcDbScale
 70
     0
300
1:10
140
1.0
141
10.0
290
     0
  0
SCALE
  5
4E
102
{ACAD_REACTORS
330
47
102
}
330
47
100
AcDbScale
 70
     0
300
1:16
140
1.0
141
16.0
290
     0
  0
SCALE
  5
4F
102
{ACAD_REACTORS
330
47
102
}
330
47
100
AcDbScale
 70
     0
300
1:20
140
1.0
141
20.0
290
     0
  0
SCALE
  5
50
102
{ACAD_REACTORS
330
47
102
}
330
47
100
AcDbScale
 70
     0
300
1:30
140
1.0
141
30.0
290
     0
  0
SCALE
  5
51
102
{ACAD_REACTORS
330
47
102
}
330
47
100
AcDbScale
 70
     0
300
1:40
140
1.0
141
40.0
290
     0
  0
SCALE
  5
52
102
{ACAD_REACTORS
330
47
102
}
330
47
100
AcDbScale
 70
     0
300
1:50
140
1.0
141
50.0
290
     0
  0
SCALE
  5
53
102
{ACAD_REACTORS
330
47
102
}
330
47
100
AcDbScale
 70
     0
300
1:100
140
1.0
141
100.0
290
     0
  0
SCALE
  5
54
102
{ACAD_REACTORS
330
47
102
}
330
47
100
AcDbScale
 70
     0
300
2:1
140
2.0
141
1.0
290
     0
  0
SCALE
  5
55
102
{ACAD_REACTORS
330
47
102
}
330
47
100
AcDbScale
 70
     0
300
4:1
140
4.0
141
1.0
290
     0
  0
SCALE
  5
56
102
{ACAD_REACTORS
330
47
102
}
330
47
100
AcDbScale
 70
     0
300
8:1
140
8.0
141
1.0
290
     0
  0
SCALE
  5
57
102
{ACAD_REACTORS
330
47
102
}
330
47
100
AcDbScale
 70
     0
300
10:1
140
10.0
141
1.0
290
     0
  0
SCALE
  5
58
102
{ACAD_REACTORS
330
47
102
}
330
47
100
AcDbScale
 70
     0
300
100:1
140
100.0
141
1.0
290
     0
  0
SCALE
  5
59
102
{ACAD_REACTORS
330
47
102
}
330
47
100
AcDbScale
 70
     0
300
1/128" = 1'-0"
140
0.0078125
141
12.0
290
     0
  0
SCALE
  5
5A
102
{ACAD_REACTORS
330
47
102
}
330
47
100
AcDbScale
 70
     0
300
1/64" = 1'-0"
140
0.015625
141
12.0
290
     0
  0
SCALE
  5
5B
102
{ACAD_REACTORS
330
47
102
}
330
47
100
AcDbScale
 70
     0
300
1/32" = 1'-0"
140
0.03125
141
12.0
290
     0
  0
SCALE
  5
5C
102
{ACAD_REACTORS
330
47
102
}
330
47
100
AcDbScale
 70
     0
300
1/16" = 1'-0"
140
0.0625
141
12.0
290
     0
  0
SCALE
  5
5D
102
{ACAD_REACTORS
330
47
102
}
330
47
100
AcDbScale
 70
     0
300
3/32" = 1'-0"
140
0.09375
141
12.0
290
     0
  0
SCALE
  5
5E
102
{ACAD_REACTORS
330
47
102
}
330
47
100
AcDbScale
 70
     0
300
1/8" = 1'-0"
140
0.125
141
12.0
290
     0
  0
SCALE
  5
5F
102
{ACAD_REACTORS
330
47
102
}
330
47
100
AcDbScale
 70
     0
300
3/16" = 1'-0"
140
0.1875
141
12.0
290
     0
  0
SCALE
  5
60
102
{ACAD_REACTORS
330
47
102
}
330
47
100
AcDbScale
 70
     0
300
1/4" = 1'-0"
140
0.25
141
12.0
290
     0
  0
SCALE
  5
61
102
{ACAD_REACTORS
330
47
102
}
330
47
100
AcDbScale
 70
     0
300
3/8" = 1'-0"
140
0.375
141
12.0
290
     0
  0
SCALE
  5
62
102
{ACAD_REACTORS
330
47
102
}
330
47
100
AcDbScale
 70
     0
300
1/2" = 1'-0"
140
0.5
141
12.0
290
     0
  0
SCALE
  5
63
102
{ACAD_REACTORS
330
47
102
}
330
47
100
AcDbScale
 70
     0
300
3/4" = 1'-0"
140
0.75
141
12.0
290
     0
  0
SCALE
  5
64
102
{ACAD_REACTORS
330
47
102
}
330
47
100
AcDbScale
 70
     0
300
1" = 1'-0"
140
1.0
141
12.0
290
     0
  0
SCALE
  5
65
102
{ACAD_REACTORS
330
47
102
}
330
47
100
AcDbScale
 70
     0
300
1-1/2" = 1'-0"
140
1.5
141
12.0
290
     0
  0
SCALE
  5
66
102
{ACAD_REACTORS
330
47
102
}
330
47
100
AcDbScale
 70
     0
300
3" = 1'-0"
140
3.0
141
12.0
290
     0
  0
SCALE
  5
67
102
{ACAD_REACTORS
330
47
102
}
330
47
100
AcDbScale
 70
     0
300
6" = 1'-0"
140
6.0
141
12.0
290
     0
  0
SCALE
  5
68
102
{ACAD_REACTORS
330
47
102
}
330
47
100
AcDbScale
 70
     0
300
1'-0" = 1'-0"
140
12.0
141
12.0
290
     0
  0
TABLESTYLE
  5
6A
102
{ACAD_REACTORS
330
69
102
}
102
{ACAD_XDICTIONARY
360
1E2
102
}
330
69
100
AcDbTableStyle
  3
Standard
 70
     0
 71
     0
 40
0.06
 41
0.06
280
     0
281
     0
  7
Standard
140
4.5
170
     2
 62
     0
 63
   257
283
     0
 90
        4
 91
        0
  1

274
    -2
284
     1
 64
     0
275
    -2
285
     1
 65
     0
276
    -2
286
     1
 66
     0
277
    -2
287
     1
 67
     0
278
    -2
288
     1
 68
     0
279
    -2
289
     1
 69
     0
  7
Standard
140
6.0
170
     5
 62
     0
 63
   257
283
     0
 90
        4
 91
        0
  1

274
    -2
284
     1
 64
     0
275
    -2
285
     1
 65
     0
276
    -2
286
     1
 66
     0
277
    -2
287
     1
 67
     0
278
    -2
288
     1
 68
     0
279
    -2
289
     1
 69
     0
  7
Standard
140
4.5
170
     5
 62
     0
 63
   257
283
     0
 90
        4
 91
        0
  1

274
    -2
284
     1
 64
     0
275
    -2
285
     1
 65
     0
276
    -2
286
     1
 66
     0
277
    -2
287
     1
 67
     0
278
    -2
288
     1
 68
     0
279
    -2
289
     1
 69
     0
  0
VISUALSTYLE
  5
2F
102
{ACAD_REACTORS
330
2A
102
}
330
2A
100
AcDbVisualStyle
  2
2dWireframe
 70
     4
177
     3
291
     0
 70
    58
 90
        0
176
     1
 90
        2
176
     1
 90
        0
176
     1
 90
        0
176
     1
 40
0.6
176
     1
 40
30.0
176
     1
 62
     7
420
 16777215
176
     1
 90
        1
176
     1
 90
        4
176
     1
 62
     7
176
     1
 62
   257
176
     1
 90
        1
176
     1
 90
        1
176
     1
 40
1.0
176
     1
 90
        0
176
     1
 62
   257
176
     1
 40
1.0
176
     1
 90
        1
176
     1
 90
        6
176
     1
 90
        2
176
     1
 62
     7
176
     1
 90
        5
176
     1
 90
        0
176
     1
 90
        0
176
     1
290
     0
176
     1
 90
        1
176
     1
 40
0.0
176
     1
 90
        0
176
     1
290
     1
176
     1
290
     1
176
     1
290
     0
176
     1
290
     0
176
     1
290
     0
176
     1
290
     0
176
     1
290
     0
176
     1
290
     0
176
     1
290
     0
176
     1
 90
       50
176
     1
 40
0.0
176
     1
 40
1.0
176
     1
 90
        0
176
     1
 62
    18
420
        0
176
     1
 90
       50
176
     1
 90
        3
176
     1
 62
     5
420
      255
176
     1
290
     0
176
     1
 90
       50
176
     1
 90
       50
176
     1
 90
       50
176
     1
290
     0
176
     1
 90
       50
176
     1
 62
   256
176
     0
 40
1.0
176
     0
 90
        2
176
     1
  1
strokes_ogs.tif
176
     1
290
     0
176
     1
 40
1.0
176
     1
 40
1.0
176
     1
  0
VISUALSTYLE
  5
32
102
{ACAD_REACTORS
330
2A
102
}
330
2A
100
AcDbVisualStyle
  2
Basic
 70
     7
177
     3
291
     1
 70
    58
 90
        1
176
     1
 90
        0
176
     1
 90
        1
176
     1
 90
        0
176
     1
 40
0.6
176
     1
 40
30.0
176
     1
 62
     7
420
 16777215
176
     1
 90
        0
176
     1
 90
        4
176
     1
 62
     7
176
     1
 62
   257
176
     1
 90
        1
176
     1
 90
        1
176
     1
 40
1.0
176
     1
 90
        8
176
     1
 62
     7
176
     1
 40
1.0
176
     1
 90
        1
176
     1
 90
        6
176
     1
 90
        2
176
     1
 62
     7
176
     1
 90
        5
176
     1
 90
        0
176
     1
 90
        0
176
     1
290
     0
176
     1
 90
        1
176
     1
 40
0.0
176
     1
 90
        0
176
     1
290
     0
176
     1
290
     1
176
     1
290
     1
176
     1
290
     0
176
     1
290
     0
176
     1
290
     0
176
     1
290
     0
176
     1
290
     0
176
     1
290
     0
176
     1
 90
       50
176
     1
 40
0.0
176
     1
 40
1.0
176
     1
 90
        0
176
     1
 62
    18
420
        0
176
     1
 90
       50
176
     1
 90
        3
176
     1
 62
     5
420
      255
176
     1
290
     0
176
     1
 90
       50
176
     1
 90
       50
176
     1
 90
       50
176
     1
290
     0
176
     1
 90
       50
176
     1
 62
   256
176
     0
 40
1.0
176
     0
 90
        2
176
     1
  1
strokes_ogs.tif
176
     1
290
     0
176
     1
 40
1.0
176
     1
 40
1.0
176
     1
  0
VISUALSTYLE
  5
36
102
{ACAD_REACTORS
330
2A
102
}
330
2A
100
AcDbVisualStyle
  2
Brighten
 70
    12
177
     3
291
     1
 70
    58
 90
        2
176
     1
 90
        2
176
     1
 90
        0
176
     1
 90
        0
176
     1
 40
0.6
176
     1
 40
30.0
176
     1
 62
     7
420
 16777215
176
     1
 90
        1
176
     1
 90
        4
176
     1
 62
     7
176
     1
 62
   257
176
     1
 90
        1
176
     1
 90
        1
176
     1
 40
1.0
176
     1
 90
        8
176
     1
 62
     7
176
     1
 40
1.0
176
     1
 90
        1
176
     1
 90
        6
176
     1
 90
        2
176
     1
 62
     7
176
     1
 90
        5
176
     1
 90
        0
176
     1
 90
        0
176
     1
290
     0
176
     1
 90
        1
176
     1
 40
50.0
176
     1
 90
        0
176
     1
290
     0
176
     1
290
     1
176
     1
290
     1
176
     1
290
     0
176
     1
290
     0
176
     1
290
     0
176
     1
290
     0
176
     1
290
     0
176
     1
290
     0
176
     1
 90
       50
176
     1
 40
0.0
176
     1
 40
1.0
176
     1
 90
        0
176
     1
 62
    18
420
        0
176
     1
 90
       50
176
     1
 90
        3
176
     1
 62
     5
420
      255
176
     1
290
     0
176
     1
 90
       50
176
     1
 90
       50
176
     1
 90
       50
176
     1
290
     0
176
     1
 90
       50
176
     1
 62
   256
176
     0
 40
1.0
176
     0
 90
        2
176
     1
  1
strokes_ogs.tif
176
     1
290
     0
176
     1
 40
1.0
176
     1
 40
1.0
176
     1
  0
VISUALSTYLE
  5
3A
102
{ACAD_REACTORS
330
2A
102
}
330
2A
100
AcDbVisualStyle
  2
ColorChange
 70
    16
177
     3
291
     1
 70
    58
 90
        2
176
     1
 90
        2
176
     1
 90
        3
176
     1
 90
        0
176
     1
 40
0.6
176
     1
 40
30.0
176
     1
 62
     8
420
  8421504
176
     1
 90
        1
176
     1
 90
        4
176
     1
 62
     7
176
     1
 62
   257
176
     1
 90
        1
176
     1
 90
        1
176
     1
 40
1.0
176
     1
 90
        8
176
     1
 62
     8
420
  8421504
176
     1
 40
1.0
176
     1
 90
        1
176
     1
 90
        6
176
     1
 90
        2
176
     1
 62
     7
176
     1
 90
        5
176
     1
 90
        0
176
     1
 90
        0
176
     1
290
     0
176
     1
 90
        1
176
     1
 40
0.0
176
     1
 90
        0
176
     1
290
     0
176
     1
290
     1
176
     1
290
     1
176
     1
290
     0
176
     1
290
     0
176
     1
290
     0
176
     1
290
     0
176
     1
290
     0
176
     1
290
     0
176
     1
 90
       50
176
     1
 40
0.0
176
     1
 40
1.0
176
     1
 90
        0
176
     1
 62
    18
420
        0
176
     1
 90
       50
176
     1
 90
        3
176
     1
 62
     5
420
      255
176
     1
290
     0
176
     1
 90
       50
176
     1
 90
       50
176
     1
 90
       50
176
     1
290
     0
176
     1
 90
       50
176
     1
 62
   256
176
     0
 40
1.0
176
     0
 90
        2
176
     1
  1
strokes_ogs.tif
176
     1
290
     0
176
     1
 40
1.0
176
     1
 40
1.0
176
     1
  0
VISUALSTYLE
  5
34
102
{ACAD_REACTORS
330
2A
102
}
330
2A
100
AcDbVisualStyle
  2
Conceptual
 70
     9
177
     3
291
     0
 70
    58
 90
        3
176
     1
 90
        2
176
     1
 90
        0
176
     1
 90
        0
176
     1
 40
0.6
176
     1
 40
30.0
176
     1
 62
     7
420
 16777215
176
     1
 90
        2
176
     1
 90
        2
176
     1
 62
     7
176
     1
 62
   257
176
     1
 90
        1
176
     1
 90
        1
176
     1
 40
179.0
176
     1
 90
        8
176
     1
 62
     7
176
     1
 40
1.0
176
     1
 90
        1
176
     1
 90
        6
176
     1
 90
        2
176
     1
 62
     7
176
     1
 90
        3
176
     1
 90
        0
176
     1
 90
        0
176
     1
290
     0
176
     1
 90
        1
176
     1
 40
0.0
176
     1
 90
        0
176
     1
290
     0
176
     1
290
     1
176
     1
290
     1
176
     1
290
     0
176
     1
290
     0
176
     1
290
     0
176
     1
290
     0
176
     1
290
     0
176
     1
290
     0
176
     1
 90
       50
176
     1
 40
0.0
176
     1
 40
1.0
176
     1
 90
        0
176
     1
 62
    18
420
        0
176
     1
 90
       50
176
     1
 90
        3
176
     1
 62
     5
420
      255
176
     1
290
     0
176
     1
 90
       50
176
     1
 90
       50
176
     1
 90
       50
176
     1
290
     0
176
     1
 90
       50
176
     1
 62
   256
176
     0
 40
1.0
176
     0
 90
        2
176
     1
  1
strokes_ogs.tif
176
     1
290
     0
176
     1
 40
1.0
176
     1
 40
1.0
176
     1
  0
VISUALSTYLE
  5
35
102
{ACAD_REACTORS
330
2A
102
}
330
2A
100
AcDbVisualStyle
  2
Dim
 70
    11
177
     3
291
     1
 70
    58
 90
        2
176
     1
 90
        2
176
     1
 90
        0
176
     1
 90
        0
176
     1
 40
0.6
176
     1
 40
30.0
176
     1
 62
     7
420
 16777215
176
     1
 90
        1
176
     1
 90
        4
176
     1
 62
     7
176
     1
 62
   257
176
     1
 90
        1
176
     1
 90
        1
176
     1
 40
1.0
176
     1
 90
        8
176
     1
 62
     7
176
     1
 40
1.0
176
     1
 90
        1
176
     1
 90
        6
176
     1
 90
        2
176
     1
 62
     7
176
     1
 90
        5
176
     1
 90
        0
176
     1
 90
        0
176
     1
290
     0
176
     1
 90
        1
176
     1
 40
-50.0
176
     1
 90
        0
176
     1
290
     0
176
     1
290
     1
176
     1
290
     1
176
     1
290
     0
176
     1
290
     0
176
     1
290
     0
176
     1
290
     0
176
     1
290
     0
176
     1
290
     0
176
     1
 90
       50
176
     1
 40
0.0
176
     1
 40
1.0
176
     1
 90
        0
176
     1
 62
    18
420
        0
176
     1
 90
       50
176
     1
 90
        3
176
     1
 62
     5
420
      255
176
     1
290
     0
176
     1
 90
       50
176
     1
 90
       50
176
     1
 90
       50
176
     1
290
     0
176
     1
 90
       50
176
     1
 62
   256
176
     0
 40
1.0
176
     0
 90
        2
176
     1
  1
strokes_ogs.tif
176
     1
290
     0
176
     1
 40
1.0
176
     1
 40
1.0
176
     1
  0
VISUALSTYLE
  5
3D
102
{ACAD_REACTORS
330
2A
102
}
330
2A
100
AcDbVisualStyle
  2
EdgeColorOff
 70
    22
177
     3
291
     1
 70
    58
 90
        2
176
     0
 90
        2
176
     0
 90
        0
176
     0
 90
        0
176
     0
 40
0.6
176
     0
 40
30.0
176
     0
 62
     7
420
 16777215
176
     0
 90
        1
176
     0
 90
        4
176
     0
 62
     7
176
     0
 62
   257
176
     0
 90
        1
176
     0
 90
        1
176
     0
 40
1.0
176
     0
 90
        8
176
     2
 62
     7
176
     0
 40
1.0
176
     0
 90
        1
176
     0
 90
        6
176
     0
 90
        2
176
     0
 62
     7
176
     0
 90
        5
176
     0
 90
        0
176
     0
 90
        0
176
     0
290
     0
176
     0
 90
        1
176
     0
 40
0.0
176
     0
 90
        0
176
     0
290
     0
176
     0
290
     1
176
     0
290
     1
176
     0
290
     0
176
     0
290
     0
176
     0
290
     0
176
     0
290
     0
176
     0
290
     0
176
     0
290
     0
176
     0
 90
       50
176
     0
 40
0.0
176
     0
 40
1.0
176
     0
 90
        0
176
     0
 62
    18
420
        0
176
     0
 90
       50
176
     0
 90
        3
176
     0
 62
     5
420
      255
176
     0
290
     0
176
     0
 90
       50
176
     0
 90
       50
176
     0
 90
       50
176
     0
290
     0
176
     0
 90
       50
176
     0
 62
   256
176
     0
 40
1.0
176
     0
 90
        2
176
     0
  1
strokes_ogs.tif
176
     0
290
     0
176
     0
 40
1.0
176
     0
 40
1.0
176
     0
  0
VISUALSTYLE
  5
39
102
{ACAD_REACTORS
330
2A
102
}
330
2A
100
AcDbVisualStyle
  2
Facepattern
 70
    15
177
     3
291
     1
 70
    58
 90
        2
176
     1
 90
        2
176
     1
 90
        0
176
     1
 90
        0
176
     1
 40
0.6
176
     1
 40
30.0
176
     1
 62
     7
420
 16777215
176
     1
 90
        1
176
     1
 90
        4
176
     1
 62
     7
176
     1
 62
   257
176
     1
 90
        1
176
     1
 90
        1
176
     1
 40
1.0
176
     1
 90
        8
176
     1
 62
     7
176
     1
 40
1.0
176
     1
 90
        1
176
     1
 90
        6
176
     1
 90
        2
176
     1
 62
     7
176
     1
 90
        5
176
     1
 90
        0
176
     1
 90
        0
176
     1
290
     0
176
     1
 90
        1
176
     1
 40
0.0
176
     1
 90
        0
176
     1
290
     0
176
     1
290
     1
176
     1
290
     1
176
     1
290
     0
176
     1
290
     0
176
     1
290
     0
176
     1
290
     0
176
     1
290
     0
176
     1
290
     0
176
     1
 90
       50
176
     1
 40
0.0
176
     1
 40
1.0
176
     1
 90
        0
176
     1
 62
    18
420
        0
176
     1
 90
       50
176
     1
 90
        3
176
     1
 62
     5
420
      255
176
     1
290
     0
176
     1
 90
       50
176
     1
 90
       50
176
     1
 90
       50
176
     1
290
     0
176
     1
 90
       50
176
     1
 62
   256
176
     0
 40
1.0
176
     0
 90
        2
176
     1
  1
strokes_ogs.tif
176
     1
290
     0
176
     1
 40
1.0
176
     1
 40
1.0
176
     1
  0
VISUALSTYLE
  5
2B
102
{ACAD_REACTORS
330
2A
102
}
330
2A
100
AcDbVisualStyle
  2
Flat
 70
     0
177
     3
291
     1
 70
    58
 90
        2
176
     1
 90
        1
176
     1
 90
        1
176
     1
 90
        2
176
     1
 40
0.6
176
     1
 40
30.0
176
     1
 62
     7
420
 16777215
176
     1
 90
        0
176
     1
 90
        0
176
     1
 62
     7
176
     1
 62
   257
176
     1
 90
        1
176
     1
 90
        1
176
     1
 40
1.0
176
     1
 90
        8
176
     1
 62
     7
176
     1
 40
1.0
176
     1
 90
        1
176
     1
 90
        6
176
     1
 90
        2
176
     1
 62
     7
176
     1
 90
        5
176
     1
 90
        0
176
     1
 90
        0
176
     1
290
     0
176
     1
 90
       13
176
     1
 40
0.0
176
     1
 90
        0
176
     1
290
     0
176
     1
290
     1
176
     1
290
     1
176
     1
290
     0
176
     1
290
     0
176
     1
290
     0
176
     1
290
     0
176
     1
290
     0
176
     1
290
     0
176
     1
 90
       50
176
     1
 40
0.0
176
     1
 40
1.0
176
     1
 90
        0
176
     1
 62
    18
420
        0
176
     1
 90
       50
176
     1
 90
        3
176
     1
 62
     5
420
      255
176
     1
290
     0
176
     1
 90
       50
176
     1
 90
       50
176
     1
 90
       50
176
     1
290
     0
176
     1
 90
       50
176
     1
 62
   256
176
     0
 40
1.0
176
     0
 90
        2
176
     1
  1
strokes_ogs.tif
176
     1
290
     0
176
     1
 40
1.0
176
     1
 40
1.0
176
     1
  0
VISUALSTYLE
  5
2C
102
{ACAD_REACTORS
330
2A
102
}
330
2A
100
AcDbVisualStyle
  2
FlatWithEdges
 70
     1
177
     3
291
     1
 70
    58
 90
        2
176
     1
 90
        1
176
     1
 90
        1
176
     1
 90
        2
176
     1
 40
0.6
176
     1
 40
30.0
176
     1
 62
     7
420
 16777215
176
     1
 90
        1
176
     1
 90
        0
176
     1
 62
     7
176
     1
 62
   257
176
     1
 90
        1
176
     1
 90
        1
176
     1
 40
1.0
176
     1
 90
        0
176
     1
 62
   257
176
     1
 40
1.0
176
     1
 90
        1
176
     1
 90
        6
176
     1
 90
        2
176
     1
 62
     7
176
     1
 90
        5
176
     1
 90
        0
176
     1
 90
        0
176
     1
290
     0
176
     1
 90
       13
176
     1
 40
0.0
176
     1
 90
        0
176
     1
290
     0
176
     1
290
     1
176
     1
290
     1
176
     1
290
     0
176
     1
290
     0
176
     1
290
     0
176
     1
290
     0
176
     1
290
     0
176
     1
290
     0
176
     1
 90
       50
176
     1
 40
0.0
176
     1
 40
1.0
176
     1
 90
        0
176
     1
 62
    18
420
        0
176
     1
 90
       50
176
     1
 90
        3
176
     1
 62
     5
420
      255
176
     1
290
     0
176
     1
 90
       50
176
     1
 90
       50
176
     1
 90
       50
176
     1
290
     0
176
     1
 90
       50
176
     1
 62
   256
176
     0
 40
1.0
176
     0
 90
        2
176
     1
  1
strokes_ogs.tif
176
     1
290
     0
176
     1
 40
1.0
176
     1
 40
1.0
176
     1
  0
VISUALSTYLE
  5
2D
102
{ACAD_REACTORS
330
2A
102
}
330
2A
100
AcDbVisualStyle
  2
Gouraud
 70
     2
177
     3
291
     1
 70
    58
 90
        2
176
     1
 90
        2
176
     1
 90
        1
176
     1
 90
        2
176
     1
 40
0.6
176
     1
 40
30.0
176
     1
 62
     7
420
 16777215
176
     1
 90
        0
176
     1
 90
        0
176
     1
 62
     7
176
     1
 62
   257
176
     1
 90
        1
176
     1
 90
        1
176
     1
 40
1.0
176
     1
 90
        0
176
     1
 62
     7
176
     1
 40
1.0
176
     1
 90
        1
176
     1
 90
        6
176
     1
 90
        2
176
     1
 62
     7
176
     1
 90
        5
176
     1
 90
        0
176
     1
 90
        0
176
     1
290
     0
176
     1
 90
       13
176
     1
 40
0.0
176
     1
 90
        0
176
     1
290
     0
176
     1
290
     1
176
     1
290
     1
176
     1
290
     0
176
     1
290
     0
176
     1
290
     0
176
     1
290
     0
176
     1
290
     0
176
     1
290
     0
176
     1
 90
       50
176
     1
 40
0.0
176
     1
 40
1.0
176
     1
 90
        0
176
     1
 62
    18
420
        0
176
     1
 90
       50
176
     1
 90
        3
176
     1
 62
     5
420
      255
176
     1
290
     0
176
     1
 90
       50
176
     1
 90
       50
176
     1
 90
       50
176
     1
290
     0
176
     1
 90
       50
176
     1
 62
   256
176
     0
 40
1.0
176
     0
 90
        2
176
     1
  1
strokes_ogs.tif
176
     1
290
     0
176
     1
 40
1.0
176
     1
 40
1.0
176
     1
  0
VISUALSTYLE
  5
2E
102
{ACAD_REACTORS
330
2A
102
}
330
2A
100
AcDbVisualStyle
  2
GouraudWithEdges
 70
     3
177
     3
291
     1
 70
    58
 90
        2
176
     1
 90
        2
176
     1
 90
        1
176
     1
 90
        2
176
     1
 40
0.6
176
     1
 40
30.0
176
     1
 62
     7
420
 16777215
176
     1
 90
        1
176
     1
 90
        0
176
     1
 62
     7
176
     1
 62
   257
176
     1
 90
        1
176
     1
 90
        1
176
     1
 40
1.0
176
     1
 90
        0
176
     1
 62
   257
176
     1
 40
1.0
176
     1
 90
        1
176
     1
 90
        6
176
     1
 90
        2
176
     1
 62
     7
176
     1
 90
        5
176
     1
 90
        0
176
     1
 90
        0
176
     1
290
     0
176
     1
 90
       13
176
     1
 40
0.0
176
     1
 90
        0
176
     1
290
     0
176
     1
290
     1
176
     1
290
     1
176
     1
290
     0
176
     1
290
     0
176
     1
290
     0
176
     1
290
     0
176
     1
290
     0
176
     1
290
     0
176
     1
 90
       50
176
     1
 40
0.0
176
     1
 40
1.0
176
     1
 90
        0
176
     1
 62
    18
420
        0
176
     1
 90
       50
176
     1
 90
        3
176
     1
 62
     5
420
      255
176
     1
290
     0
176
     1
 90
       50
176
     1
 90
       50
176
     1
 90
       50
176
     1
290
     0
176
     1
 90
       50
176
     1
 62
   256
176
     0
 40
1.0
176
     0
 90
        2
176
     1
  1
strokes_ogs.tif
176
     1
290
     0
176
     1
 40
1.0
176
     1
 40
1.0
176
     1
  0
VISUALSTYLE
  5
31
102
{ACAD_REACTORS
330
2A
102
}
330
2A
100
AcDbVisualStyle
  2
Hidden
 70
     6
177
     3
291
     0
 70
    58
 90
        1
176
     1
 90
        2
176
     1
 90
        2
176
     1
 90
        0
176
     1
 40
0.6
176
     1
 40
30.0
176
     1
 62
     7
420
 16777215
176
     1
 90
        2
176
     1
 90
        2
176
     1
 62
     7
176
     1
 62
   257
176
     1
 90
        2
176
     1
 90
        1
176
     1
 40
40.0
176
     1
 90
        0
176
     1
 62
   257
176
     1
 40
1.0
176
     1
 90
        1
176
     1
 90
        6
176
     1
 90
        2
176
     1
 62
     7
176
     1
 90
        3
176
     1
 90
        0
176
     1
 90
        0
176
     1
290
     0
176
     1
 90
        1
176
     1
 40
0.0
176
     1
 90
        0
176
     1
290
     0
176
     1
290
     1
176
     1
290
     1
176
     1
290
     0
176
     1
290
     0
176
     1
290
     0
176
     1
290
     0
176
     1
290
     0
176
     1
290
     0
176
     1
 90
       50
176
     1
 40
0.0
176
     1
 40
1.0
176
     1
 90
        0
176
     1
 62
    18
420
        0
176
     1
 90
       50
176
     1
 90
        3
176
     1
 62
     5
420
      255
176
     1
290
     0
176
     1
 90
       50
176
     1
 90
       50
176
     1
 90
       50
176
     1
290
     0
176
     1
 90
       50
176
     1
 62
   256
176
     0
 40
1.0
176
     0
 90
        2
176
     1
  1
strokes_ogs.tif
176
     1
290
     0
176
     1
 40
1.0
176
     1
 40
1.0
176
     1
  0
VISUALSTYLE
  5
3B
102
{ACAD_REACTORS
330
2A
102
}
330
2A
100
AcDbVisualStyle
  2
JitterOff
 70
    20
177
     3
291
     1
 70
    58
 90
        2
176
     0
 90
        2
176
     0
 90
        0
176
     0
 90
        0
176
     0
 40
0.6
176
     0
 40
30.0
176
     0
 62
     7
420
 16777215
176
     0
 90
        1
176
     0
 90
        4
176
     0
 62
     7
176
     0
 62
   257
176
     0
 90
        1
176
     0
 90
        1
176
     0
 40
1.0
176
     0
 90
       10
176
     2
 62
     7
176
     0
 40
1.0
176
     0
 90
        1
176
     0
 90
        6
176
     0
 90
        2
176
     0
 62
     7
176
     0
 90
        5
176
     0
 90
        0
176
     0
 90
        0
176
     0
290
     0
176
     0
 90
        1
176
     0
 40
0.0
176
     0
 90
        0
176
     0
290
     0
176
     0
290
     1
176
     0
290
     1
176
     0
290
     0
176
     0
290
     0
176
     0
290
     0
176
     0
290
     0
176
     0
290
     0
176
     0
290
     0
176
     0
 90
       50
176
     0
 40
0.0
176
     0
 40
1.0
176
     0
 90
        0
176
     0
 62
    18
420
        0
176
     0
 90
       50
176
     0
 90
        3
176
     0
 62
     5
420
      255
176
     0
290
     0
176
     0
 90
       50
176
     0
 90
       50
176
     0
 90
       50
176
     0
290
     0
176
     0
 90
       50
176
     0
 62
   256
176
     0
 40
1.0
176
     0
 90
        2
176
     0
  1
strokes_ogs.tif
176
     0
290
     0
176
     0
 40
1.0
176
     0
 40
1.0
176
     0
  0
VISUALSTYLE
  5
38
102
{ACAD_REACTORS
330
2A
102
}
330
2A
100
AcDbVisualStyle
  2
Linepattern
 70
    14
177
     3
291
     1
 70
    58
 90
        2
176
     1
 90
        2
176
     1
 90
        0
176
     1
 90
        0
176
     1
 40
0.6
176
     1
 40
30.0
176
     1
 62
     7
420
 16777215
176
     1
 90
        1
176
     1
 90
        4
176
     1
 62
     7
176
     1
 62
   257
176
     1
 90
        7
176
     1
 90
        7
176
     1
 40
1.0
176
     1
 90
        8
176
     1
 62
     7
176
     1
 40
1.0
176
     1
 90
        1
176
     1
 90
        6
176
     1
 90
        2
176
     1
 62
     7
176
     1
 90
        5
176
     1
 90
        0
176
     1
 90
        0
176
     1
290
     0
176
     1
 90
        1
176
     1
 40
0.0
176
     1
 90
        0
176
     1
290
     0
176
     1
290
     1
176
     1
290
     1
176
     1
290
     0
176
     1
290
     0
176
     1
290
     0
176
     1
290
     0
176
     1
290
     0
176
     1
290
     0
176
     1
 90
       50
176
     1
 40
0.0
176
     1
 40
1.0
176
     1
 90
        0
176
     1
 62
    18
420
        0
176
     1
 90
       50
176
     1
 90
        3
176
     1
 62
     5
420
      255
176
     1
290
     0
176
     1
 90
       50
176
     1
 90
       50
176
     1
 90
       50
176
     1
290
     0
176
     1
 90
       50
176
     1
 62
   256
176
     0
 40
1.0
176
     0
 90
        2
176
     1
  1
strokes_ogs.tif
176
     1
290
     0
176
     1
 40
1.0
176
     1
 40
1.0
176
     1
  0
VISUALSTYLE
  5
3C
102
{ACAD_REACTORS
330
2A
102
}
330
2A
100
AcDbVisualStyle
  2
OverhangOff
 70
    21
177
     3
291
     1
 70
    58
 90
        2
176
     0
 90
        2
176
     0
 90
        0
176
     0
 90
        0
176
     0
 40
0.6
176
     0
 40
30.0
176
     0
 62
     7
420
 16777215
176
     0
 90
        1
176
     0
 90
        4
176
     0
 62
     7
176
     0
 62
   257
176
     0
 90
        1
176
     0
 90
        1
176
     0
 40
1.0
176
     0
 90
        9
176
     2
 62
     7
176
     0
 40
1.0
176
     0
 90
        1
176
     0
 90
        6
176
     0
 90
        2
176
     0
 62
     7
176
     0
 90
        5
176
     0
 90
        0
176
     0
 90
        0
176
     0
290
     0
176
     0
 90
        1
176
     0
 40
0.0
176
     0
 90
        0
176
     0
290
     0
176
     0
290
     1
176
     0
290
     1
176
     0
290
     0
176
     0
290
     0
176
     0
290
     0
176
     0
290
     0
176
     0
290
     0
176
     0
290
     0
176
     0
 90
       50
176
     0
 40
0.0
176
     0
 40
1.0
176
     0
 90
        0
176
     0
 62
    18
420
        0
176
     0
 90
       50
176
     0
 90
        3
176
     0
 62
     5
420
      255
176
     0
290
     0
176
     0
 90
       50
176
     0
 90
       50
176
     0
 90
       50
176
     0
290
     0
176
     0
 90
       50
176
     0
 62
   256
176
     0
 40
1.0
176
     0
 90
        2
176
     0
  1
strokes_ogs.tif
176
     0
290
     0
176
     0
 40
1.0
176
     0
 40
1.0
176
     0
  0
VISUALSTYLE
  5
33
102
{ACAD_REACTORS
330
2A
102
}
330
2A
100
AcDbVisualStyle
  2
Realistic
 70
     8
177
     3
291
     0
 70
    58
 90
        2
176
     1
 90
        3
176
     1
 90
        0
176
     1
 90
        2
176
     1
 40
0.6
176
     1
 40
30.0
176
     1
 62
     7
420
 16777215
176
     1
 90
        0
176
     1
 90
        0
176
     1
 62
     7
176
     1
 62
   257
176
     1
 90
        1
176
     1
 90
        1
176
     1
 40
1.0
176
     1
 90
        8
176
     1
 62
   257
176
     1
 40
1.0
176
     1
 90
        1
176
     1
 90
        6
176
     1
 90
        2
176
     1
 62
     7
176
     1
 90
        3
176
     1
 90
        0
176
     1
 90
        0
176
     1
290
     0
176
     1
 90
       13
176
     1
 40
0.0
176
     1
 90
        0
176
     1
290
     0
176
     1
290
     1
176
     1
290
     1
176
     1
290
     0
176
     1
290
     0
176
     1
290
     0
176
     1
290
     0
176
     1
290
     0
176
     1
290
     0
176
     1
 90
       50
176
     1
 40
0.0
176
     1
 40
1.0
176
     1
 90
        0
176
     1
 62
    18
420
        0
176
     1
 90
       50
176
     1
 90
        3
176
     1
 62
     5
420
      255
176
     1
290
     0
176
     1
 90
       50
176
     1
 90
       50
176
     1
 90
       50
176
     1
290
     0
176
     1
 90
       50
176
     1
 62
   256
176
     0
 40
1.0
176
     0
 90
        2
176
     1
  1
strokes_ogs.tif
176
     1
290
     0
176
     1
 40
1.0
176
     1
 40
1.0
176
     1
  0
VISUALSTYLE
  5
42
102
{ACAD_REACTORS
330
2A
102
}
330
2A
100
AcDbVisualStyle
  2
Shaded
 70
    27
177
     3
291
     0
 70
    58
 90
        2
176
     1
 90
        2
176
     1
 90
        1
176
     1
 90
        2
176
     1
 40
0.6
176
     1
 40
30.0
176
     1
 62
     7
420
 16777215
176
     1
 90
        0
176
     1
 90
        4
176
     1
 62
     7
176
     1
 62
   257
176
     1
 90
        1
176
     1
 90
        1
176
     1
 40
1.0
176
     1
 90
        8
176
     1
 62
   257
176
     1
 40
1.0
176
     1
 90
        1
176
     1
 90
        6
176
     1
 90
        2
176
     1
 62
     8
420
  7895160
176
     1
 90
        3
176
     1
 90
        0
176
     1
 90
        0
176
     1
290
     0
176
     1
 90
        5
176
     1
 40
0.0
176
     1
 90
        0
176
     1
290
     0
176
     1
290
     1
176
     1
290
     1
176
     1
290
     0
176
     1
290
     0
176
     1
290
     0
176
     1
290
     0
176
     1
290
     0
176
     1
290
     0
176
     1
 90
       50
176
     1
 40
0.0
176
     1
 40
1.0
176
     1
 90
        0
176
     1
 62
    18
420
        0
176
     1
 90
       50
176
     1
 90
        3
176
     1
 62
     5
420
      255
176
     1
290
     0
176
     1
 90
       50
176
     1
 90
       50
176
     1
 90
       50
176
     1
290
     0
176
     1
 90
       50
176
     1
 62
   256
176
     0
 40
1.0
176
     0
 90
        2
176
     1
  1
strokes_ogs.tif
176
     1
290
     0
176
     1
 40
1.0
176
     1
 40
1.0
176
     1
  0
VISUALSTYLE
  5
41
102
{ACAD_REACTORS
330
2A
102
}
330
2A
100
AcDbVisualStyle
  2
Shaded with edges
 70
    26
177
     3
291
     0
 70
    58
 90
        2
176
     1
 90
        2
176
     1
 90
        1
176
     1
 90
        2
176
     1
 40
0.6
176
     1
 40
30.0
176
     1
 62
     7
420
 16777215
176
     1
 90
        1
176
     1
 90
       10
176
     1
 62
     7
176
     1
 62
   257
176
     1
 90
        2
176
     1
 90
        1
176
     1
 40
1.0
176
     1
 90
        8
176
     1
 62
   257
176
     1
 40
1.0
176
     1
 90
        1
176
     1
 90
        6
176
     1
 90
        2
176
     1
 62
     7
176
     1
 90
        3
176
     1
 90
        0
176
     1
 90
        0
176
     1
290
     0
176
     1
 90
        5
176
     1
 40
0.0
176
     1
 90
        0
176
     1
290
     0
176
     1
290
     1
176
     1
290
     1
176
     1
290
     0
176
     1
290
     0
176
     1
290
     0
176
     1
290
     0
176
     1
290
     0
176
     1
290
     0
176
     1
 90
       50
176
     1
 40
0.0
176
     1
 40
1.0
176
     1
 90
        0
176
     1
 62
    18
420
        0
176
     1
 90
       50
176
     1
 90
        3
176
     1
 62
     5
420
      255
176
     1
290
     0
176
     1
 90
       50
176
     1
 90
       50
176
     1
 90
       50
176
     1
290
     0
176
     1
 90
       50
176
     1
 62
   256
176
     0
 40
1.0
176
     0
 90
        2
176
     1
  1
strokes_ogs.tif
176
     1
290
     0
176
     1
 40
1.0
176
     1
 40
1.0
176
     1
  0
VISUALSTYLE
  5
3E
102
{ACAD_REACTORS
330
2A
102
}
330
2A
100
AcDbVisualStyle
  2
Shades of Gray
 70
    23
177
     3
291
     0
 70
    58
 90
        2
176
     1
 90
        2
176
     1
 90
        3
176
     1
 90
        0
176
     1
 40
0.6
176
     1
 40
30.0
176
     1
 62
     7
420
 16777215
176
     1
 90
        2
176
     1
 90
        2
176
     1
 62
     7
176
     1
 62
     7
176
     1
 90
        1
176
     1
 90
        1
176
     1
 40
40.0
176
     1
 90
        8
176
     1
 62
     7
176
     1
 40
1.0
176
     1
 90
        1
176
     1
 90
        6
176
     1
 90
        2
176
     1
 62
     7
176
     1
 90
        3
176
     1
 90
        0
176
     1
 90
        0
176
     1
290
     0
176
     1
 90
        1
176
     1
 40
0.0
176
     1
 90
        0
176
     1
290
     0
176
     1
290
     1
176
     1
290
     1
176
     1
290
     0
176
     1
290
     0
176
     1
290
     0
176
     1
290
     0
176
     1
290
     0
176
     1
290
     0
176
     1
 90
       50
176
     1
 40
0.0
176
     1
 40
1.0
176
     1
 90
        0
176
     1
 62
    18
420
        0
176
     1
 90
       50
176
     1
 90
        3
176
     1
 62
     5
420
      255
176
     1
290
     0
176
     1
 90
       50
176
     1
 90
       50
176
     1
 90
       50
176
     1
290
     0
176
     1
 90
       50
176
     1
 62
   256
176
     0
 40
1.0
176
     0
 90
        2
176
     1
  1
strokes_ogs.tif
176
     1
290
     0
176
     1
 40
1.0
176
     1
 40
1.0
176
     1
  0
VISUALSTYLE
  5
3F
102
{ACAD_REACTORS
330
2A
102
}
330
2A
100
AcDbVisualStyle
  2
Sketchy
 70
    24
177
     3
291
     0
 70
    58
 90
        1
176
     1
 90
        2
176
     1
 90
        2
176
     1
 90
        0
176
     1
 40
0.6
176
     1
 40
30.0
176
     1
 62
     7
420
 16777215
176
     1
 90
        2
176
     1
 90
        2
176
     1
 62
     7
176
     1
 62
     7
176
     1
 90
        1
176
     1
 90
        1
176
     1
 40
40.0
176
     1
 90
       11
176
     1
 62
     7
176
     1
 40
1.0
176
     1
 90
        1
176
     1
 90
        6
176
     1
 90
        2
176
     1
 62
     7
176
     1
 90
        6
176
     1
 90
        0
176
     1
 90
        0
176
     1
290
     0
176
     1
 90
        1
176
     1
 40
0.0
176
     1
 90
        0
176
     1
290
     0
176
     1
290
     1
176
     1
290
     1
176
     1
290
     0
176
     1
290
     0
176
     1
290
     0
176
     1
290
     0
176
     1
290
     0
176
     1
290
     0
176
     1
 90
       50
176
     1
 40
0.0
176
     1
 40
1.0
176
     1
 90
        0
176
     1
 62
    18
420
        0
176
     1
 90
       50
176
     1
 90
        3
176
     1
 62
     5
420
      255
176
     1
290
     0
176
     1
 90
       50
176
     1
 90
       50
176
     1
 90
       50
176
     1
290
     0
176
     1
 90
       50
176
     1
 62
   256
176
     0
 40
1.0
176
     0
 90
        2
176
     1
  1
strokes_ogs.tif
176
     1
290
     0
176
     1
 40
1.0
176
     1
 40
1.0
176
     1
  0
VISUALSTYLE
  5
37
102
{ACAD_REACTORS
330
2A
102
}
330
2A
100
AcDbVisualStyle
  2
Thicken
 70
    13
177
     3
291
     1
 70
    58
 90
        2
176
     1
 90
        2
176
     1
 90
        0
176
     1
 90
        0
176
     1
 40
0.6
176
     1
 40
30.0
176
     1
 62
     7
420
 16777215
176
     1
 90
        1
176
     1
 90
        4
176
     1
 62
     7
176
     1
 62
   257
176
     1
 90
        1
176
     1
 90
        1
176
     1
 40
1.0
176
     1
 90
       12
176
     1
 62
     7
176
     1
 40
1.0
176
     1
 90
        1
176
     1
 90
        6
176
     1
 90
        2
176
     1
 62
     7
176
     1
 90
        5
176
     1
 90
        0
176
     1
 90
        0
176
     1
290
     0
176
     1
 90
        1
176
     1
 40
0.0
176
     1
 90
        0
176
     1
290
     0
176
     1
290
     1
176
     1
290
     1
176
     1
290
     0
176
     1
290
     0
176
     1
290
     0
176
     1
290
     0
176
     1
290
     0
176
     1
290
     0
176
     1
 90
       50
176
     1
 40
0.0
176
     1
 40
1.0
176
     1
 90
        0
176
     1
 62
    18
420
        0
176
     1
 90
       50
176
     1
 90
        3
176
     1
 62
     5
420
      255
176
     1
290
     0
176
     1
 90
       50
176
     1
 90
       50
176
     1
 90
       50
176
     1
290
     0
176
     1
 90
       50
176
     1
 62
   256
176
     0
 40
1.0
176
     0
 90
        2
176
     1
  1
strokes_ogs.tif
176
     1
290
     0
176
     1
 40
1.0
176
     1
 40
1.0
176
     1
  0
VISUALSTYLE
  5
30
102
{ACAD_REACTORS
330
2A
102
}
330
2A
100
AcDbVisualStyle
  2
Wireframe
 70
     5
177
     3
291
     0
 70
    58
 90
        0
176
     1
 90
        2
176
     1
 90
        0
176
     1
 90
        0
176
     1
 40
0.6
176
     1
 40
30.0
176
     1
 62
     7
420
 16777215
176
     1
 90
        1
176
     1
 90
        4
176
     1
 62
     7
176
     1
 62
   257
176
     1
 90
        1
176
     1
 90
        1
176
     1
 40
1.0
176
     1
 90
        0
176
     1
 62
   257
176
     1
 40
1.0
176
     1
 90
        1
176
     1
 90
        6
176
     1
 90
        2
176
     1
 62
     7
176
     1
 90
        3
176
     1
 90
        0
176
     1
 90
        0
176
     1
290
     0
176
     1
 90
        1
176
     1
 40
0.0
176
     1
 90
        0
176
     1
290
     0
176
     1
290
     1
176
     1
290
     1
176
     1
290
     0
176
     1
290
     0
176
     1
290
     0
176
     1
290
     0
176
     1
290
     0
176
     1
290
     0
176
     1
 90
       50
176
     1
 40
0.0
176
     1
 40
1.0
176
     1
 90
        0
176
     1
 62
    18
420
        0
176
     1
 90
       50
176
     1
 90
        3
176
     1
 62
     5
420
      255
176
     1
290
     0
176
     1
 90
       50
176
     1
 90
       50
176
     1
 90
       50
176
     1
290
     0
176
     1
 90
       50
176
     1
 62
   256
176
     0
 40
1.0
176
     0
 90
        2
176
     1
  1
strokes_ogs.tif
176
     1
290
     0
176
     1
 40
1.0
176
     1
 40
1.0
176
     1
  0
VISUALSTYLE
  5
40
102
{ACAD_REACTORS
330
2A
102
}
330
2A
100
AcDbVisualStyle
  2
X-Ray
 70
    25
177
     3
291
     0
 70
    58
 90
        2
176
     1
 90
        2
176
     1
 90
        1
176
     1
 90
        1
176
     1
 40
0.5
176
     1
 40
30.0
176
     1
 62
     7
420
 16777215
176
     1
 90
        1
176
     1
 90
        0
176
     1
 62
     7
176
     1
 62
   257
176
     1
 90
        1
176
     1
 90
        1
176
     1
 40
1.0
176
     1
 90
        8
176
     1
 62
     7
176
     1
 40
1.0
176
     1
 90
        1
176
     1
 90
        6
176
     1
 90
        2
176
     1
 62
     7
176
     1
 90
        3
176
     1
 90
        0
176
     1
 90
        0
176
     1
290
     0
176
     1
 90
       13
176
     1
 40
0.0
176
     1
 90
        0
176
     1
290
     0
176
     1
290
     1
176
     1
290
     1
176
     1
290
     0
176
     1
290
     0
176
     1
290
     0
176
     1
290
     0
176
     1
290
     0
176
     1
290
     0
176
     1
 90
       50
176
     1
 40
0.0
176
     1
 40
1.0
176
     1
 90
        0
176
     1
 62
    18
420
        0
176
     1
 90
       50
176
     1
 90
        3
176
     1
 62
     5
420
      255
176
     1
290
     0
176
     1
 90
       50
176
     1
 90
       50
176
     1
 90
       50
176
     1
290
     0
176
     1
 90
       50
176
     1
 62
   256
176
     0
 40
1.0
176
     0
 90
        2
176
     1
  1
strokes_ogs.tif
176
     1
290
     0
176
     1
 40
1.0
176
     1
 40
1.0
176
     1
  0
DICTIONARYVAR
  5
1E1
102
{ACAD_REACTORS
330
1E0
102
}
330
1E0
100
DictionaryVariables
280
     0
  1
1:1
  0
DICTIONARYVAR
  5
1E6
102
{ACAD_REACTORS
330
1E0
102
}
330
1E0
100
DictionaryVariables
280
     0
  1
Standard
  0
DICTIONARYVAR
  5
1E5
102
{ACAD_REACTORS
330
1E0
102
}
330
1E0
100
DictionaryVariables
280
     0
  1
Standard
  0
DICTIONARY
  5
1E2
330
6A
100
AcDbDictionary
280
     1
281
     1
  3
ACAD_ROUNDTRIP_2008_TABLESTYLE_CELLSTYLEMAP
360
1E3
  0
CELLSTYLEMAP
  5
1E3
102
{ACAD_REACTORS
330
1E2
102
}
330
1E2
100
AcDbCellStyleMap
 90
        3
300
CELLSTYLE
  1
TABLEFORMAT_BEGIN
 90
        5
170
     1
 91
        0
 92
    32768
 62
   257
 93
        1
300
CONTENTFORMAT
  1
CONTENTFORMAT_BEGIN
 90
        0
 91
        0
 92
        4
 93
        0
300

 40
0.0
140
1.0
 94
        5
 62
     0
340
11
144
6.0
309
CONTENTFORMAT_END
171
     1
301
MARGIN
  1
CELLMARGIN_BEGIN
 40
1.5
 40
1.5
 40
1.5
 40
1.5
 40
1.5
 40
1.5
309
CELLMARGIN_END
 94
        6
 95
        1
302
GRIDFORMAT
  1
GRIDFORMAT_BEGIN
 90
        0
 91
        1
 62
     0
 92
       -2
340
14
 93
        0
 40
0.045
309
GRIDFORMAT_END
 95
        2
302
GRIDFORMAT
  1
GRIDFORMAT_BEGIN
 90
        0
 91
        1
 62
     0
 92
       -2
340
14
 93
        0
 40
0.045
309
GRIDFORMAT_END
 95
        4
302
GRIDFORMAT
  1
GRIDFORMAT_BEGIN
 90
        0
 91
        1
 62
     0
 92
       -2
340
14
 93
        0
 40
0.045
309
GRIDFORMAT_END
 95
        8
302
GRIDFORMAT
  1
GRIDFORMAT_BEGIN
 90
        0
 91
        1
 62
     0
 92
       -2
340
14
 93
        0
 40
0.045
309
GRIDFORMAT_END
 95
       16
302
GRIDFORMAT
  1
GRIDFORMAT_BEGIN
 90
        0
 91
        1
 62
     0
 92
       -2
340
14
 93
        0
 40
0.045
309
GRIDFORMAT_END
 95
       32
302
GRIDFORMAT
  1
GRIDFORMAT_BEGIN
 90
        0
 91
        1
 62
     0
 92
       -2
340
14
 93
        0
 40
0.045
309
GRIDFORMAT_END
309
TABLEFORMAT_END
  1
CELLSTYLE_BEGIN
 90
        1
 91
        1
300
_TITLE
309
CELLSTYLE_END
300
CELLSTYLE
  1
TABLEFORMAT_BEGIN
 90
        5
170
     1
 91
        0
 92
        0
 62
   257
 93
        1
300
CONTENTFORMAT
  1
CONTENTFORMAT_BEGIN
 90
        0
 91
        0
 92
        4
 93
        0
300

 40
0.0
140
1.0
 94
        5
 62
     0
340
11
144
4.5
309
CONTENTFORMAT_END
171
     1
301
MARGIN
  1
CELLMARGIN_BEGIN
 40
1.5
 40
1.5
 40
1.5
 40
1.5
 40
1.5
 40
1.5
309
CELLMARGIN_END
 94
        6
 95
        1
302
GRIDFORMAT
  1
GRIDFORMAT_BEGIN
 90
        0
 91
        1
 62
     0
 92
       -2
340
14
 93
        0
 40
0.045
309
GRIDFORMAT_END
 95
        2
302
GRIDFORMAT
  1
GRIDFORMAT_BEGIN
 90
        0
 91
        1
 62
     0
 92
       -2
340
14
 93
        0
 40
0.045
309
GRIDFORMAT_END
 95
        4
302
GRIDFORMAT
  1
GRIDFORMAT_BEGIN
 90
        0
 91
        1
 62
     0
 92
       -2
340
14
 93
        0
 40
0.045
309
GRIDFORMAT_END
 95
        8
302
GRIDFORMAT
  1
GRIDFORMAT_BEGIN
 90
        0
 91
        1
 62
     0
 92
       -2
340
14
 93
        0
 40
0.045
309
GRIDFORMAT_END
 95
       16
302
GRIDFORMAT
  1
GRIDFORMAT_BEGIN
 90
        0
 91
        1
 62
     0
 92
       -2
340
14
 93
        0
 40
0.045
309
GRIDFORMAT_END
 95
       32
302
GRIDFORMAT
  1
GRIDFORMAT_BEGIN
 90
        0
 91
        1
 62
     0
 92
       -2
340
14
 93
        0
 40
0.045
309
GRIDFORMAT_END
309
TABLEFORMAT_END
  1
CELLSTYLE_BEGIN
 90
        2
 91
        1
300
_HEADER
309
CELLSTYLE_END
300
CELLSTYLE
  1
TABLEFORMAT_BEGIN
 90
        5
170
     1
 91
        0
 92
        0
 62
   257
 93
        1
300
CONTENTFORMAT
  1
CONTENTFORMAT_BEGIN
 90
        0
 91
        0
 92
        4
 93
        0
300

 40
0.0
140
1.0
 94
        2
 62
     0
340
11
144
4.5
309
CONTENTFORMAT_END
171
     1
301
MARGIN
  1
CELLMARGIN_BEGIN
 40
1.5
 40
1.5
 40
1.5
 40
1.5
 40
1.5
 40
1.5
309
CELLMARGIN_END
 94
        6
 95
        1
302
GRIDFORMAT
  1
GRIDFORMAT_BEGIN
 90
        0
 91
        1
 62
     0
 92
       -2
340
14
 93
        0
 40
0.045
309
GRIDFORMAT_END
 95
        2
302
GRIDFORMAT
  1
GRIDFORMAT_BEGIN
 90
        0
 91
        1
 62
     0
 92
       -2
340
14
 93
        0
 40
0.045
309
GRIDFORMAT_END
 95
        4
302
GRIDFORMAT
  1
GRIDFORMAT_BEGIN
 90
        0
 91
        1
 62
     0
 92
       -2
340
14
 93
        0
 40
0.045
309
GRIDFORMAT_END
 95
        8
302
GRIDFORMAT
  1
GRIDFORMAT_BEGIN
 90
        0
 91
        1
 62
     0
 92
       -2
340
14
 93
        0
 40
0.045
309
GRIDFORMAT_END
 95
       16
302
GRIDFORMAT
  1
GRIDFORMAT_BEGIN
 90
        0
 91
        1
 62
     0
 92
       -2
340
14
 93
        0
 40
0.045
309
GRIDFORMAT_END
 95
       32
302
GRIDFORMAT
  1
GRIDFORMAT_BEGIN
 90
        0
 91
        1
 62
     0
 92
       -2
340
14
 93
        0
 40
0.045
309
GRIDFORMAT_END
309
TABLEFORMAT_END
  1
CELLSTYLE_BEGIN
 90
        3
 91
        2
300
_DATA
309
CELLSTYLE_END
  0
ENDSEC
  0
EOF