0
SECTION
  2
HEADER
  9
$ACADVER
  1
AC1027
  9
$ACADMAINTVER
 70
     8
  9
$DWGCODEPAGE
  3
ANSI_1252
  9
$REQUIREDVERSIONS
160
                 0
  9
$COMMENTS
  1
File was created by Cadenas
  9
$CUSTOMPROPERTYTAG
  1
NN
  9
$CUSTOMPROPERTY
  1
Set Screw Wide Slot Take Up Metric Bore
  9
$CUSTOMPROPERTYTAG
  1
NT
  9
$CUSTOMPROPERTY
  1
SC Take-Up Bearings -Wide Slot -(Normal Duty)
  9
$CUSTOMPROPERTYTAG
  1
NB
  9
$CUSTOMPROPERTY
  1
125918
  9
$CUSTOMPROPERTYTAG
  1
NBSYN
  9
$CUSTOMPROPERTY
  1
$PN.
  9
$CUSTOMPROPERTYTAG
  1
LINA
  9
$CUSTOMPROPERTY
  1
125918
  9
$CUSTOMPROPERTYTAG
  1
SERIES
  9
$CUSTOMPROPERTY
  1
212
  9
$CUSTOMPROPERTYTAG
  1
SS
  9
$CUSTOMPROPERTY
  1
60
  9
$CUSTOMPROPERTYTAG
  1
PN
  9
$CUSTOMPROPERTY
  1
125918
  9
$CUSTOMPROPERTYTAG
  1
DESCRIPTION
  9
$CUSTOMPROPERTY
  1
WSTU-SC-60M
  9
$CUSTOMPROPERTYTAG
  1
W
  9
$CUSTOMPROPERTY
  1
4.9
  9
$CUSTOMPROPERTYTAG
  1
FS
  9
$CUSTOMPROPERTY
  1
WS502
  9
$CUSTOMPROPERTYTAG
  1
LF
  9
$CUSTOMPROPERTY
  1
RE-LUBE
  9
$CUSTOMPROPERTYTAG
  1
A
  9
$CUSTOMPROPERTY
  1
58.7
  9
$CUSTOMPROPERTYTAG
  1
B
  9
$CUSTOMPROPERTY
  1
190.5
  9
$CUSTOMPROPERTYTAG
  1
C
  9
$CUSTOMPROPERTY
  1
27.00
  9
$CUSTOMPROPERTYTAG
  1
D
  9
$CUSTOMPROPERTY
  1
101.6
  9
$CUSTOMPROPERTYTAG
  1
E
  9
$CUSTOMPROPERTY
  1
119.1
  9
$CUSTOMPROPERTYTAG
  1
F
  9
$CUSTOMPROPERTY
  1
31.8
  9
$CUSTOMPROPERTYTAG
  1
G
  9
$CUSTOMPROPERTY
  1
19.1
  9
$CUSTOMPROPERTYTAG
  1
H
  9
$CUSTOMPROPERTY
  1
31.8
  9
$CUSTOMPROPERTYTAG
  1
J
  9
$CUSTOMPROPERTY
  1
101.6
  9
$CUSTOMPROPERTYTAG
  1
K
  9
$CUSTOMPROPERTY
  1
63.5
  9
$CUSTOMPROPERTYTAG
  1
L
  9
$CUSTOMPROPERTY
  1
75.4
  9
$CUSTOMPROPERTYTAG
  1
M
  9
$CUSTOMPROPERTY
  1
129.79/130.56
  9
$CUSTOMPROPERTYTAG
  1
N
  9
$CUSTOMPROPERTY
  1
149.4
  9
$CUSTOMPROPERTYTAG
  1
R
  9
$CUSTOMPROPERTY
  1
22.9
  9
$CUSTOMPROPERTYTAG
  1
S
  9
$CUSTOMPROPERTY
  1
35.8
  9
$CUSTOMPROPERTYTAG
  1
T
  9
$CUSTOMPROPERTY
  1
63.5
  9
$CUSTOMPROPERTYTAG
  1
COMPANY
  9
$CUSTOMPROPERTY
  1
baldor
  9
$INSBASE
 10
0.0
 20
0.0
 30
0.0
  9
$EXTMIN
 10
1.000000000000000E+20
 20
1.000000000000000E+20
 30
1.000000000000000E+20
  9
$EXTMAX
 10
-1.000000000000000E+20
 20
-1.000000000000000E+20
 30
-1.000000000000000E+20
  9
$LIMMIN
 10
0.0
 20
0.0
  9
$LIMMAX
 10
420.0
 20
297.0
  9
$ORTHOMODE
 70
     0
  9
$REGENMODE
 70
     1
  9
$FILLMODE
 70
     1
  9
$QTEXTMODE
 70
     0
  9
$MIRRTEXT
 70
     1
  9
$LTSCALE
 40
1.0
  9
$ATTMODE
 70
     1
  9
$TEXTSIZE
 40
2.5
  9
$TRACEWID
 40
1.0
  9
$TEXTSTYLE
  7
Standard
  9
$CLAYER
  8
0
  9
$CELTYPE
  6
ByLayer
  9
$CECOLOR
 62
   256
  9
$CELTSCALE
 40
1.0
  9
$DISPSILH
 70
     0
  9
$DIMSCALE
 40
1.0
  9
$DIMASZ
 40
2.5
  9
$DIMEXO
 40
0.625
  9
$DIMDLI
 40
3.75
  9
$DIMRND
 40
0.0
  9
$DIMDLE
 40
0.0
  9
$DIMEXE
 40
1.25
  9
$DIMTP
 40
0.0
  9
$DIMTM
 40
0.0
  9
$DIMTXT
 40
2.5
  9
$DIMCEN
 40
2.5
  9
$DIMTSZ
 40
0.0
  9
$DIMTOL
 70
     0
  9
$DIMLIM
 70
     0
  9
$DIMTIH
 70
     0
  9
$DIMTOH
 70
     0
  9
$DIMSE1
 70
     0
  9
$DIMSE2
 70
     0
  9
$DIMTAD
 70
     1
  9
$DIMZIN
 70
     8
  9
$DIMBLK
  1

  9
$DIMASO
 70
     1
  9
$DIMSHO
 70
     1
  9
$DIMPOST
  1

  9
$DIMAPOST
  1

  9
$DIMALT
 70
     0
  9
$DIMALTD
 70
     3
  9
$DIMALTF
 40
0.03937007874016
  9
$DIMLFAC
 40
1.0
  9
$DIMTOFL
 70
     1
  9
$DIMTVP
 40
0.0
  9
$DIMTIX
 70
     0
  9
$DIMSOXD
 70
     0
  9
$DIMSAH
 70
     0
  9
$DIMBLK1
  1

  9
$DIMBLK2
  1

  9
$DIMSTYLE
  2
ISO-25
  9
$DIMCLRD
 70
     0
  9
$DIMCLRE
 70
     0
  9
$DIMCLRT
 70
     0
  9
$DIMTFAC
 40
1.0
  9
$DIMGAP
 40
0.625
  9
$DIMJUST
 70
     0
  9
$DIMSD1
 70
     0
  9
$DIMSD2
 70
     0
  9
$DIMTOLJ
 70
     0
  9
$DIMTZIN
 70
     8
  9
$DIMALTZ
 70
     0
  9
$DIMALTTZ
 70
     0
  9
$DIMUPT
 70
     0
  9
$DIMDEC
 70
     2
  9
$DIMTDEC
 70
     2
  9
$DIMALTU
 70
     2
  9
$DIMALTTD
 70
     3
  9
$DIMTXSTY
  7
Standard
  9
$DIMAUNIT
 70
     0
  9
$DIMADEC
 70
     0
  9
$DIMALTRND
 40
0.0
  9
$DIMAZIN
 70
     0
  9
$DIMDSEP
 70
    44
  9
$DIMATFIT
 70
     3
  9
$DIMFRAC
 70
     0
  9
$DIMLDRBLK
  1

  9
$DIMLUNIT
 70
     2
  9
$DIMLWD
 70
    -2
  9
$DIMLWE
 70
    -2
  9
$DIMTMOVE
 70
     0
  9
$DIMFXL
 40
1.0
  9
$DIMFXLON
 70
     0
  9
$DIMJOGANG
 40
0.7853981633974483
  9
$DIMTFILL
 70
     0
  9
$DIMTFILLCLR
 70
     0
  9
$DIMARCSYM
 70
     0
  9
$DIMLTYPE
  6

  9
$DIMLTEX1
  6

  9
$DIMLTEX2
  6

  9
$DIMTXTDIRECTION
 70
     0
  9
$LUNITS
 70
     2
  9
$LUPREC
 70
     4
  9
$SKETCHINC
 40
1.0
  9
$FILLETRAD
 40
10.0
  9
$AUNITS
 70
     0
  9
$AUPREC
 70
     0
  9
$MENU
  1
.
  9
$ELEVATION
 40
0.0
  9
$PELEVATION
 40
0.0
  9
$THICKNESS
 40
0.0
  9
$LIMCHECK
 70
     0
  9
$CHAMFERA
 40
0.0
  9
$CHAMFERB
 40
0.0
  9
$CHAMFERC
 40
0.0
  9
$CHAMFERD
 40
0.0
  9
$SKPOLY
 70
     0
  9
$TDCREATE
 40
2458168.98599272
  9
$TDUCREATE
 40
2458168.944326053
  9
$TDUPDATE
 40
2458168.985992905
  9
$TDUUPDATE
 40
2458168.944326238
  9
$TDINDWG
 40
0.0000000116
  9
$TDUSRTIMER
 40
0.0000000116
  9
$USRTIMER
 70
     1
  9
$ANGBASE
 50
0.0
  9
$ANGDIR
 70
     0
  9
$PDMODE
 70
     0
  9
$PDSIZE
 40
0.0
  9
$PLINEWID
 40
0.0
  9
$SPLFRAME
 70
     0
  9
$SPLINETYPE
 70
     6
  9
$SPLINESEGS
 70
     8
  9
$HANDSEED
  5
1E7
  9
$SURFTAB1
 70
     6
  9
$SURFTAB2
 70
     6
  9
$SURFTYPE
 70
     6
  9
$SURFU
 70
     6
  9
$SURFV
 70
     6
  9
$UCSBASE
  2

  9
$UCSNAME
  2

  9
$UCSORG
 10
0.0
 20
0.0
 30
0.0
  9
$UCSXDIR
 10
1.0
 20
0.0
 30
0.0
  9
$UCSYDIR
 10
0.0
 20
1.0
 30
0.0
  9
$UCSORTHOREF
  2

  9
$UCSORTHOVIEW
 70
     0
  9
$UCSORGTOP
 10
0.0
 20
0.0
 30
0.0
  9
$UCSORGBOTTOM
 10
0.0
 20
0.0
 30
0.0
  9
$UCSORGLEFT
 10
0.0
 20
0.0
 30
0.0
  9
$UCSORGRIGHT
 10
0.0
 20
0.0
 30
0.0
  9
$UCSORGFRONT
 10
0.0
 20
0.0
 30
0.0
  9
$UCSORGBACK
 10
0.0
 20
0.0
 30
0.0
  9
$PUCSBASE
  2

  9
$PUCSNAME
  2

  9
$PUCSORG
 10
0.0
 20
0.0
 30
0.0
  9
$PUCSXDIR
 10
1.0
 20
0.0
 30
0.0
  9
$PUCSYDIR
 10
0.0
 20
1.0
 30
0.0
  9
$PUCSORTHOREF
  2

  9
$PUCSORTHOVIEW
 70
     0
  9
$PUCSORGTOP
 10
0.0
 20
0.0
 30
0.0
  9
$PUCSORGBOTTOM
 10
0.0
 20
0.0
 30
0.0
  9
$PUCSORGLEFT
 10
0.0
 20
0.0
 30
0.0
  9
$PUCSORGRIGHT
 10
0.0
 20
0.0
 30
0.0
  9
$PUCSORGFRONT
 10
0.0
 20
0.0
 30
0.0
  9
$PUCSORGBACK
 10
0.0
 20
0.0
 30
0.0
  9
$USERI1
 70
     0
  9
$USERI2
 70
     0
  9
$USERI3
 70
     0
  9
$USERI4
 70
     0
  9
$USERI5
 70
     0
  9
$USERR1
 40
0.0
  9
$USERR2
 40
0.0
  9
$USERR3
 40
0.0
  9
$USERR4
 40
0.0
  9
$USERR5
 40
0.0
  9
$WORLDVIEW
 70
     1
  9
$SHADEDGE
 70
     3
  9
$SHADEDIF
 70
    70
  9
$TILEMODE
 70
     1
  9
$MAXACTVP
 70
    64
  9
$PINSBASE
 10
0.0
 20
0.0
 30
0.0
  9
$PLIMCHECK
 70
     0
  9
$PEXTMIN
 10
1.000000000000000E+20
 20
1.000000000000000E+20
 30
1.000000000000000E+20
  9
$PEXTMAX
 10
-1.000000000000000E+20
 20
-1.000000000000000E+20
 30
-1.000000000000000E+20
  9
$PLIMMIN
 10
0.0
 20
0.0
  9
$PLIMMAX
 10
420.0
 20
297.0
  9
$UNITMODE
 70
     0
  9
$VISRETAIN
 70
     1
  9
$PLINEGEN
 70
     0
  9
$PSLTSCALE
 70
     1
  9
$TREEDEPTH
 70
  3020
  9
$CMLSTYLE
  2
Standard
  9
$CMLJUST
 70
     0
  9
$CMLSCALE
 40
20.0
  9
$PROXYGRAPHICS
 70
     1
  9
$MEASUREMENT
 70
     1
  9
$CELWEIGHT
370
    -1
  9
$ENDCAPS
280
     0
  9
$JOINSTYLE
280
     0
  9
$LWDISPLAY
290
     0
  9
$INSUNITS
 70
     4
  9
$HYPERLINKBASE
  1

  9
$STYLESHEET
  1

  9
$XEDIT
290
     1
  9
$CEPSNTYPE
380
     0
  9
$PSTYLEMODE
290
     1
  9
$FINGERPRINTGUID
  2
{B9663298-E7BE-4C08-ABD4-D3D82D075118}
  9
$VERSIONGUID
  2
{FAEB1C32-E019-11D5-929B-00C0DF256EC4}
  9
$EXTNAMES
290
     1
  9
$PSVPSCALE
 40
0.0
  9
$OLESTARTUP
290
     0
  9
$SORTENTS
280
   127
  9
$INDEXCTL
280
     0
  9
$HIDETEXT
280
     1
  9
$XCLIPFRAME
280
     2
  9
$HALOGAP
280
     0
  9
$OBSCOLOR
 70
   257
  9
$OBSLTYPE
280
     0
  9
$INTERSECTIONDISPLAY
280
     0
  9
$INTERSECTIONCOLOR
 70
   257
  9
$DIMASSOC
280
     2
  9
$PROJECTNAME
  1

  9
$CAMERADISPLAY
290
     0
  9
$LENSLENGTH
 40
50.0
  9
$CAMERAHEIGHT
 40
0.0
  9
$STEPSPERSEC
 40
2.0
  9
$STEPSIZE
 40
6.0
  9
$3DDWFPREC
 40
2.0
  9
$PSOLWIDTH
 40
5.0
  9
$PSOLHEIGHT
 40
80.0
  9
$LOFTANG1
 40
1.570796326794897
  9
$LOFTANG2
 40
1.570796326794897
  9
$LOFTMAG1
 40
0.0
  9
$LOFTMAG2
 40
0.0
  9
$LOFTPARAM
 70
     7
  9
$LOFTNORMALS
280
     1
  9
$LATITUDE
 40
37.795
  9
$LONGITUDE
 40
-122.394
  9
$NORTHDIRECTION
 40
0.0
  9
$TIMEZONE
 70
 -8000
  9
$LIGHTGLYPHDISPLAY
280
     1
  9
$TILEMODELIGHTSYNCH
280
     1
  9
$CMATERIAL
347
44
  9
$SOLIDHIST
280
     0
  9
$SHOWHIST
280
     1
  9
$DWFFRAME
280
     2
  9
$DGNFRAME
280
     2
  9
$REALWORLDSCALE
290
     1
  9
$INTERFERECOLOR
 62
   256
  9
$CSHADOW
280
     0
  9
$SHADOWPLANELOCATION
 40
0.0
  0
ENDSEC
  0
SECTION
  2
CLASSES
  0
CLASS
  1
ACDBDICTIONARYWDFLT
  2
AcDbDictionaryWithDefault
  3
ObjectDBX Classes
 90
        0
 91
        4
280
     0
281
     0
  0
CLASS
  1
VISUALSTYLE
  2
AcDbVisualStyle
  3
ObjectDBX Classes
 90
     4095
 91
        4
280
     0
281
     0
  0
CLASS
  1
MATERIAL
  2
AcDbMaterial
  3
ObjectDBX Classes
 90
     1153
 91
        4
280
     0
281
     0
  0
CLASS
  1
SCALE
  2
AcDbScale
  3
ObjectDBX Classes
 90
     1153
 91
        4
280
     0
281
     0
  0
CLASS
  1
TABLESTYLE
  2
AcDbTableStyle
  3
ObjectDBX Classes
 90
     4095
 91
        4
280
     0
281
     0
  0
CLASS
  1
MLEADERSTYLE
  2
AcDbMLeaderStyle
  3
ACDB_MLEADERSTYLE_CLASS
 90
     4095
 91
        4
280
     0
281
     0
  0
CLASS
  1
SUN
  2
AcDbSun
  3
SCENEOE
 90
     1153
 91
        4
280
     0
281
     0
  0
CLASS
  1
DICTIONARYVAR
  2
AcDbDictionaryVar
  3
ObjectDBX Classes
 90
        0
 91
        4
280
     0
281
     0
  0
CLASS
  1
CELLSTYLEMAP
  2
AcDbCellStyleMap
  3
ObjectDBX Classes
 90
     1152
 91
        4
280
     0
281
     0
  0
ENDSEC
  0
SECTION
  2
TABLES
  0
TABLE
  2
VPORT
  5
8
330
0
100
AcDbSymbolTable
 70
     1
  0
VPORT
  5
29
330
8
100
AcDbSymbolTableRecord
100
AcDbViewportTableRecord
  2
*Active
 70
     0
 10
0.0
 20
0.0
 11
1.0
 21
1.0
 12
20.87896522250014
 22
-3.492500000000007
 13
0.0
 23
0.0
 14
10.0
 24
10.0
 15
10.0
 25
10.0
 16
0.0
 26
0.0
 36
1.0
 17
0.0
 27
0.0
 37
0.0
 40
71.89470000000001
 41
2.814103278073345
 42
50.0
 43
0.0
 44
0.0
 50
0.0
 51
0.0
 71
     0
 72
   100
 73
     1
 74
     3
 75
     0
 76
     0
 77
     0
 78
     0
281
     0
 65
     1
110
0.0
120
0.0
130
0.0
111
1.0
121
0.0
131
0.0
112
0.0
122
1.0
132
0.0
 79
     0
146
0.0
348
2F
 60
     3
 61
     5
292
     1
282
     1
141
0.0
142
0.0
 63
   250
361
6D
  0
ENDTAB
  0
TABLE
  2
LTYPE
  5
5
330
0
100
AcDbSymbolTable
 70
     3
  0
LTYPE
  5
14
330
5
100
AcDbSymbolTableRecord
100
AcDbLinetypeTableRecord
  2
ByBlock
 70
     0
  3

 72
    65
 73
     0
 40
0.0
  0
LTYPE
  5
15
330
5
100
AcDbSymbolTableRecord
100
AcDbLinetypeTableRecord
  2
ByLayer
 70
     0
  3

 72
    65
 73
     0
 40
0.0
  0
LTYPE
  5
16
330
5
100
AcDbSymbolTableRecord
100
AcDbLinetypeTableRecord
  2
Continuous
 70
     0
  3
Solid line
 72
    65
 73
     0
 40
0.0
  0
LTYPE
  5
A7
330
5
100
AcDbSymbolTableRecord
100
AcDbLinetypeTableRecord
  2
Dashed
 70
     0
  3

 72
    65
 73
     2
 40
2.0
 49
1.0
 74
     0
 49
-1.0
 74
     0
  0
LTYPE
  5
DF
330
5
100
AcDbSymbolTableRecord
100
AcDbLinetypeTableRecord
  2
Center
 70
     0
  3

 72
    65
 73
     4
 40
1.5
 49
0.45
 74
     0
 49
-0.5
 74
     0
 49
0.05
 74
     0
 49
-0.5
 74
     0
  0
ENDTAB
  0
TABLE
  2
LAYER
  5
2
330
0
100
AcDbSymbolTable
 70
     7
  0
LAYER
  5
10
330
2
100
AcDbSymbolTableRecord
100
AcDbLayerTableRecord
  2
0
 70
     0
 62
     7
  6
Continuous
370
    -3
390
F
347
46
348
0
  0
LAYER
  5
72
330
2
100
AcDbSymbolTableRecord
100
AcDbLayerTableRecord
  2
AM_6
 70
     0
 62
    -2
  6
Continuous
370
    35
390
F
347
46
348
0
  0
LAYER
  5
A8
330
2
100
AcDbSymbolTableRecord
100
AcDbLayerTableRecord
  2
AM_9
 70
     0
 62
     6
  6
Dashed
370
    25
390
F
347
46
348
0
  0
LAYER
  5
DA
330
2
100
AcDbSymbolTableRecord
100
AcDbLayerTableRecord
  2
AM_5
 70
     0
 62
     3
  6
Continuous
370
    25
390
F
347
46
348
0
  0
LAYER
  5
E0
330
2
100
AcDbSymbolTableRecord
100
AcDbLayerTableRecord
  2
AM_7
 70
     0
 62
     7
  6
Center
370
    25
390
F
347
46
348
0
  0
LAYER
  5
E3
330
2
100
AcDbSymbolTableRecord
100
AcDbLayerTableRecord
  2
AM_4
 70
     0
 62
     7
  6
Continuous
370
    50
390
F
347
46
348
0
  0
LAYER
  5
1DA
330
2
100
AcDbSymbolTableRecord
100
AcDbLayerTableRecord
  2
ConnectionPoints
 70
     0
 62
     7
  6
Continuous
370
    50
390
F
347
46
348
0
  0
ENDTAB
  0
TABLE
  2
STYLE
  5
3
330
0
100
AcDbSymbolTable
 70
     1
  0
STYLE
  5
11
330
3
100
AcDbSymbolTableRecord
100
AcDbTextStyleTableRecord
  2
Standard
 70
     0
 40
0.0
 41
1.0
 50
0.0
 71
     0
 42
2.5
  3
txt
  4

  0
ENDTAB
  0
TABLE
  2
VIEW
  5
6
330
0
100
AcDbSymbolTable
 70
     0
  0
ENDTAB
  0
TABLE
  2
UCS
  5
7
330
0
100
AcDbSymbolTable
 70
     0
  0
ENDTAB
  0
TABLE
  2
APPID
  5
9
330
0
100
AcDbSymbolTable
 70
     1
  0
APPID
  5
12
330
9
100
AcDbSymbolTableRecord
100
AcDbRegAppTableRecord
  2
ACAD
 70
     0
  0
ENDTAB
  0
TABLE
  2
DIMSTYLE
  5
A
330
0
100
AcDbSymbolTable
 70
     1
100
AcDbDimStyleTable
  0
DIMSTYLE
105
27
330
A
100
AcDbSymbolTableRecord
100
AcDbDimStyleTableRecord
  2
ISO-25
 70
     0
 41
2.5
 42
0.625
 43
3.75
 44
1.25
 73
     0
 74
     0
 77
     1
 78
     8
140
2.5
141
2.5
143
0.03937007874016
147
0.625
171
     3
172
     1
178
     0
271
     2
272
     2
274
     3
278
    44
283
     0
284
     8
340
11
  0
ENDTAB
  0
TABLE
  2
BLOCK_RECORD
  5
1
330
0
100
AcDbSymbolTable
 70
     5
  0
BLOCK_RECORD
  5
1F
330
1
100
AcDbSymbolTableRecord
100
AcDbBlockTableRecord
  2
*Model_Space
340
22
 70
     0
280
     1
281
     0
  0
BLOCK_RECORD
  5
1B
330
1
100
AcDbSymbolTableRecord
100
AcDbBlockTableRecord
  2
*Paper_Space
340
1E
 70
     0
280
     1
281
     0
  0
BLOCK_RECORD
  5
23
330
1
100
AcDbSymbolTableRecord
100
AcDbBlockTableRecord
  2
*Paper_Space0
340
26
 70
     0
280
     1
281
     0
  0
BLOCK_RECORD
  5
6E
330
1
100
AcDbSymbolTableRecord
100
AcDbBlockTableRecord
  2
1_125918_4
340
0
102
{BLKREFS
331
6F
102
}
 70
     0
280
     1
281
     0
  0
BLOCK_RECORD
  5
90
330
1
100
AcDbSymbolTableRecord
100
AcDbBlockTableRecord
  2
2_125818_0_in_125918_4
340
0
102
{BLKREFS
331
91
102
}
 70
     0
280
     1
281
     0
  0
BLOCK_RECORD
  5
EB
330
1
100
AcDbSymbolTableRecord
100
AcDbBlockTableRecord
  2
3_405016_Metric_0_in_125918_4
340
0
102
{BLKREFS
331
EC
102
}
 70
     0
280
     1
281
     0
  0
BLOCK_RECORD
  5
179
330
1
100
AcDbSymbolTableRecord
100
AcDbBlockTableRecord
  2
4_125918H_0_in_125918_4
340
0
102
{BLKREFS
331
17A
102
}
 70
     0
280
     1
281
     0
  0
ENDTAB
  0
ENDSEC
  0
SECTION
  2
BLOCKS
  0
BLOCK
  5
20
330
1F
100
AcDbEntity
  8
0
100
AcDbBlockBegin
  2
*Model_Space
 70
     0
 10
0.0
 20
0.0
 30
0.0
  3
*Model_Space
  1

  0
ENDBLK
  5
21
330
1F
100
AcDbEntity
  8
0
100
AcDbBlockEnd
  0
BLOCK
  5
1C
330
1B
100
AcDbEntity
 67
     1
  8
0
100
AcDbBlockBegin
  2
*Paper_Space
 70
     0
 10
0.0
 20
0.0
 30
0.0
  3
*Paper_Space
  1

  0
ENDBLK
  5
1D
330
1B
100
AcDbEntity
 67
     1
  8
0
100
AcDbBlockEnd
  0
BLOCK
  5
24
330
23
100
AcDbEntity
  8
0
100
AcDbBlockBegin
  2
*Paper_Space0
 70
     0
 10
0.0
 20
0.0
 30
0.0
  3
*Paper_Space0
  1

  0
ENDBLK
  5
25
330
23
100
AcDbEntity
  8
0
100
AcDbBlockEnd
  0
BLOCK
  5
70
330
6E
100
AcDbEntity
  8
0
100
AcDbBlockBegin
  2
1_125918_4
 70
     2
 10
0.0
 20
0.0
 30
0.0
  3
1_125918_4
  1

  0
ATTDEF
  5
73
330
6E
100
AcDbEntity
  8
AM_6
100
AcDbText
 10
125.055
 20
31.75
 30
0.0
 40
0.5
  1
Set Screw Wide Slot Take Up Metric Bore
100
AcDbAttributeDefinition
  3

  2
NN
 70
     8
280
     0
  0
ATTDEF
  5
74
330
6E
100
AcDbEntity
  8
AM_6
100
AcDbText
 10
125.055
 20
31.25
 30
0.0
 40
0.5
  1
SC Take-Up Bearings -Wide Slot -(Normal Duty)
100
AcDbAttributeDefinition
  3

  2
NT
 70
     8
280
     0
  0
ATTDEF
  5
75
330
6E
100
AcDbEntity
  8
AM_6
100
AcDbText
 10
125.055
 20
30.75
 30
0.0
 40
0.5
  1
125918
100
AcDbAttributeDefinition
  3

  2
NB
 70
     8
280
     0
  0
ATTDEF
  5
76
330
6E
100
AcDbEntity
  8
AM_6
100
AcDbText
 10
125.055
 20
30.25
 30
0.0
 40
0.5
  1
$PN.
100
AcDbAttributeDefinition
  3

  2
NBSYN
 70
     8
280
     0
  0
ATTDEF
  5
77
330
6E
100
AcDbEntity
  8
AM_6
100
AcDbText
 10
125.055
 20
29.75
 30
0.0
 40
0.5
  1
125918
100
AcDbAttributeDefinition
  3

  2
LINA
 70
     8
280
     0
  0
ATTDEF
  5
78
330
6E
100
AcDbEntity
  8
AM_6
100
AcDbText
 10
125.055
 20
29.25
 30
0.0
 40
0.5
  1
212
100
AcDbAttributeDefinition
  3

  2
SERIES
 70
     8
280
     0
  0
ATTDEF
  5
79
330
6E
100
AcDbEntity
  8
AM_6
100
AcDbText
 10
125.055
 20
28.75
 30
0.0
 40
0.5
  1
60
100
AcDbAttributeDefinition
  3

  2
SS
 70
     8
280
     0
  0
ATTDEF
  5
7A
330
6E
100
AcDbEntity
  8
AM_6
100
AcDbText
 10
125.055
 20
28.25
 30
0.0
 40
0.5
  1
125918
100
AcDbAttributeDefinition
  3

  2
PN
 70
     8
280
     0
  0
ATTDEF
  5
7B
330
6E
100
AcDbEntity
  8
AM_6
100
AcDbText
 10
125.055
 20
27.75
 30
0.0
 40
0.5
  1
WSTU-SC-60M
100
AcDbAttributeDefinition
  3

  2
DESCRIPTION
 70
     8
280
     0
  0
ATTDEF
  5
7C
330
6E
100
AcDbEntity
  8
AM_6
100
AcDbText
 10
125.055
 20
27.25
 30
0.0
 40
0.5
  1
4.9
100
AcDbAttributeDefinition
  3

  2
W
 70
     8
280
     0
  0
ATTDEF
  5
7D
330
6E
100
AcDbEntity
  8
AM_6
100
AcDbText
 10
125.055
 20
26.75
 30
0.0
 40
0.5
  1
WS502
100
AcDbAttributeDefinition
  3

  2
FS
 70
     8
280
     0
  0
ATTDEF
  5
7E
330
6E
100
AcDbEntity
  8
AM_6
100
AcDbText
 10
125.055
 20
26.25
 30
0.0
 40
0.5
  1
RE-LUBE
100
AcDbAttributeDefinition
  3

  2
LF
 70
     8
280
     0
  0
ATTDEF
  5
7F
330
6E
100
AcDbEntity
  8
AM_6
100
AcDbText
 10
125.055
 20
25.75
 30
0.0
 40
0.5
  1
58.7
100
AcDbAttributeDefinition
  3

  2
A
 70
     8
280
     0
  0
ATTDEF
  5
80
330
6E
100
AcDbEntity
  8
AM_6
100
AcDbText
 10
125.055
 20
25.25
 30
0.0
 40
0.5
  1
190.5
100
AcDbAttributeDefinition
  3

  2
B
 70
     8
280
     0
  0
ATTDEF
  5
81
330
6E
100
AcDbEntity
  8
AM_6
100
AcDbText
 10
125.055
 20
24.75
 30
0.0
 40
0.5
  1
27.00
100
AcDbAttributeDefinition
  3

  2
C
 70
     8
280
     0
  0
ATTDEF
  5
82
330
6E
100
AcDbEntity
  8
AM_6
100
AcDbText
 10
125.055
 20
24.25
 30
0.0
 40
0.5
  1
101.6
100
AcDbAttributeDefinition
  3

  2
D
 70
     8
280
     0
  0
ATTDEF
  5
83
330
6E
100
AcDbEntity
  8
AM_6
100
AcDbText
 10
125.055
 20
23.75
 30
0.0
 40
0.5
  1
119.1
100
AcDbAttributeDefinition
  3

  2
E
 70
     8
280
     0
  0
ATTDEF
  5
84
330
6E
100
AcDbEntity
  8
AM_6
100
AcDbText
 10
125.055
 20
23.25
 30
0.0
 40
0.5
  1
31.8
100
AcDbAttributeDefinition
  3

  2
F
 70
     8
280
     0
  0
ATTDEF
  5
85
330
6E
100
AcDbEntity
  8
AM_6
100
AcDbText
 10
125.055
 20
22.75
 30
0.0
 40
0.5
  1
19.1
100
AcDbAttributeDefinition
  3

  2
G
 70
     8
280
     0
  0
ATTDEF
  5
86
330
6E
100
AcDbEntity
  8
AM_6
100
AcDbText
 10
125.055
 20
22.25
 30
0.0
 40
0.5
  1
31.8
100
AcDbAttributeDefinition
  3

  2
H
 70
     8
280
     0
  0
ATTDEF
  5
87
330
6E
100
AcDbEntity
  8
AM_6
100
AcDbText
 10
125.055
 20
21.75
 30
0.0
 40
0.5
  1
101.6
100
AcDbAttributeDefinition
  3

  2
J
 70
     8
280
     0
  0
ATTDEF
  5
88
330
6E
100
AcDbEntity
  8
AM_6
100
AcDbText
 10
125.055
 20
21.25
 30
0.0
 40
0.5
  1
63.5
100
AcDbAttributeDefinition
  3

  2
K
 70
     8
280
     0
  0
ATTDEF
  5
89
330
6E
100
AcDbEntity
  8
AM_6
100
AcDbText
 10
125.055
 20
20.75
 30
0.0
 40
0.5
  1
75.4
100
AcDbAttributeDefinition
  3

  2
L
 70
     8
280
     0
  0
ATTDEF
  5
8A
330
6E
100
AcDbEntity
  8
AM_6
100
AcDbText
 10
125.055
 20
20.25
 30
0.0
 40
0.5
  1
129.79/130.56
100
AcDbAttributeDefinition
  3

  2
M
 70
     8
280
     0
  0
ATTDEF
  5
8B
330
6E
100
AcDbEntity
  8
AM_6
100
AcDbText
 10
125.055
 20
19.75
 30
0.0
 40
0.5
  1
149.4
100
AcDbAttributeDefinition
  3

  2
N
 70
     8
280
     0
  0
ATTDEF
  5
8C
330
6E
100
AcDbEntity
  8
AM_6
100
AcDbText
 10
125.055
 20
19.25
 30
0.0
 40
0.5
  1
22.9
100
AcDbAttributeDefinition
  3

  2
R
 70
     8
280
     0
  0
ATTDEF
  5
8D
330
6E
100
AcDbEntity
  8
AM_6
100
AcDbText
 10
125.055
 20
18.75
 30
0.0
 40
0.5
  1
35.8
100
AcDbAttributeDefinition
  3

  2
S
 70
     8
280
     0
  0
ATTDEF
  5
8E
330
6E
100
AcDbEntity
  8
AM_6
100
AcDbText
 10
125.055
 20
18.25
 30
0.0
 40
0.5
  1
63.5
100
AcDbAttributeDefinition
  3

  2
T
 70
     8
280
     0
  0
ATTDEF
  5
8F
330
6E
100
AcDbEntity
  8
AM_6
100
AcDbText
 10
125.055
 20
17.75
 30
0.0
 40
0.5
  1
baldor
100
AcDbAttributeDefinition
  3

  2
COMPANY
 70
     8
280
     0
  0
INSERT
  5
91
330
6E
100
AcDbEntity
  8
0
100
AcDbBlockReference
  2
2_125818_0_in_125918_4
 10
0.0
 20
0.0
 30
0.0
  0
INSERT
  5
EC
330
6E
100
AcDbEntity
  8
0
100
AcDbBlockReference
  2
3_405016_Metric_0_in_125918_4
 10
0.0
 20
0.0
 30
0.0
  0
INSERT
  5
17A
330
6E
100
AcDbEntity
  8
0
100
AcDbBlockReference
  2
4_125918H_0_in_125918_4
 10
0.0
 20
0.0
 30
0.0
  0
ENDBLK
  5
71
330
6E
100
AcDbEntity
  8
0
100
AcDbBlockEnd
  0
BLOCK
  5
92
330
90
100
AcDbEntity
  8
0
100
AcDbBlockBegin
  2
2_125818_0_in_125918_4
 70
     2
 10
0.0
 20
0.0
 30
0.0
  3
2_125818_0_in_125918_4
  1

  0
ATTDEF
  5
94
330
90
100
AcDbEntity
  8
AM_6
100
AcDbText
 10
59.97597498430147
 20
22.9
 30
0.0
 40
0.5
  1
Set Screw Insert Metric Bore - Stainless Steel
100
AcDbAttributeDefinition
  3

  2
NN
 70
     8
280
     0
  0
ATTDEF
  5
95
330
90
100
AcDbEntity
  8
AM_6
100
AcDbText
 10
59.97597498430147
 20
22.4
 30
0.0
 40
0.5
  1
SC Bearing Insert -Metric
100
AcDbAttributeDefinition
  3

  2
NT
 70
     8
280
     0
  0
ATTDEF
  5
96
330
90
100
AcDbEntity
  8
AM_6
100
AcDbText
 10
59.97597498430147
 20
21.9
 30
0.0
 40
0.5
  1
125818
100
AcDbAttributeDefinition
  3

  2
NB
 70
     8
280
     0
  0
ATTDEF
  5
97
330
90
100
AcDbEntity
  8
AM_6
100
AcDbText
 10
59.97597498430147
 20
21.4
 30
0.0
 40
0.5
  1
$PN.
100
AcDbAttributeDefinition
  3

  2
NBSYN
 70
     8
280
     0
  0
ATTDEF
  5
98
330
90
100
AcDbEntity
  8
AM_6
100
AcDbText
 10
59.97597498430147
 20
20.9
 30
0.0
 40
0.5
  1
125818
100
AcDbAttributeDefinition
  3

  2
LINA
 70
     8
280
     0
  0
ATTDEF
  5
99
330
90
100
AcDbEntity
  8
AM_6
100
AcDbText
 10
59.97597498430147
 20
20.4
 30
0.0
 40
0.5
  1
212
100
AcDbAttributeDefinition
  3

  2
SERIES
 70
     8
280
     0
  0
ATTDEF
  5
9A
330
90
100
AcDbEntity
  8
AM_6
100
AcDbText
 10
59.97597498430147
 20
19.9
 30
0.0
 40
0.5
  1
60
100
AcDbAttributeDefinition
  3

  2
SS
 70
     8
280
     0
  0
ATTDEF
  5
9B
330
90
100
AcDbEntity
  8
AM_6
100
AcDbText
 10
59.97597498430147
 20
19.4
 30
0.0
 40
0.5
  1
125818
100
AcDbAttributeDefinition
  3

  2
PN
 70
     8
280
     0
  0
ATTDEF
  5
9C
330
90
100
AcDbEntity
  8
AM_6
100
AcDbText
 10
59.97597498430147
 20
18.9
 30
0.0
 40
0.5
  1
INS-SC-60
100
AcDbAttributeDefinition
  3

  2
DESCRIPTION
 70
     8
280
     0
  0
ATTDEF
  5
9D
330
90
100
AcDbEntity
  8
AM_6
100
AcDbText
 10
59.97597498430147
 20
18.4
 30
0.0
 40
0.5
  1
1.13
100
AcDbAttributeDefinition
  3

  2
WEIGHT
 70
     8
280
     0
  0
ATTDEF
  5
9E
330
90
100
AcDbEntity
  8
AM_6
100
AcDbText
 10
59.97597498430147
 20
17.9
 30
0.0
 40
0.5
  1
58.7
100
AcDbAttributeDefinition
  3

  2
A
 70
     8
280
     0
  0
ATTDEF
  5
9F
330
90
100
AcDbEntity
  8
AM_6
100
AcDbText
 10
59.97597498430147
 20
17.4
 30
0.0
 40
0.5
  1
25.9
100
AcDbAttributeDefinition
  3

  2
C
 70
     8
280
     0
  0
ATTDEF
  5
A0
330
90
100
AcDbEntity
  8
AM_6
100
AcDbText
 10
59.97597498430147
 20
16.9
 30
0.0
 40
0.5
  1
110
100
AcDbAttributeDefinition
  3

  2
D
 70
     8
280
     0
  0
ATTDEF
  5
A1
330
90
100
AcDbEntity
  8
AM_6
100
AcDbText
 10
59.97597498430147
 20
16.4
 30
0.0
 40
0.5
  1
6.4
100
AcDbAttributeDefinition
  3

  2
J
 70
     8
280
     0
  0
ATTDEF
  5
A2
330
90
100
AcDbEntity
  8
AM_6
100
AcDbText
 10
59.97597498430147
 20
15.9
 30
0.0
 40
0.5
  1
75.4
100
AcDbAttributeDefinition
  3

  2
L
 70
     8
280
     0
  0
ATTDEF
  5
A3
330
90
100
AcDbEntity
  8
AM_6
100
AcDbText
 10
59.97597498430147
 20
15.4
 30
0.0
 40
0.5
  1
M10 x 1.5
100
AcDbAttributeDefinition
  3

  2
N
 70
     8
280
     0
  0
ATTDEF
  5
A4
330
90
100
AcDbEntity
  8
AM_6
100
AcDbText
 10
59.97597498430147
 20
14.9
 30
0.0
 40
0.5
  1
22.9
100
AcDbAttributeDefinition
  3

  2
W
 70
     8
280
     0
  0
ATTDEF
  5
A5
330
90
100
AcDbEntity
  8
AM_6
100
AcDbText
 10
59.97597498430147
 20
14.4
 30
0.0
 40
0.5
  1
35.8
100
AcDbAttributeDefinition
  3

  2
Y
 70
     8
280
     0
  0
ATTDEF
  5
A6
330
90
100
AcDbEntity
  8
AM_6
100
AcDbText
 10
59.97597498430147
 20
13.9
 30
0.0
 40
0.5
  1
baldor
100
AcDbAttributeDefinition
  3

  2
COMPANY
 70
     8
280
     0
  0
LINE
  5
A9
330
90
100
AcDbEntity
  8
AM_9
100
AcDbLine
 10
12.67773401461548
 20
-28.563
 30
0.0
 11
15.79196138025266
 21
-28.563
 31
0.0
  0
LINE
  5
AA
330
90
100
AcDbEntity
  8
AM_9
100
AcDbLine
 10
15.79196138025266
 20
-20.18700000000001
 30
0.0
 11
12.67845607857321
 21
-20.187
 31
0.0
  0
LWPOLYLINE
  5
AB
330
90
100
AcDbEntity
  8
AM_9
100
AcDbPolyline
 90
       16
 70
     0
 43
0.0
 10
9.652476742301836
 20
-27.0086625045487
 10
9.511881840172942
 20
-26.81440785800482
 10
9.165493423214814
 20
-26.20794633244567
 10
8.920950002812308
 20
-25.54803366292643
 10
8.785369063922477
 20
-24.85442219399958
 10
8.764921530189572
 20
-24.15274174975786
 10
8.857002562080659
 20
-23.45737125550869
 10
9.05894742264071
 20
-22.79116570254581
 10
9.362508123456454
 20
-22.16915560901501
 10
9.761968714205361
 20
-21.60571522043461
 10
10.24163104763216
 20
-21.11965655889687
 10
10.79167439917818
 20
-20.72308450956763
 10
11.39110278252142
 20
-20.42977489883683
 10
12.02003908886295
 20
-20.25023022507362
 10
12.66128442902571
 20
-20.18704330513853
 10
12.67843512760543
 20
-20.18700000184693
  0
LWPOLYLINE
  5
AC
330
90
100
AcDbEntity
  8
AM_9
100
AcDbPolyline
 90
        7
 70
     0
 43
0.0
 10
12.67887551616167
 20
-28.56299998439472
 10
12.25525247346805
 20
-28.53706359140072
 10
11.62597921809685
 20
-28.40128880052694
 10
11.0202206075742
 20
-28.15433357147536
 10
10.45453353118419
 20
-27.80048925219331
 10
9.94737907877973
 20
-27.351744400298
 10
9.652476742301836
 20
-27.0086625045487
  0
LWPOLYLINE
  5
AD
330
90
100
AcDbEntity
  8
AM_9
100
AcDbPolyline
 90
       11
 70
     0
 43
0.0
 10
12.67843512760543
 20
-20.18700000184693
 10
13.29061945730701
 20
-20.2428335986696
 10
13.89619224191521
 20
-20.41323731350725
 10
14.4609166461534
 20
-20.69463013982608
 10
14.97151231084331
 20
-21.07756508850848
 10
15.41806372597084
 20
-21.55694324038747
 10
15.78647588359049
 20
-22.11550247570472
 10
16.06803362020691
 20
-22.74166708088958
 10
16.25543757867895
 20
-23.41466362136601
 10
16.32622736410706
 20
-23.8915531217005
 10
16.35001624678704
 20
-24.375
  0
LINE
  5
AE
330
90
100
AcDbEntity
  8
AM_9
100
AcDbLine
 10
30.0
 20
-28.563
 30
0.0
 11
37.36696401903696
 21
-28.563
 31
0.0
  0
LINE
  5
AF
330
90
100
AcDbEntity
  8
AM_9
100
AcDbLine
 10
37.36696401903696
 20
-20.187
 30
0.0
 11
29.99830704878826
 21
-20.187
 31
0.0
  0
LINE
  5
B0
330
90
100
AcDbEntity
  8
AM_9
100
AcDbLine
 10
37.36696401903696
 20
-28.563
 30
0.0
 11
37.69999999999998
 21
-28.89603598096303
 31
0.0
  0
LINE
  5
B1
330
90
100
AcDbEntity
  8
AM_9
100
AcDbLine
 10
37.69999999999998
 20
-19.85396401903697
 30
0.0
 11
37.36696401903696
 21
-20.187
 31
0.0
  0
LINE
  5
B2
330
90
100
AcDbEntity
  8
AM_9
100
AcDbLine
 10
37.36696401903696
 20
-20.187
 30
0.0
 11
37.36696401903696
 21
-28.563
 31
0.0
  0
LWPOLYLINE
  5
B3
330
90
100
AcDbEntity
  8
AM_9
100
AcDbPolyline
 90
        7
 70
     0
 43
0.0
 10
15.55968836407422
 20
-27.0016297681679
 10
15.16027167070052
 20
-27.4894293749831
 10
14.67158574151721
 20
-27.91483720394872
 10
14.11930922629605
 20
-28.24074097747968
 10
13.52031160832755
 20
-28.45715862204107
 10
12.89426439698324
 20
-28.55576838288012
 10
12.67887551616167
 20
-28.56299998439472
  0
LWPOLYLINE
  5
B4
330
90
100
AcDbEntity
  8
AM_9
100
AcDbPolyline
 90
        6
 70
     0
 43
0.0
 10
16.35001624678704
 20
-24.375
 10
16.29987967959744
 20
-25.07419034475566
 10
16.15199568068963
 20
-25.75357915067729
 10
15.90870334895451
 20
-26.39333817306532
 10
15.57686654376842
 20
-26.97662720627606
 10
15.55968836407422
 20
-27.0016297681679
  0
LINE
  5
B5
330
90
100
AcDbEntity
  8
AM_9
100
AcDbLine
 10
30.0
 20
-34.292
 30
0.0
 11
30.0
 21
-28.563
 31
0.0
  0
LINE
  5
B6
330
90
100
AcDbEntity
  8
AM_9
100
AcDbLine
 10
30.0
 20
-20.19916895092578
 30
0.0
 11
30.0
 21
21.392
 31
0.0
  0
LINE
  5
B7
330
90
100
AcDbEntity
  8
AM_9
100
AcDbLine
 10
-30.0
 20
21.392
 30
0.0
 11
-30.0
 21
-34.292
 31
0.0
  0
LWPOLYLINE
  5
B8
330
90
100
AcDbEntity
  8
AM_9
100
AcDbPolyline
 90
       21
 70
     0
 43
0.0
 10
29.99999999999904
 20
-20.18700000000686
 10
29.99925083154466
 20
-20.19236991189357
 10
29.98596568967951
 20
-20.2887447041775
 10
29.95863489872347
 20
-20.49438806436248
 10
29.91878430059533
 20
-20.81508454797729
 10
29.87256551335402
 20
-21.22706188916805
 10
29.82284662965954
 20
-21.7403225821373
 10
29.77745878822833
 20
-22.31674931443301
 10
29.73945239817066
 20
-22.96987618230311
 10
29.71527147514674
 20
-23.64239994426028
 10
29.70624534677172
 20
-24.35611607570462
 10
29.71377629464966
 20
-25.04421273783781
 10
29.73725651401241
 20
-25.73285455044865
 10
29.77276244075956
 20
-26.36415242098325
 10
29.81821726629621
 20
-26.95674842694749
 10
29.86661316799291
 20
-27.46594259515239
 10
29.9147834460949
 20
-27.90113281467871
 10
29.95497124099916
 20
-28.22722611603827
 10
29.98462177872073
 20
-28.4513816323958
 10
29.9960501132434
 20
-28.53461132754129
 10
30.0
 20
-28.563
  0
LINE
  5
B9
330
90
100
AcDbEntity
  8
AM_9
100
AcDbLine
 10
30.0
 20
21.392
 30
0.0
 11
31.50800000000002
 21
22.9
 31
0.0
  0
LINE
  5
BA
330
90
100
AcDbEntity
  8
AM_9
100
AcDbLine
 10
-31.50800000000002
 20
22.9
 30
0.0
 11
-30.0
 21
21.392
 31
0.0
  0
LINE
  5
BB
330
90
100
AcDbEntity
  8
AM_9
100
AcDbLine
 10
-30.0
 20
-34.292
 30
0.0
 11
-31.50800000000002
 21
-35.8
 31
0.0
  0
LINE
  5
BC
330
90
100
AcDbEntity
  8
AM_9
100
AcDbLine
 10
31.50800000000002
 20
-35.8
 30
0.0
 11
30.0
 21
-34.292
 31
0.0
  0
LINE
  5
BD
330
90
100
AcDbEntity
  8
AM_9
100
AcDbLine
 10
-36.19200000000001
 20
22.9
 30
0.0
 11
36.19200000000001
 21
22.9
 31
0.0
  0
LINE
  5
BE
330
90
100
AcDbEntity
  8
AM_9
100
AcDbLine
 10
-36.19200000000001
 20
22.9
 30
0.0
 11
-37.69999999999997
 21
21.392
 31
0.0
  0
LINE
  5
BF
330
90
100
AcDbEntity
  8
AM_9
100
AcDbLine
 10
37.69999999999997
 20
21.392
 30
0.0
 11
36.19200000000001
 21
22.9
 31
0.0
  0
LINE
  5
C0
330
90
100
AcDbEntity
  8
AM_9
100
AcDbLine
 10
-37.69999999999997
 20
21.392
 30
0.0
 11
37.69999999999997
 21
21.392
 31
0.0
  0
LINE
  5
C1
330
90
100
AcDbEntity
  8
AM_9
100
AcDbLine
 10
37.69999999999997
 20
12.95
 30
0.0
 11
37.69999999999997
 21
21.392
 31
0.0
  0
LINE
  5
C2
330
90
100
AcDbEntity
  8
AM_9
100
AcDbLine
 10
-37.69999999999997
 20
21.392
 30
0.0
 11
-37.69999999999997
 21
12.95
 31
0.0
  0
LWPOLYLINE
  5
C3
330
90
100
AcDbEntity
  8
AM_9
100
AcDbPolyline
 90
        7
 70
     0
 43
0.0
 10
37.57497506630742
 20
-21.22640279467993
 10
37.61037396673439
 20
-20.78506629000418
 10
37.64395347141316
 20
-20.41099145210936
 10
37.67383017421001
 20
-20.10518715303143
 10
37.6937287082574
 20
-19.91290585814899
 10
37.69999946616434
 20
-19.85396900442219
 10
37.69999999999998
 20
-19.853964019037
  0
LWPOLYLINE
  5
C4
330
90
100
AcDbEntity
  8
AM_9
100
AcDbPolyline
 90
       38
 70
     0
 43
0.0
 10
15.74588844772653
 20
-19.85921648904889
 10
15.13695305700579
 20
-19.94984857325934
 10
14.54520846312891
 20
-20.14837870086493
 10
13.97998059239726
 20
-20.45391843159848
 10
13.46372228144982
 20
-20.85285546036057
 10
12.99210545596361
 20
-21.35604082367462
 10
12.59886532847292
 20
-21.9324824750855
 10
12.27997401955871
 20
-22.60352758066522
 10
12.06593243322077
 20
-23.3200645062609
 10
11.96127636724686
 20
-24.09512719390213
 10
11.97841094394294
 20
-24.87782404127231
 10
12.12213696484003
 20
-25.66010267807858
 10
12.38784152480789
 20
-26.40567755391827
 10
12.7670604540368
 20
-27.08687816475306
 10
13.24926325898655
 20
-27.68820076121844
 10
13.80103314039292
 20
-28.17209082261909
 10
14.41950945249151
 20
-28.54415354007948
 10
15.0477666425782
 20
-28.77726826060197
 10
15.69851140090194
 20
-28.88778436956371
 10
16.31922092496994
 20
-28.87285531113702
 10
16.92376962181817
 20
-28.74333957303206
 10
17.4890539174007
 20
-28.50572670442178
 10
18.00876699256105
 20
-28.16907802517437
 10
18.48484380946021
 20
-27.72797145927044
 10
18.89112397376313
 20
-27.20646314225038
 10
19.23524886330827
 20
-26.58486695294395
 10
19.48839438920763
 20
-25.90766523962318
 10
19.65081098207231
 20
-25.15702985729328
 10
19.70660769802029
 20
-24.38545088270131
 10
19.65088344112818
 20
-23.59371623642066
 10
19.48296481712317
 20
-22.82400130225716
 10
19.20383532536888
 20
-22.09830732586457
 10
18.81993305219038
 20
-21.43914052291956
 10
18.35060704472885
 20
-20.88252776555229
 10
17.79907598856786
 20
-20.42932779372835
 10
17.21091775742817
 20
-20.11263037078281
 10
16.57697290785488
 20
-19.91755202231097
 10
15.74588840683233
 20
-19.85921644312856
  0
LINE
  5
C5
330
90
100
AcDbEntity
  8
AM_9
100
AcDbLine
 10
37.69999999999997
 20
-19.85396401903697
 30
0.0
 11
37.69999999999998
 21
-12.95
 31
0.0
  0
LINE
  5
C6
330
90
100
AcDbEntity
  8
AM_9
100
AcDbLine
 10
-37.69999999999998
 20
-12.95
 30
0.0
 11
-37.69999999999998
 21
-27.00000000000001
 31
0.0
  0
LINE
  5
C7
330
90
100
AcDbEntity
  8
AM_9
100
AcDbLine
 10
37.57571342245784
 20
-21.21657562649325
 30
0.0
 11
37.5388149219325
 21
-21.75184814801311
 31
0.0
  0
LWPOLYLINE
  5
C8
330
90
100
AcDbEntity
  8
AM_9
100
AcDbPolyline
 90
       10
 70
     0
 43
0.0
 10
37.53942059890189
 20
-27.00780847882028
 10
37.52470194627726
 20
-26.76219381056517
 10
37.4919251953802
 20
-26.09432805613995
 10
37.46824622553356
 20
-25.3636440533272
 10
37.45712957052981
 20
-24.59693726464943
 10
37.46046312768998
 20
-23.80269557190422
 10
37.47808484575759
 20
-23.03362623085542
 10
37.50899766070128
 20
-22.28117650017004
 10
37.53997399565316
 20
-21.73339904405242
 10
37.57497506630742
 20
-21.22640279467993
  0
LINE
  5
C9
330
90
100
AcDbEntity
  8
AM_9
100
AcDbLine
 10
52.40999999999994
 20
-7.486666666666665
 30
0.0
 11
52.40999999999994
 21
-4.033333333333337
 31
0.0
  0
LINE
  5
CA
330
90
100
AcDbEntity
  8
AM_9
100
AcDbLine
 10
-52.40999999999994
 20
-4.033333333333337
 30
0.0
 11
-52.40999999999994
 21
-7.486666666666665
 31
0.0
  0
LINE
  5
CB
330
90
100
AcDbEntity
  8
AM_9
100
AcDbLine
 10
-51.71148383473064
 20
-12.95
 30
0.0
 11
51.71148383473064
 21
-12.95
 31
0.0
  0
ARC
  5
CC
330
90
100
AcDbEntity
  8
AM_9
100
AcDbCircle
 10
51.71148383473064
 20
-11.914
 30
0.0
 40
1.036000000000001
100
AcDbArc
 50
270.0
 51
338.5875329531155
  0
ARC
  5
CD
330
90
100
AcDbEntity
  8
AM_9
100
AcDbCircle
 10
-51.71148383473064
 20
-11.914
 30
0.0
 40
1.036
100
AcDbArc
 50
201.4124670468845
 51
270.0
  0
LINE
  5
CE
330
90
100
AcDbEntity
  8
AM_9
100
AcDbLine
 10
-51.71148383473064
 20
12.95
 30
0.0
 11
51.71148383473064
 21
12.95
 31
0.0
  0
ARC
  5
CF
330
90
100
AcDbEntity
  8
AM_9
100
AcDbCircle
 10
51.71148383473064
 20
11.91399999999999
 30
0.0
 40
1.036000000000009
100
AcDbArc
 50
21.41246045403746
 51
90.0
  0
ARC
  5
D0
330
90
100
AcDbEntity
  8
AM_9
100
AcDbCircle
 10
-51.71148383473064
 20
11.91399999999999
 30
0.0
 40
1.036000000000005
100
AcDbArc
 50
90.0
 51
158.5875395459625
  0
ARC
  5
D1
330
90
100
AcDbEntity
  8
AM_9
100
AcDbCircle
 10
21.32999999999761
 20
0.0000000000007248
 30
0.0
 40
33.67000000000247
100
AcDbArc
 50
338.5875329531163
 51
347.1526544670778
  0
ARC
  5
D2
330
90
100
AcDbEntity
  8
AM_9
100
AcDbCircle
 10
-21.32999999999546
 20
0.0000000000013856
 30
0.0
 40
33.67000000000472
100
AcDbArc
 50
192.8473455329225
 51
201.4124670468835
  0
LINE
  5
D3
330
90
100
AcDbEntity
  8
AM_9
100
AcDbLine
 10
-52.67597538503954
 20
-12.29222222222223
 30
0.0
 11
52.67597538503954
 21
-12.29222222222223
 31
0.0
  0
LINE
  5
D4
330
90
100
AcDbEntity
  8
AM_9
100
AcDbLine
 10
-54.15710346988021
 20
-7.486666666666665
 30
0.0
 11
54.15710346988021
 21
-7.486666666666665
 31
0.0
  0
ARC
  5
D5
330
90
100
AcDbEntity
  8
AM_9
100
AcDbCircle
 10
21.33000000000006
 20
0.0000000000000119
 30
0.0
 40
33.66999999999993
100
AcDbArc
 50
353.1200100444641
 51
21.41246684402725
  0
ARC
  5
D6
330
90
100
AcDbEntity
  8
AM_9
100
AcDbCircle
 10
-21.33000000000545
 20
0.0000000000006981
 30
0.0
 40
33.66999999999466
100
AcDbArc
 50
158.5875331559704
 51
186.8799899555382
  0
LINE
  5
D7
330
90
100
AcDbEntity
  8
AM_9
100
AcDbLine
 10
-54.75755034731413
 20
-4.03333333333334
 30
0.0
 11
54.75755034731413
 21
-4.03333333333334
 31
0.0
  0
LINE
  5
D8
330
90
100
AcDbEntity
  8
AM_9
100
AcDbLine
 10
-52.6759754285604
 20
12.29222211124118
 30
0.0
 11
52.6759754285604
 21
12.29222211124118
 31
0.0
  0
CIRCLE
  5
D9
330
90
100
AcDbEntity
  8
AM_9
100
AcDbCircle
 10
-0.0000000000000107
 20
6.400000000000004
 30
0.0
 40
0.2354545454545509
  0
LINE
  5
DB
330
90
100
AcDbEntity
  8
AM_5
100
AcDbLine
 10
30.0
 20
-19.375
 30
0.0
 11
37.69999999999998
 21
-19.375
 31
0.0
  0
LINE
  5
DC
330
90
100
AcDbEntity
  8
AM_5
100
AcDbLine
 10
30.0
 20
-29.375
 30
0.0
 11
37.69999999999998
 21
-29.375
 31
0.0
  0
ELLIPSE
  5
DD
330
90
100
AcDbEntity
  8
AM_9
100
AcDbEllipse
 10
15.79196138025247
 20
-24.37500000000011
 30
0.0
 11
-7.693231192243415E-16
 21
-4.18799999999986
 31
0.0
210
0.0
220
0.0
230
1.0
 40
0.9063077870366336
 41
0.0
 42
6.283185307179586
  0
CIRCLE
  5
DE
330
90
100
AcDbEntity
  8
AM_9
100
AcDbCircle
 10
-0.0000000000000104
 20
6.400000000000003
 30
0.0
 40
2.590000000000008
  0
LINE
  5
E1
330
90
100
AcDbEntity
  8
AM_7
100
AcDbLine
 10
39.1744922742139
 20
-24.375
 30
0.0
 11
28.27287066032113
 21
-24.375
 31
0.0
  0
LINE
  5
E2
330
90
100
AcDbEntity
  8
AM_7
100
AcDbLine
 10
-2.71950000000002
 20
6.400000000000003
 30
0.0
 11
2.719499999999998
 21
6.400000000000003
 31
0.0
  0
LINE
  5
E4
330
90
100
AcDbEntity
  8
AM_4
100
AcDbLine
 10
-36.19200000000001
 20
-35.8
 30
0.0
 11
36.19200000000001
 21
-35.8
 31
0.0
  0
LINE
  5
E5
330
90
100
AcDbEntity
  8
AM_4
100
AcDbLine
 10
36.19200000000001
 20
-35.8
 30
0.0
 11
37.69999999999997
 21
-34.292
 31
0.0
  0
LINE
  5
E6
330
90
100
AcDbEntity
  8
AM_4
100
AcDbLine
 10
-37.69999999999997
 20
-34.292
 30
0.0
 11
-36.19200000000001
 21
-35.8
 31
0.0
  0
LINE
  5
E7
330
90
100
AcDbEntity
  8
AM_4
100
AcDbLine
 10
-37.69999999999998
 20
-34.292
 30
0.0
 11
37.69999999999998
 21
-34.292
 31
0.0
  0
LINE
  5
E8
330
90
100
AcDbEntity
  8
AM_4
100
AcDbLine
 10
37.69999999999998
 20
-34.292
 30
0.0
 11
37.69999999999998
 21
-28.88144780523307
 31
0.0
  0
LINE
  5
E9
330
90
100
AcDbEntity
  8
AM_4
100
AcDbLine
 10
-37.69999999999998
 20
-27.00000000000001
 30
0.0
 11
-37.69999999999998
 21
-34.292
 31
0.0
  0
LWPOLYLINE
  5
EA
330
90
100
AcDbEntity
  8
AM_4
100
AcDbPolyline
 90
        8
 70
     0
 43
0.0
 10
37.69999999999973
 20
-28.89603598096072
 10
37.69914340888052
 20
-28.88802952346944
 10
37.68885374985535
 20
-28.79074482529598
 10
37.66721448531681
 20
-28.57897898792599
 10
37.63746069321098
 20
-28.26943706158193
 10
37.60131130590052
 20
-27.85720726678827
 10
37.56252566183328
 20
-27.35307769745523
 10
37.53942059890189
 20
-27.00780847882028
  0
ENDBLK
  5
93
330
90
100
AcDbEntity
  8
0
100
AcDbBlockEnd
  0
BLOCK
  5
ED
330
EB
100
AcDbEntity
  8
0
100
AcDbBlockBegin
  2
3_405016_Metric_0_in_125918_4
 70
     2
 10
0.0
 20
0.0
 30
0.0
  3
3_405016_Metric_0_in_125918_4
  1

  0
ATTDEF
  5
EF
330
EB
100
AcDbEntity
  8
AM_6
100
AcDbText
 10
-52.16888545090339
 20
5.556250000000206
 30
0.0
 40
0.5
  1
405016 -Metric
100
AcDbAttributeDefinition
  3

  2
NN
 70
     8
280
     0
  0
ATTDEF
  5
F0
330
EB
100
AcDbEntity
  8
AM_6
100
AcDbText
 10
-52.16888545090339
 20
5.056250000000206
 30
0.0
 40
0.5
  1
Grease Fitting
100
AcDbAttributeDefinition
  3

  2
NT
 70
     8
280
     0
  0
ATTDEF
  5
F1
330
EB
100
AcDbEntity
  8
AM_6
100
AcDbText
 10
-52.16888545090339
 20
4.556250000000206
 30
0.0
 40
0.5
  1
405016-Metric
100
AcDbAttributeDefinition
  3

  2
NB
 70
     8
280
     0
  0
ATTDEF
  5
F2
330
EB
100
AcDbEntity
  8
AM_6
100
AcDbText
 10
-52.16888545090339
 20
4.056250000000206
 30
0.0
 40
0.5
  1
$MN.-Metric
100
AcDbAttributeDefinition
  3

  2
NBSYN
 70
     8
280
     0
  0
ATTDEF
  5
F3
330
EB
100
AcDbEntity
  8
AM_6
100
AcDbText
 10
-52.16888545090339
 20
3.556250000000206
 30
0.0
 40
0.5
  1
405016
100
AcDbAttributeDefinition
  3

  2
LINA
 70
     8
280
     0
  0
ATTDEF
  5
F4
330
EB
100
AcDbEntity
  8
AM_6
100
AcDbText
 10
-52.16888545090339
 20
3.056250000000206
 30
0.0
 40
0.5
  1
405016
100
AcDbAttributeDefinition
  3

  2
MN
 70
     8
280
     0
  0
ATTDEF
  5
F5
330
EB
100
AcDbEntity
  8
AM_6
100
AcDbText
 10
-52.16888545090339
 20
2.556250000000206
 30
0.0
 40
0.5
  1
7/16 HEX
100
AcDbAttributeDefinition
  3

  2
H
 70
     8
280
     0
  0
ATTDEF
  5
F6
330
EB
100
AcDbEntity
  8
AM_6
100
AcDbText
 10
-52.16888545090339
 20
2.056250000000206
 30
0.0
 40
0.5
  1
9.728
100
AcDbAttributeDefinition
  3

  2
NDR
 70
     8
280
     0
  0
ATTDEF
  5
F7
330
EB
100
AcDbEntity
  8
AM_6
100
AcDbText
 10
-52.16888545090339
 20
1.556250000000206
 30
0.0
 40
0.5
  1
8.560
100
AcDbAttributeDefinition
  3

  2
KDR
 70
     8
280
     0
  0
ATTDEF
  5
F8
330
EB
100
AcDbEntity
  8
AM_6
100
AcDbText
 10
-52.16888545090339
 20
1.056250000000206
 30
0.0
 40
0.5
  1
4.0005
100
AcDbAttributeDefinition
  3

  2
BZE
 70
     8
280
     0
  0
ATTDEF
  5
F9
330
EB
100
AcDbEntity
  8
AM_6
100
AcDbText
 10
-52.16888545090339
 20
0.5562500000002064
 30
0.0
 40
0.5
  1
11.1125
100
AcDbAttributeDefinition
  3

  2
HEX
 70
     8
280
     0
  0
ATTDEF
  5
FA
330
EB
100
AcDbEntity
  8
AM_6
100
AcDbText
 10
-52.16888545090339
 20
0.0562500000002064
 30
0.0
 40
0.5
  1
7.143750
100
AcDbAttributeDefinition
  3

  2
HEX2
 70
     8
280
     0
  0
ATTDEF
  5
FB
330
EB
100
AcDbEntity
  8
AM_6
100
AcDbText
 10
-52.16888545090339
 20
-0.4437499999997936
 30
0.0
 40
0.5
  1
baldor
100
AcDbAttributeDefinition
  3

  2
COMPANY
 70
     8
280
     0
  0
LINE
  5
FC
330
EB
100
AcDbEntity
  8
AM_9
100
AcDbLine
 10
-74.87636296029912
 20
-3.837282897828232
 30
0.0
 11
-75.16393092018559
 21
-4.549376881905937
 31
0.0
  0
LINE
  5
FD
330
EB
100
AcDbEntity
  8
AM_9
100
AcDbLine
 10
-71.03652187092129
 20
-5.333905179049322
 30
0.0
 11
-71.33337792489773
 21
-6.068998929608748
 31
0.0
  0
LWPOLYLINE
  5
FE
330
EB
100
AcDbEntity
  8
AM_9
100
AcDbPolyline
 90
        3
 70
     0
 43
0.0
 10
-64.54477920799293
 20
-0.0000000000000033
 10
-65.09031204930054
 20
-1.382816900963402
 10
-65.54621521717999
 20
-2.778125000000002
  0
LWPOLYLINE
  5
FF
330
EB
100
AcDbEntity
  8
AM_9
100
AcDbPolyline
 90
        3
 70
     0
 43
0.0
 10
-65.54621521717999
 20
2.778124999999997
 10
-65.09258010758833
 20
1.389062499999996
 10
-64.54477920799293
 20
-0.0000000000000033
  0
LWPOLYLINE
  5
100
330
EB
100
AcDbEntity
  8
AM_9
100
AcDbPolyline
 90
        3
 70
     0
 43
0.0
 10
-69.5650783210002
 20
-7.588696252319891
 10
-69.96861534890284
 20
-7.397029361446426
 10
-70.35494939203242
 20
-7.14735426092354
  0
LWPOLYLINE
  5
101
330
EB
100
AcDbEntity
  8
AM_9
100
AcDbPolyline
 90
        3
 70
     0
 43
0.0
 10
-63.34651069156751
 20
-2.778125000000003
 10
-62.99817019286295
 20
-1.389062500000003
 10
-62.74399548416215
 20
-0.0000000000000035
  0
LWPOLYLINE
  5
102
330
EB
100
AcDbEntity
  8
AM_9
100
AcDbPolyline
 90
        3
 70
     0
 43
0.0
 10
-62.74399548416215
 20
-0.0000000000000035
 10
-62.99683235286572
 20
1.382816900963397
 10
-63.34651069156751
 20
2.778124999999997
  0
LWPOLYLINE
  5
103
330
EB
100
AcDbEntity
  8
AM_9
100
AcDbPolyline
 90
        3
 70
     0
 43
0.0
 10
-69.89013174055366
 20
-5.996343371387008
 10
-69.6573410815091
 20
-6.253713524124906
 10
-69.25886482850136
 20
-6.830431020205952
  0
LWPOLYLINE
  5
104
330
EB
100
AcDbEntity
  8
AM_9
100
AcDbPolyline
 90
        3
 70
     0
 43
0.0
 10
-66.14873042458535
 20
5.556249999999998
 10
-65.89589355588178
 20
4.173433099036598
 10
-65.54621521717999
 20
2.778124999999997
  0
LINE
  5
105
330
EB
100
AcDbEntity
  8
AM_9
100
AcDbLine
 10
-64.54477920799293
 20
-0.0000000000000033
 30
0.0
 11
-62.74399548416215
 21
-0.0000000000000035
 31
0.0
  0
LWPOLYLINE
  5
106
330
EB
100
AcDbEntity
  8
AM_9
100
AcDbPolyline
 90
        3
 70
     0
 43
0.0
 10
-65.54621521717999
 20
-2.778125000000002
 10
-65.89455571588455
 20
-4.167187500000002
 10
-66.14873042458535
 20
-5.556250000000004
  0
LWPOLYLINE
  5
107
330
EB
100
AcDbEntity
  8
AM_9
100
AcDbPolyline
 90
        3
 70
     0
 43
0.0
 10
-69.25886482850136
 20
-6.830431020205952
 10
-69.58896037988148
 20
-6.691143549353729
 10
-69.94999344278318
 20
-6.609853898455523
  0
LWPOLYLINE
  5
108
330
EB
100
AcDbEntity
  8
AM_9
100
AcDbPolyline
 90
        3
 70
     0
 43
0.0
 10
-70.41481109426195
 20
-7.760864787992071
 10
-69.99870944693991
 20
-7.698114323064441
 10
-69.5650783210002
 20
-7.588696252319891
  0
LINE
  5
109
330
EB
100
AcDbEntity
  8
AM_9
100
AcDbLine
 10
-69.25886482850136
 20
-6.830431020205952
 30
0.0
 11
-69.5650783210002
 21
-7.588696252319891
 31
0.0
  0
ELLIPSE
  5
10A
330
EB
100
AcDbEntity
  8
AM_9
100
AcDbEllipse
 10
-75.71903204936712
 20
-11.90625000000001
 30
0.0
 11
-2.437227270755869
 21
0.9842359150649183
 31
0.0
210
0.0
220
0.0
230
1.0
 40
0.2113091308703567
 41
3.040609649696547
 42
6.384168311072798
  0
ELLIPSE
  5
10B
330
EB
100
AcDbEntity
  8
AM_9
100
AcDbEllipse
 10
-75.00799302955105
 20
-10.14553017343999
 30
0.0
 11
-3.277232327750525
 21
1.323458750723537
 31
0.0
210
0.0
220
0.0
230
1.0
 40
0.2113091308703506
 41
3.039126015779742
 42
5.801105639492169
  0
ELLIPSE
  5
10C
330
EB
100
AcDbEntity
  8
AM_9
100
AcDbEllipse
 10
-74.73684848736337
 20
-9.474104895892305
 30
0.0
 11
-3.136987913435832
 21
1.266823248955708
 31
0.0
210
0.0
220
0.0
230
1.0
 40
0.2113091308688718
 41
3.380727365789943
 42
5.801105639544565
  0
LWPOLYLINE
  5
10D
330
EB
100
AcDbEntity
  8
AM_9
100
AcDbPolyline
 90
        3
 70
     0
 43
0.0
 10
-71.40222993525403
 20
-7.665404086010289
 10
-71.28355637005198
 20
-7.697739397127514
 10
-70.93915054057739
 20
-7.758592464327529
  0
LINE
  5
10E
330
EB
100
AcDbEntity
  8
AM_9
100
AcDbLine
 10
-70.94485705473089
 20
-7.757990703186897
 30
0.0
 11
-70.91662365307498
 21
-7.760864787992071
 31
0.0
  0
ELLIPSE
  5
10F
330
EB
100
AcDbEntity
  8
AM_9
100
AcDbEllipse
 10
-73.44142555712104
 20
-6.26629664127107
 30
0.0
 11
-3.312005593886738
 21
1.337501387545316
 31
0.0
210
0.0
220
0.0
230
1.0
 40
0.2113091308703494
 41
-3.965966280780748
 42
-3.764628581859178
  0
LWPOLYLINE
  5
110
330
EB
100
AcDbEntity
  8
AM_9
100
AcDbPolyline
 90
        5
 70
     0
 43
0.0
 10
-75.16393092018559
 20
-4.549376881905937
 10
-75.7192355880507
 20
-4.680053692952523
 10
-76.24999619607252
 20
-4.73004052558698
 10
-76.75590373276722
 20
-4.684077415975233
 10
-77.2261539129473
 20
-4.549376881905937
  0
LWPOLYLINE
  5
111
330
EB
100
AcDbEntity
  8
AM_9
100
AcDbPolyline
 90
        5
 70
     0
 43
0.0
 10
-71.33337792489773
 20
-6.068998929608748
 10
-72.31994665755843
 20
-5.830160733401208
 10
-73.28857684404116
 20
-5.503852774457659
 10
-74.24409422081523
 20
-5.070861224918888
 10
-75.16393092018559
 20
-4.549376881905937
  0
LWPOLYLINE
  5
112
330
EB
100
AcDbEntity
  8
AM_9
100
AcDbPolyline
 90
        3
 70
     0
 43
0.0
 10
-70.66029625865029
 20
-6.887292896806423
 10
-71.00916977387045
 20
-6.50701144007841
 10
-71.33337792489773
 20
-6.068998929608748
  0
ELLIPSE
  5
113
330
EB
100
AcDbEntity
  8
AM_9
100
AcDbEllipse
 10
-73.4414255571209
 20
-6.266296641270761
 30
0.0
 11
-3.312005593887391
 21
1.337501387545309
 31
0.0
210
0.0
220
0.0
230
1.0
 40
0.2113091308703865
 41
3.806340372002264
 42
6.919181903097229
  0
LWPOLYLINE
  5
114
330
EB
100
AcDbEntity
  8
AM_9
100
AcDbPolyline
 90
        4
 70
     0
 43
0.0
 10
-70.45180600159618
 20
-6.609853898455277
 10
-70.6867213411091
 20
-6.646959991776584
 10
-70.99907828432981
 20
-6.724401268817783
 10
-71.32108782126305
 20
-6.830431020205952
  0
LINE
  5
115
330
EB
100
AcDbEntity
  8
AM_9
100
AcDbLine
 10
-64.15136294338478
 20
5.081049061129095
 30
0.0
 11
-64.34794670075458
 21
5.556249999999998
 31
0.0
  0
LWPOLYLINE
  5
116
330
EB
100
AcDbEntity
  8
AM_9
100
AcDbPolyline
 90
        3
 70
     0
 43
0.0
 10
-63.71350150433663
 20
3.924430815812383
 10
-63.80014580115917
 20
4.167187499999997
 10
-64.15136294338478
 20
5.081049061129095
  0
LINE
  5
117
330
EB
100
AcDbEntity
  8
AM_9
100
AcDbLine
 10
-63.34651069156751
 20
2.778124999999997
 30
0.0
 11
-63.71350150433663
 21
3.924430815812383
 31
0.0
  0
LINE
  5
118
330
EB
100
AcDbEntity
  8
AM_9
100
AcDbLine
 10
-63.71344816043463
 20
-3.924278737445854
 30
0.0
 11
-63.34651069156751
 21
-2.778125000000003
 31
0.0
  0
LWPOLYLINE
  5
119
330
EB
100
AcDbEntity
  8
AM_9
100
AcDbPolyline
 90
        3
 70
     0
 43
0.0
 10
-64.15135984250287
 20
-5.081041392296854
 10
-63.80241385944697
 20
-4.173433099036603
 10
-63.71344816043463
 20
-3.924278737445854
  0
LINE
  5
11A
330
EB
100
AcDbEntity
  8
AM_9
100
AcDbLine
 10
-64.34794670075458
 20
-5.556250000000004
 30
0.0
 11
-64.15135984250287
 21
-5.081041392296854
 31
0.0
  0
LINE
  5
11B
330
EB
100
AcDbEntity
  8
AM_9
100
AcDbLine
 10
-75.15918690193712
 20
-3.058387021916507
 30
0.0
 11
-75.18675720467581
 21
-3.126658350638854
 31
0.0
  0
LINE
  5
11C
330
EB
100
AcDbEntity
  8
AM_9
100
AcDbLine
 10
-70.38588352997975
 20
-6.161509059325488
 30
0.0
 11
-69.88135372456443
 21
-4.912160420603782
 31
0.0
  0
ELLIPSE
  5
11D
330
EB
100
AcDbEntity
  8
AM_9
100
AcDbEllipse
 10
-72.97660790564275
 20
-5.115285751734208
 30
0.0
 11
-2.590724375662475
 21
1.046223307590948
 31
0.0
210
0.0
220
0.0
230
1.0
 40
0.2113091308703423
 41
2.307392746443014
 42
6.283185307179586
  0
LWPOLYLINE
  5
11E
330
EB
100
AcDbEntity
  8
AM_9
100
AcDbPolyline
 90
        4
 70
     0
 43
0.0
 10
-75.15930703517462
 20
-3.058684545841785
 10
-75.16284185118167
 20
-3.069253891791883
 10
-75.14817121867065
 20
-3.162573084305298
 10
-75.09980433678066
 20
-3.234920484745158
  0
LWPOLYLINE
  5
11F
330
EB
100
AcDbEntity
  8
AM_9
100
AcDbPolyline
 90
        5
 70
     0
 43
0.0
 10
-69.88132974184663
 20
-4.91210102493407
 10
-69.88370047957787
 20
-4.917691338485697
 10
-69.96537511817488
 20
-5.008516140987743
 10
-70.11824154454155
 20
-5.065126856945113
 10
-70.29258639728481
 20
-5.079999999236803
  0
LWPOLYLINE
  5
120
330
EB
100
AcDbEntity
  8
AM_9
100
AcDbPolyline
 90
        3
 70
     0
 43
0.0
 10
-72.66233353008076
 20
-4.434184386909873
 10
-71.9666510155956
 20
-4.766969289547204
 10
-71.03652187092129
 20
-5.333905179049322
  0
LWPOLYLINE
  5
121
330
EB
100
AcDbEntity
  8
AM_9
100
AcDbPolyline
 90
        3
 70
     0
 43
0.0
 10
-74.87636296029912
 20
-3.837282897828232
 10
-74.13456592981123
 20
-3.973124856539689
 10
-73.40633525667694
 20
-4.163853732670685
  0
LWPOLYLINE
  5
122
330
EB
100
AcDbEntity
  8
AM_9
100
AcDbPolyline
 90
        3
 70
     0
 43
0.0
 10
-71.03652187092129
 20
-5.333905179049322
 10
-70.60539033964982
 20
-5.495237602967161
 10
-70.19547860717158
 20
-5.736282007269851
  0
LWPOLYLINE
  5
123
330
EB
100
AcDbEntity
  8
AM_9
100
AcDbPolyline
 90
        4
 70
     0
 43
0.0
 10
-75.81389932104929
 20
-3.605746149316371
 10
-75.71547128711966
 20
-3.608061141866097
 10
-75.34745284320499
 20
-3.660719790057628
 10
-74.87636296029912
 20
-3.837282897828232
  0
ELLIPSE
  5
124
330
EB
100
AcDbEntity
  8
AM_9
100
AcDbEllipse
 10
-72.97660790564247
 20
-5.115285751734323
 30
0.0
 11
-3.312005593886994
 21
1.337501387545445
 31
0.0
210
0.0
220
0.0
230
1.0
 40
0.2113091308703306
 41
3.806340372002829
 42
4.700492773811624
  0
ELLIPSE
  5
125
330
EB
100
AcDbEntity
  8
AM_9
100
AcDbEllipse
 10
-72.97660790564251
 20
-5.115285751734348
 30
0.0
 11
-3.312005593886992
 21
1.337501387545422
 31
0.0
210
0.0
220
0.0
230
1.0
 40
0.2113091308703443
 41
-1.288605958958998
 42
-0.6725714813802677
  0
LINE
  5
126
330
EB
100
AcDbEntity
  8
AM_9
100
AcDbLine
 10
-70.35494939203242
 20
-7.14735426092354
 30
0.0
 11
-70.66029625865029
 21
-6.887292896806423
 31
0.0
  0
ELLIPSE
  5
127
330
EB
100
AcDbEntity
  8
AM_9
100
AcDbEllipse
 10
-73.44142555712112
 20
-6.266296641271005
 30
0.0
 11
-3.312005593886923
 21
1.337501387545367
 31
0.0
210
0.0
220
0.0
230
1.0
 40
0.2113091308703493
 41
2.800469246484337
 42
3.607080702195151
  0
LWPOLYLINE
  5
128
330
EB
100
AcDbEntity
  8
AM_9
100
AcDbPolyline
 90
        3
 70
     0
 43
0.0
 10
-70.91662365307498
 20
-7.760864787992071
 10
-70.67658860136274
 20
-7.784509761460652
 10
-70.41481109426195
 20
-7.760864787992071
  0
LWPOLYLINE
  5
129
330
EB
100
AcDbEntity
  8
AM_9
100
AcDbPolyline
 90
        8
 70
     0
 43
0.0
 10
-71.40132071809221
 20
-8.436505685412623
 10
-71.26016814316425
 20
-8.27289499150915
 10
-71.0616746735158
 20
-8.092439449607328
 10
-70.8635430824384
 20
-7.954838001890211
 10
-70.68024881717334
 20
-7.857871322834517
 10
-70.52383309872089
 20
-7.795680777408439
 10
-70.40107983939237
 20
-7.759946853545616
 10
-70.3643170432929
 20
-7.751633233157396
  0
ELLIPSE
  5
12A
330
EB
100
AcDbEntity
  8
AM_9
100
AcDbEllipse
 10
-72.97660790564309
 20
-5.1152857517336
 30
0.0
 11
-3.312005593888343
 21
1.337501387545516
 31
0.0
210
0.0
220
0.0
230
1.0
 40
0.2113091308705265
 41
-4.133087636301585
 42
-3.764628581859312
  0
LINE
  5
12B
330
EB
100
AcDbEntity
  8
AM_9
100
AcDbLine
 10
-69.94999344278318
 20
-6.609853898455523
 30
0.0
 11
-70.45180600159618
 21
-6.609853898455277
 31
0.0
  0
ELLIPSE
  5
12C
330
EB
100
AcDbEntity
  8
AM_9
100
AcDbEllipse
 10
-72.97660790564261
 20
-5.115285751734316
 30
0.0
 11
-3.312005593887136
 21
1.337501387545518
 31
0.0
210
0.0
220
0.0
230
1.0
 40
0.2113091308703492
 41
2.800469246484395
 42
3.607080702195118
  0
LINE
  5
12D
330
EB
100
AcDbEntity
  8
AM_9
100
AcDbLine
 10
-70.19547860717158
 20
-5.736282007269851
 30
0.0
 11
-69.89013174055366
 21
-5.996343371387008
 31
0.0
  0
LINE
  5
12E
330
EB
100
AcDbEntity
  8
AM_9
100
AcDbLine
 10
-71.32108782126305
 20
-6.830431020205952
 30
0.0
 11
-71.39823236569359
 21
-6.778289240991903
 31
0.0
  0
LINE
  5
12F
330
EB
100
AcDbEntity
  8
AM_9
100
AcDbLine
 10
-71.32108782126305
 20
-6.830431020205952
 30
0.0
 11
-71.4
 21
-7.025838351993659
 31
0.0
  0
LWPOLYLINE
  5
130
330
EB
100
AcDbEntity
  8
AM_9
100
AcDbPolyline
 90
       17
 70
     0
 43
0.0
 10
-70.05090291938937
 20
-4.547549295794519
 10
-70.25327653232466
 20
-4.404185730898369
 10
-70.52648079755288
 20
-4.24365364181598
 10
-70.84761430622294
 20
-4.079360450144662
 10
-71.2258310541273
 20
-3.906600444275935
 10
-71.62973872502207
 20
-3.73973362729044
 10
-72.07070735849372
 20
-3.574110867010545
 10
-72.51153647760195
 20
-3.423743718108896
 10
-72.96512235184287
 20
-3.284291520882656
 10
-73.39259829394476
 20
-3.167739146394208
 10
-73.80704358902267
 20
-3.070557447853724
 10
-74.17277948086245
 20
-3.001126812430813
 10
-74.50126124365242
 20
-2.957268343506165
 10
-74.76439833890882
 20
-2.942714645652546
 10
-74.97039677925292
 20
-2.956956816676946
 10
-75.10188346550028
 20
-2.998748603033094
 10
-75.15930703517462
 20
-3.058684545841785
  0
ARC
  5
131
330
EB
100
AcDbEntity
  8
AM_9
100
AcDbCircle
 10
-71.18295806406182
 20
-0.0000000000096945
 30
0.0
 40
5.080000000009691
100
AcDbArc
 50
90.0
 51
92.44869554208536
  0
ELLIPSE
  5
132
330
EB
100
AcDbEntity
  8
AM_9
100
AcDbEllipse
 10
-71.18295806406626
 20
-0.0000000000002585
 30
0.0
 11
3.110602869834433E-16
 21
5.080000000000255
 31
0.0
210
0.0
220
0.0
230
1.0
 40
0.4999999999999705
 41
0.0
 42
0.0855539111256078
  0
LWPOLYLINE
  5
133
330
EB
100
AcDbEntity
  8
AM_9
100
AcDbPolyline
 90
        4
 70
     0
 43
0.0
 10
-70.05090291938937
 20
-4.547549295794528
 10
-69.92505454339884
 20
-4.680277139818006
 10
-69.87151427794356
 20
-4.804994146739737
 10
-69.88132974184663
 20
-4.91210102493407
  0
LINE
  5
134
330
EB
100
AcDbEntity
  8
AM_9
100
AcDbLine
 10
-67.95214204206863
 20
5.079999999999997
 30
0.0
 11
-71.18295806406195
 21
5.079999999999997
 31
0.0
  0
LINE
  5
135
330
EB
100
AcDbEntity
  8
AM_9
100
AcDbLine
 10
-70.29634011664825
 20
-5.080000000000002
 30
0.0
 11
-67.95214204206863
 21
-5.080000000000002
 31
0.0
  0
LWPOLYLINE
  5
136
330
EB
100
AcDbEntity
  8
AM_9
100
AcDbPolyline
 90
        6
 70
     0
 43
0.0
 10
-70.29258639728481
 20
-5.079999999236803
 10
-70.33035917516311
 20
-5.079458245572025
 10
-70.60654862727255
 20
-5.050335633392995
 10
-70.92146599880769
 20
-4.98258955216002
 10
-71.2878211301039
 20
-4.878563523460395
 10
-71.39664952836848
 20
-4.844599136990503
  0
LINE
  5
137
330
EB
100
AcDbEntity
  8
AM_9
100
AcDbLine
 10
-64.03391835582141
 20
5.079999999999997
 30
0.0
 11
-65.75243751645615
 21
5.079999999999997
 31
0.0
  0
LINE
  5
138
330
EB
100
AcDbEntity
  8
AM_9
100
AcDbLine
 10
-65.75243751645615
 20
-5.080000000000002
 30
0.0
 11
-64.03391835582141
 21
-5.080000000000002
 31
0.0
  0
LWPOLYLINE
  5
139
330
EB
100
AcDbEntity
  8
AM_9
100
AcDbPolyline
 90
        3
 70
     0
 43
0.0
 10
-70.35806886695728
 20
-2.778125000000001
 10
-70.70640936566183
 20
-1.389062500000001
 10
-70.96058407436263
 20
-0.0000000000000012
  0
LWPOLYLINE
  5
13A
330
EB
100
AcDbEntity
  8
AM_9
100
AcDbPolyline
 90
        3
 70
     0
 43
0.0
 10
-69.35663285777021
 20
-5.556250000000003
 10
-69.90216569907781
 20
-4.173433099036603
 10
-70.35806886695728
 20
-2.778125000000001
  0
LINE
  5
13B
330
EB
100
AcDbEntity
  8
AM_9
100
AcDbLine
 10
-69.35663285777021
 20
-5.556250000000003
 30
0.0
 11
-64.34794670075458
 21
-5.556250000000004
 31
0.0
  0
LINE
  5
13C
330
EB
100
AcDbEntity
  8
AM_9
100
AcDbLine
 10
-67.60085340943947
 20
-5.274831493281021
 30
0.0
 11
-67.55584913393943
 21
-5.556250000000003
 31
0.0
  0
LWPOLYLINE
  5
13D
330
EB
100
AcDbEntity
  8
AM_9
100
AcDbPolyline
 90
        3
 70
     0
 43
0.0
 10
-68.1583643413448
 20
-2.778125000000002
 10
-67.81002384264023
 20
-4.167187500000002
 10
-67.60085340943947
 20
-5.274831493281021
  0
LINE
  5
13E
330
EB
100
AcDbEntity
  8
AM_9
100
AcDbLine
 10
-68.30414531828477
 20
-2.29553146688633
 30
0.0
 11
-68.1583643413448
 21
-2.778125000000002
 31
0.0
  0
LWPOLYLINE
  5
13F
330
EB
100
AcDbEntity
  8
AM_9
100
AcDbPolyline
 90
        3
 70
     0
 43
0.0
 10
-68.78651338746877
 20
-0.9226915900067373
 10
-68.61426750922425
 20
-1.382816900963401
 10
-68.30414531828477
 20
-2.29553146688633
  0
LINE
  5
140
330
EB
100
AcDbEntity
  8
AM_9
100
AcDbLine
 10
-69.15980035053187
 20
-0.0000000000000011
 30
0.0
 11
-68.78651338746877
 21
-0.9226915900067373
 31
0.0
  0
LINE
  5
141
330
EB
100
AcDbEntity
  8
AM_9
100
AcDbLine
 10
-69.35663285777021
 20
5.556249999999999
 30
0.0
 11
-64.34794670075458
 21
5.556249999999998
 31
0.0
  0
LWPOLYLINE
  5
142
330
EB
100
AcDbEntity
  8
AM_9
100
AcDbPolyline
 90
        3
 70
     0
 43
0.0
 10
-70.35806886695728
 20
2.778124999999998
 10
-69.90443375736562
 20
4.167187499999997
 10
-69.35663285777021
 20
5.556249999999999
  0
LWPOLYLINE
  5
143
330
EB
100
AcDbEntity
  8
AM_9
100
AcDbPolyline
 90
        3
 70
     0
 43
0.0
 10
-70.96058407436263
 20
-0.0000000000000012
 10
-70.70774720565906
 20
1.382816900963397
 10
-70.35806886695728
 20
2.778124999999998
  0
LINE
  5
144
330
EB
100
AcDbEntity
  8
AM_9
100
AcDbLine
 10
-70.96058407436263
 20
-0.0000000000000012
 30
0.0
 11
-69.15980035053187
 21
-0.0000000000000011
 31
0.0
  0
LINE
  5
145
330
EB
100
AcDbEntity
  8
AM_9
100
AcDbLine
 10
-68.7864445359307
 20
0.9228703913315479
 30
0.0
 11
-69.15980035053187
 21
-0.0000000000000011
 31
0.0
  0
LWPOLYLINE
  5
146
330
EB
100
AcDbEntity
  8
AM_9
100
AcDbPolyline
 90
        3
 70
     0
 43
0.0
 10
-68.30224153036978
 20
2.301570470720899
 10
-68.61199945093645
 20
1.389062499999998
 10
-68.7864445359307
 20
0.9228703913315479
  0
LINE
  5
147
330
EB
100
AcDbEntity
  8
AM_9
100
AcDbLine
 10
-68.1583643413448
 20
2.778124999999998
 30
0.0
 11
-68.30224153036978
 21
2.301570470720899
 31
0.0
  0
LWPOLYLINE
  5
148
330
EB
100
AcDbEntity
  8
AM_9
100
AcDbPolyline
 90
        3
 70
     0
 43
0.0
 10
-67.60751638671769
 20
5.234705743098102
 10
-67.808686002643
 20
4.173433099036598
 10
-68.1583643413448
 20
2.778124999999998
  0
LINE
  5
149
330
EB
100
AcDbEntity
  8
AM_9
100
AcDbLine
 10
-67.55584913393945
 20
5.556249999999999
 30
0.0
 11
-67.60751638671769
 21
5.234705743098102
 31
0.0
  0
LINE
  5
14A
330
EB
100
AcDbEntity
  8
AM_9
100
AcDbLine
 10
-59.70190715071068
 20
4.708725846697614
 30
0.0
 11
-63.99003497036922
 21
4.863493258495417
 31
0.0
  0
LINE
  5
14B
330
EB
100
AcDbEntity
  8
AM_9
100
AcDbLine
 10
-63.99003497036922
 20
-4.863493258495422
 30
0.0
 11
-59.70190715071068
 21
-4.708725846697619
 31
0.0
  0
LINE
  5
14C
330
EB
100
AcDbEntity
  8
AM_9
100
AcDbLine
 10
-58.03666111039406
 20
3.352827683708302
 30
0.0
 11
-58.38488068441563
 21
3.845284527973389
 31
0.0
  0
LINE
  5
14D
330
EB
100
AcDbEntity
  8
AM_9
100
AcDbLine
 10
-58.38488068441563
 20
-3.845284527973393
 30
0.0
 11
-58.03666111039406
 21
-3.352827683708306
 31
0.0
  0
ELLIPSE
  5
14E
330
EB
100
AcDbEntity
  8
AM_9
100
AcDbEllipse
 10
-67.95214204206864
 20
-0.0000000000000808
 30
0.0
 11
3.402221888881292E-16
 21
5.556250000000085
 31
0.0
210
0.0
220
0.0
230
1.0
 40
0.4999999999999954
 41
0.0
 42
6.283185307179586
  0
ELLIPSE
  5
14F
330
EB
100
AcDbEntity
  8
AM_9
100
AcDbEllipse
 10
-67.95214204206864
 20
0.0000000000000115
 30
0.0
 11
3.110602869834289E-16
 21
5.08000000000002
 31
0.0
210
0.0
220
0.0
230
1.0
 40
0.4999999999999993
 41
0.0
 42
6.283185307179586
  0
ELLIPSE
  5
150
330
EB
100
AcDbEntity
  8
AM_9
100
AcDbEllipse
 10
-65.75243751645657
 20
0.0000000000000906
 30
0.0
 11
3.402221888881312E-16
 21
5.556250000000116
 31
0.0
210
0.0
220
0.0
230
1.0
 40
0.5000000000000413
 41
0.0
 42
6.283185307179586
  0
ELLIPSE
  5
151
330
EB
100
AcDbEntity
  8
AM_9
100
AcDbEllipse
 10
-65.75243751645617
 20
-0.0000000000000071
 30
0.0
 11
3.110602869834268E-16
 21
5.079999999999985
 31
0.0
210
0.0
220
0.0
230
1.0
 40
0.5000000000000041
 41
0.0
 42
6.283185307179586
  0
ELLIPSE
  5
152
330
EB
100
AcDbEntity
  8
AM_9
100
AcDbEllipse
 10
-64.03391835582192
 20
-0.0000000000002576
 30
0.0
 11
3.110602869834435E-16
 21
5.080000000000258
 31
0.0
210
0.0
220
0.0
230
1.0
 40
0.5000000000000179
 41
0.0
 42
6.283185307179586
  0
ELLIPSE
  5
153
330
EB
100
AcDbEntity
  8
AM_9
100
AcDbEllipse
 10
-64.03391835582141
 20
-0.0000000000000195
 30
0.0
 11
2.978515598206507E-16
 21
4.864285115153636
 31
0.0
210
0.0
220
0.0
230
1.0
 40
0.5000000000000014
 41
0.0
 42
6.283185307179586
  0
ELLIPSE
  5
154
330
EB
100
AcDbEntity
  8
AM_9
100
AcDbEllipse
 10
-59.74439406707649
 20
-0.000000000000008
 30
0.0
 11
2.883732460730453E-16
 21
4.70949250467681
 31
0.0
210
0.0
220
0.0
230
1.0
 40
0.5000000000000053
 41
0.0
 42
6.283185307179586
  0
ELLIPSE
  5
155
330
EB
100
AcDbEntity
  8
AM_9
100
AcDbEllipse
 10
-59.22206470604416
 20
-0.000000000000004
 30
0.0
 11
2.514419402883856E-16
 21
4.106358510281483
 31
0.0
210
0.0
220
0.0
230
1.0
 40
0.5000000000000068
 41
0.0
 42
6.283185307179586
  0
LINE
  5
156
330
EB
100
AcDbEntity
  8
AM_4
100
AcDbLine
 10
-73.31518768583491
 20
-12.93739051932093
 30
0.0
 11
-71.77564922904642
 21
-11.53205948275794
 31
0.0
  0
LINE
  5
157
330
EB
100
AcDbEntity
  8
AM_4
100
AcDbLine
 10
-78.29672247846324
 20
-8.898626575676335
 30
0.0
 11
-78.16480955227868
 21
-10.9789469745965
 31
0.0
  0
ELLIPSE
  5
158
330
EB
100
AcDbEntity
  8
AM_4
100
AcDbEllipse
 10
-75.71903204936709
 20
-11.90625
 30
0.0
 11
-2.437227270755869
 21
0.9842359150649287
 31
0.0
210
0.0
220
0.0
230
1.0
 40
0.2113091308703349
 41
0.1009830038932726
 42
3.040609649696515
  0
LINE
  5
159
330
EB
100
AcDbEntity
  8
AM_4
100
AcDbLine
 10
-76.93858595306081
 20
-3.837282897828232
 30
0.0
 11
-77.2261539129473
 21
-4.549376881905937
 31
0.0
  0
LWPOLYLINE
  5
15A
330
EB
100
AcDbEntity
  8
AM_4
100
AcDbPolyline
 90
        8
 70
     0
 43
0.0
 10
-77.70221050143516
 20
-8.080104126686296
 10
-77.77067373438021
 20
-8.104430997817499
 10
-77.9268027218288
 20
-8.183360402634811
 10
-78.06522525813298
 20
-8.292753431541994
 10
-78.17870524237783
 20
-8.432973430216034
 10
-78.26384279154455
 20
-8.617519577750148
 10
-78.29706955499974
 20
-8.802690901767821
 10
-78.29640123990661
 20
-8.903464188797226
  0
LWPOLYLINE
  5
15B
330
EB
100
AcDbEntity
  8
AM_4
100
AcDbPolyline
 90
        8
 70
     0
 43
0.0
 10
-71.7793451070739
 20
-11.53541244045149
 10
-71.6667999014855
 20
-11.41003820624603
 10
-71.5782542773099
 20
-11.25021698376972
 10
-71.52846624419536
 20
-11.06393356267767
 10
-71.5243563685285
 20
-10.88579658221726
 10
-71.55566717600013
 20
-10.72122425773498
 10
-71.6154134364999
 20
-10.56831147948314
 10
-71.64824373113125
 20
-10.50652400922587
  0
ELLIPSE
  5
15C
330
EB
100
AcDbEntity
  8
AM_4
100
AcDbEllipse
 10
-75.00799302955103
 20
-10.14553017343999
 30
0.0
 11
-3.277232327750511
 21
1.323458750723535
 31
0.0
210
0.0
220
0.0
230
1.0
 40
0.2113091308703529
 41
0.1021945725852795
 42
3.039126015779742
  0
LINE
  5
15D
330
EB
100
AcDbEntity
  8
AM_4
100
AcDbLine
 10
-71.62730131376189
 20
-7.58869625231989
 30
0.0
 11
-71.40222993525403
 21
-7.665404086010289
 31
0.0
  0
ELLIPSE
  5
15E
330
EB
100
AcDbEntity
  8
AM_4
100
AcDbEllipse
 10
-73.44142555712122
 20
-6.266296641270844
 30
0.0
 11
-3.312005593887065
 21
1.337501387545493
 31
0.0
210
0.0
220
0.0
230
1.0
 40
0.2113091308703675
 41
1.711945269609631
 42
2.317219026398836
  0
LWPOLYLINE
  5
15F
330
EB
100
AcDbEntity
  8
AM_4
100
AcDbPolyline
 90
        4
 70
     0
 43
0.0
 10
-77.2261539129473
 20
-4.549376881905935
 10
-76.84827511465316
 20
-5.050422008373631
 10
-76.43097159968923
 20
-5.477080537076166
 10
-76.29134732696112
 20
-5.592268783583251
  0
LINE
  5
160
330
EB
100
AcDbEntity
  8
AM_4
100
AcDbLine
 10
-76.29384025372262
 20
-5.590323799250988
 30
0.0
 11
-76.27374249237836
 21
-5.606004100241779
 31
0.0
  0
LWPOLYLINE
  5
161
330
EB
100
AcDbEntity
  8
AM_4
100
AcDbPolyline
 90
        3
 70
     0
 43
0.0
 10
-76.29134732696112
 20
-5.592268783583251
 10
-75.96265807835597
 20
-5.817773758536458
 10
-75.45782391042115
 20
-6.068998929608746
  0
LINE
  5
162
330
EB
100
AcDbEntity
  8
AM_4
100
AcDbLine
 10
-75.18675720467581
 20
-3.126658350638854
 30
0.0
 11
-75.56733228130524
 21
-4.069062444143283
 31
0.0
  0
ELLIPSE
  5
163
330
EB
100
AcDbEntity
  8
AM_4
100
AcDbEllipse
 10
-72.97660790564251
 20
-5.115285751734384
 30
0.0
 11
-2.590724375662731
 21
1.0462233075911
 31
0.0
210
0.0
220
0.0
230
1.0
 40
0.2113091308703477
 41
0.0
 42
2.307392746443061
  0
LWPOLYLINE
  5
164
330
EB
100
AcDbEntity
  8
AM_4
100
AcDbPolyline
 90
        4
 70
     0
 43
0.0
 10
-76.93858595306081
 20
-3.837282897828232
 10
-76.51654356657758
 20
-3.705296695971725
 10
-76.10875640513721
 20
-3.624930539193417
 10
-75.81389932104929
 20
-3.605746149316371
  0
LWPOLYLINE
  5
165
330
EB
100
AcDbEntity
  8
AM_4
100
AcDbPolyline
 90
        6
 70
     0
 43
0.0
 10
-75.16096785644467
 20
-5.333905179049322
 10
-75.42281991992084
 20
-4.936675458173814
 10
-75.71095312150979
 20
-4.585948207644055
 10
-76.03388807576069
 20
-4.290054100087519
 10
-76.38684460097886
 20
-4.060772684155616
 10
-76.93858595306081
 20
-3.837282897828232
  0
LINE
  5
166
330
EB
100
AcDbEntity
  8
AM_4
100
AcDbLine
 10
-75.78012104106142
 20
-3.605746148079323
 30
0.0
 11
-75.81665834792453
 21
-3.605746148079323
 31
0.0
  0
ELLIPSE
  5
167
330
EB
100
AcDbEntity
  8
AM_4
100
AcDbEllipse
 10
-72.97660790564198
 20
-5.115285751735136
 30
0.0
 11
-3.312005593887746
 21
1.337501387546105
 31
0.0
210
0.0
220
0.0
230
1.0
 40
0.2113091308704061
 41
5.610613825799333
 42
7.795870906981274
  0
ELLIPSE
  5
168
330
EB
100
AcDbEntity
  8
AM_4
100
AcDbEllipse
 10
-73.44142555712125
 20
-6.266296641270931
 30
0.0
 11
-3.312005593887037
 21
1.337501387545445
 31
0.0
210
0.0
220
0.0
230
1.0
 40
0.2113091308703497
 41
0.6359965959176836
 42
1.512685599801943
  0
LWPOLYLINE
  5
169
330
EB
100
AcDbEntity
  8
AM_4
100
AcDbPolyline
 90
       10
 70
     0
 43
0.0
 10
-71.63386415635934
 20
-10.53211957986041
 10
-71.70281237091451
 20
-10.37812052873154
 10
-71.76747189158382
 20
-10.17773263913195
 10
-71.81389613035385
 20
-9.93615029993499
 10
-71.82941747171323
 20
-9.664399522907495
 10
-71.80557838036603
 20
-9.37697003162236
 10
-71.7288056122282
 20
-9.055731036458905
 10
-71.60527962799488
 20
-8.758225320715464
 10
-71.44536301912119
 20
-8.49561999005762
 10
-71.40132071809221
 20
-8.436505685412623
  0
LWPOLYLINE
  5
16A
330
EB
100
AcDbEntity
  8
AM_4
100
AcDbPolyline
 90
       17
 70
     0
 43
0.0
 10
-76.68406774860456
 20
-5.202730483058413
 10
-76.68156048254852
 20
-5.20647635129906
 10
-76.62025576179127
 20
-5.308063475687354
 10
-76.55111297886192
 20
-5.451072525115388
 10
-76.48373773288473
 20
-5.638667150577421
 10
-76.43069260769852
 20
-5.869293082836816
 10
-76.40523204080854
 20
-6.133840612930653
 10
-76.41724457266483
 20
-6.418261239046216
 10
-76.47155376507604
 20
-6.708384206054121
 10
-76.57898284260638
 20
-7.015534792586179
 10
-76.72689398924955
 20
-7.291556045273959
 10
-76.9042039665347
 20
-7.529152782367811
 10
-77.09934699010287
 20
-7.725163384134267
 10
-77.29929010879502
 20
-7.878276392166404
 10
-77.48959275495568
 20
-7.989542013040188
 10
-77.65687012946469
 20
-8.063499732871552
 10
-77.71629123560074
 20
-8.084678366770058
  0
ELLIPSE
  5
16B
330
EB
100
AcDbEntity
  8
AM_4
100
AcDbEllipse
 10
-74.73684848740398
 20
-9.474104895899876
 30
0.0
 11
-3.136987913476886
 21
1.266823248950025
 31
0.0
210
0.0
220
0.0
230
1.0
 40
0.2113091308703471
 41
6.039841419634548
 42
9.663912672968351
  0
ELLIPSE
  5
16C
330
EB
100
AcDbEntity
  8
AM_4
100
AcDbEllipse
 10
-72.97660790564251
 20
-5.115285751734313
 30
0.0
 11
-3.312005593887151
 21
1.337501387545491
 31
0.0
210
0.0
220
0.0
230
1.0
 40
0.211309130870359
 41
-4.57124003756994
 42
-4.133087636301632
  0
LWPOLYLINE
  5
16D
330
EB
100
AcDbEntity
  8
AM_4
100
AcDbPolyline
 90
        3
 70
     0
 43
0.0
 10
-71.39823236569359
 20
-6.778289240991903
 10
-72.03387024047169
 20
-6.382400080731244
 10
-72.79048810335652
 20
-5.996343371387014
  0
LINE
  5
16E
330
EB
100
AcDbEntity
  8
AM_4
100
AcDbLine
 10
-72.79048810335652
 20
-5.996343371387014
 30
0.0
 11
-73.45111185261653
 21
-5.73628200726986
 31
0.0
  0
LWPOLYLINE
  5
16F
330
EB
100
AcDbEntity
  8
AM_4
100
AcDbPolyline
 90
        4
 70
     0
 43
0.0
 10
-73.45111185261653
 20
-5.73628200726986
 10
-74.03505873379945
 20
-5.560509266840903
 10
-74.59400782826084
 20
-5.432128708591389
 10
-75.16096785644467
 20
-5.333905179049322
  0
LINE
  5
170
330
EB
100
AcDbEntity
  8
AM_4
100
AcDbLine
 10
-75.16096785644467
 20
-5.333905179049322
 30
0.0
 11
-75.45782391042113
 21
-6.068998929608748
 31
0.0
  0
LWPOLYLINE
  5
171
330
EB
100
AcDbEntity
  8
AM_4
100
AcDbPolyline
 90
        3
 70
     0
 43
0.0
 10
-75.45782391042113
 20
-6.068998929608748
 10
-74.70395645108255
 20
-6.504786871533987
 10
-73.91592950409525
 20
-6.887292896806423
  0
LINE
  5
172
330
EB
100
AcDbEntity
  8
AM_4
100
AcDbLine
 10
-73.91592950409525
 20
-6.887292896806423
 30
0.0
 11
-73.2553057548353
 21
-7.147354260923541
 31
0.0
  0
LWPOLYLINE
  5
173
330
EB
100
AcDbEntity
  8
AM_4
100
AcDbPolyline
 90
        3
 70
     0
 43
0.0
 10
-73.2553057548353
 20
-7.147354260923541
 10
-72.45138176314309
 20
-7.39591091997546
 10
-71.62730131376189
 20
-7.588696252319891
  0
LINE
  5
174
330
EB
100
AcDbEntity
  8
AM_4
100
AcDbLine
 10
-71.4
 20
-7.025838351993659
 30
0.0
 11
-71.62730131376189
 21
-7.588696252319891
 31
0.0
  0
ARC
  5
175
330
EB
100
AcDbEntity
  8
AM_4
100
AcDbCircle
 10
-71.182958064062
 20
0.0000000000000244
 30
0.0
 40
5.079999999999971
100
AcDbArc
 50
92.44869554208793
 51
219.6366549451241
  0
LWPOLYLINE
  5
176
330
EB
100
AcDbEntity
  8
AM_4
100
AcDbPolyline
 90
       10
 70
     0
 43
0.0
 10
-75.09980433678066
 20
-3.234920484745158
 10
-75.0574499419189
 20
-3.281280336792629
 10
-74.89800024132025
 20
-3.415613668153261
 10
-74.66539722512715
 20
-3.569173128090977
 10
-74.37847402041206
 20
-3.729407788863488
 10
-74.02944878143701
 20
-3.900563582124102
 10
-73.64688694205418
 20
-4.068570560479344
 10
-73.22033400243481
 20
-4.237973131810883
 10
-72.77839086412332
 20
-4.397035613753721
 10
-72.3150132087341
 20
-4.547549295795373
  0
ELLIPSE
  5
177
330
EB
100
AcDbEntity
  8
AM_4
100
AcDbEllipse
 10
-71.18295806406198
 20
-0.0000000000000058
 30
0.0
 11
3.110602869834264E-16
 21
5.079999999999979
 31
0.0
210
0.0
220
0.0
230
1.0
 40
0.4999999999999978
 41
0.0855539111272865
 42
2.679646633022833
  0
LINE
  5
178
330
EB
100
AcDbEntity
  8
AM_4
100
AcDbLine
 10
-71.39664952836848
 20
-4.844599136990503
 30
0.0
 11
-72.31501320873454
 21
-4.547549295794529
 31
0.0
  0
ENDBLK
  5
EE
330
EB
100
AcDbEntity
  8
0
100
AcDbBlockEnd
  0
BLOCK
  5
17B
330
179
100
AcDbEntity
  8
0
100
AcDbBlockBegin
  2
4_125918H_0_in_125918_4
 70
     2
 10
0.0
 20
0.0
 30
0.0
  3
4_125918H_0_in_125918_4
  1

  0
ATTDEF
  5
17D
330
179
100
AcDbEntity
  8
AM_6
100
AcDbText
 10
125.055
 20
31.75
 30
0.0
 40
0.5
  1
WSTU-SC -Metric - housing
100
AcDbAttributeDefinition
  3

  2
NN
 70
     8
280
     0
  0
ATTDEF
  5
17E
330
179
100
AcDbEntity
  8
AM_6
100
AcDbText
 10
125.055
 20
31.25
 30
0.0
 40
0.5
  1
SC Take-Up Bearings -Wide Slot -(Normal Duty)
100
AcDbAttributeDefinition
  3

  2
NT
 70
     8
280
     0
  0
ATTDEF
  5
17F
330
179
100
AcDbEntity
  8
AM_6
100
AcDbText
 10
125.055
 20
30.75
 30
0.0
 40
0.5
  1
125918H
100
AcDbAttributeDefinition
  3

  2
NB
 70
     8
280
     0
  0
ATTDEF
  5
180
330
179
100
AcDbEntity
  8
AM_6
100
AcDbText
 10
125.055
 20
30.25
 30
0.0
 40
0.5
  1
$PN.H
100
AcDbAttributeDefinition
  3

  2
NBSYN
 70
     8
280
     0
  0
ATTDEF
  5
181
330
179
100
AcDbEntity
  8
AM_6
100
AcDbText
 10
125.055
 20
29.75
 30
0.0
 40
0.5
  1
125918
100
AcDbAttributeDefinition
  3

  2
LINA
 70
     8
280
     0
  0
ATTDEF
  5
182
330
179
100
AcDbEntity
  8
AM_6
100
AcDbText
 10
125.055
 20
29.25
 30
0.0
 40
0.5
  1
212
100
AcDbAttributeDefinition
  3

  2
SERIES
 70
     8
280
     0
  0
ATTDEF
  5
183
330
179
100
AcDbEntity
  8
AM_6
100
AcDbText
 10
125.055
 20
28.75
 30
0.0
 40
0.5
  1
60
100
AcDbAttributeDefinition
  3

  2
SS
 70
     8
280
     0
  0
ATTDEF
  5
184
330
179
100
AcDbEntity
  8
AM_6
100
AcDbText
 10
125.055
 20
28.25
 30
0.0
 40
0.5
  1
125918
100
AcDbAttributeDefinition
  3

  2
PN
 70
     8
280
     0
  0
ATTDEF
  5
185
330
179
100
AcDbEntity
  8
AM_6
100
AcDbText
 10
125.055
 20
27.75
 30
0.0
 40
0.5
  1
WSTU-SC-60M
100
AcDbAttributeDefinition
  3

  2
DESCRIPTION
 70
     8
280
     0
  0
ATTDEF
  5
186
330
179
100
AcDbEntity
  8
AM_6
100
AcDbText
 10
125.055
 20
27.25
 30
0.0
 40
0.5
  1
4.9
100
AcDbAttributeDefinition
  3

  2
W
 70
     8
280
     0
  0
ATTDEF
  5
187
330
179
100
AcDbEntity
  8
AM_6
100
AcDbText
 10
125.055
 20
26.75
 30
0.0
 40
0.5
  1
WS502
100
AcDbAttributeDefinition
  3

  2
FS
 70
     8
280
     0
  0
ATTDEF
  5
188
330
179
100
AcDbEntity
  8
AM_6
100
AcDbText
 10
125.055
 20
26.25
 30
0.0
 40
0.5
  1
58.7
100
AcDbAttributeDefinition
  3

  2
A
 70
     8
280
     0
  0
ATTDEF
  5
189
330
179
100
AcDbEntity
  8
AM_6
100
AcDbText
 10
125.055
 20
25.75
 30
0.0
 40
0.5
  1
190.5
100
AcDbAttributeDefinition
  3

  2
B
 70
     8
280
     0
  0
ATTDEF
  5
18A
330
179
100
AcDbEntity
  8
AM_6
100
AcDbText
 10
125.055
 20
25.25
 30
0.0
 40
0.5
  1
27.00
100
AcDbAttributeDefinition
  3

  2
C
 70
     8
280
     0
  0
ATTDEF
  5
18B
330
179
100
AcDbEntity
  8
AM_6
100
AcDbText
 10
125.055
 20
24.75
 30
0.0
 40
0.5
  1
101.6
100
AcDbAttributeDefinition
  3

  2
D
 70
     8
280
     0
  0
ATTDEF
  5
18C
330
179
100
AcDbEntity
  8
AM_6
100
AcDbText
 10
125.055
 20
24.25
 30
0.0
 40
0.5
  1
119.1
100
AcDbAttributeDefinition
  3

  2
E
 70
     8
280
     0
  0
ATTDEF
  5
18D
330
179
100
AcDbEntity
  8
AM_6
100
AcDbText
 10
125.055
 20
23.75
 30
0.0
 40
0.5
  1
31.8
100
AcDbAttributeDefinition
  3

  2
F
 70
     8
280
     0
  0
ATTDEF
  5
18E
330
179
100
AcDbEntity
  8
AM_6
100
AcDbText
 10
125.055
 20
23.25
 30
0.0
 40
0.5
  1
19.1
100
AcDbAttributeDefinition
  3

  2
G
 70
     8
280
     0
  0
ATTDEF
  5
18F
330
179
100
AcDbEntity
  8
AM_6
100
AcDbText
 10
125.055
 20
22.75
 30
0.0
 40
0.5
  1
31.8
100
AcDbAttributeDefinition
  3

  2
H
 70
     8
280
     0
  0
ATTDEF
  5
190
330
179
100
AcDbEntity
  8
AM_6
100
AcDbText
 10
125.055
 20
22.25
 30
0.0
 40
0.5
  1
101.6
100
AcDbAttributeDefinition
  3

  2
J
 70
     8
280
     0
  0
ATTDEF
  5
191
330
179
100
AcDbEntity
  8
AM_6
100
AcDbText
 10
125.055
 20
21.75
 30
0.0
 40
0.5
  1
63.5
100
AcDbAttributeDefinition
  3

  2
K
 70
     8
280
     0
  0
ATTDEF
  5
192
330
179
100
AcDbEntity
  8
AM_6
100
AcDbText
 10
125.055
 20
21.25
 30
0.0
 40
0.5
  1
75.4
100
AcDbAttributeDefinition
  3

  2
L
 70
     8
280
     0
  0
ATTDEF
  5
193
330
179
100
AcDbEntity
  8
AM_6
100
AcDbText
 10
125.055
 20
20.75
 30
0.0
 40
0.5
  1
129.79/130.56
100
AcDbAttributeDefinition
  3

  2
M
 70
     8
280
     0
  0
ATTDEF
  5
194
330
179
100
AcDbEntity
  8
AM_6
100
AcDbText
 10
125.055
 20
20.25
 30
0.0
 40
0.5
  1
149.4
100
AcDbAttributeDefinition
  3

  2
N
 70
     8
280
     0
  0
ATTDEF
  5
195
330
179
100
AcDbEntity
  8
AM_6
100
AcDbText
 10
125.055
 20
19.75
 30
0.0
 40
0.5
  1
22.9
100
AcDbAttributeDefinition
  3

  2
R
 70
     8
280
     0
  0
ATTDEF
  5
196
330
179
100
AcDbEntity
  8
AM_6
100
AcDbText
 10
125.055
 20
19.25
 30
0.0
 40
0.5
  1
35.8
100
AcDbAttributeDefinition
  3

  2
S
 70
     8
280
     0
  0
ATTDEF
  5
197
330
179
100
AcDbEntity
  8
AM_6
100
AcDbText
 10
125.055
 20
18.75
 30
0.0
 40
0.5
  1
63.5
100
AcDbAttributeDefinition
  3

  2
T
 70
     8
280
     0
  0
ATTDEF
  5
198
330
179
100
AcDbEntity
  8
AM_6
100
AcDbText
 10
125.055
 20
18.25
 30
0.0
 40
0.5
  1
6955
100
AcDbAttributeDefinition
  3

  2
CAPS
 70
     8
280
     0
  0
ATTDEF
  5
199
330
179
100
AcDbEntity
  8
AM_6
100
AcDbText
 10
125.055
 20
17.75
 30
0.0
 40
0.5
  1
11.791
100
AcDbAttributeDefinition
  3

  2
CAPD
 70
     8
280
     0
  0
ATTDEF
  5
19A
330
179
100
AcDbEntity
  8
AM_6
100
AcDbText
 10
125.055
 20
17.25
 30
0.0
 40
0.5
  1
baldor
100
AcDbAttributeDefinition
  3

  2
COMPANY
 70
     8
280
     0
  0
LWPOLYLINE
  5
19B
330
179
100
AcDbEntity
  8
AM_9
100
AcDbPolyline
 90
       11
 70
     0
 43
0.0
 10
-63.73710391652656
 20
-0.000000000000002
 10
-63.71133929566178
 20
-0.6708851144410021
 10
-63.63519623426511
 20
-1.322845033015637
 10
-63.50955621056095
 20
-1.936956730398937
 10
-63.33758571815118
 20
-2.496534631252423
 10
-63.12205776694307
 20
-2.985345769622549
 10
-62.86841059164963
 20
-3.390065176331816
 10
-62.58178362388452
 20
-3.698130598721994
 10
-62.26979310151359
 20
-3.901872293891828
 10
-61.94051268605956
 20
-3.993907482972403
 10
-61.83440526062707
 20
-3.999999981677034
  0
LINE
  5
19C
330
179
100
AcDbEntity
  8
AM_9
100
AcDbLine
 10
-64.03391835582141
 20
-4.000000000000006
 30
0.0
 11
-61.83359294701513
 21
-4.000000000000006
 31
0.0
  0
LINE
  5
19D
330
179
100
AcDbEntity
  8
AM_9
100
AcDbLine
 10
-61.83408414102713
 20
4.000000000000001
 30
0.0
 11
-64.03391835582141
 21
4.000000000000001
 31
0.0
  0
LWPOLYLINE
  5
19E
330
179
100
AcDbEntity
  8
AM_9
100
AcDbPolyline
 90
       20
 70
     0
 43
0.0
 10
-61.83440526062707
 20
-3.999999981677034
 10
-61.60286293898946
 20
-3.973446483454611
 10
-61.26678690856247
 20
-3.839703826421669
 10
-60.94194120572788
 20
-3.598088875546865
 10
-60.63844267556566
 20
-3.253786247054777
 10
-60.36592114612198
 20
-2.818016040775645
 10
-60.13361694992218
 20
-2.301135493098989
 10
-59.94923925014434
 20
-1.719328018596071
 10
-59.81998185714877
 20
-1.088243263063809
 10
-59.7496037101151
 20
-0.4263896892214838
 10
-59.74152474982584
 20
0.2467799300859321
 10
-59.79496000464753
 20
0.9129859000332509
 10
-59.90881642242906
 20
1.552675846156762
 10
-60.07818976762877
 20
2.148671176862947
 10
-60.29819016288967
 20
2.683952611847638
 10
-60.5604475036355
 20
3.14368007275757
 10
-60.85705741060117
 20
3.514065570400181
 10
-61.1777055298903
 20
3.785341600555511
 10
-61.51230045357447
 20
3.948251699690675
 10
-61.8343164868394
 20
3.999999994730818
  0
LWPOLYLINE
  5
19F
330
179
100
AcDbEntity
  8
AM_9
100
AcDbPolyline
 90
       11
 70
     0
 43
0.0
 10
-61.8343164868394
 20
3.999999994730818
 10
-61.85080522550109
 20
3.99986224952492
 10
-62.18284140956643
 20
3.937271481626508
 10
-62.49991906379137
 20
3.763996051549805
 10
-62.79339669704721
 20
3.48346298350218
 10
-63.05644643261493
 20
3.105071123329721
 10
-63.28270342318107
 20
2.637538255250587
 10
-63.46731005704972
 20
2.095679736902896
 10
-63.60582691533191
 20
1.493489678347735
 10
-63.69590475100276
 20
0.8490819824493192
 10
-63.73710391652656
 20
-0.000000000000002
  0
ELLIPSE
  5
1A0
330
179
100
AcDbEntity
  8
AM_9
100
AcDbEllipse
 10
-64.03391835582141
 20
-0.0000000000000023
 30
0.0
 11
5.443555022209993E-16
 21
8.890000000000013
 31
0.0
210
0.0
220
0.0
230
1.0
 40
0.5000000000000001
 41
0.0
 42
6.283185307179586
  0
LINE
  5
1A1
330
179
100
AcDbEntity
  8
AM_9
100
AcDbLine
 10
-61.88691054922246
 20
-11.4297084515019
 30
0.0
 11
-61.83211569176731
 21
-11.42999953782834
 31
0.0
  0
LWPOLYLINE
  5
1A2
330
179
100
AcDbEntity
  8
AM_9
100
AcDbPolyline
 90
       25
 70
     0
 43
0.0
 10
-68.81921383020892
 20
-0.0000000000000017
 10
-68.81535977099516
 20
-0.3956957471294164
 10
-68.78754349680392
 20
-1.132893632114908
 10
-68.73287816798197
 20
-1.865929405816435
 10
-68.65136528907782
 20
-2.592194016005881
 10
-68.54296890001979
 20
-3.309231571902914
 10
-68.4075993009459
 20
-4.014642461643071
 10
-68.245089092111
 20
-4.706084448361097
 10
-68.05516546020795
 20
-5.381259565899799
 10
-67.83742347290845
 20
-6.037878126502346
 10
-67.59131081723905
 20
-6.673587641910348
 10
-67.31614449466227
 20
-7.285851709199346
 10
-67.01119517642255
 20
-7.871766933938054
 10
-66.67589032924852
 20
-8.427826709072267
 10
-66.31055375507367
 20
-8.949206755467028
 10
-65.9168303826261
 20
-9.430176182141823
 10
-65.49756271187965
 20
-9.865197457653
 10
-65.05680008503522
 20
-10.24950369215752
 10
-64.59910699277084
 20
-10.57995514476538
 10
-64.12881942543233
 20
-10.85525663799297
 10
-63.64968922589018
 20
-11.07553023887212
 10
-63.16493728275803
 20
-11.24168718615847
 10
-62.6774607692691
 20
-11.35496454499663
 10
-62.18998338254364
 20
-11.41669953892978
 10
-61.88691054922246
 20
-11.4297084515019
  0
LWPOLYLINE
  5
1A3
330
179
100
AcDbEntity
  8
AM_9
100
AcDbPolyline
 90
       26
 70
     0
 43
0.0
 10
-61.83433056435888
 20
11.42999999856936
 10
-61.83886247500741
 20
11.4299977312439
 10
-62.32029090584702
 20
11.40515256909462
 10
-62.79469450307592
 20
11.33250133021679
 10
-63.2598613923774
 20
11.21344824632259
 10
-63.71449689799196
 20
11.04909032785804
 10
-64.15769817324218
 20
10.84009685020359
 10
-64.58885624651845
 20
10.58662297485775
 10
-65.00747378956225
 20
10.28831487554294
 10
-65.41290809217989
 20
9.94447471307079
 10
-65.8040826529571
 20
9.554441639449777
 10
-66.17926544564197
 20
9.118172379411918
 10
-66.53605601527134
 20
8.63685181414419
 10
-66.87167786469638
 20
8.113215128812646
 10
-67.18349072628307
 20
7.551327694221583
 10
-67.46944182062637
 20
6.95594401396284
 10
-67.72799099975978
 20
6.332484695497081
 10
-67.95878325424705
 20
5.684855449096788
 10
-68.1618194037356
 20
5.016426337887753
 10
-68.33725808702106
 20
4.330165603596668
 10
-68.48529472271241
 20
3.628793017124016
 10
-68.60610379740193
 20
2.9148992196146
 10
-68.69981981164742
 20
2.19102308604165
 10
-68.76653765659489
 20
1.45969456964427
 10
-68.80632044978569
 20
0.7234531547008198
 10
-68.81921383020892
 20
-0.0000000000000017
  0
LINE
  5
1A4
330
179
100
AcDbEntity
  8
AM_9
100
AcDbLine
 10
100.0
 20
-15.9
 30
0.0
 11
119.1
 21
-15.9
 31
0.0
  0
LINE
  5
1A5
330
179
100
AcDbEntity
  8
AM_9
100
AcDbLine
 10
119.1
 20
15.9
 30
0.0
 11
100.0
 21
15.9
 31
0.0
  0
LINE
  5
1A6
330
179
100
AcDbEntity
  8
AM_9
100
AcDbLine
 10
70.89999999999996
 20
-22.95
 30
0.0
 11
70.89999999999999
 21
22.95000000000001
 31
0.0
  0
LINE
  5
1A7
330
179
100
AcDbEntity
  8
AM_9
100
AcDbLine
 10
68.2
 20
-22.95
 30
0.0
 11
68.2
 21
22.95000000000001
 31
0.0
  0
LINE
  5
1A8
330
179
100
AcDbEntity
  8
AM_9
100
AcDbLine
 10
97.29999999999998
 20
-22.95
 30
0.0
 11
97.29999999999998
 21
22.95
 31
0.0
  0
LINE
  5
1A9
330
179
100
AcDbEntity
  8
AM_9
100
AcDbLine
 10
100.0
 20
-22.95
 30
0.0
 11
100.0
 21
22.95000000000001
 31
0.0
  0
LWPOLYLINE
  5
1AA
330
179
100
AcDbEntity
  8
AM_9
100
AcDbPolyline
 90
       29
 70
     0
 43
0.0
 10
-61.83421383020892
 20
11.43
 10
-61.18810551442922
 20
11.35806575168299
 10
-60.52903049558184
 20
11.1450598625063
 10
-59.87048868880422
 20
10.79517761613148
 10
-59.22045741268519
 20
10.31029940734483
 10
-58.58702801260075
 20
9.696906199263783
 10
-57.98446325659536
 20
8.966471535651952
 10
-57.41737969762109
 20
8.117213244302594
 10
-56.89861840546354
 20
7.163709851600492
 10
-56.44103248368721
 20
6.12344373990919
 10
-56.05115262262854
 20
4.998226591530598
 10
-55.73735464968077
 20
3.805222177159826
 10
-55.50822646424578
 20
2.567008761549679
 10
-55.37039427773281
 20
1.305893964230628
 10
-55.32250907287131
 20
0.0240101730556215
 10
-55.36592737318711
 20
-1.25408727806426
 10
-55.49976732855224
 20
-2.503987054083035
 10
-55.71994911134328
 20
-3.72640301389567
 10
-56.02050849021914
 20
-4.89871992984324
 10
-56.3993309311179
 20
-6.014257703076324
 10
-56.84766131596785
 20
-7.058449879726896
 10
-57.35420201853685
 20
-8.012420458639061
 10
-57.91848127197391
 20
-8.87549036375532
 10
-58.52586608606861
 20
-9.629590486511454
 10
-59.16197069692891
 20
-10.26056549024789
 10
-59.81864114306193
 20
-10.76082236750866
 10
-60.48680546090361
 20
-11.12667192781366
 10
-61.15188680571443
 20
-11.35085175227239
 10
-61.83421383020892
 20
-11.43
  0
LWPOLYLINE
  5
1AB
330
179
100
AcDbEntity
  8
AM_9
100
AcDbPolyline
 90
       29
 70
     0
 43
0.0
 10
-61.83421383020892
 20
-11.43
 10
-62.4448708931905
 20
-11.36232144489254
 10
-63.02995466676654
 20
-11.1609859853045
 10
-63.59406766191292
 20
-10.81880934559605
 10
-64.12167236316922
 20
-10.34322077891746
 10
-64.60532461117822
 20
-9.743215732684467
 10
-65.0459728932913
 20
-9.016436742084439
 10
-65.439316066086
 20
-8.175695374567896
 10
-65.78143357277203
 20
-7.236377711657664
 10
-66.07437608479187
 20
-6.195472124742065
 10
-66.3157309829201
 20
-5.072261697045338
 10
-66.50380712106131
 20
-3.887728919773918
 10
-66.63830633076648
 20
-2.657213287388614
 10
-66.72105170387164
 20
-1.388539830880554
 10
-66.75158516315278
 20
-0.1060555199145145
 10
-66.73019338358044
 20
1.163085687878568
 10
-66.65782535202874
 20
2.42153310422716
 10
-66.53486967281044
 20
3.64564890519181
 10
-66.36062588714265
 20
4.822268776382897
 10
-66.13487000018209
 20
5.942563414912925
 10
-65.85909581118648
 20
6.986236320068577
 10
-65.52831463175015
 20
7.952929191459077
 10
-65.1456622173686
 20
8.823064420822693
 10
-64.71486249180657
 20
9.580626938253431
 10
-64.2328831953111
 20
10.22031939124727
 10
-63.70453001098081
 20
10.73274311878306
 10
-63.13735699574168
 20
11.10789192727053
 10
-62.50145156910217
 20
11.34886387919826
 10
-61.83421383020892
 20
11.43
  0
LINE
  5
1AC
330
179
100
AcDbEntity
  8
AM_9
100
AcDbLine
 10
19.9999998
 20
-12.15
 30
0.0
 11
19.9999998
 21
22.95
 31
0.0
  0
LINE
  5
1AD
330
179
100
AcDbEntity
  8
AM_9
100
AcDbLine
 10
-19.9999998
 20
-12.15
 30
0.0
 11
-19.9999998
 21
22.95
 31
0.0
  0
LINE
  5
1AE
330
179
100
AcDbEntity
  8
AM_9
100
AcDbLine
 10
55.0
 20
-22.95000000000001
 30
0.0
 11
55.0
 21
22.95
 31
0.0
  0
LINE
  5
1AF
330
179
100
AcDbEntity
  8
AM_9
100
AcDbLine
 10
-55.0
 20
22.95
 30
0.0
 11
-55.0
 21
-22.95000000000001
 31
0.0
  0
LINE
  5
1B0
330
179
100
AcDbEntity
  8
AM_9
100
AcDbLine
 10
19.9999998
 20
-12.15
 30
0.0
 11
-19.9999998
 21
-12.15
 31
0.0
  0
LINE
  5
1B1
330
179
100
AcDbEntity
  8
AM_9
100
AcDbLine
 10
50.8
 20
22.95
 30
0.0
 11
-50.8
 21
22.95
 31
0.0
  0
LINE
  5
1B2
330
179
100
AcDbEntity
  8
AM_9
100
AcDbLine
 10
50.8
 20
-22.95
 30
0.0
 11
-50.8
 21
-22.95
 31
0.0
  0
ELLIPSE
  5
1B3
330
179
100
AcDbEntity
  8
AM_9
100
AcDbEllipse
 10
-64.03391835582146
 20
-0.0000000000000102
 30
0.0
 11
-7.347880794884091E-16
 21
-3.999999999999985
 31
0.0
210
0.0
220
0.0
230
1.0
 40
0.4999999999999966
 41
0.0
 42
6.283185307179586
  0
ELLIPSE
  5
1B4
330
179
100
AcDbEntity
  8
AM_9
100
AcDbEllipse
 10
-61.83421383020895
 20
-0.0000000000000053
 30
0.0
 11
-2.099656937138143E-15
 21
-11.43000000000003
 31
0.0
210
0.0
220
0.0
230
1.0
 40
0.5000000000000008
 41
0.0
 42
6.283185307179586
  0
LINE
  5
1B5
330
179
100
AcDbEntity
  8
AM_7
100
AcDbLine
 10
120.055
 20
0.0
 30
0.0
 11
99.04499999999999
 21
0.0
 31
0.0
  0
LINE
  5
1B6
330
179
100
AcDbEntity
  8
AM_7
100
AcDbLine
 10
0.0
 20
29.7
 30
0.0
 11
0.0
 21
-38.735
 31
0.0
  0
LINE
  5
1B7
330
179
100
AcDbEntity
  8
AM_4
100
AcDbLine
 10
100.0
 20
-22.95
 30
0.0
 11
100.0
 21
-31.75
 31
0.0
  0
LINE
  5
1B8
330
179
100
AcDbEntity
  8
AM_4
100
AcDbLine
 10
100.0
 20
-31.75
 30
0.0
 11
119.1
 21
-31.75
 31
0.0
  0
LINE
  5
1B9
330
179
100
AcDbEntity
  8
AM_4
100
AcDbLine
 10
119.1
 20
31.75
 30
0.0
 11
100.0
 21
31.75
 31
0.0
  0
LINE
  5
1BA
330
179
100
AcDbEntity
  8
AM_4
100
AcDbLine
 10
100.0
 20
31.75
 30
0.0
 11
100.0
 21
22.95
 31
0.0
  0
LINE
  5
1BB
330
179
100
AcDbEntity
  8
AM_4
100
AcDbLine
 10
119.1
 20
31.75
 30
0.0
 11
119.1
 21
-31.75
 31
0.0
  0
LINE
  5
1BC
330
179
100
AcDbEntity
  8
AM_4
100
AcDbLine
 10
-70.13000000000001
 20
22.95
 30
0.0
 11
-71.4
 21
21.68000000000001
 31
0.0
  0
LINE
  5
1BD
330
179
100
AcDbEntity
  8
AM_4
100
AcDbLine
 10
-70.13000000000001
 20
22.95
 30
0.0
 11
-50.8
 21
22.95
 31
0.0
  0
LINE
  5
1BE
330
179
100
AcDbEntity
  8
AM_4
100
AcDbLine
 10
-71.4
 20
21.68
 30
0.0
 11
-71.4
 21
-21.68
 31
0.0
  0
LINE
  5
1BF
330
179
100
AcDbEntity
  8
AM_4
100
AcDbLine
 10
-71.4
 20
21.68
 30
0.0
 11
-50.8
 21
21.68000000000001
 31
0.0
  0
LINE
  5
1C0
330
179
100
AcDbEntity
  8
AM_4
100
AcDbLine
 10
-71.4
 20
-21.68
 30
0.0
 11
-70.13000000000001
 21
-22.94999999999999
 31
0.0
  0
LINE
  5
1C1
330
179
100
AcDbEntity
  8
AM_4
100
AcDbLine
 10
-71.4
 20
-21.68
 30
0.0
 11
-50.8
 21
-21.68
 31
0.0
  0
LINE
  5
1C2
330
179
100
AcDbEntity
  8
AM_4
100
AcDbLine
 10
-70.13000000000001
 20
-22.94999999999999
 30
0.0
 11
-50.8
 21
-22.94999999999999
 31
0.0
  0
LINE
  5
1C3
330
179
100
AcDbEntity
  8
AM_4
100
AcDbLine
 10
119.1
 20
22.95
 30
0.0
 11
50.8
 21
22.95
 31
0.0
  0
LINE
  5
1C4
330
179
100
AcDbEntity
  8
AM_4
100
AcDbLine
 10
116.4
 20
20.25000000000001
 30
0.0
 11
50.8
 21
20.25000000000001
 31
0.0
  0
LINE
  5
1C5
330
179
100
AcDbEntity
  8
AM_4
100
AcDbLine
 10
119.1
 20
-22.95
 30
0.0
 11
50.8
 21
-22.95
 31
0.0
  0
LINE
  5
1C6
330
179
100
AcDbEntity
  8
AM_4
100
AcDbLine
 10
116.4
 20
-20.24999999999996
 30
0.0
 11
50.8
 21
-20.25
 31
0.0
  0
LINE
  5
1C7
330
179
100
AcDbEntity
  8
AM_4
100
AcDbLine
 10
116.4
 20
-20.24999999999996
 30
0.0
 11
116.4
 21
20.25000000000001
 31
0.0
  0
LINE
  5
1C8
330
179
100
AcDbEntity
  8
AM_4
100
AcDbLine
 10
119.1
 20
-22.94999999999998
 30
0.0
 11
116.4
 21
-20.24999999999999
 31
0.0
  0
LINE
  5
1C9
330
179
100
AcDbEntity
  8
AM_4
100
AcDbLine
 10
116.4
 20
20.24999999999999
 30
0.0
 11
119.1
 21
22.94999999999999
 31
0.0
  0
LINE
  5
1CA
330
179
100
AcDbEntity
  8
AM_4
100
AcDbLine
 10
-50.8
 20
27.0
 30
0.0
 11
-50.80000000000001
 21
-26.99999999999999
 31
0.0
  0
LINE
  5
1CB
330
179
100
AcDbEntity
  8
AM_4
100
AcDbLine
 10
-48.09999999999999
 20
-24.3
 30
0.0
 11
-48.09999999999999
 21
-13.49999999999999
 31
0.0
  0
LINE
  5
1CC
330
179
100
AcDbEntity
  8
AM_4
100
AcDbLine
 10
-50.8
 20
-13.49999999999999
 30
0.0
 11
50.8
 21
-13.49999999999999
 31
0.0
  0
LINE
  5
1CD
330
179
100
AcDbEntity
  8
AM_4
100
AcDbLine
 10
48.09999999999999
 20
-24.3
 30
0.0
 11
48.09999999999999
 21
-13.49999999999999
 31
0.0
  0
LINE
  5
1CE
330
179
100
AcDbEntity
  8
AM_4
100
AcDbLine
 10
48.09999999999999
 20
-24.3
 30
0.0
 11
-48.09999999999999
 21
-24.3
 31
0.0
  0
LINE
  5
1CF
330
179
100
AcDbEntity
  8
AM_4
100
AcDbLine
 10
-48.09999999999999
 20
-24.3
 30
0.0
 11
-50.8
 21
-27.00000000000001
 31
0.0
  0
LINE
  5
1D0
330
179
100
AcDbEntity
  8
AM_4
100
AcDbLine
 10
50.8
 20
-26.99999999999999
 30
0.0
 11
-50.80000000000001
 21
-26.99999999999999
 31
0.0
  0
LINE
  5
1D1
330
179
100
AcDbEntity
  8
AM_4
100
AcDbLine
 10
50.79999999999999
 20
-27.0
 30
0.0
 11
48.10000004023313
 21
-24.30000004023314
 31
0.0
  0
LINE
  5
1D2
330
179
100
AcDbEntity
  8
AM_4
100
AcDbLine
 10
50.8
 20
13.5
 30
0.0
 11
-50.8
 21
13.50000000000001
 31
0.0
  0
LINE
  5
1D3
330
179
100
AcDbEntity
  8
AM_4
100
AcDbLine
 10
50.8
 20
27.0
 30
0.0
 11
50.8
 21
-26.99999999999999
 31
0.0
  0
LINE
  5
1D4
330
179
100
AcDbEntity
  8
AM_4
100
AcDbLine
 10
48.09999999999999
 20
13.5
 30
0.0
 11
48.09999999999999
 21
24.29999999999999
 31
0.0
  0
LINE
  5
1D5
330
179
100
AcDbEntity
  8
AM_4
100
AcDbLine
 10
-48.09999999999999
 20
13.50000000000001
 30
0.0
 11
-48.09999999999999
 21
24.29999999999999
 31
0.0
  0
LINE
  5
1D6
330
179
100
AcDbEntity
  8
AM_4
100
AcDbLine
 10
50.8
 20
27.0
 30
0.0
 11
-50.8
 21
27.0
 31
0.0
  0
LINE
  5
1D7
330
179
100
AcDbEntity
  8
AM_4
100
AcDbLine
 10
-50.8
 20
27.0
 30
0.0
 11
-48.09999999999999
 21
24.29999999999999
 31
0.0
  0
LINE
  5
1D8
330
179
100
AcDbEntity
  8
AM_4
100
AcDbLine
 10
48.09999999999999
 20
24.29999999999999
 30
0.0
 11
-48.09999999999999
 21
24.29999999999999
 31
0.0
  0
LINE
  5
1D9
330
179
100
AcDbEntity
  8
AM_4
100
AcDbLine
 10
48.09999999999999
 20
24.29999999999999
 30
0.0
 11
50.8
 21
27.0
 31
0.0
  0
ENDBLK
  5
17C
330
179
100
AcDbEntity
  8
0
100
AcDbBlockEnd
  0
ENDSEC
  0
SECTION
  2
ENTITIES
  0
INSERT
  5
6F
330
1F
100
AcDbEntity
  8
0
100
AcDbBlockReference
  2
1_125918_4
 10
0.0
 20
0.0
 30
0.0
  0
POINT
  5
1DB
330
1F
100
AcDbEntity
  8
ConnectionPoints
100
AcDbPoint
 10
-64.03391835582141
 20
-0.0000000000000023
 30
-36.97
  0
POINT
  5
1DC
330
1F
100
AcDbEntity
  8
ConnectionPoints
100
AcDbPoint
 10
-64.03391835582141
 20
-0.0000000000000023
 30
-36.97
  0
POINT
  5
1DD
330
1F
100
AcDbEntity
  8
ConnectionPoints
100
AcDbPoint
 10
0.0
 20
-35.8
 30
0.0000000000000022
  0
ENDSEC
  0
SECTION
  2
OBJECTS
  0
DICTIONARY
  5
C
330
0
100
AcDbDictionary
281
     1
  3
ACAD_DETAILVIEWSTYLE
350
1E5
  3
ACAD_GROUP
350
D
  3
ACAD_LAYOUT
350
1A
  3
ACAD_MATERIAL
350
43
  3
ACAD_MLEADERSTYLE
350
6B
  3
ACAD_MLINESTYLE
350
17
  3
ACAD_PLOTSETTINGS
350
19
  3
ACAD_PLOTSTYLENAME
350
E
  3
ACAD_SCALELIST
350
47
  3
ACAD_SECTIONVIEWSTYLE
350
1E6
  3
ACAD_TABLESTYLE
350
69
  3
ACAD_VISUALSTYLE
350
2A
  3
ACDB_RECOMPOSE_DATA
350
1E2
  3
AcDbVariableDictionary
350
1DE
  0
SUN
  5
6D
330
29
100
AcDbSun
 90
        1
290
     0
 63
     7
421
 16777215
 40
1.0
291
     1
 91
  2455826
 92
 54000000
292
     0
 70
     2
 71
   256
280
     1
  0
DICTIONARY
  5
1E5
102
{ACAD_REACTORS
330
C
102
}
330
C
100
AcDbDictionary
281
     1
  0
DICTIONARY
  5
D
102
{ACAD_REACTORS
330
C
102
}
330
C
100
AcDbDictionary
281
     1
  0
DICTIONARY
  5
1A
102
{ACAD_REACTORS
330
C
102
}
330
C
100
AcDbDictionary
281
     1
  3
Layout1
350
1E
  3
Layout2
350
26
  3
Model
350
22
  0
DICTIONARY
  5
43
102
{ACAD_REACTORS
330
C
102
}
330
C
100
AcDbDictionary
281
     1
  3
ByBlock
350
45
  3
ByLayer
350
44
  3
Global
350
46
  0
DICTIONARY
  5
6B
102
{ACAD_REACTORS
330
C
102
}
330
C
100
AcDbDictionary
281
     1
  3
Standard
350
6C
  0
DICTIONARY
  5
17
102
{ACAD_REACTORS
330
C
102
}
330
C
100
AcDbDictionary
281
     1
  3
Standard
350
18
  0
DICTIONARY
  5
19
102
{ACAD_REACTORS
330
C
102
}
330
C
100
AcDbDictionary
281
     1
  0
ACDBDICTIONARYWDFLT
  5
E
102
{ACAD_REACTORS
330
C
102
}
330
C
100
AcDbDictionary
281
     1
  3
Normal
350
F
100
AcDbDictionaryWithDefault
340
F
  0
DICTIONARY
  5
47
102
{ACAD_REACTORS
330
C
102
}
330
C
100
AcDbDictionary
281
     1
  3
A0
350
48
  3
A1
350
49
  3
A2
350
4A
  3
A3
350
4B
  3
A4
350
4C
  3
A5
350
4D
  3
A6
350
4E
  3
A7
350
4F
  3
A8
350
50
  3
A9
350
51
  3
B0
350
52
  3
B1
350
53
  3
B2
350
54
  3
B3
350
55
  3
B4
350
56
  3
B5
350
57
  3
B6
350
58
  3
B7
350
59
  3
B8
350
5A
  3
B9
350
5B
  3
C0
350
5C
  3
C1
350
5D
  3
C2
350
5E
  3
C3
350
5F
  3
C4
350
60
  3
C5
350
61
  3
C6
350
62
  3
C7
350
63
  3
C8
350
64
  3
C9
350
65
  3
D0
350
66
  3
D1
350
67
  3
D2
350
68
  0
DICTIONARY
  5
1E6
102
{ACAD_REACTORS
330
C
102
}
330
C
100
AcDbDictionary
281
     1
  0
DICTIONARY
  5
69
102
{ACAD_REACTORS
330
C
102
}
330
C
100
AcDbDictionary
281
     1
  3
Standard
350
6A
  0
DICTIONARY
  5
2A
102
{ACAD_REACTORS
330
C
102
}
330
C
100
AcDbDictionary
281
     1
  3
2dWireframe
350
2F
  3
Basic
350
32
  3
Brighten
350
36
  3
ColorChange
350
3A
  3
Conceptual
350
34
  3
Dim
350
35
  3
EdgeColorOff
350
3D
  3
Facepattern
350
39
  3
Flat
350
2B
  3
FlatWithEdges
350
2C
  3
Gouraud
350
2D
  3
GouraudWithEdges
350
2E
  3
Hidden
350
31
  3
JitterOff
350
3B
  3
Linepattern
350
38
  3
OverhangOff
350
3C
  3
Realistic
350
33
  3
Shaded
350
42
  3
Shaded with edges
350
41
  3
Shades of Gray
350
3E
  3
Sketchy
350
3F
  3
Thicken
350
37
  3
Wireframe
350
30
  3
X-Ray
350
40
  0
XRECORD
  5
1E2
102
{ACAD_REACTORS
330
C
102
}
330
C
100
AcDbXrecord
280
     1
 90
        1
330
6A
  0
DICTIONARY
  5
1DE
102
{ACAD_REACTORS
330
C
102
}
330
C
100
AcDbDictionary
281
     1
  3
CANNOSCALE
350
1DF
  3
CMLEADERSTYLE
350
1E4
  3
CTABLESTYLE
350
1E3
  0
LAYOUT
  5
1E
102
{ACAD_REACTORS
330
1A
102
}
330
1A
100
AcDbPlotSettings
  1

  2
none_device
  4

  6

 40
0.0
 41
0.0
 42
0.0
 43
0.0
 44
0.0
 45
0.0
 46
0.0
 47
0.0
 48
0.0
 49
0.0
140
0.0
141
0.0
142
1.0
143
1.0
 70
   688
 72
     1
 73
     0
 74
     5
  7

 75
    16
 76
     0
 77
     2
 78
   300
147
1.0
148
0.0
149
0.0
100
AcDbLayout
  1
Layout1
 70
     1
 71
     1
 10
0.0
 20
0.0
 11
420.0
 21
297.0
 12
0.0
 22
0.0
 32
0.0
 14
1.000000000000000E+20
 24
1.000000000000000E+20
 34
1.000000000000000E+20
 15
-1.000000000000000E+20
 25
-1.000000000000000E+20
 35
-1.000000000000000E+20
146
0.0
 13
0.0
 23
0.0
 33
0.0
 16
1.0
 26
0.0
 36
0.0
 17
0.0
 27
1.0
 37
0.0
 76
     0
330
1B
  0
LAYOUT
  5
26
102
{ACAD_REACTORS
330
1A
102
}
330
1A
100
AcDbPlotSettings
  1

  2
none_device
  4

  6

 40
0.0
 41
0.0
 42
0.0
 43
0.0
 44
0.0
 45
0.0
 46
0.0
 47
0.0
 48
0.0
 49
0.0
140
0.0
141
0.0
142
1.0
143
1.0
 70
   688
 72
     1
 73
     0
 74
     5
  7

 75
    16
 76
     0
 77
     2
 78
   300
147
1.0
148
0.0
149
0.0
100
AcDbLayout
  1
Layout2
 70
     1
 71
     2
 10
0.0
 20
0.0
 11
0.0
 21
0.0
 12
0.0
 22
0.0
 32
0.0
 14
0.0
 24
0.0
 34
0.0
 15
0.0
 25
0.0
 35
0.0
146
0.0
 13
0.0
 23
0.0
 33
0.0
 16
1.0
 26
0.0
 36
0.0
 17
0.0
 27
1.0
 37
0.0
 76
     0
330
23
  0
LAYOUT
  5
22
102
{ACAD_REACTORS
330
1A
102
}
330
1A
100
AcDbPlotSettings
  1

  2
none_device
  4
Letter_(8.50_x_11.00_Inches)
  6

 40
6.35
 41
6.35
 42
6.35000508
 43
6.35000508
 44
215.9
 45
279.4
 46
0.0
 47
0.0
 48
0.0
 49
0.0
140
0.0
141
0.0
142
1.0
143
1.0
 70
  1712
 72
     1
 73
     0
 74
     0
  7

 75
     0
 76
     0
 77
     2
 78
   300
147
1.0
148
0.0
149
0.0
100
AcDbLayout
  1
Model
 70
     1
 71
     0
 10
0.0
 20
0.0
 11
420.0
 21
297.0
 12
0.0
 22
0.0
 32
0.0
 14
1.000000000000000E+20
 24
1.000000000000000E+20
 34
1.000000000000000E+20
 15
-1.000000000000000E+20
 25
-1.000000000000000E+20
 35
-1.000000000000000E+20
146
0.0
 13
0.0
 23
0.0
 33
0.0
 16
1.0
 26
0.0
 36
0.0
 17
0.0
 27
1.0
 37
0.0
 76
     0
330
1F
331
29
  0
MATERIAL
  5
45
102
{ACAD_REACTORS
330
43
102
}
330
43
100
AcDbMaterial
  1
ByBlock
 72
     1
 94
      127
  0
MATERIAL
  5
44
102
{ACAD_REACTORS
330
43
102
}
330
43
100
AcDbMaterial
  1
ByLayer
 72
     1
 94
      127
  0
MATERIAL
  5
46
102
{ACAD_REACTORS
330
43
102
}
330
43
100
AcDbMaterial
  1
Global
 72
     1
 94
      127
  0
MLEADERSTYLE
  5
6C
102
{ACAD_REACTORS
330
6B
102
}
330
6B
100
AcDbMLeaderStyle
179
     2
170
     2
171
     1
172
     0
 90
        2
 40
0.0
 41
0.0
173
     1
 91
-1056964608
340
14
 92
       -2
290
     1
 42
2.0
291
     1
 43
8.0
  3
Standard
341
0
 44
4.0
300

342
11
174
     1
178
     6
175
     1
176
     0
 93
-1056964608
 45
4.0
292
     0
297
     0
 46
4.0
343
0
 94
-1056964608
 47
1.0
 49
1.0
140
1.0
293
     1
141
0.0
294
     1
177
     0
142
1.0
295
     0
296
     0
143
3.75
271
     0
272
     9
273
     9
298
     0
  0
MLINESTYLE
  5
18
102
{ACAD_REACTORS
330
17
102
}
330
17
100
AcDbMlineStyle
  2
Standard
 70
     0
  3

 62
   256
 51
90.0
 52
90.0
 71
     2
 49
0.5
 62
   256
  6
BYLAYER
 49
-0.5
 62
   256
  6
BYLAYER
  0
ACDBPLACEHOLDER
  5
F
102
{ACAD_REACTORS
330
E
102
}
330
E
  0
SCALE
  5
48
102
{ACAD_REACTORS
330
47
102
}
330
47
100
AcDbScale
 70
     0
300
1:1
140
1.0
141
1.0
290
     1
  0
SCALE
  5
49
102
{ACAD_REACTORS
330
47
102
}
330
47
100
AcDbScale
 70
     0
300
1:2
140
1.0
141
2.0
290
     0
  0
SCALE
  5
4A
102
{ACAD_REACTORS
330
47
102
}
330
47
100
AcDbScale
 70
     0
300
1:4
140
1.0
141
4.0
290
     0
  0
SCALE
  5
4B
102
{ACAD_REACTORS
330
47
102
}
330
47
100
AcDbScale
 70
     0
300
1:5
140
1.0
141
5.0
290
     0
  0
SCALE
  5
4C
102
{ACAD_REACTORS
330
47
102
}
330
47
100
AcDbScale
 70
     0
300
1:8
140
1.0
141
8.0
290
     0
  0
SCALE
  5
4D
102
{ACAD_REACTORS
330
47
102
}
330
47
100
AcDbScale
 70
     0
300
1:10
140
1.0
141
10.0
290
     0
  0
SCALE
  5
4E
102
{ACAD_REACTORS
330
47
102
}
330
47
100
AcDbScale
 70
     0
300
1:16
140
1.0
141
16.0
290
     0
  0
SCALE
  5
4F
102
{ACAD_REACTORS
330
47
102
}
330
47
100
AcDbScale
 70
     0
300
1:20
140
1.0
141
20.0
290
     0
  0
SCALE
  5
50
102
{ACAD_REACTORS
330
47
102
}
330
47
100
AcDbScale
 70
     0
300
1:30
140
1.0
141
30.0
290
     0
  0
SCALE
  5
51
102
{ACAD_REACTORS
330
47
102
}
330
47
100
AcDbScale
 70
     0
300
1:40
140
1.0
141
40.0
290
     0
  0
SCALE
  5
52
102
{ACAD_REACTORS
330
47
102
}
330
47
100
AcDbScale
 70
     0
300
1:50
140
1.0
141
50.0
290
     0
  0
SCALE
  5
53
102
{ACAD_REACTORS
330
47
102
}
330
47
100
AcDbScale
 70
     0
300
1:100
140
1.0
141
100.0
290
     0
  0
SCALE
  5
54
102
{ACAD_REACTORS
330
47
102
}
330
47
100
AcDbScale
 70
     0
300
2:1
140
2.0
141
1.0
290
     0
  0
SCALE
  5
55
102
{ACAD_REACTORS
330
47
102
}
330
47
100
AcDbScale
 70
     0
300
4:1
140
4.0
141
1.0
290
     0
  0
SCALE
  5
56
102
{ACAD_REACTORS
330
47
102
}
330
47
100
AcDbScale
 70
     0
300
8:1
140
8.0
141
1.0
290
     0
  0
SCALE
  5
57
102
{ACAD_REACTORS
330
47
102
}
330
47
100
AcDbScale
 70
     0
300
10:1
140
10.0
141
1.0
290
     0
  0
SCALE
  5
58
102
{ACAD_REACTORS
330
47
102
}
330
47
100
AcDbScale
 70
     0
300
100:1
140
100.0
141
1.0
290
     0
  0
SCALE
  5
59
102
{ACAD_REACTORS
330
47
102
}
330
47
100
AcDbScale
 70
     0
300
1/128" = 1'-0"
140
0.0078125
141
12.0
290
     0
  0
SCALE
  5
5A
102
{ACAD_REACTORS
330
47
102
}
330
47
100
AcDbScale
 70
     0
300
1/64" = 1'-0"
140
0.015625
141
12.0
290
     0
  0
SCALE
  5
5B
102
{ACAD_REACTORS
330
47
102
}
330
47
100
AcDbScale
 70
     0
300
1/32" = 1'-0"
140
0.03125
141
12.0
290
     0
  0
SCALE
  5
5C
102
{ACAD_REACTORS
330
47
102
}
330
47
100
AcDbScale
 70
     0
300
1/16" = 1'-0"
140
0.0625
141
12.0
290
     0
  0
SCALE
  5
5D
102
{ACAD_REACTORS
330
47
102
}
330
47
100
AcDbScale
 70
     0
300
3/32" = 1'-0"
140
0.09375
141
12.0
290
     0
  0
SCALE
  5
5E
102
{ACAD_REACTORS
330
47
102
}
330
47
100
AcDbScale
 70
     0
300
1/8" = 1'-0"
140
0.125
141
12.0
290
     0
  0
SCALE
  5
5F
102
{ACAD_REACTORS
330
47
102
}
330
47
100
AcDbScale
 70
     0
300
3/16" = 1'-0"
140
0.1875
141
12.0
290
     0
  0
SCALE
  5
60
102
{ACAD_REACTORS
330
47
102
}
330
47
100
AcDbScale
 70
     0
300
1/4" = 1'-0"
140
0.25
141
12.0
290
     0
  0
SCALE
  5
61
102
{ACAD_REACTORS
330
47
102
}
330
47
100
AcDbScale
 70
     0
300
3/8" = 1'-0"
140
0.375
141
12.0
290
     0
  0
SCALE
  5
62
102
{ACAD_REACTORS
330
47
102
}
330
47
100
AcDbScale
 70
     0
300
1/2" = 1'-0"
140
0.5
141
12.0
290
     0
  0
SCALE
  5
63
102
{ACAD_REACTORS
330
47
102
}
330
47
100
AcDbScale
 70
     0
300
3/4" = 1'-0"
140
0.75
141
12.0
290
     0
  0
SCALE
  5
64
102
{ACAD_REACTORS
330
47
102
}
330
47
100
AcDbScale
 70
     0
300
1" = 1'-0"
140
1.0
141
12.0
290
     0
  0
SCALE
  5
65
102
{ACAD_REACTORS
330
47
102
}
330
47
100
AcDbScale
 70
     0
300
1-1/2" = 1'-0"
140
1.5
141
12.0
290
     0
  0
SCALE
  5
66
102
{ACAD_REACTORS
330
47
102
}
330
47
100
AcDbScale
 70
     0
300
3" = 1'-0"
140
3.0
141
12.0
290
     0
  0
SCALE
  5
67
102
{ACAD_REACTORS
330
47
102
}
330
47
100
AcDbScale
 70
     0
300
6" = 1'-0"
140
6.0
141
12.0
290
     0
  0
SCALE
  5
68
102
{ACAD_REACTORS
330
47
102
}
330
47
100
AcDbScale
 70
     0
300
1'-0" = 1'-0"
140
12.0
141
12.0
290
     0
  0
TABLESTYLE
  5
6A
102
{ACAD_REACTORS
330
69
102
}
102
{ACAD_XDICTIONARY
360
1E0
102
}
330
69
100
AcDbTableStyle
  3
Standard
 70
     0
 71
     0
 40
0.06
 41
0.06
280
     0
281
     0
  7
Standard
140
4.5
170
     2
 62
     0
 63
   257
283
     0
 90
        4
 91
        0
  1

274
    -2
284
     1
 64
     0
275
    -2
285
     1
 65
     0
276
    -2
286
     1
 66
     0
277
    -2
287
     1
 67
     0
278
    -2
288
     1
 68
     0
279
    -2
289
     1
 69
     0
  7
Standard
140
6.0
170
     5
 62
     0
 63
   257
283
     0
 90
        4
 91
        0
  1

274
    -2
284
     1
 64
     0
275
    -2
285
     1
 65
     0
276
    -2
286
     1
 66
     0
277
    -2
287
     1
 67
     0
278
    -2
288
     1
 68
     0
279
    -2
289
     1
 69
     0
  7
Standard
140
4.5
170
     5
 62
     0
 63
   257
283
     0
 90
        4
 91
        0
  1

274
    -2
284
     1
 64
     0
275
    -2
285
     1
 65
     0
276
    -2
286
     1
 66
     0
277
    -2
287
     1
 67
     0
278
    -2
288
     1
 68
     0
279
    -2
289
     1
 69
     0
  0
VISUALSTYLE
  5
2F
102
{ACAD_REACTORS
330
2A
102
}
330
2A
100
AcDbVisualStyle
  2
2dWireframe
 70
     4
177
     3
291
     0
 70
    58
 90
        0
176
     1
 90
        2
176
     1
 90
        0
176
     1
 90
        0
176
     1
 40
0.6
176
     1
 40
30.0
176
     1
 62
     7
420
 16777215
176
     1
 90
        1
176
     1
 90
        4
176
     1
 62
     7
176
     1
 62
   257
176
     1
 90
        1
176
     1
 90
        1
176
     1
 40
1.0
176
     1
 90
        0
176
     1
 62
   257
176
     1
 40
1.0
176
     1
 90
        1
176
     1
 90
        6
176
     1
 90
        2
176
     1
 62
     7
176
     1
 90
        5
176
     1
 90
        0
176
     1
 90
        0
176
     1
290
     0
176
     1
 90
        1
176
     1
 40
0.0
176
     1
 90
        0
176
     1
290
     1
176
     1
290
     1
176
     1
290
     0
176
     1
290
     0
176
     1
290
     0
176
     1
290
     0
176
     1
290
     0
176
     1
290
     0
176
     1
290
     0
176
     1
 90
       50
176
     1
 40
0.0
176
     1
 40
1.0
176
     1
 90
        0
176
     1
 62
    18
420
        0
176
     1
 90
       50
176
     1
 90
        3
176
     1
 62
     5
420
      255
176
     1
290
     0
176
     1
 90
       50
176
     1
 90
       50
176
     1
 90
       50
176
     1
290
     0
176
     1
 90
       50
176
     1
 62
   256
176
     0
 40
1.0
176
     0
 90
        2
176
     1
  1
strokes_ogs.tif
176
     1
290
     0
176
     1
 40
1.0
176
     1
 40
1.0
176
     1
  0
VISUALSTYLE
  5
32
102
{ACAD_REACTORS
330
2A
102
}
330
2A
100
AcDbVisualStyle
  2
Basic
 70
     7
177
     3
291
     1
 70
    58
 90
        1
176
     1
 90
        0
176
     1
 90
        1
176
     1
 90
        0
176
     1
 40
0.6
176
     1
 40
30.0
176
     1
 62
     7
420
 16777215
176
     1
 90
        0
176
     1
 90
        4
176
     1
 62
     7
176
     1
 62
   257
176
     1
 90
        1
176
     1
 90
        1
176
     1
 40
1.0
176
     1
 90
        8
176
     1
 62
     7
176
     1
 40
1.0
176
     1
 90
        1
176
     1
 90
        6
176
     1
 90
        2
176
     1
 62
     7
176
     1
 90
        5
176
     1
 90
        0
176
     1
 90
        0
176
     1
290
     0
176
     1
 90
        1
176
     1
 40
0.0
176
     1
 90
        0
176
     1
290
     0
176
     1
290
     1
176
     1
290
     1
176
     1
290
     0
176
     1
290
     0
176
     1
290
     0
176
     1
290
     0
176
     1
290
     0
176
     1
290
     0
176
     1
 90
       50
176
     1
 40
0.0
176
     1
 40
1.0
176
     1
 90
        0
176
     1
 62
    18
420
        0
176
     1
 90
       50
176
     1
 90
        3
176
     1
 62
     5
420
      255
176
     1
290
     0
176
     1
 90
       50
176
     1
 90
       50
176
     1
 90
       50
176
     1
290
     0
176
     1
 90
       50
176
     1
 62
   256
176
     0
 40
1.0
176
     0
 90
        2
176
     1
  1
strokes_ogs.tif
176
     1
290
     0
176
     1
 40
1.0
176
     1
 40
1.0
176
     1
  0
VISUALSTYLE
  5
36
102
{ACAD_REACTORS
330
2A
102
}
330
2A
100
AcDbVisualStyle
  2
Brighten
 70
    12
177
     3
291
     1
 70
    58
 90
        2
176
     1
 90
        2
176
     1
 90
        0
176
     1
 90
        0
176
     1
 40
0.6
176
     1
 40
30.0
176
     1
 62
     7
420
 16777215
176
     1
 90
        1
176
     1
 90
        4
176
     1
 62
     7
176
     1
 62
   257
176
     1
 90
        1
176
     1
 90
        1
176
     1
 40
1.0
176
     1
 90
        8
176
     1
 62
     7
176
     1
 40
1.0
176
     1
 90
        1
176
     1
 90
        6
176
     1
 90
        2
176
     1
 62
     7
176
     1
 90
        5
176
     1
 90
        0
176
     1
 90
        0
176
     1
290
     0
176
     1
 90
        1
176
     1
 40
50.0
176
     1
 90
        0
176
     1
290
     0
176
     1
290
     1
176
     1
290
     1
176
     1
290
     0
176
     1
290
     0
176
     1
290
     0
176
     1
290
     0
176
     1
290
     0
176
     1
290
     0
176
     1
 90
       50
176
     1
 40
0.0
176
     1
 40
1.0
176
     1
 90
        0
176
     1
 62
    18
420
        0
176
     1
 90
       50
176
     1
 90
        3
176
     1
 62
     5
420
      255
176
     1
290
     0
176
     1
 90
       50
176
     1
 90
       50
176
     1
 90
       50
176
     1
290
     0
176
     1
 90
       50
176
     1
 62
   256
176
     0
 40
1.0
176
     0
 90
        2
176
     1
  1
strokes_ogs.tif
176
     1
290
     0
176
     1
 40
1.0
176
     1
 40
1.0
176
     1
  0
VISUALSTYLE
  5
3A
102
{ACAD_REACTORS
330
2A
102
}
330
2A
100
AcDbVisualStyle
  2
ColorChange
 70
    16
177
     3
291
     1
 70
    58
 90
        2
176
     1
 90
        2
176
     1
 90
        3
176
     1
 90
        0
176
     1
 40
0.6
176
     1
 40
30.0
176
     1
 62
     8
420
  8421504
176
     1
 90
        1
176
     1
 90
        4
176
     1
 62
     7
176
     1
 62
   257
176
     1
 90
        1
176
     1
 90
        1
176
     1
 40
1.0
176
     1
 90
        8
176
     1
 62
     8
420
  8421504
176
     1
 40
1.0
176
     1
 90
        1
176
     1
 90
        6
176
     1
 90
        2
176
     1
 62
     7
176
     1
 90
        5
176
     1
 90
        0
176
     1
 90
        0
176
     1
290
     0
176
     1
 90
        1
176
     1
 40
0.0
176
     1
 90
        0
176
     1
290
     0
176
     1
290
     1
176
     1
290
     1
176
     1
290
     0
176
     1
290
     0
176
     1
290
     0
176
     1
290
     0
176
     1
290
     0
176
     1
290
     0
176
     1
 90
       50
176
     1
 40
0.0
176
     1
 40
1.0
176
     1
 90
        0
176
     1
 62
    18
420
        0
176
     1
 90
       50
176
     1
 90
        3
176
     1
 62
     5
420
      255
176
     1
290
     0
176
     1
 90
       50
176
     1
 90
       50
176
     1
 90
       50
176
     1
290
     0
176
     1
 90
       50
176
     1
 62
   256
176
     0
 40
1.0
176
     0
 90
        2
176
     1
  1
strokes_ogs.tif
176
     1
290
     0
176
     1
 40
1.0
176
     1
 40
1.0
176
     1
  0
VISUALSTYLE
  5
34
102
{ACAD_REACTORS
330
2A
102
}
330
2A
100
AcDbVisualStyle
  2
Conceptual
 70
     9
177
     3
291
     0
 70
    58
 90
        3
176
     1
 90
        2
176
     1
 90
        0
176
     1
 90
        0
176
     1
 40
0.6
176
     1
 40
30.0
176
     1
 62
     7
420
 16777215
176
     1
 90
        2
176
     1
 90
        2
176
     1
 62
     7
176
     1
 62
   257
176
     1
 90
        1
176
     1
 90
        1
176
     1
 40
179.0
176
     1
 90
        8
176
     1
 62
     7
176
     1
 40
1.0
176
     1
 90
        1
176
     1
 90
        6
176
     1
 90
        2
176
     1
 62
     7
176
     1
 90
        3
176
     1
 90
        0
176
     1
 90
        0
176
     1
290
     0
176
     1
 90
        1
176
     1
 40
0.0
176
     1
 90
        0
176
     1
290
     0
176
     1
290
     1
176
     1
290
     1
176
     1
290
     0
176
     1
290
     0
176
     1
290
     0
176
     1
290
     0
176
     1
290
     0
176
     1
290
     0
176
     1
 90
       50
176
     1
 40
0.0
176
     1
 40
1.0
176
     1
 90
        0
176
     1
 62
    18
420
        0
176
     1
 90
       50
176
     1
 90
        3
176
     1
 62
     5
420
      255
176
     1
290
     0
176
     1
 90
       50
176
     1
 90
       50
176
     1
 90
       50
176
     1
290
     0
176
     1
 90
       50
176
     1
 62
   256
176
     0
 40
1.0
176
     0
 90
        2
176
     1
  1
strokes_ogs.tif
176
     1
290
     0
176
     1
 40
1.0
176
     1
 40
1.0
176
     1
  0
VISUALSTYLE
  5
35
102
{ACAD_REACTORS
330
2A
102
}
330
2A
100
AcDbVisualStyle
  2
Dim
 70
    11
177
     3
291
     1
 70
    58
 90
        2
176
     1
 90
        2
176
     1
 90
        0
176
     1
 90
        0
176
     1
 40
0.6
176
     1
 40
30.0
176
     1
 62
     7
420
 16777215
176
     1
 90
        1
176
     1
 90
        4
176
     1
 62
     7
176
     1
 62
   257
176
     1
 90
        1
176
     1
 90
        1
176
     1
 40
1.0
176
     1
 90
        8
176
     1
 62
     7
176
     1
 40
1.0
176
     1
 90
        1
176
     1
 90
        6
176
     1
 90
        2
176
     1
 62
     7
176
     1
 90
        5
176
     1
 90
        0
176
     1
 90
        0
176
     1
290
     0
176
     1
 90
        1
176
     1
 40
-50.0
176
     1
 90
        0
176
     1
290
     0
176
     1
290
     1
176
     1
290
     1
176
     1
290
     0
176
     1
290
     0
176
     1
290
     0
176
     1
290
     0
176
     1
290
     0
176
     1
290
     0
176
     1
 90
       50
176
     1
 40
0.0
176
     1
 40
1.0
176
     1
 90
        0
176
     1
 62
    18
420
        0
176
     1
 90
       50
176
     1
 90
        3
176
     1
 62
     5
420
      255
176
     1
290
     0
176
     1
 90
       50
176
     1
 90
       50
176
     1
 90
       50
176
     1
290
     0
176
     1
 90
       50
176
     1
 62
   256
176
     0
 40
1.0
176
     0
 90
        2
176
     1
  1
strokes_ogs.tif
176
     1
290
     0
176
     1
 40
1.0
176
     1
 40
1.0
176
     1
  0
VISUALSTYLE
  5
3D
102
{ACAD_REACTORS
330
2A
102
}
330
2A
100
AcDbVisualStyle
  2
EdgeColorOff
 70
    22
177
     3
291
     1
 70
    58
 90
        2
176
     0
 90
        2
176
     0
 90
        0
176
     0
 90
        0
176
     0
 40
0.6
176
     0
 40
30.0
176
     0
 62
     7
420
 16777215
176
     0
 90
        1
176
     0
 90
        4
176
     0
 62
     7
176
     0
 62
   257
176
     0
 90
        1
176
     0
 90
        1
176
     0
 40
1.0
176
     0
 90
        8
176
     2
 62
     7
176
     0
 40
1.0
176
     0
 90
        1
176
     0
 90
        6
176
     0
 90
        2
176
     0
 62
     7
176
     0
 90
        5
176
     0
 90
        0
176
     0
 90
        0
176
     0
290
     0
176
     0
 90
        1
176
     0
 40
0.0
176
     0
 90
        0
176
     0
290
     0
176
     0
290
     1
176
     0
290
     1
176
     0
290
     0
176
     0
290
     0
176
     0
290
     0
176
     0
290
     0
176
     0
290
     0
176
     0
290
     0
176
     0
 90
       50
176
     0
 40
0.0
176
     0
 40
1.0
176
     0
 90
        0
176
     0
 62
    18
420
        0
176
     0
 90
       50
176
     0
 90
        3
176
     0
 62
     5
420
      255
176
     0
290
     0
176
     0
 90
       50
176
     0
 90
       50
176
     0
 90
       50
176
     0
290
     0
176
     0
 90
       50
176
     0
 62
   256
176
     0
 40
1.0
176
     0
 90
        2
176
     0
  1
strokes_ogs.tif
176
     0
290
     0
176
     0
 40
1.0
176
     0
 40
1.0
176
     0
  0
VISUALSTYLE
  5
39
102
{ACAD_REACTORS
330
2A
102
}
330
2A
100
AcDbVisualStyle
  2
Facepattern
 70
    15
177
     3
291
     1
 70
    58
 90
        2
176
     1
 90
        2
176
     1
 90
        0
176
     1
 90
        0
176
     1
 40
0.6
176
     1
 40
30.0
176
     1
 62
     7
420
 16777215
176
     1
 90
        1
176
     1
 90
        4
176
     1
 62
     7
176
     1
 62
   257
176
     1
 90
        1
176
     1
 90
        1
176
     1
 40
1.0
176
     1
 90
        8
176
     1
 62
     7
176
     1
 40
1.0
176
     1
 90
        1
176
     1
 90
        6
176
     1
 90
        2
176
     1
 62
     7
176
     1
 90
        5
176
     1
 90
        0
176
     1
 90
        0
176
     1
290
     0
176
     1
 90
        1
176
     1
 40
0.0
176
     1
 90
        0
176
     1
290
     0
176
     1
290
     1
176
     1
290
     1
176
     1
290
     0
176
     1
290
     0
176
     1
290
     0
176
     1
290
     0
176
     1
290
     0
176
     1
290
     0
176
     1
 90
       50
176
     1
 40
0.0
176
     1
 40
1.0
176
     1
 90
        0
176
     1
 62
    18
420
        0
176
     1
 90
       50
176
     1
 90
        3
176
     1
 62
     5
420
      255
176
     1
290
     0
176
     1
 90
       50
176
     1
 90
       50
176
     1
 90
       50
176
     1
290
     0
176
     1
 90
       50
176
     1
 62
   256
176
     0
 40
1.0
176
     0
 90
        2
176
     1
  1
strokes_ogs.tif
176
     1
290
     0
176
     1
 40
1.0
176
     1
 40
1.0
176
     1
  0
VISUALSTYLE
  5
2B
102
{ACAD_REACTORS
330
2A
102
}
330
2A
100
AcDbVisualStyle
  2
Flat
 70
     0
177
     3
291
     1
 70
    58
 90
        2
176
     1
 90
        1
176
     1
 90
        1
176
     1
 90
        2
176
     1
 40
0.6
176
     1
 40
30.0
176
     1
 62
     7
420
 16777215
176
     1
 90
        0
176
     1
 90
        0
176
     1
 62
     7
176
     1
 62
   257
176
     1
 90
        1
176
     1
 90
        1
176
     1
 40
1.0
176
     1
 90
        8
176
     1
 62
     7
176
     1
 40
1.0
176
     1
 90
        1
176
     1
 90
        6
176
     1
 90
        2
176
     1
 62
     7
176
     1
 90
        5
176
     1
 90
        0
176
     1
 90
        0
176
     1
290
     0
176
     1
 90
       13
176
     1
 40
0.0
176
     1
 90
        0
176
     1
290
     0
176
     1
290
     1
176
     1
290
     1
176
     1
290
     0
176
     1
290
     0
176
     1
290
     0
176
     1
290
     0
176
     1
290
     0
176
     1
290
     0
176
     1
 90
       50
176
     1
 40
0.0
176
     1
 40
1.0
176
     1
 90
        0
176
     1
 62
    18
420
        0
176
     1
 90
       50
176
     1
 90
        3
176
     1
 62
     5
420
      255
176
     1
290
     0
176
     1
 90
       50
176
     1
 90
       50
176
     1
 90
       50
176
     1
290
     0
176
     1
 90
       50
176
     1
 62
   256
176
     0
 40
1.0
176
     0
 90
        2
176
     1
  1
strokes_ogs.tif
176
     1
290
     0
176
     1
 40
1.0
176
     1
 40
1.0
176
     1
  0
VISUALSTYLE
  5
2C
102
{ACAD_REACTORS
330
2A
102
}
330
2A
100
AcDbVisualStyle
  2
FlatWithEdges
 70
     1
177
     3
291
     1
 70
    58
 90
        2
176
     1
 90
        1
176
     1
 90
        1
176
     1
 90
        2
176
     1
 40
0.6
176
     1
 40
30.0
176
     1
 62
     7
420
 16777215
176
     1
 90
        1
176
     1
 90
        0
176
     1
 62
     7
176
     1
 62
   257
176
     1
 90
        1
176
     1
 90
        1
176
     1
 40
1.0
176
     1
 90
        0
176
     1
 62
   257
176
     1
 40
1.0
176
     1
 90
        1
176
     1
 90
        6
176
     1
 90
        2
176
     1
 62
     7
176
     1
 90
        5
176
     1
 90
        0
176
     1
 90
        0
176
     1
290
     0
176
     1
 90
       13
176
     1
 40
0.0
176
     1
 90
        0
176
     1
290
     0
176
     1
290
     1
176
     1
290
     1
176
     1
290
     0
176
     1
290
     0
176
     1
290
     0
176
     1
290
     0
176
     1
290
     0
176
     1
290
     0
176
     1
 90
       50
176
     1
 40
0.0
176
     1
 40
1.0
176
     1
 90
        0
176
     1
 62
    18
420
        0
176
     1
 90
       50
176
     1
 90
        3
176
     1
 62
     5
420
      255
176
     1
290
     0
176
     1
 90
       50
176
     1
 90
       50
176
     1
 90
       50
176
     1
290
     0
176
     1
 90
       50
176
     1
 62
   256
176
     0
 40
1.0
176
     0
 90
        2
176
     1
  1
strokes_ogs.tif
176
     1
290
     0
176
     1
 40
1.0
176
     1
 40
1.0
176
     1
  0
VISUALSTYLE
  5
2D
102
{ACAD_REACTORS
330
2A
102
}
330
2A
100
AcDbVisualStyle
  2
Gouraud
 70
     2
177
     3
291
     1
 70
    58
 90
        2
176
     1
 90
        2
176
     1
 90
        1
176
     1
 90
        2
176
     1
 40
0.6
176
     1
 40
30.0
176
     1
 62
     7
420
 16777215
176
     1
 90
        0
176
     1
 90
        0
176
     1
 62
     7
176
     1
 62
   257
176
     1
 90
        1
176
     1
 90
        1
176
     1
 40
1.0
176
     1
 90
        0
176
     1
 62
     7
176
     1
 40
1.0
176
     1
 90
        1
176
     1
 90
        6
176
     1
 90
        2
176
     1
 62
     7
176
     1
 90
        5
176
     1
 90
        0
176
     1
 90
        0
176
     1
290
     0
176
     1
 90
       13
176
     1
 40
0.0
176
     1
 90
        0
176
     1
290
     0
176
     1
290
     1
176
     1
290
     1
176
     1
290
     0
176
     1
290
     0
176
     1
290
     0
176
     1
290
     0
176
     1
290
     0
176
     1
290
     0
176
     1
 90
       50
176
     1
 40
0.0
176
     1
 40
1.0
176
     1
 90
        0
176
     1
 62
    18
420
        0
176
     1
 90
       50
176
     1
 90
        3
176
     1
 62
     5
420
      255
176
     1
290
     0
176
     1
 90
       50
176
     1
 90
       50
176
     1
 90
       50
176
     1
290
     0
176
     1
 90
       50
176
     1
 62
   256
176
     0
 40
1.0
176
     0
 90
        2
176
     1
  1
strokes_ogs.tif
176
     1
290
     0
176
     1
 40
1.0
176
     1
 40
1.0
176
     1
  0
VISUALSTYLE
  5
2E
102
{ACAD_REACTORS
330
2A
102
}
330
2A
100
AcDbVisualStyle
  2
GouraudWithEdges
 70
     3
177
     3
291
     1
 70
    58
 90
        2
176
     1
 90
        2
176
     1
 90
        1
176
     1
 90
        2
176
     1
 40
0.6
176
     1
 40
30.0
176
     1
 62
     7
420
 16777215
176
     1
 90
        1
176
     1
 90
        0
176
     1
 62
     7
176
     1
 62
   257
176
     1
 90
        1
176
     1
 90
        1
176
     1
 40
1.0
176
     1
 90
        0
176
     1
 62
   257
176
     1
 40
1.0
176
     1
 90
        1
176
     1
 90
        6
176
     1
 90
        2
176
     1
 62
     7
176
     1
 90
        5
176
     1
 90
        0
176
     1
 90
        0
176
     1
290
     0
176
     1
 90
       13
176
     1
 40
0.0
176
     1
 90
        0
176
     1
290
     0
176
     1
290
     1
176
     1
290
     1
176
     1
290
     0
176
     1
290
     0
176
     1
290
     0
176
     1
290
     0
176
     1
290
     0
176
     1
290
     0
176
     1
 90
       50
176
     1
 40
0.0
176
     1
 40
1.0
176
     1
 90
        0
176
     1
 62
    18
420
        0
176
     1
 90
       50
176
     1
 90
        3
176
     1
 62
     5
420
      255
176
     1
290
     0
176
     1
 90
       50
176
     1
 90
       50
176
     1
 90
       50
176
     1
290
     0
176
     1
 90
       50
176
     1
 62
   256
176
     0
 40
1.0
176
     0
 90
        2
176
     1
  1
strokes_ogs.tif
176
     1
290
     0
176
     1
 40
1.0
176
     1
 40
1.0
176
     1
  0
VISUALSTYLE
  5
31
102
{ACAD_REACTORS
330
2A
102
}
330
2A
100
AcDbVisualStyle
  2
Hidden
 70
     6
177
     3
291
     0
 70
    58
 90
        1
176
     1
 90
        2
176
     1
 90
        2
176
     1
 90
        0
176
     1
 40
0.6
176
     1
 40
30.0
176
     1
 62
     7
420
 16777215
176
     1
 90
        2
176
     1
 90
        2
176
     1
 62
     7
176
     1
 62
   257
176
     1
 90
        2
176
     1
 90
        1
176
     1
 40
40.0
176
     1
 90
        0
176
     1
 62
   257
176
     1
 40
1.0
176
     1
 90
        1
176
     1
 90
        6
176
     1
 90
        2
176
     1
 62
     7
176
     1
 90
        3
176
     1
 90
        0
176
     1
 90
        0
176
     1
290
     0
176
     1
 90
        1
176
     1
 40
0.0
176
     1
 90
        0
176
     1
290
     0
176
     1
290
     1
176
     1
290
     1
176
     1
290
     0
176
     1
290
     0
176
     1
290
     0
176
     1
290
     0
176
     1
290
     0
176
     1
290
     0
176
     1
 90
       50
176
     1
 40
0.0
176
     1
 40
1.0
176
     1
 90
        0
176
     1
 62
    18
420
        0
176
     1
 90
       50
176
     1
 90
        3
176
     1
 62
     5
420
      255
176
     1
290
     0
176
     1
 90
       50
176
     1
 90
       50
176
     1
 90
       50
176
     1
290
     0
176
     1
 90
       50
176
     1
 62
   256
176
     0
 40
1.0
176
     0
 90
        2
176
     1
  1
strokes_ogs.tif
176
     1
290
     0
176
     1
 40
1.0
176
     1
 40
1.0
176
     1
  0
VISUALSTYLE
  5
3B
102
{ACAD_REACTORS
330
2A
102
}
330
2A
100
AcDbVisualStyle
  2
JitterOff
 70
    20
177
     3
291
     1
 70
    58
 90
        2
176
     0
 90
        2
176
     0
 90
        0
176
     0
 90
        0
176
     0
 40
0.6
176
     0
 40
30.0
176
     0
 62
     7
420
 16777215
176
     0
 90
        1
176
     0
 90
        4
176
     0
 62
     7
176
     0
 62
   257
176
     0
 90
        1
176
     0
 90
        1
176
     0
 40
1.0
176
     0
 90
       10
176
     2
 62
     7
176
     0
 40
1.0
176
     0
 90
        1
176
     0
 90
        6
176
     0
 90
        2
176
     0
 62
     7
176
     0
 90
        5
176
     0
 90
        0
176
     0
 90
        0
176
     0
290
     0
176
     0
 90
        1
176
     0
 40
0.0
176
     0
 90
        0
176
     0
290
     0
176
     0
290
     1
176
     0
290
     1
176
     0
290
     0
176
     0
290
     0
176
     0
290
     0
176
     0
290
     0
176
     0
290
     0
176
     0
290
     0
176
     0
 90
       50
176
     0
 40
0.0
176
     0
 40
1.0
176
     0
 90
        0
176
     0
 62
    18
420
        0
176
     0
 90
       50
176
     0
 90
        3
176
     0
 62
     5
420
      255
176
     0
290
     0
176
     0
 90
       50
176
     0
 90
       50
176
     0
 90
       50
176
     0
290
     0
176
     0
 90
       50
176
     0
 62
   256
176
     0
 40
1.0
176
     0
 90
        2
176
     0
  1
strokes_ogs.tif
176
     0
290
     0
176
     0
 40
1.0
176
     0
 40
1.0
176
     0
  0
VISUALSTYLE
  5
38
102
{ACAD_REACTORS
330
2A
102
}
330
2A
100
AcDbVisualStyle
  2
Linepattern
 70
    14
177
     3
291
     1
 70
    58
 90
        2
176
     1
 90
        2
176
     1
 90
        0
176
     1
 90
        0
176
     1
 40
0.6
176
     1
 40
30.0
176
     1
 62
     7
420
 16777215
176
     1
 90
        1
176
     1
 90
        4
176
     1
 62
     7
176
     1
 62
   257
176
     1
 90
        7
176
     1
 90
        7
176
     1
 40
1.0
176
     1
 90
        8
176
     1
 62
     7
176
     1
 40
1.0
176
     1
 90
        1
176
     1
 90
        6
176
     1
 90
        2
176
     1
 62
     7
176
     1
 90
        5
176
     1
 90
        0
176
     1
 90
        0
176
     1
290
     0
176
     1
 90
        1
176
     1
 40
0.0
176
     1
 90
        0
176
     1
290
     0
176
     1
290
     1
176
     1
290
     1
176
     1
290
     0
176
     1
290
     0
176
     1
290
     0
176
     1
290
     0
176
     1
290
     0
176
     1
290
     0
176
     1
 90
       50
176
     1
 40
0.0
176
     1
 40
1.0
176
     1
 90
        0
176
     1
 62
    18
420
        0
176
     1
 90
       50
176
     1
 90
        3
176
     1
 62
     5
420
      255
176
     1
290
     0
176
     1
 90
       50
176
     1
 90
       50
176
     1
 90
       50
176
     1
290
     0
176
     1
 90
       50
176
     1
 62
   256
176
     0
 40
1.0
176
     0
 90
        2
176
     1
  1
strokes_ogs.tif
176
     1
290
     0
176
     1
 40
1.0
176
     1
 40
1.0
176
     1
  0
VISUALSTYLE
  5
3C
102
{ACAD_REACTORS
330
2A
102
}
330
2A
100
AcDbVisualStyle
  2
OverhangOff
 70
    21
177
     3
291
     1
 70
    58
 90
        2
176
     0
 90
        2
176
     0
 90
        0
176
     0
 90
        0
176
     0
 40
0.6
176
     0
 40
30.0
176
     0
 62
     7
420
 16777215
176
     0
 90
        1
176
     0
 90
        4
176
     0
 62
     7
176
     0
 62
   257
176
     0
 90
        1
176
     0
 90
        1
176
     0
 40
1.0
176
     0
 90
        9
176
     2
 62
     7
176
     0
 40
1.0
176
     0
 90
        1
176
     0
 90
        6
176
     0
 90
        2
176
     0
 62
     7
176
     0
 90
        5
176
     0
 90
        0
176
     0
 90
        0
176
     0
290
     0
176
     0
 90
        1
176
     0
 40
0.0
176
     0
 90
        0
176
     0
290
     0
176
     0
290
     1
176
     0
290
     1
176
     0
290
     0
176
     0
290
     0
176
     0
290
     0
176
     0
290
     0
176
     0
290
     0
176
     0
290
     0
176
     0
 90
       50
176
     0
 40
0.0
176
     0
 40
1.0
176
     0
 90
        0
176
     0
 62
    18
420
        0
176
     0
 90
       50
176
     0
 90
        3
176
     0
 62
     5
420
      255
176
     0
290
     0
176
     0
 90
       50
176
     0
 90
       50
176
     0
 90
       50
176
     0
290
     0
176
     0
 90
       50
176
     0
 62
   256
176
     0
 40
1.0
176
     0
 90
        2
176
     0
  1
strokes_ogs.tif
176
     0
290
     0
176
     0
 40
1.0
176
     0
 40
1.0
176
     0
  0
VISUALSTYLE
  5
33
102
{ACAD_REACTORS
330
2A
102
}
330
2A
100
AcDbVisualStyle
  2
Realistic
 70
     8
177
     3
291
     0
 70
    58
 90
        2
176
     1
 90
        3
176
     1
 90
        0
176
     1
 90
        2
176
     1
 40
0.6
176
     1
 40
30.0
176
     1
 62
     7
420
 16777215
176
     1
 90
        0
176
     1
 90
        0
176
     1
 62
     7
176
     1
 62
   257
176
     1
 90
        1
176
     1
 90
        1
176
     1
 40
1.0
176
     1
 90
        8
176
     1
 62
   257
176
     1
 40
1.0
176
     1
 90
        1
176
     1
 90
        6
176
     1
 90
        2
176
     1
 62
     7
176
     1
 90
        3
176
     1
 90
        0
176
     1
 90
        0
176
     1
290
     0
176
     1
 90
       13
176
     1
 40
0.0
176
     1
 90
        0
176
     1
290
     0
176
     1
290
     1
176
     1
290
     1
176
     1
290
     0
176
     1
290
     0
176
     1
290
     0
176
     1
290
     0
176
     1
290
     0
176
     1
290
     0
176
     1
 90
       50
176
     1
 40
0.0
176
     1
 40
1.0
176
     1
 90
        0
176
     1
 62
    18
420
        0
176
     1
 90
       50
176
     1
 90
        3
176
     1
 62
     5
420
      255
176
     1
290
     0
176
     1
 90
       50
176
     1
 90
       50
176
     1
 90
       50
176
     1
290
     0
176
     1
 90
       50
176
     1
 62
   256
176
     0
 40
1.0
176
     0
 90
        2
176
     1
  1
strokes_ogs.tif
176
     1
290
     0
176
     1
 40
1.0
176
     1
 40
1.0
176
     1
  0
VISUALSTYLE
  5
42
102
{ACAD_REACTORS
330
2A
102
}
330
2A
100
AcDbVisualStyle
  2
Shaded
 70
    27
177
     3
291
     0
 70
    58
 90
        2
176
     1
 90
        2
176
     1
 90
        1
176
     1
 90
        2
176
     1
 40
0.6
176
     1
 40
30.0
176
     1
 62
     7
420
 16777215
176
     1
 90
        0
176
     1
 90
        4
176
     1
 62
     7
176
     1
 62
   257
176
     1
 90
        1
176
     1
 90
        1
176
     1
 40
1.0
176
     1
 90
        8
176
     1
 62
   257
176
     1
 40
1.0
176
     1
 90
        1
176
     1
 90
        6
176
     1
 90
        2
176
     1
 62
     8
420
  7895160
176
     1
 90
        3
176
     1
 90
        0
176
     1
 90
        0
176
     1
290
     0
176
     1
 90
        5
176
     1
 40
0.0
176
     1
 90
        0
176
     1
290
     0
176
     1
290
     1
176
     1
290
     1
176
     1
290
     0
176
     1
290
     0
176
     1
290
     0
176
     1
290
     0
176
     1
290
     0
176
     1
290
     0
176
     1
 90
       50
176
     1
 40
0.0
176
     1
 40
1.0
176
     1
 90
        0
176
     1
 62
    18
420
        0
176
     1
 90
       50
176
     1
 90
        3
176
     1
 62
     5
420
      255
176
     1
290
     0
176
     1
 90
       50
176
     1
 90
       50
176
     1
 90
       50
176
     1
290
     0
176
     1
 90
       50
176
     1
 62
   256
176
     0
 40
1.0
176
     0
 90
        2
176
     1
  1
strokes_ogs.tif
176
     1
290
     0
176
     1
 40
1.0
176
     1
 40
1.0
176
     1
  0
VISUALSTYLE
  5
41
102
{ACAD_REACTORS
330
2A
102
}
330
2A
100
AcDbVisualStyle
  2
Shaded with edges
 70
    26
177
     3
291
     0
 70
    58
 90
        2
176
     1
 90
        2
176
     1
 90
        1
176
     1
 90
        2
176
     1
 40
0.6
176
     1
 40
30.0
176
     1
 62
     7
420
 16777215
176
     1
 90
        1
176
     1
 90
       10
176
     1
 62
     7
176
     1
 62
   257
176
     1
 90
        2
176
     1
 90
        1
176
     1
 40
1.0
176
     1
 90
        8
176
     1
 62
   257
176
     1
 40
1.0
176
     1
 90
        1
176
     1
 90
        6
176
     1
 90
        2
176
     1
 62
     7
176
     1
 90
        3
176
     1
 90
        0
176
     1
 90
        0
176
     1
290
     0
176
     1
 90
        5
176
     1
 40
0.0
176
     1
 90
        0
176
     1
290
     0
176
     1
290
     1
176
     1
290
     1
176
     1
290
     0
176
     1
290
     0
176
     1
290
     0
176
     1
290
     0
176
     1
290
     0
176
     1
290
     0
176
     1
 90
       50
176
     1
 40
0.0
176
     1
 40
1.0
176
     1
 90
        0
176
     1
 62
    18
420
        0
176
     1
 90
       50
176
     1
 90
        3
176
     1
 62
     5
420
      255
176
     1
290
     0
176
     1
 90
       50
176
     1
 90
       50
176
     1
 90
       50
176
     1
290
     0
176
     1
 90
       50
176
     1
 62
   256
176
     0
 40
1.0
176
     0
 90
        2
176
     1
  1
strokes_ogs.tif
176
     1
290
     0
176
     1
 40
1.0
176
     1
 40
1.0
176
     1
  0
VISUALSTYLE
  5
3E
102
{ACAD_REACTORS
330
2A
102
}
330
2A
100
AcDbVisualStyle
  2
Shades of Gray
 70
    23
177
     3
291
     0
 70
    58
 90
        2
176
     1
 90
        2
176
     1
 90
        3
176
     1
 90
        0
176
     1
 40
0.6
176
     1
 40
30.0
176
     1
 62
     7
420
 16777215
176
     1
 90
        2
176
     1
 90
        2
176
     1
 62
     7
176
     1
 62
     7
176
     1
 90
        1
176
     1
 90
        1
176
     1
 40
40.0
176
     1
 90
        8
176
     1
 62
     7
176
     1
 40
1.0
176
     1
 90
        1
176
     1
 90
        6
176
     1
 90
        2
176
     1
 62
     7
176
     1
 90
        3
176
     1
 90
        0
176
     1
 90
        0
176
     1
290
     0
176
     1
 90
        1
176
     1
 40
0.0
176
     1
 90
        0
176
     1
290
     0
176
     1
290
     1
176
     1
290
     1
176
     1
290
     0
176
     1
290
     0
176
     1
290
     0
176
     1
290
     0
176
     1
290
     0
176
     1
290
     0
176
     1
 90
       50
176
     1
 40
0.0
176
     1
 40
1.0
176
     1
 90
        0
176
     1
 62
    18
420
        0
176
     1
 90
       50
176
     1
 90
        3
176
     1
 62
     5
420
      255
176
     1
290
     0
176
     1
 90
       50
176
     1
 90
       50
176
     1
 90
       50
176
     1
290
     0
176
     1
 90
       50
176
     1
 62
   256
176
     0
 40
1.0
176
     0
 90
        2
176
     1
  1
strokes_ogs.tif
176
     1
290
     0
176
     1
 40
1.0
176
     1
 40
1.0
176
     1
  0
VISUALSTYLE
  5
3F
102
{ACAD_REACTORS
330
2A
102
}
330
2A
100
AcDbVisualStyle
  2
Sketchy
 70
    24
177
     3
291
     0
 70
    58
 90
        1
176
     1
 90
        2
176
     1
 90
        2
176
     1
 90
        0
176
     1
 40
0.6
176
     1
 40
30.0
176
     1
 62
     7
420
 16777215
176
     1
 90
        2
176
     1
 90
        2
176
     1
 62
     7
176
     1
 62
     7
176
     1
 90
        1
176
     1
 90
        1
176
     1
 40
40.0
176
     1
 90
       11
176
     1
 62
     7
176
     1
 40
1.0
176
     1
 90
        1
176
     1
 90
        6
176
     1
 90
        2
176
     1
 62
     7
176
     1
 90
        6
176
     1
 90
        0
176
     1
 90
        0
176
     1
290
     0
176
     1
 90
        1
176
     1
 40
0.0
176
     1
 90
        0
176
     1
290
     0
176
     1
290
     1
176
     1
290
     1
176
     1
290
     0
176
     1
290
     0
176
     1
290
     0
176
     1
290
     0
176
     1
290
     0
176
     1
290
     0
176
     1
 90
       50
176
     1
 40
0.0
176
     1
 40
1.0
176
     1
 90
        0
176
     1
 62
    18
420
        0
176
     1
 90
       50
176
     1
 90
        3
176
     1
 62
     5
420
      255
176
     1
290
     0
176
     1
 90
       50
176
     1
 90
       50
176
     1
 90
       50
176
     1
290
     0
176
     1
 90
       50
176
     1
 62
   256
176
     0
 40
1.0
176
     0
 90
        2
176
     1
  1
strokes_ogs.tif
176
     1
290
     0
176
     1
 40
1.0
176
     1
 40
1.0
176
     1
  0
VISUALSTYLE
  5
37
102
{ACAD_REACTORS
330
2A
102
}
330
2A
100
AcDbVisualStyle
  2
Thicken
 70
    13
177
     3
291
     1
 70
    58
 90
        2
176
     1
 90
        2
176
     1
 90
        0
176
     1
 90
        0
176
     1
 40
0.6
176
     1
 40
30.0
176
     1
 62
     7
420
 16777215
176
     1
 90
        1
176
     1
 90
        4
176
     1
 62
     7
176
     1
 62
   257
176
     1
 90
        1
176
     1
 90
        1
176
     1
 40
1.0
176
     1
 90
       12
176
     1
 62
     7
176
     1
 40
1.0
176
     1
 90
        1
176
     1
 90
        6
176
     1
 90
        2
176
     1
 62
     7
176
     1
 90
        5
176
     1
 90
        0
176
     1
 90
        0
176
     1
290
     0
176
     1
 90
        1
176
     1
 40
0.0
176
     1
 90
        0
176
     1
290
     0
176
     1
290
     1
176
     1
290
     1
176
     1
290
     0
176
     1
290
     0
176
     1
290
     0
176
     1
290
     0
176
     1
290
     0
176
     1
290
     0
176
     1
 90
       50
176
     1
 40
0.0
176
     1
 40
1.0
176
     1
 90
        0
176
     1
 62
    18
420
        0
176
     1
 90
       50
176
     1
 90
        3
176
     1
 62
     5
420
      255
176
     1
290
     0
176
     1
 90
       50
176
     1
 90
       50
176
     1
 90
       50
176
     1
290
     0
176
     1
 90
       50
176
     1
 62
   256
176
     0
 40
1.0
176
     0
 90
        2
176
     1
  1
strokes_ogs.tif
176
     1
290
     0
176
     1
 40
1.0
176
     1
 40
1.0
176
     1
  0
VISUALSTYLE
  5
30
102
{ACAD_REACTORS
330
2A
102
}
330
2A
100
AcDbVisualStyle
  2
Wireframe
 70
     5
177
     3
291
     0
 70
    58
 90
        0
176
     1
 90
        2
176
     1
 90
        0
176
     1
 90
        0
176
     1
 40
0.6
176
     1
 40
30.0
176
     1
 62
     7
420
 16777215
176
     1
 90
        1
176
     1
 90
        4
176
     1
 62
     7
176
     1
 62
   257
176
     1
 90
        1
176
     1
 90
        1
176
     1
 40
1.0
176
     1
 90
        0
176
     1
 62
   257
176
     1
 40
1.0
176
     1
 90
        1
176
     1
 90
        6
176
     1
 90
        2
176
     1
 62
     7
176
     1
 90
        3
176
     1
 90
        0
176
     1
 90
        0
176
     1
290
     0
176
     1
 90
        1
176
     1
 40
0.0
176
     1
 90
        0
176
     1
290
     0
176
     1
290
     1
176
     1
290
     1
176
     1
290
     0
176
     1
290
     0
176
     1
290
     0
176
     1
290
     0
176
     1
290
     0
176
     1
290
     0
176
     1
 90
       50
176
     1
 40
0.0
176
     1
 40
1.0
176
     1
 90
        0
176
     1
 62
    18
420
        0
176
     1
 90
       50
176
     1
 90
        3
176
     1
 62
     5
420
      255
176
     1
290
     0
176
     1
 90
       50
176
     1
 90
       50
176
     1
 90
       50
176
     1
290
     0
176
     1
 90
       50
176
     1
 62
   256
176
     0
 40
1.0
176
     0
 90
        2
176
     1
  1
strokes_ogs.tif
176
     1
290
     0
176
     1
 40
1.0
176
     1
 40
1.0
176
     1
  0
VISUALSTYLE
  5
40
102
{ACAD_REACTORS
330
2A
102
}
330
2A
100
AcDbVisualStyle
  2
X-Ray
 70
    25
177
     3
291
     0
 70
    58
 90
        2
176
     1
 90
        2
176
     1
 90
        1
176
     1
 90
        1
176
     1
 40
0.5
176
     1
 40
30.0
176
     1
 62
     7
420
 16777215
176
     1
 90
        1
176
     1
 90
        0
176
     1
 62
     7
176
     1
 62
   257
176
     1
 90
        1
176
     1
 90
        1
176
     1
 40
1.0
176
     1
 90
        8
176
     1
 62
     7
176
     1
 40
1.0
176
     1
 90
        1
176
     1
 90
        6
176
     1
 90
        2
176
     1
 62
     7
176
     1
 90
        3
176
     1
 90
        0
176
     1
 90
        0
176
     1
290
     0
176
     1
 90
       13
176
     1
 40
0.0
176
     1
 90
        0
176
     1
290
     0
176
     1
290
     1
176
     1
290
     1
176
     1
290
     0
176
     1
290
     0
176
     1
290
     0
176
     1
290
     0
176
     1
290
     0
176
     1
290
     0
176
     1
 90
       50
176
     1
 40
0.0
176
     1
 40
1.0
176
     1
 90
        0
176
     1
 62
    18
420
        0
176
     1
 90
       50
176
     1
 90
        3
176
     1
 62
     5
420
      255
176
     1
290
     0
176
     1
 90
       50
176
     1
 90
       50
176
     1
 90
       50
176
     1
290
     0
176
     1
 90
       50
176
     1
 62
   256
176
     0
 40
1.0
176
     0
 90
        2
176
     1
  1
strokes_ogs.tif
176
     1
290
     0
176
     1
 40
1.0
176
     1
 40
1.0
176
     1
  0
DICTIONARYVAR
  5
1DF
102
{ACAD_REACTORS
330
1DE
102
}
330
1DE
100
DictionaryVariables
280
     0
  1
1:1
  0
DICTIONARYVAR
  5
1E4
102
{ACAD_REACTORS
330
1DE
102
}
330
1DE
100
DictionaryVariables
280
     0
  1
Standard
  0
DICTIONARYVAR
  5
1E3
102
{ACAD_REACTORS
330
1DE
102
}
330
1DE
100
DictionaryVariables
280
     0
  1
Standard
  0
DICTIONARY
  5
1E0
330
6A
100
AcDbDictionary
280
     1
281
     1
  3
ACAD_ROUNDTRIP_2008_TABLESTYLE_CELLSTYLEMAP
360
1E1
  0
CELLSTYLEMAP
  5
1E1
102
{ACAD_REACTORS
330
1E0
102
}
330
1E0
100
AcDbCellStyleMap
 90
        3
300
CELLSTYLE
  1
TABLEFORMAT_BEGIN
 90
        5
170
     1
 91
        0
 92
    32768
 62
   257
 93
        1
300
CONTENTFORMAT
  1
CONTENTFORMAT_BEGIN
 90
        0
 91
        0
 92
        4
 93
        0
300

 40
0.0
140
1.0
 94
        5
 62
     0
340
11
144
6.0
309
CONTENTFORMAT_END
171
     1
301
MARGIN
  1
CELLMARGIN_BEGIN
 40
1.5
 40
1.5
 40
1.5
 40
1.5
 40
1.5
 40
1.5
309
CELLMARGIN_END
 94
        6
 95
        1
302
GRIDFORMAT
  1
GRIDFORMAT_BEGIN
 90
        0
 91
        1
 62
     0
 92
       -2
340
14
 93
        0
 40
0.045
309
GRIDFORMAT_END
 95
        2
302
GRIDFORMAT
  1
GRIDFORMAT_BEGIN
 90
        0
 91
        1
 62
     0
 92
       -2
340
14
 93
        0
 40
0.045
309
GRIDFORMAT_END
 95
        4
302
GRIDFORMAT
  1
GRIDFORMAT_BEGIN
 90
        0
 91
        1
 62
     0
 92
       -2
340
14
 93
        0
 40
0.045
309
GRIDFORMAT_END
 95
        8
302
GRIDFORMAT
  1
GRIDFORMAT_BEGIN
 90
        0
 91
        1
 62
     0
 92
       -2
340
14
 93
        0
 40
0.045
309
GRIDFORMAT_END
 95
       16
302
GRIDFORMAT
  1
GRIDFORMAT_BEGIN
 90
        0
 91
        1
 62
     0
 92
       -2
340
14
 93
        0
 40
0.045
309
GRIDFORMAT_END
 95
       32
302
GRIDFORMAT
  1
GRIDFORMAT_BEGIN
 90
        0
 91
        1
 62
     0
 92
       -2
340
14
 93
        0
 40
0.045
309
GRIDFORMAT_END
309
TABLEFORMAT_END
  1
CELLSTYLE_BEGIN
 90
        1
 91
        1
300
_TITLE
309
CELLSTYLE_END
300
CELLSTYLE
  1
TABLEFORMAT_BEGIN
 90
        5
170
     1
 91
        0
 92
        0
 62
   257
 93
        1
300
CONTENTFORMAT
  1
CONTENTFORMAT_BEGIN
 90
        0
 91
        0
 92
        4
 93
        0
300

 40
0.0
140
1.0
 94
        5
 62
     0
340
11
144
4.5
309
CONTENTFORMAT_END
171
     1
301
MARGIN
  1
CELLMARGIN_BEGIN
 40
1.5
 40
1.5
 40
1.5
 40
1.5
 40
1.5
 40
1.5
309
CELLMARGIN_END
 94
        6
 95
        1
302
GRIDFORMAT
  1
GRIDFORMAT_BEGIN
 90
        0
 91
        1
 62
     0
 92
       -2
340
14
 93
        0
 40
0.045
309
GRIDFORMAT_END
 95
        2
302
GRIDFORMAT
  1
GRIDFORMAT_BEGIN
 90
        0
 91
        1
 62
     0
 92
       -2
340
14
 93
        0
 40
0.045
309
GRIDFORMAT_END
 95
        4
302
GRIDFORMAT
  1
GRIDFORMAT_BEGIN
 90
        0
 91
        1
 62
     0
 92
       -2
340
14
 93
        0
 40
0.045
309
GRIDFORMAT_END
 95
        8
302
GRIDFORMAT
  1
GRIDFORMAT_BEGIN
 90
        0
 91
        1
 62
     0
 92
       -2
340
14
 93
        0
 40
0.045
309
GRIDFORMAT_END
 95
       16
302
GRIDFORMAT
  1
GRIDFORMAT_BEGIN
 90
        0
 91
        1
 62
     0
 92
       -2
340
14
 93
        0
 40
0.045
309
GRIDFORMAT_END
 95
       32
302
GRIDFORMAT
  1
GRIDFORMAT_BEGIN
 90
        0
 91
        1
 62
     0
 92
       -2
340
14
 93
        0
 40
0.045
309
GRIDFORMAT_END
309
TABLEFORMAT_END
  1
CELLSTYLE_BEGIN
 90
        2
 91
        1
300
_HEADER
309
CELLSTYLE_END
300
CELLSTYLE
  1
TABLEFORMAT_BEGIN
 90
        5
170
     1
 91
        0
 92
        0
 62
   257
 93
        1
300
CONTENTFORMAT
  1
CONTENTFORMAT_BEGIN
 90
        0
 91
        0
 92
        4
 93
        0
300

 40
0.0
140
1.0
 94
        2
 62
     0
340
11
144
4.5
309
CONTENTFORMAT_END
171
     1
301
MARGIN
  1
CELLMARGIN_BEGIN
 40
1.5
 40
1.5
 40
1.5
 40
1.5
 40
1.5
 40
1.5
309
CELLMARGIN_END
 94
        6
 95
        1
302
GRIDFORMAT
  1
GRIDFORMAT_BEGIN
 90
        0
 91
        1
 62
     0
 92
       -2
340
14
 93
        0
 40
0.045
309
GRIDFORMAT_END
 95
        2
302
GRIDFORMAT
  1
GRIDFORMAT_BEGIN
 90
        0
 91
        1
 62
     0
 92
       -2
340
14
 93
        0
 40
0.045
309
GRIDFORMAT_END
 95
        4
302
GRIDFORMAT
  1
GRIDFORMAT_BEGIN
 90
        0
 91
        1
 62
     0
 92
       -2
340
14
 93
        0
 40
0.045
309
GRIDFORMAT_END
 95
        8
302
GRIDFORMAT
  1
GRIDFORMAT_BEGIN
 90
        0
 91
        1
 62
     0
 92
       -2
340
14
 93
        0
 40
0.045
309
GRIDFORMAT_END
 95
       16
302
GRIDFORMAT
  1
GRIDFORMAT_BEGIN
 90
        0
 91
        1
 62
     0
 92
       -2
340
14
 93
        0
 40
0.045
309
GRIDFORMAT_END
 95
       32
302
GRIDFORMAT
  1
GRIDFORMAT_BEGIN
 90
        0
 91
        1
 62
     0
 92
       -2
340
14
 93
        0
 40
0.045
309
GRIDFORMAT_END
309
TABLEFORMAT_END
  1
CELLSTYLE_BEGIN
 90
        3
 91
        2
300
_DATA
309
CELLSTYLE_END
  0
ENDSEC
  0
EOF