0
SECTION
  2
HEADER
  9
$ACADVER
  1
AC1027
  9
$ACADMAINTVER
 70
     8
  9
$DWGCODEPAGE
  3
ANSI_1252
  9
$REQUIREDVERSIONS
160
                 0
  9
$COMMENTS
  1
File was created by Cadenas
  9
$CUSTOMPROPERTYTAG
  1
NN
  9
$CUSTOMPROPERTY
  1
Set Screw Wide Slot Take Up Metric Bore
  9
$CUSTOMPROPERTYTAG
  1
NT
  9
$CUSTOMPROPERTY
  1
SC Take-Up Bearings -Wide Slot -(Normal Duty)
  9
$CUSTOMPROPERTYTAG
  1
NB
  9
$CUSTOMPROPERTY
  1
125916
  9
$CUSTOMPROPERTYTAG
  1
NBSYN
  9
$CUSTOMPROPERTY
  1
$PN.
  9
$CUSTOMPROPERTYTAG
  1
LINA
  9
$CUSTOMPROPERTY
  1
125916
  9
$CUSTOMPROPERTYTAG
  1
SERIES
  9
$CUSTOMPROPERTY
  1
210
  9
$CUSTOMPROPERTYTAG
  1
SS
  9
$CUSTOMPROPERTY
  1
50
  9
$CUSTOMPROPERTYTAG
  1
PN
  9
$CUSTOMPROPERTY
  1
125916
  9
$CUSTOMPROPERTYTAG
  1
DESCRIPTION
  9
$CUSTOMPROPERTY
  1
WSTU-SC-50M
  9
$CUSTOMPROPERTYTAG
  1
W
  9
$CUSTOMPROPERTY
  1
2.9
  9
$CUSTOMPROPERTYTAG
  1
FS
  9
$CUSTOMPROPERTY
  1
WS400
  9
$CUSTOMPROPERTYTAG
  1
LF
  9
$CUSTOMPROPERTY
  1
RE-LUBE
  9
$CUSTOMPROPERTYTAG
  1
A
  9
$CUSTOMPROPERTY
  1
49.3
  9
$CUSTOMPROPERTYTAG
  1
B
  9
$CUSTOMPROPERTY
  1
147.8
  9
$CUSTOMPROPERTYTAG
  1
C
  9
$CUSTOMPROPERTY
  1
17.48
  9
$CUSTOMPROPERTYTAG
  1
D
  9
$CUSTOMPROPERTY
  1
85.9
  9
$CUSTOMPROPERTYTAG
  1
E
  9
$CUSTOMPROPERTY
  1
90.4
  9
$CUSTOMPROPERTYTAG
  1
F
  9
$CUSTOMPROPERTY
  1
25.4
  9
$CUSTOMPROPERTYTAG
  1
G
  9
$CUSTOMPROPERTY
  1
16.0
  9
$CUSTOMPROPERTYTAG
  1
H
  9
$CUSTOMPROPERTY
  1
19.1
  9
$CUSTOMPROPERTYTAG
  1
J
  9
$CUSTOMPROPERTY
  1
82.6
  9
$CUSTOMPROPERTYTAG
  1
K
  9
$CUSTOMPROPERTY
  1
49.3
  9
$CUSTOMPROPERTYTAG
  1
L
  9
$CUSTOMPROPERTY
  1
61.7
  9
$CUSTOMPROPERTYTAG
  1
M
  9
$CUSTOMPROPERTY
  1
101.22/101.98
  9
$CUSTOMPROPERTYTAG
  1
N
  9
$CUSTOMPROPERTY
  1
120.7
  9
$CUSTOMPROPERTYTAG
  1
R
  9
$CUSTOMPROPERTY
  1
19.1
  9
$CUSTOMPROPERTYTAG
  1
S
  9
$CUSTOMPROPERTY
  1
30.2
  9
$CUSTOMPROPERTYTAG
  1
T
  9
$CUSTOMPROPERTY
  1
49.3
  9
$CUSTOMPROPERTYTAG
  1
COMPANY
  9
$CUSTOMPROPERTY
  1
baldor
  9
$INSBASE
 10
0.0
 20
0.0
 30
0.0
  9
$EXTMIN
 10
1.000000000000000E+20
 20
1.000000000000000E+20
 30
1.000000000000000E+20
  9
$EXTMAX
 10
-1.000000000000000E+20
 20
-1.000000000000000E+20
 30
-1.000000000000000E+20
  9
$LIMMIN
 10
0.0
 20
0.0
  9
$LIMMAX
 10
420.0
 20
297.0
  9
$ORTHOMODE
 70
     0
  9
$REGENMODE
 70
     1
  9
$FILLMODE
 70
     1
  9
$QTEXTMODE
 70
     0
  9
$MIRRTEXT
 70
     1
  9
$LTSCALE
 40
1.0
  9
$ATTMODE
 70
     1
  9
$TEXTSIZE
 40
2.5
  9
$TRACEWID
 40
1.0
  9
$TEXTSTYLE
  7
Standard
  9
$CLAYER
  8
0
  9
$CELTYPE
  6
ByLayer
  9
$CECOLOR
 62
   256
  9
$CELTSCALE
 40
1.0
  9
$DISPSILH
 70
     0
  9
$DIMSCALE
 40
1.0
  9
$DIMASZ
 40
2.5
  9
$DIMEXO
 40
0.625
  9
$DIMDLI
 40
3.75
  9
$DIMRND
 40
0.0
  9
$DIMDLE
 40
0.0
  9
$DIMEXE
 40
1.25
  9
$DIMTP
 40
0.0
  9
$DIMTM
 40
0.0
  9
$DIMTXT
 40
2.5
  9
$DIMCEN
 40
2.5
  9
$DIMTSZ
 40
0.0
  9
$DIMTOL
 70
     0
  9
$DIMLIM
 70
     0
  9
$DIMTIH
 70
     0
  9
$DIMTOH
 70
     0
  9
$DIMSE1
 70
     0
  9
$DIMSE2
 70
     0
  9
$DIMTAD
 70
     1
  9
$DIMZIN
 70
     8
  9
$DIMBLK
  1

  9
$DIMASO
 70
     1
  9
$DIMSHO
 70
     1
  9
$DIMPOST
  1

  9
$DIMAPOST
  1

  9
$DIMALT
 70
     0
  9
$DIMALTD
 70
     3
  9
$DIMALTF
 40
0.03937007874016
  9
$DIMLFAC
 40
1.0
  9
$DIMTOFL
 70
     1
  9
$DIMTVP
 40
0.0
  9
$DIMTIX
 70
     0
  9
$DIMSOXD
 70
     0
  9
$DIMSAH
 70
     0
  9
$DIMBLK1
  1

  9
$DIMBLK2
  1

  9
$DIMSTYLE
  2
ISO-25
  9
$DIMCLRD
 70
     0
  9
$DIMCLRE
 70
     0
  9
$DIMCLRT
 70
     0
  9
$DIMTFAC
 40
1.0
  9
$DIMGAP
 40
0.625
  9
$DIMJUST
 70
     0
  9
$DIMSD1
 70
     0
  9
$DIMSD2
 70
     0
  9
$DIMTOLJ
 70
     0
  9
$DIMTZIN
 70
     8
  9
$DIMALTZ
 70
     0
  9
$DIMALTTZ
 70
     0
  9
$DIMUPT
 70
     0
  9
$DIMDEC
 70
     2
  9
$DIMTDEC
 70
     2
  9
$DIMALTU
 70
     2
  9
$DIMALTTD
 70
     3
  9
$DIMTXSTY
  7
Standard
  9
$DIMAUNIT
 70
     0
  9
$DIMADEC
 70
     0
  9
$DIMALTRND
 40
0.0
  9
$DIMAZIN
 70
     0
  9
$DIMDSEP
 70
    44
  9
$DIMATFIT
 70
     3
  9
$DIMFRAC
 70
     0
  9
$DIMLDRBLK
  1

  9
$DIMLUNIT
 70
     2
  9
$DIMLWD
 70
    -2
  9
$DIMLWE
 70
    -2
  9
$DIMTMOVE
 70
     0
  9
$DIMFXL
 40
1.0
  9
$DIMFXLON
 70
     0
  9
$DIMJOGANG
 40
0.7853981633974483
  9
$DIMTFILL
 70
     0
  9
$DIMTFILLCLR
 70
     0
  9
$DIMARCSYM
 70
     0
  9
$DIMLTYPE
  6

  9
$DIMLTEX1
  6

  9
$DIMLTEX2
  6

  9
$DIMTXTDIRECTION
 70
     0
  9
$LUNITS
 70
     2
  9
$LUPREC
 70
     4
  9
$SKETCHINC
 40
1.0
  9
$FILLETRAD
 40
10.0
  9
$AUNITS
 70
     0
  9
$AUPREC
 70
     0
  9
$MENU
  1
.
  9
$ELEVATION
 40
0.0
  9
$PELEVATION
 40
0.0
  9
$THICKNESS
 40
0.0
  9
$LIMCHECK
 70
     0
  9
$CHAMFERA
 40
0.0
  9
$CHAMFERB
 40
0.0
  9
$CHAMFERC
 40
0.0
  9
$CHAMFERD
 40
0.0
  9
$SKPOLY
 70
     0
  9
$TDCREATE
 40
2458168.986010984
  9
$TDUCREATE
 40
2458168.944344317
  9
$TDUPDATE
 40
2458168.986011157
  9
$TDUUPDATE
 40
2458168.944344491
  9
$TDINDWG
 40
0.0000000116
  9
$TDUSRTIMER
 40
0.0000000116
  9
$USRTIMER
 70
     1
  9
$ANGBASE
 50
0.0
  9
$ANGDIR
 70
     0
  9
$PDMODE
 70
     0
  9
$PDSIZE
 40
0.0
  9
$PLINEWID
 40
0.0
  9
$SPLFRAME
 70
     0
  9
$SPLINETYPE
 70
     6
  9
$SPLINESEGS
 70
     8
  9
$HANDSEED
  5
1EE
  9
$SURFTAB1
 70
     6
  9
$SURFTAB2
 70
     6
  9
$SURFTYPE
 70
     6
  9
$SURFU
 70
     6
  9
$SURFV
 70
     6
  9
$UCSBASE
  2

  9
$UCSNAME
  2

  9
$UCSORG
 10
0.0
 20
0.0
 30
0.0
  9
$UCSXDIR
 10
1.0
 20
0.0
 30
0.0
  9
$UCSYDIR
 10
0.0
 20
1.0
 30
0.0
  9
$UCSORTHOREF
  2

  9
$UCSORTHOVIEW
 70
     0
  9
$UCSORGTOP
 10
0.0
 20
0.0
 30
0.0
  9
$UCSORGBOTTOM
 10
0.0
 20
0.0
 30
0.0
  9
$UCSORGLEFT
 10
0.0
 20
0.0
 30
0.0
  9
$UCSORGRIGHT
 10
0.0
 20
0.0
 30
0.0
  9
$UCSORGFRONT
 10
0.0
 20
0.0
 30
0.0
  9
$UCSORGBACK
 10
0.0
 20
0.0
 30
0.0
  9
$PUCSBASE
  2

  9
$PUCSNAME
  2

  9
$PUCSORG
 10
0.0
 20
0.0
 30
0.0
  9
$PUCSXDIR
 10
1.0
 20
0.0
 30
0.0
  9
$PUCSYDIR
 10
0.0
 20
1.0
 30
0.0
  9
$PUCSORTHOREF
  2

  9
$PUCSORTHOVIEW
 70
     0
  9
$PUCSORGTOP
 10
0.0
 20
0.0
 30
0.0
  9
$PUCSORGBOTTOM
 10
0.0
 20
0.0
 30
0.0
  9
$PUCSORGLEFT
 10
0.0
 20
0.0
 30
0.0
  9
$PUCSORGRIGHT
 10
0.0
 20
0.0
 30
0.0
  9
$PUCSORGFRONT
 10
0.0
 20
0.0
 30
0.0
  9
$PUCSORGBACK
 10
0.0
 20
0.0
 30
0.0
  9
$USERI1
 70
     0
  9
$USERI2
 70
     0
  9
$USERI3
 70
     0
  9
$USERI4
 70
     0
  9
$USERI5
 70
     0
  9
$USERR1
 40
0.0
  9
$USERR2
 40
0.0
  9
$USERR3
 40
0.0
  9
$USERR4
 40
0.0
  9
$USERR5
 40
0.0
  9
$WORLDVIEW
 70
     1
  9
$SHADEDGE
 70
     3
  9
$SHADEDIF
 70
    70
  9
$TILEMODE
 70
     1
  9
$MAXACTVP
 70
    64
  9
$PINSBASE
 10
0.0
 20
0.0
 30
0.0
  9
$PLIMCHECK
 70
     0
  9
$PEXTMIN
 10
1.000000000000000E+20
 20
1.000000000000000E+20
 30
1.000000000000000E+20
  9
$PEXTMAX
 10
-1.000000000000000E+20
 20
-1.000000000000000E+20
 30
-1.000000000000000E+20
  9
$PLIMMIN
 10
0.0
 20
0.0
  9
$PLIMMAX
 10
420.0
 20
297.0
  9
$UNITMODE
 70
     0
  9
$VISRETAIN
 70
     1
  9
$PLINEGEN
 70
     0
  9
$PSLTSCALE
 70
     1
  9
$TREEDEPTH
 70
  3020
  9
$CMLSTYLE
  2
Standard
  9
$CMLJUST
 70
     0
  9
$CMLSCALE
 40
20.0
  9
$PROXYGRAPHICS
 70
     1
  9
$MEASUREMENT
 70
     1
  9
$CELWEIGHT
370
    -1
  9
$ENDCAPS
280
     0
  9
$JOINSTYLE
280
     0
  9
$LWDISPLAY
290
     0
  9
$INSUNITS
 70
     4
  9
$HYPERLINKBASE
  1

  9
$STYLESHEET
  1

  9
$XEDIT
290
     1
  9
$CEPSNTYPE
380
     0
  9
$PSTYLEMODE
290
     1
  9
$FINGERPRINTGUID
  2
{EC79EB89-2DC5-4D98-9643-52682C3EF44F}
  9
$VERSIONGUID
  2
{FAEB1C32-E019-11D5-929B-00C0DF256EC4}
  9
$EXTNAMES
290
     1
  9
$PSVPSCALE
 40
0.0
  9
$OLESTARTUP
290
     0
  9
$SORTENTS
280
   127
  9
$INDEXCTL
280
     0
  9
$HIDETEXT
280
     1
  9
$XCLIPFRAME
280
     2
  9
$HALOGAP
280
     0
  9
$OBSCOLOR
 70
   257
  9
$OBSLTYPE
280
     0
  9
$INTERSECTIONDISPLAY
280
     0
  9
$INTERSECTIONCOLOR
 70
   257
  9
$DIMASSOC
280
     2
  9
$PROJECTNAME
  1

  9
$CAMERADISPLAY
290
     0
  9
$LENSLENGTH
 40
50.0
  9
$CAMERAHEIGHT
 40
0.0
  9
$STEPSPERSEC
 40
2.0
  9
$STEPSIZE
 40
6.0
  9
$3DDWFPREC
 40
2.0
  9
$PSOLWIDTH
 40
5.0
  9
$PSOLHEIGHT
 40
80.0
  9
$LOFTANG1
 40
1.570796326794897
  9
$LOFTANG2
 40
1.570796326794897
  9
$LOFTMAG1
 40
0.0
  9
$LOFTMAG2
 40
0.0
  9
$LOFTPARAM
 70
     7
  9
$LOFTNORMALS
280
     1
  9
$LATITUDE
 40
37.795
  9
$LONGITUDE
 40
-122.394
  9
$NORTHDIRECTION
 40
0.0
  9
$TIMEZONE
 70
 -8000
  9
$LIGHTGLYPHDISPLAY
280
     1
  9
$TILEMODELIGHTSYNCH
280
     1
  9
$CMATERIAL
347
44
  9
$SOLIDHIST
280
     0
  9
$SHOWHIST
280
     1
  9
$DWFFRAME
280
     2
  9
$DGNFRAME
280
     2
  9
$REALWORLDSCALE
290
     1
  9
$INTERFERECOLOR
 62
   256
  9
$CSHADOW
280
     0
  9
$SHADOWPLANELOCATION
 40
0.0
  0
ENDSEC
  0
SECTION
  2
CLASSES
  0
CLASS
  1
ACDBDICTIONARYWDFLT
  2
AcDbDictionaryWithDefault
  3
ObjectDBX Classes
 90
        0
 91
        4
280
     0
281
     0
  0
CLASS
  1
VISUALSTYLE
  2
AcDbVisualStyle
  3
ObjectDBX Classes
 90
     4095
 91
        4
280
     0
281
     0
  0
CLASS
  1
MATERIAL
  2
AcDbMaterial
  3
ObjectDBX Classes
 90
     1153
 91
        4
280
     0
281
     0
  0
CLASS
  1
SCALE
  2
AcDbScale
  3
ObjectDBX Classes
 90
     1153
 91
        4
280
     0
281
     0
  0
CLASS
  1
TABLESTYLE
  2
AcDbTableStyle
  3
ObjectDBX Classes
 90
     4095
 91
        4
280
     0
281
     0
  0
CLASS
  1
MLEADERSTYLE
  2
AcDbMLeaderStyle
  3
ACDB_MLEADERSTYLE_CLASS
 90
     4095
 91
        4
280
     0
281
     0
  0
CLASS
  1
SUN
  2
AcDbSun
  3
SCENEOE
 90
     1153
 91
        4
280
     0
281
     0
  0
CLASS
  1
DICTIONARYVAR
  2
AcDbDictionaryVar
  3
ObjectDBX Classes
 90
        0
 91
        4
280
     0
281
     0
  0
CLASS
  1
CELLSTYLEMAP
  2
AcDbCellStyleMap
  3
ObjectDBX Classes
 90
     1152
 91
        4
280
     0
281
     0
  0
ENDSEC
  0
SECTION
  2
TABLES
  0
TABLE
  2
VPORT
  5
8
330
0
100
AcDbSymbolTable
 70
     1
  0
VPORT
  5
29
330
8
100
AcDbSymbolTableRecord
100
AcDbViewportTableRecord
  2
*Active
 70
     0
 10
0.0
 20
0.0
 11
1.0
 21
1.0
 12
12.51309872591116
 22
-4.007500000000022
 13
0.0
 23
0.0
 14
10.0
 24
10.0
 15
10.0
 25
10.0
 16
0.0
 26
0.0
 36
1.0
 17
0.0
 27
0.0
 37
0.0
 40
58.46130000000002
 41
2.745769912731006
 42
50.0
 43
0.0
 44
0.0
 50
0.0
 51
0.0
 71
     0
 72
   100
 73
     1
 74
     3
 75
     0
 76
     0
 77
     0
 78
     0
281
     0
 65
     1
110
0.0
120
0.0
130
0.0
111
1.0
121
0.0
131
0.0
112
0.0
122
1.0
132
0.0
 79
     0
146
0.0
348
2F
 60
     3
 61
     5
292
     1
282
     1
141
0.0
142
0.0
 63
   250
361
6D
  0
ENDTAB
  0
TABLE
  2
LTYPE
  5
5
330
0
100
AcDbSymbolTable
 70
     3
  0
LTYPE
  5
14
330
5
100
AcDbSymbolTableRecord
100
AcDbLinetypeTableRecord
  2
ByBlock
 70
     0
  3

 72
    65
 73
     0
 40
0.0
  0
LTYPE
  5
15
330
5
100
AcDbSymbolTableRecord
100
AcDbLinetypeTableRecord
  2
ByLayer
 70
     0
  3

 72
    65
 73
     0
 40
0.0
  0
LTYPE
  5
16
330
5
100
AcDbSymbolTableRecord
100
AcDbLinetypeTableRecord
  2
Continuous
 70
     0
  3
Solid line
 72
    65
 73
     0
 40
0.0
  0
LTYPE
  5
A7
330
5
100
AcDbSymbolTableRecord
100
AcDbLinetypeTableRecord
  2
Dashed
 70
     0
  3

 72
    65
 73
     2
 40
2.0
 49
1.0
 74
     0
 49
-1.0
 74
     0
  0
LTYPE
  5
DB
330
5
100
AcDbSymbolTableRecord
100
AcDbLinetypeTableRecord
  2
Center
 70
     0
  3

 72
    65
 73
     4
 40
1.5
 49
0.45
 74
     0
 49
-0.5
 74
     0
 49
0.05
 74
     0
 49
-0.5
 74
     0
  0
ENDTAB
  0
TABLE
  2
LAYER
  5
2
330
0
100
AcDbSymbolTable
 70
     7
  0
LAYER
  5
10
330
2
100
AcDbSymbolTableRecord
100
AcDbLayerTableRecord
  2
0
 70
     0
 62
     7
  6
Continuous
370
    -3
390
F
347
46
348
0
  0
LAYER
  5
72
330
2
100
AcDbSymbolTableRecord
100
AcDbLayerTableRecord
  2
AM_6
 70
     0
 62
    -2
  6
Continuous
370
    35
390
F
347
46
348
0
  0
LAYER
  5
A8
330
2
100
AcDbSymbolTableRecord
100
AcDbLayerTableRecord
  2
AM_9
 70
     0
 62
     6
  6
Dashed
370
    25
390
F
347
46
348
0
  0
LAYER
  5
D6
330
2
100
AcDbSymbolTableRecord
100
AcDbLayerTableRecord
  2
AM_5
 70
     0
 62
     3
  6
Continuous
370
    25
390
F
347
46
348
0
  0
LAYER
  5
DC
330
2
100
AcDbSymbolTableRecord
100
AcDbLayerTableRecord
  2
AM_7
 70
     0
 62
     7
  6
Center
370
    25
390
F
347
46
348
0
  0
LAYER
  5
E0
330
2
100
AcDbSymbolTableRecord
100
AcDbLayerTableRecord
  2
AM_4
 70
     0
 62
     7
  6
Continuous
370
    50
390
F
347
46
348
0
  0
LAYER
  5
1E1
330
2
100
AcDbSymbolTableRecord
100
AcDbLayerTableRecord
  2
ConnectionPoints
 70
     0
 62
     7
  6
Continuous
370
    50
390
F
347
46
348
0
  0
ENDTAB
  0
TABLE
  2
STYLE
  5
3
330
0
100
AcDbSymbolTable
 70
     1
  0
STYLE
  5
11
330
3
100
AcDbSymbolTableRecord
100
AcDbTextStyleTableRecord
  2
Standard
 70
     0
 40
0.0
 41
1.0
 50
0.0
 71
     0
 42
2.5
  3
txt
  4

  0
ENDTAB
  0
TABLE
  2
VIEW
  5
6
330
0
100
AcDbSymbolTable
 70
     0
  0
ENDTAB
  0
TABLE
  2
UCS
  5
7
330
0
100
AcDbSymbolTable
 70
     0
  0
ENDTAB
  0
TABLE
  2
APPID
  5
9
330
0
100
AcDbSymbolTable
 70
     1
  0
APPID
  5
12
330
9
100
AcDbSymbolTableRecord
100
AcDbRegAppTableRecord
  2
ACAD
 70
     0
  0
ENDTAB
  0
TABLE
  2
DIMSTYLE
  5
A
330
0
100
AcDbSymbolTable
 70
     1
100
AcDbDimStyleTable
  0
DIMSTYLE
105
27
330
A
100
AcDbSymbolTableRecord
100
AcDbDimStyleTableRecord
  2
ISO-25
 70
     0
 41
2.5
 42
0.625
 43
3.75
 44
1.25
 73
     0
 74
     0
 77
     1
 78
     8
140
2.5
141
2.5
143
0.03937007874016
147
0.625
171
     3
172
     1
178
     0
271
     2
272
     2
274
     3
278
    44
283
     0
284
     8
340
11
  0
ENDTAB
  0
TABLE
  2
BLOCK_RECORD
  5
1
330
0
100
AcDbSymbolTable
 70
     5
  0
BLOCK_RECORD
  5
1F
330
1
100
AcDbSymbolTableRecord
100
AcDbBlockTableRecord
  2
*Model_Space
340
22
 70
     0
280
     1
281
     0
  0
BLOCK_RECORD
  5
1B
330
1
100
AcDbSymbolTableRecord
100
AcDbBlockTableRecord
  2
*Paper_Space
340
1E
 70
     0
280
     1
281
     0
  0
BLOCK_RECORD
  5
23
330
1
100
AcDbSymbolTableRecord
100
AcDbBlockTableRecord
  2
*Paper_Space0
340
26
 70
     0
280
     1
281
     0
  0
BLOCK_RECORD
  5
6E
330
1
100
AcDbSymbolTableRecord
100
AcDbBlockTableRecord
  2
1_125916_4
340
0
102
{BLKREFS
331
6F
102
}
 70
     0
280
     1
281
     0
  0
BLOCK_RECORD
  5
90
330
1
100
AcDbSymbolTableRecord
100
AcDbBlockTableRecord
  2
2_125814_0_in_125916_4
340
0
102
{BLKREFS
331
91
102
}
 70
     0
280
     1
281
     0
  0
BLOCK_RECORD
  5
EE
330
1
100
AcDbSymbolTableRecord
100
AcDbBlockTableRecord
  2
3_405016_Metric_0_in_125916_4
340
0
102
{BLKREFS
331
EF
102
}
 70
     0
280
     1
281
     0
  0
BLOCK_RECORD
  5
17E
330
1
100
AcDbSymbolTableRecord
100
AcDbBlockTableRecord
  2
4_125916H_0_in_125916_4
340
0
102
{BLKREFS
331
17F
102
}
 70
     0
280
     1
281
     0
  0
ENDTAB
  0
ENDSEC
  0
SECTION
  2
BLOCKS
  0
BLOCK
  5
20
330
1F
100
AcDbEntity
  8
0
100
AcDbBlockBegin
  2
*Model_Space
 70
     0
 10
0.0
 20
0.0
 30
0.0
  3
*Model_Space
  1

  0
ENDBLK
  5
21
330
1F
100
AcDbEntity
  8
0
100
AcDbBlockEnd
  0
BLOCK
  5
1C
330
1B
100
AcDbEntity
 67
     1
  8
0
100
AcDbBlockBegin
  2
*Paper_Space
 70
     0
 10
0.0
 20
0.0
 30
0.0
  3
*Paper_Space
  1

  0
ENDBLK
  5
1D
330
1B
100
AcDbEntity
 67
     1
  8
0
100
AcDbBlockEnd
  0
BLOCK
  5
24
330
23
100
AcDbEntity
  8
0
100
AcDbBlockBegin
  2
*Paper_Space0
 70
     0
 10
0.0
 20
0.0
 30
0.0
  3
*Paper_Space0
  1

  0
ENDBLK
  5
25
330
23
100
AcDbEntity
  8
0
100
AcDbBlockEnd
  0
BLOCK
  5
70
330
6E
100
AcDbEntity
  8
0
100
AcDbBlockBegin
  2
1_125916_4
 70
     2
 10
0.0
 20
0.0
 30
0.0
  3
1_125916_4
  1

  0
ATTDEF
  5
73
330
6E
100
AcDbEntity
  8
AM_6
100
AcDbText
 10
96.2
 20
24.65
 30
0.0
 40
0.5
  1
Set Screw Wide Slot Take Up Metric Bore
100
AcDbAttributeDefinition
  3

  2
NN
 70
     8
280
     0
  0
ATTDEF
  5
74
330
6E
100
AcDbEntity
  8
AM_6
100
AcDbText
 10
96.2
 20
24.15
 30
0.0
 40
0.5
  1
SC Take-Up Bearings -Wide Slot -(Normal Duty)
100
AcDbAttributeDefinition
  3

  2
NT
 70
     8
280
     0
  0
ATTDEF
  5
75
330
6E
100
AcDbEntity
  8
AM_6
100
AcDbText
 10
96.2
 20
23.65
 30
0.0
 40
0.5
  1
125916
100
AcDbAttributeDefinition
  3

  2
NB
 70
     8
280
     0
  0
ATTDEF
  5
76
330
6E
100
AcDbEntity
  8
AM_6
100
AcDbText
 10
96.2
 20
23.15
 30
0.0
 40
0.5
  1
$PN.
100
AcDbAttributeDefinition
  3

  2
NBSYN
 70
     8
280
     0
  0
ATTDEF
  5
77
330
6E
100
AcDbEntity
  8
AM_6
100
AcDbText
 10
96.2
 20
22.65
 30
0.0
 40
0.5
  1
125916
100
AcDbAttributeDefinition
  3

  2
LINA
 70
     8
280
     0
  0
ATTDEF
  5
78
330
6E
100
AcDbEntity
  8
AM_6
100
AcDbText
 10
96.2
 20
22.15
 30
0.0
 40
0.5
  1
210
100
AcDbAttributeDefinition
  3

  2
SERIES
 70
     8
280
     0
  0
ATTDEF
  5
79
330
6E
100
AcDbEntity
  8
AM_6
100
AcDbText
 10
96.2
 20
21.65
 30
0.0
 40
0.5
  1
50
100
AcDbAttributeDefinition
  3

  2
SS
 70
     8
280
     0
  0
ATTDEF
  5
7A
330
6E
100
AcDbEntity
  8
AM_6
100
AcDbText
 10
96.2
 20
21.15
 30
0.0
 40
0.5
  1
125916
100
AcDbAttributeDefinition
  3

  2
PN
 70
     8
280
     0
  0
ATTDEF
  5
7B
330
6E
100
AcDbEntity
  8
AM_6
100
AcDbText
 10
96.2
 20
20.65
 30
0.0
 40
0.5
  1
WSTU-SC-50M
100
AcDbAttributeDefinition
  3

  2
DESCRIPTION
 70
     8
280
     0
  0
ATTDEF
  5
7C
330
6E
100
AcDbEntity
  8
AM_6
100
AcDbText
 10
96.2
 20
20.15
 30
0.0
 40
0.5
  1
2.9
100
AcDbAttributeDefinition
  3

  2
W
 70
     8
280
     0
  0
ATTDEF
  5
7D
330
6E
100
AcDbEntity
  8
AM_6
100
AcDbText
 10
96.2
 20
19.65
 30
0.0
 40
0.5
  1
WS400
100
AcDbAttributeDefinition
  3

  2
FS
 70
     8
280
     0
  0
ATTDEF
  5
7E
330
6E
100
AcDbEntity
  8
AM_6
100
AcDbText
 10
96.2
 20
19.15
 30
0.0
 40
0.5
  1
RE-LUBE
100
AcDbAttributeDefinition
  3

  2
LF
 70
     8
280
     0
  0
ATTDEF
  5
7F
330
6E
100
AcDbEntity
  8
AM_6
100
AcDbText
 10
96.2
 20
18.65
 30
0.0
 40
0.5
  1
49.3
100
AcDbAttributeDefinition
  3

  2
A
 70
     8
280
     0
  0
ATTDEF
  5
80
330
6E
100
AcDbEntity
  8
AM_6
100
AcDbText
 10
96.2
 20
18.15
 30
0.0
 40
0.5
  1
147.8
100
AcDbAttributeDefinition
  3

  2
B
 70
     8
280
     0
  0
ATTDEF
  5
81
330
6E
100
AcDbEntity
  8
AM_6
100
AcDbText
 10
96.2
 20
17.65
 30
0.0
 40
0.5
  1
17.48
100
AcDbAttributeDefinition
  3

  2
C
 70
     8
280
     0
  0
ATTDEF
  5
82
330
6E
100
AcDbEntity
  8
AM_6
100
AcDbText
 10
96.2
 20
17.15
 30
0.0
 40
0.5
  1
85.9
100
AcDbAttributeDefinition
  3

  2
D
 70
     8
280
     0
  0
ATTDEF
  5
83
330
6E
100
AcDbEntity
  8
AM_6
100
AcDbText
 10
96.2
 20
16.65
 30
0.0
 40
0.5
  1
90.4
100
AcDbAttributeDefinition
  3

  2
E
 70
     8
280
     0
  0
ATTDEF
  5
84
330
6E
100
AcDbEntity
  8
AM_6
100
AcDbText
 10
96.2
 20
16.15
 30
0.0
 40
0.5
  1
25.4
100
AcDbAttributeDefinition
  3

  2
F
 70
     8
280
     0
  0
ATTDEF
  5
85
330
6E
100
AcDbEntity
  8
AM_6
100
AcDbText
 10
96.2
 20
15.65
 30
0.0
 40
0.5
  1
16.0
100
AcDbAttributeDefinition
  3

  2
G
 70
     8
280
     0
  0
ATTDEF
  5
86
330
6E
100
AcDbEntity
  8
AM_6
100
AcDbText
 10
96.2
 20
15.15
 30
0.0
 40
0.5
  1
19.1
100
AcDbAttributeDefinition
  3

  2
H
 70
     8
280
     0
  0
ATTDEF
  5
87
330
6E
100
AcDbEntity
  8
AM_6
100
AcDbText
 10
96.2
 20
14.65
 30
0.0
 40
0.5
  1
82.6
100
AcDbAttributeDefinition
  3

  2
J
 70
     8
280
     0
  0
ATTDEF
  5
88
330
6E
100
AcDbEntity
  8
AM_6
100
AcDbText
 10
96.2
 20
14.15
 30
0.0
 40
0.5
  1
49.3
100
AcDbAttributeDefinition
  3

  2
K
 70
     8
280
     0
  0
ATTDEF
  5
89
330
6E
100
AcDbEntity
  8
AM_6
100
AcDbText
 10
96.2
 20
13.65
 30
0.0
 40
0.5
  1
61.7
100
AcDbAttributeDefinition
  3

  2
L
 70
     8
280
     0
  0
ATTDEF
  5
8A
330
6E
100
AcDbEntity
  8
AM_6
100
AcDbText
 10
96.2
 20
13.15
 30
0.0
 40
0.5
  1
101.22/101.98
100
AcDbAttributeDefinition
  3

  2
M
 70
     8
280
     0
  0
ATTDEF
  5
8B
330
6E
100
AcDbEntity
  8
AM_6
100
AcDbText
 10
96.2
 20
12.65
 30
0.0
 40
0.5
  1
120.7
100
AcDbAttributeDefinition
  3

  2
N
 70
     8
280
     0
  0
ATTDEF
  5
8C
330
6E
100
AcDbEntity
  8
AM_6
100
AcDbText
 10
96.2
 20
12.15
 30
0.0
 40
0.5
  1
19.1
100
AcDbAttributeDefinition
  3

  2
R
 70
     8
280
     0
  0
ATTDEF
  5
8D
330
6E
100
AcDbEntity
  8
AM_6
100
AcDbText
 10
96.2
 20
11.65
 30
0.0
 40
0.5
  1
30.2
100
AcDbAttributeDefinition
  3

  2
S
 70
     8
280
     0
  0
ATTDEF
  5
8E
330
6E
100
AcDbEntity
  8
AM_6
100
AcDbText
 10
96.2
 20
11.15
 30
0.0
 40
0.5
  1
49.3
100
AcDbAttributeDefinition
  3

  2
T
 70
     8
280
     0
  0
ATTDEF
  5
8F
330
6E
100
AcDbEntity
  8
AM_6
100
AcDbText
 10
96.2
 20
10.65
 30
0.0
 40
0.5
  1
baldor
100
AcDbAttributeDefinition
  3

  2
COMPANY
 70
     8
280
     0
  0
INSERT
  5
91
330
6E
100
AcDbEntity
  8
0
100
AcDbBlockReference
  2
2_125814_0_in_125916_4
 10
0.0
 20
0.0
 30
0.0
  0
INSERT
  5
EF
330
6E
100
AcDbEntity
  8
0
100
AcDbBlockReference
  2
3_405016_Metric_0_in_125916_4
 10
0.0
 20
0.0
 30
0.0
  0
INSERT
  5
17F
330
6E
100
AcDbEntity
  8
0
100
AcDbBlockReference
  2
4_125916H_0_in_125916_4
 10
0.0
 20
0.0
 30
0.0
  0
ENDBLK
  5
71
330
6E
100
AcDbEntity
  8
0
100
AcDbBlockEnd
  0
BLOCK
  5
92
330
90
100
AcDbEntity
  8
0
100
AcDbBlockBegin
  2
2_125814_0_in_125916_4
 70
     2
 10
0.0
 20
0.0
 30
0.0
  3
2_125814_0_in_125916_4
  1

  0
ATTDEF
  5
94
330
90
100
AcDbEntity
  8
AM_6
100
AcDbText
 10
49.99121541260941
 20
21.56499999999999
 30
0.0
 40
0.5
  1
Set Screw Insert Metric Bore - Stainless Steel
100
AcDbAttributeDefinition
  3

  2
NN
 70
     8
280
     0
  0
ATTDEF
  5
95
330
90
100
AcDbEntity
  8
AM_6
100
AcDbText
 10
49.99121541260941
 20
21.06499999999999
 30
0.0
 40
0.5
  1
SC Bearing Insert -Metric
100
AcDbAttributeDefinition
  3

  2
NT
 70
     8
280
     0
  0
ATTDEF
  5
96
330
90
100
AcDbEntity
  8
AM_6
100
AcDbText
 10
49.99121541260941
 20
20.56499999999999
 30
0.0
 40
0.5
  1
125814
100
AcDbAttributeDefinition
  3

  2
NB
 70
     8
280
     0
  0
ATTDEF
  5
97
330
90
100
AcDbEntity
  8
AM_6
100
AcDbText
 10
49.99121541260941
 20
20.06499999999999
 30
0.0
 40
0.5
  1
$PN.
100
AcDbAttributeDefinition
  3

  2
NBSYN
 70
     8
280
     0
  0
ATTDEF
  5
98
330
90
100
AcDbEntity
  8
AM_6
100
AcDbText
 10
49.99121541260941
 20
19.56499999999999
 30
0.0
 40
0.5
  1
125814
100
AcDbAttributeDefinition
  3

  2
LINA
 70
     8
280
     0
  0
ATTDEF
  5
99
330
90
100
AcDbEntity
  8
AM_6
100
AcDbText
 10
49.99121541260941
 20
19.06499999999999
 30
0.0
 40
0.5
  1
210
100
AcDbAttributeDefinition
  3

  2
SERIES
 70
     8
280
     0
  0
ATTDEF
  5
9A
330
90
100
AcDbEntity
  8
AM_6
100
AcDbText
 10
49.99121541260941
 20
18.56499999999999
 30
0.0
 40
0.5
  1
50
100
AcDbAttributeDefinition
  3

  2
SS
 70
     8
280
     0
  0
ATTDEF
  5
9B
330
90
100
AcDbEntity
  8
AM_6
100
AcDbText
 10
49.99121541260941
 20
18.06499999999999
 30
0.0
 40
0.5
  1
125814
100
AcDbAttributeDefinition
  3

  2
PN
 70
     8
280
     0
  0
ATTDEF
  5
9C
330
90
100
AcDbEntity
  8
AM_6
100
AcDbText
 10
49.99121541260941
 20
17.56499999999999
 30
0.0
 40
0.5
  1
INS-SC-50
100
AcDbAttributeDefinition
  3

  2
DESCRIPTION
 70
     8
280
     0
  0
ATTDEF
  5
9D
330
90
100
AcDbEntity
  8
AM_6
100
AcDbText
 10
49.99121541260941
 20
17.06499999999999
 30
0.0
 40
0.5
  1
0.67
100
AcDbAttributeDefinition
  3

  2
WEIGHT
 70
     8
280
     0
  0
ATTDEF
  5
9E
330
90
100
AcDbEntity
  8
AM_6
100
AcDbText
 10
49.99121541260941
 20
16.56499999999999
 30
0.0
 40
0.5
  1
49.3
100
AcDbAttributeDefinition
  3

  2
A
 70
     8
280
     0
  0
ATTDEF
  5
9F
330
90
100
AcDbEntity
  8
AM_6
100
AcDbText
 10
49.99121541260941
 20
16.06499999999999
 30
0.0
 40
0.5
  1
22.1
100
AcDbAttributeDefinition
  3

  2
C
 70
     8
280
     0
  0
ATTDEF
  5
A0
330
90
100
AcDbEntity
  8
AM_6
100
AcDbText
 10
49.99121541260941
 20
15.56499999999999
 30
0.0
 40
0.5
  1
90
100
AcDbAttributeDefinition
  3

  2
D
 70
     8
280
     0
  0
ATTDEF
  5
A1
330
90
100
AcDbEntity
  8
AM_6
100
AcDbText
 10
49.99121541260941
 20
15.06499999999999
 30
0.0
 40
0.5
  1
6.4
100
AcDbAttributeDefinition
  3

  2
J
 70
     8
280
     0
  0
ATTDEF
  5
A2
330
90
100
AcDbEntity
  8
AM_6
100
AcDbText
 10
49.99121541260941
 20
14.56499999999999
 30
0.0
 40
0.5
  1
61.7
100
AcDbAttributeDefinition
  3

  2
L
 70
     8
280
     0
  0
ATTDEF
  5
A3
330
90
100
AcDbEntity
  8
AM_6
100
AcDbText
 10
49.99121541260941
 20
14.06499999999999
 30
0.0
 40
0.5
  1
M10 x 1.5
100
AcDbAttributeDefinition
  3

  2
N
 70
     8
280
     0
  0
ATTDEF
  5
A4
330
90
100
AcDbEntity
  8
AM_6
100
AcDbText
 10
49.99121541260941
 20
13.56499999999999
 30
0.0
 40
0.5
  1
19.1
100
AcDbAttributeDefinition
  3

  2
W
 70
     8
280
     0
  0
ATTDEF
  5
A5
330
90
100
AcDbEntity
  8
AM_6
100
AcDbText
 10
49.99121541260941
 20
13.06499999999999
 30
0.0
 40
0.5
  1
30.2
100
AcDbAttributeDefinition
  3

  2
Y
 70
     8
280
     0
  0
ATTDEF
  5
A6
330
90
100
AcDbEntity
  8
AM_6
100
AcDbText
 10
49.99121541260941
 20
12.56499999999999
 30
0.0
 40
0.5
  1
baldor
100
AcDbAttributeDefinition
  3

  2
COMPANY
 70
     8
280
     0
  0
LINE
  5
A9
330
90
100
AcDbEntity
  8
AM_9
100
AcDbLine
 10
10.56446686317473
 20
-24.813
 30
0.0
 11
12.86539465741852
 21
-24.813
 31
0.0
  0
LINE
  5
AA
330
90
100
AcDbEntity
  8
AM_9
100
AcDbLine
 10
12.86539465741852
 20
-16.437
 30
0.0
 11
10.56519575184594
 21
-16.437
 31
0.0
  0
LWPOLYLINE
  5
AB
330
90
100
AcDbEntity
  8
AM_9
100
AcDbPolyline
 90
        7
 70
     0
 43
0.0
 10
8.00149160679403
 20
-17.47325647894643
 10
8.096333690914504
 20
-17.38881957971778
 10
8.648337505487095
 20
-16.98768968136296
 10
9.250017224290108
 20
-16.68953044448144
 10
9.880423719761913
 20
-16.50524946429557
 10
10.52275552431759
 20
-16.43726480166354
 10
10.56521309535244
 20
-16.43700000861435
  0
LWPOLYLINE
  5
AC
330
90
100
AcDbEntity
  8
AM_9
100
AcDbPolyline
 90
       16
 70
     0
 43
0.0
 10
10.56576396975191
 20
-24.81299998626286
 10
10.14966114546061
 20
-24.78800944542597
 10
9.521185197913441
 20
-24.65441804025661
 10
8.91476428587815
 20
-24.41054268300072
 10
8.346270494367035
 20
-24.06015144416181
 10
7.835146305120088
 20
-23.61533308590081
 10
7.393156154869244
 20
-23.08008234194875
 10
7.040304200982202
 20
-22.4751354341345
 10
6.789769636484495
 20
-21.81562142621343
 10
6.649429832877838
 20
-21.12161285746922
 10
6.625827373481611
 20
-20.42148953242582
 10
6.715693724502054
 20
-19.72716476848986
 10
6.915788747183159
 20
-19.06289426673794
 10
7.217722333044055
 20
-18.4420261551753
 10
7.616775284880985
 20
-17.87718892966953
 10
8.00149160679403
 20
-17.47325647894643
  0
LWPOLYLINE
  5
AD
330
90
100
AcDbEntity
  8
AM_9
100
AcDbPolyline
 90
        7
 70
     0
 43
0.0
 10
12.99676063111276
 20
-17.46950232878815
 10
13.26849811006609
 20
-17.77782700964834
 10
13.63703989922747
 20
-18.3315553590603
 10
13.92057865974331
 20
-18.95535418708649
 10
14.11103536901609
 20
-19.62736792744857
 10
14.18642173263446
 20
-20.12247325979284
 10
14.21176968358908
 20
-20.625
  0
LWPOLYLINE
  5
AE
330
90
100
AcDbEntity
  8
AM_9
100
AcDbPolyline
 90
        6
 70
     0
 43
0.0
 10
10.56521309535244
 20
-16.43700000861435
 10
11.15015987693339
 20
-16.4880413148835
 10
11.75328043449051
 20
-16.65281282552977
 10
12.31492407892907
 20
-16.92784285352385
 10
12.82264879682211
 20
-17.30390444502207
 10
12.99676063111276
 20
-17.46950232878815
  0
LINE
  5
AF
330
90
100
AcDbEntity
  8
AM_9
100
AcDbLine
 10
25.0
 20
-24.813
 30
0.0
 11
30.44211720626539
 21
-24.813
 31
0.0
  0
LINE
  5
B0
330
90
100
AcDbEntity
  8
AM_9
100
AcDbLine
 10
30.44211720626539
 20
-16.437
 30
0.0
 11
24.99808322449284
 21
-16.437
 31
0.0
  0
LINE
  5
B1
330
90
100
AcDbEntity
  8
AM_9
100
AcDbLine
 10
30.44211720626539
 20
-24.813
 30
0.0
 11
30.84999999999999
 21
-25.2208827937346
 31
0.0
  0
LINE
  5
B2
330
90
100
AcDbEntity
  8
AM_9
100
AcDbLine
 10
30.84999999999999
 20
-16.0291172062654
 30
0.0
 11
30.44211720626539
 21
-16.437
 31
0.0
  0
LINE
  5
B3
330
90
100
AcDbEntity
  8
AM_9
100
AcDbLine
 10
30.44211720626539
 20
-16.437
 30
0.0
 11
30.44211720626539
 21
-24.813
 31
0.0
  0
LWPOLYLINE
  5
B4
330
90
100
AcDbEntity
  8
AM_9
100
AcDbPolyline
 90
       11
 70
     0
 43
0.0
 10
14.21176968358908
 20
-20.625
 10
14.16259507318919
 20
-21.32249251336026
 10
14.01750834569484
 20
-22.0001895091828
 10
13.77874845317391
 20
-22.63825409057474
 10
13.45277535687263
 20
-23.2201745295535
 10
13.04171478176035
 20
-23.73349512795822
 10
12.55834979179475
 20
-24.15976548687559
 10
12.00947414838916
 20
-24.48744694431534
 10
11.41238036086761
 20
-24.70550612456223
 10
10.78829539920131
 20
-24.80529947501603
 10
10.56576396975191
 20
-24.81299998626286
  0
LINE
  5
B5
330
90
100
AcDbEntity
  8
AM_9
100
AcDbLine
 10
25.0
 20
-28.966
 30
0.0
 11
25.0
 21
-24.813
 31
0.0
  0
LINE
  5
B6
330
90
100
AcDbEntity
  8
AM_9
100
AcDbLine
 10
25.0
 20
-16.44848689120392
 30
0.0
 11
25.0
 21
17.866
 31
0.0
  0
LINE
  5
B7
330
90
100
AcDbEntity
  8
AM_9
100
AcDbLine
 10
-25.0
 20
17.866
 30
0.0
 11
-25.0
 21
-28.966
 31
0.0
  0
LWPOLYLINE
  5
B8
330
90
100
AcDbEntity
  8
AM_9
100
AcDbPolyline
 90
       21
 70
     0
 43
0.0
 10
24.99999999999726
 20
-16.43700000001633
 10
24.99925421310089
 20
-16.44145422981387
 10
24.9838801698325
 20
-16.53432617524329
 10
24.95170325163876
 20
-16.73567625957415
 10
24.90448587421035
 20
-17.05110007712263
 10
24.8492970730787
 20
-17.45847050761916
 10
24.78963400824013
 20
-17.96693712217041
 10
24.73466346901441
 20
-18.54103240778664
 10
24.68829140654077
 20
-19.19284198697398
 10
24.65845110098906
 20
-19.86437216730626
 10
24.64676130223236
 20
-20.57823795108841
 10
24.65501124177328
 20
-21.26447113458426
 10
24.68241753760968
 20
-21.95205670598573
 10
24.72436037245934
 20
-22.58289167913796
 10
24.77838965655641
 20
-23.17606604621318
 10
24.83644641767682
 20
-23.68905199990661
 10
24.89456257700905
 20
-24.12908189125475
 10
24.94352005293968
 20
-24.46147450550684
 10
24.9800779222326
 20
-24.69238699914484
 10
24.99487114857346
 20
-24.7822740748945
 10
25.0
 20
-24.813
  0
LINE
  5
B9
330
90
100
AcDbEntity
  8
AM_9
100
AcDbLine
 10
25.0
 20
17.866
 30
0.0
 11
26.23400000000004
 21
19.09999999999999
 31
0.0
  0
LINE
  5
BA
330
90
100
AcDbEntity
  8
AM_9
100
AcDbLine
 10
-26.23400000000004
 20
19.09999999999999
 30
0.0
 11
-25.0
 21
17.866
 31
0.0
  0
LINE
  5
BB
330
90
100
AcDbEntity
  8
AM_9
100
AcDbLine
 10
-25.0
 20
-28.966
 30
0.0
 11
-26.23400000000004
 21
-30.2
 31
0.0
  0
LINE
  5
BC
330
90
100
AcDbEntity
  8
AM_9
100
AcDbLine
 10
26.23400000000004
 20
-30.2
 30
0.0
 11
25.0
 21
-28.966
 31
0.0
  0
LINE
  5
BD
330
90
100
AcDbEntity
  8
AM_9
100
AcDbLine
 10
30.84999999999998
 20
11.05
 30
0.0
 11
30.84999999999998
 21
17.47999999999999
 31
0.0
  0
LINE
  5
BE
330
90
100
AcDbEntity
  8
AM_9
100
AcDbLine
 10
-30.84999999999998
 20
17.47999999999999
 30
0.0
 11
-30.84999999999998
 21
11.05
 31
0.0
  0
LWPOLYLINE
  5
BF
330
90
100
AcDbEntity
  8
AM_9
100
AcDbPolyline
 90
        7
 70
     0
 43
0.0
 10
30.69449671007714
 20
-17.43962742794373
 10
30.73817696316189
 20
-16.98909365878664
 10
30.77979005752973
 20
-16.60571016941082
 10
30.81699224401869
 20
-16.2909096019971
 10
30.84196746720351
 20
-16.0914773889579
 10
30.84998929105832
 20
-16.02919980001387
 10
30.84999999999985
 20
-16.02911720626649
  0
LWPOLYLINE
  5
C0
330
90
100
AcDbEntity
  8
AM_9
100
AcDbPolyline
 90
       39
 70
     0
 43
0.0
 10
12.84687517887843
 20
-16.03464885026331
 10
12.22664300670395
 20
-16.12945592890172
 10
11.62400367324368
 20
-16.33645507622363
 10
11.06351649317233
 20
-16.64451807679066
 10
10.55122562203373
 20
-17.04354241904556
 10
10.07722031968127
 20
-17.55029590589655
 10
9.681243606389877
 20
-18.12933784783317
 10
9.355409488972814
 20
-18.8105486793317
 10
9.135922988731933
 20
-19.53762242705153
 10
9.026852757032813
 20
-20.32975585282896
 10
9.043032279162665
 20
-21.12990997088472
 10
9.189855777820682
 20
-21.93163697388806
 10
9.46275009803803
 20
-22.69600163604389
 10
9.852840952840907
 20
-23.39415111936883
 10
10.34947513309307
 20
-24.01014066842959
 10
10.91481022234481
 20
-24.50222042421369
 10
11.54825401194452
 20
-24.87882529436514
 10
12.1820910670103
 20
-25.10910287704196
 10
12.83698006226285
 20
-25.21476361573858
 10
13.45154740312673
 20
-25.19408450150457
 10
14.04814340467926
 20
-25.06007979003914
 10
14.60327033614249
 20
-24.82021815273092
 10
15.11242076033396
 20
-24.48374588481943
 10
15.582195703723
 20
-24.04132786064409
 10
15.98282052146186
 20
-23.51989177486681
 10
16.32657747577922
 20
-22.89168535262126
 10
16.57998975215757
 20
-22.2076557908734
 10
16.74517564960787
 20
-21.44241432440741
 10
16.80363986355292
 20
-20.65544392240591
 10
16.75031073365648
 20
-19.84442790706694
 10
16.58379025652797
 20
-19.05539975546545
 10
16.30447148549665
 20
-18.31060075036605
 10
15.91807999242835
 20
-17.63375054906496
 10
15.44488538109894
 20
-17.06402966664295
 10
14.88628403378572
 20
-16.60093860123503
 10
14.29497623203129
 20
-16.28233762980867
 10
13.65599755077048
 20
-16.08826377574736
 10
13.25417757086215
 20
-16.03636909449063
 10
12.84687504722639
 20
-16.03464870453574
  0
LINE
  5
C1
330
90
100
AcDbEntity
  8
AM_9
100
AcDbLine
 10
30.84999999999999
 20
-16.03129606317696
 30
0.0
 11
30.84999999999999
 21
-11.05
 31
0.0
  0
LINE
  5
C2
330
90
100
AcDbEntity
  8
AM_9
100
AcDbLine
 10
-30.84999999999999
 20
-11.05
 30
0.0
 11
-30.84999999999999
 21
-17.48000000000001
 31
0.0
  0
LINE
  5
C3
330
90
100
AcDbEntity
  8
AM_9
100
AcDbLine
 10
30.6990293576688
 20
-17.39001197271071
 30
0.0
 11
30.67179883995407
 21
-17.70050772009249
 31
0.0
  0
LINE
  5
C4
330
90
100
AcDbEntity
  8
AM_9
100
AcDbLine
 10
30.69106958958598
 20
-17.47765206806365
 30
0.0
 11
30.69449671007714
 21
-17.43962742794373
 31
0.0
  0
LINE
  5
C5
330
90
100
AcDbEntity
  8
AM_9
100
AcDbLine
 10
42.78999999999994
 20
-7.233333333333334
 30
0.0
 11
42.78999999999994
 21
-4.286666666666664
 31
0.0
  0
LINE
  5
C6
330
90
100
AcDbEntity
  8
AM_9
100
AcDbLine
 10
-42.78999999999994
 20
-4.286666666666664
 30
0.0
 11
-42.78999999999994
 21
-7.233333333333334
 31
0.0
  0
LINE
  5
C7
330
90
100
AcDbEntity
  8
AM_9
100
AcDbLine
 10
-42.19396883195163
 20
11.05
 30
0.0
 11
42.19396883195163
 21
11.05
 31
0.0
  0
ARC
  5
C8
330
90
100
AcDbEntity
  8
AM_9
100
AcDbCircle
 10
42.19396883195162
 20
10.16599999999999
 30
0.0
 40
0.8840000000000089
100
AcDbArc
 50
21.41247877657344
 51
90.0
  0
ARC
  5
C9
330
90
100
AcDbEntity
  8
AM_9
100
AcDbCircle
 10
-42.19396883195139
 20
10.16599999999966
 30
0.0
 40
0.8840000000003432
100
AcDbArc
 50
90.0
 51
158.5875212234118
  0
LINE
  5
CA
330
90
100
AcDbEntity
  8
AM_9
100
AcDbLine
 10
-42.1939688319516
 20
-11.05
 30
0.0
 11
42.1939688319516
 21
-11.05
 31
0.0
  0
ARC
  5
CB
330
90
100
AcDbEntity
  8
AM_9
100
AcDbCircle
 10
42.19396883195137
 20
-10.16599999999965
 30
0.0
 40
0.8840000000003521
100
AcDbArc
 50
270.0
 51
338.5875329531002
  0
ARC
  5
CC
330
90
100
AcDbEntity
  8
AM_9
100
AcDbCircle
 10
-42.1939688319516
 20
-10.16599999999998
 30
0.0
 40
0.8840000000000177
100
AcDbArc
 50
201.412467046885
 51
270.0
  0
ARC
  5
CD
330
90
100
AcDbEntity
  8
AM_9
100
AcDbCircle
 10
16.270000000002
 20
-0.0000000000006501
 30
0.0
 40
28.72999999999788
100
AcDbArc
 50
338.5875329531157
 51
345.4177622541455
  0
ARC
  5
CE
330
90
100
AcDbEntity
  8
AM_9
100
AcDbCircle
 10
-16.26999999999963
 20
0.0000000000001172
 30
0.0
 40
28.73000000000037
100
AcDbArc
 50
194.5822377458548
 51
201.412467046884
  0
LINE
  5
CF
330
90
100
AcDbEntity
  8
AM_9
100
AcDbLine
 10
-43.01695196947389
 20
-10.48873015873016
 30
0.0
 11
43.01695196947389
 21
-10.48873015873016
 31
0.0
  0
LINE
  5
D0
330
90
100
AcDbEntity
  8
AM_9
100
AcDbLine
 10
-44.07452820834922
 20
-7.233333333333334
 30
0.0
 11
44.07452820834922
 21
-7.233333333333334
 31
0.0
  0
ARC
  5
D1
330
90
100
AcDbEntity
  8
AM_9
100
AcDbCircle
 10
16.27000000000032
 20
0.0000000000000193
 30
0.0
 40
28.72999999999967
100
AcDbArc
 50
351.4191278814025
 51
21.41246740779779
  0
ARC
  5
D2
330
90
100
AcDbEntity
  8
AM_9
100
AcDbCircle
 10
-16.27000000000239
 20
0.0000000000002487
 30
0.0
 40
28.72999999999766
100
AcDbArc
 50
158.5875325922012
 51
188.5808721185985
  0
LINE
  5
D3
330
90
100
AcDbEntity
  8
AM_9
100
AcDbLine
 10
-44.67840349067311
 20
-4.286666666666668
 30
0.0
 11
44.67840349067311
 21
-4.286666666666668
 31
0.0
  0
LINE
  5
D4
330
90
100
AcDbEntity
  8
AM_9
100
AcDbLine
 10
-43.01695190340402
 20
10.48873032721265
 30
0.0
 11
43.01695190340402
 21
10.48873032721265
 31
0.0
  0
CIRCLE
  5
D5
330
90
100
AcDbEntity
  8
AM_9
100
AcDbCircle
 10
-0.0000000000000029
 20
6.400000000000003
 30
0.0
 40
0.2009090909090882
  0
LINE
  5
D7
330
90
100
AcDbEntity
  8
AM_5
100
AcDbLine
 10
25.0
 20
-15.625
 30
0.0
 11
30.84999999999999
 21
-15.625
 31
0.0
  0
LINE
  5
D8
330
90
100
AcDbEntity
  8
AM_5
100
AcDbLine
 10
25.0
 20
-25.625
 30
0.0
 11
30.84999999999999
 21
-25.625
 31
0.0
  0
ELLIPSE
  5
D9
330
90
100
AcDbEntity
  8
AM_9
100
AcDbEllipse
 10
12.86539465741852
 20
-20.62500000000001
 30
0.0
 11
-7.693231192243657E-16
 21
-4.187999999999992
 31
0.0
210
0.0
220
0.0
230
1.0
 40
0.9063077870366506
 41
0.0
 42
6.283185307179586
  0
CIRCLE
  5
DA
330
90
100
AcDbEntity
  8
AM_9
100
AcDbCircle
 10
-0.0000000000000026
 20
6.400000000000002
 30
0.0
 40
2.209999999999998
  0
LINE
  5
DD
330
90
100
AcDbEntity
  8
AM_7
100
AcDbLine
 10
0.0
 20
-32.66500000000001
 30
0.0
 11
0.0
 21
21.56499999999999
 31
0.0
  0
LINE
  5
DE
330
90
100
AcDbEntity
  8
AM_7
100
AcDbLine
 10
32.15767819518707
 20
-20.625
 30
0.0
 11
23.2793364389101
 21
-20.625
 31
0.0
  0
LINE
  5
DF
330
90
100
AcDbEntity
  8
AM_7
100
AcDbLine
 10
-2.320500000000001
 20
6.400000000000002
 30
0.0
 11
2.320499999999996
 21
6.400000000000002
 31
0.0
  0
LINE
  5
E1
330
90
100
AcDbEntity
  8
AM_4
100
AcDbLine
 10
-29.61600000000003
 20
19.09999999999999
 30
0.0
 11
29.61600000000003
 21
19.09999999999999
 31
0.0
  0
LINE
  5
E2
330
90
100
AcDbEntity
  8
AM_4
100
AcDbLine
 10
-29.61600000000003
 20
19.09999999999999
 30
0.0
 11
-30.84999999999999
 21
17.86599999999999
 31
0.0
  0
LINE
  5
E3
330
90
100
AcDbEntity
  8
AM_4
100
AcDbLine
 10
30.84999999999999
 20
17.86599999999999
 30
0.0
 11
29.61600000000003
 21
19.09999999999999
 31
0.0
  0
LINE
  5
E4
330
90
100
AcDbEntity
  8
AM_4
100
AcDbLine
 10
-30.84999999999998
 20
17.86599999999999
 30
0.0
 11
30.84999999999998
 21
17.86599999999999
 31
0.0
  0
LINE
  5
E5
330
90
100
AcDbEntity
  8
AM_4
100
AcDbLine
 10
30.84999999999998
 20
17.47999999999999
 30
0.0
 11
30.84999999999998
 21
17.86599999999999
 31
0.0
  0
LINE
  5
E6
330
90
100
AcDbEntity
  8
AM_4
100
AcDbLine
 10
-30.84999999999998
 20
17.86599999999999
 30
0.0
 11
-30.84999999999998
 21
17.47999999999999
 31
0.0
  0
LINE
  5
E7
330
90
100
AcDbEntity
  8
AM_4
100
AcDbLine
 10
-29.61600000000003
 20
-30.2
 30
0.0
 11
29.61600000000003
 21
-30.2
 31
0.0
  0
LINE
  5
E8
330
90
100
AcDbEntity
  8
AM_4
100
AcDbLine
 10
29.61600000000003
 20
-30.2
 30
0.0
 11
30.84999999999999
 21
-28.966
 31
0.0
  0
LINE
  5
E9
330
90
100
AcDbEntity
  8
AM_4
100
AcDbLine
 10
-30.84999999999999
 20
-28.966
 30
0.0
 11
-29.61600000000003
 21
-30.2
 31
0.0
  0
LINE
  5
EA
330
90
100
AcDbEntity
  8
AM_4
100
AcDbLine
 10
-30.84999999999999
 20
-28.966
 30
0.0
 11
30.84999999999999
 21
-28.966
 31
0.0
  0
LINE
  5
EB
330
90
100
AcDbEntity
  8
AM_4
100
AcDbLine
 10
30.84999999999999
 20
-28.966
 30
0.0
 11
30.84999999999999
 21
-25.2069040868358
 31
0.0
  0
LINE
  5
EC
330
90
100
AcDbEntity
  8
AM_4
100
AcDbLine
 10
-30.84999999999999
 20
-17.48000000000001
 30
0.0
 11
-30.84999999999999
 21
-28.966
 31
0.0
  0
LWPOLYLINE
  5
ED
330
90
100
AcDbEntity
  8
AM_4
100
AcDbPolyline
 90
       16
 70
     0
 43
0.0
 10
30.84999999999902
 20
-25.22088279372714
 10
30.84916084163413
 20
-25.21440634984044
 10
30.83733293789503
 20
-25.12216234588479
 10
30.81184512987965
 20
-24.91687419822411
 10
30.77645378886409
 20
-24.61487919421092
 10
30.73317133279185
 20
-24.21209437276094
 10
30.68585007323811
 20
-23.71355158957309
 10
30.63921213710921
 20
-23.12857303374455
 10
30.59762771226889
 20
-22.45759519107972
 10
30.56676221286143
 20
-21.72197726983376
 10
30.55093871613041
 20
-20.94127760653459
 10
30.55301564353549
 20
-20.13023471414373
 10
30.57319686681166
 20
-19.33957564556776
 10
30.61039225980214
 20
-18.56326610809691
 10
30.64959858809605
 20
-17.98007085360682
 10
30.69106958958598
 20
-17.47765206806365
  0
ENDBLK
  5
93
330
90
100
AcDbEntity
  8
0
100
AcDbBlockEnd
  0
BLOCK
  5
F0
330
EE
100
AcDbEntity
  8
0
100
AcDbBlockBegin
  2
3_405016_Metric_0_in_125916_4
 70
     2
 10
0.0
 20
0.0
 30
0.0
  3
3_405016_Metric_0_in_125916_4
  1

  0
ATTDEF
  5
F2
330
EE
100
AcDbEntity
  8
AM_6
100
AcDbText
 10
-40.04452979792124
 20
5.55625000000018
 30
0.0
 40
0.5
  1
405016 -Metric
100
AcDbAttributeDefinition
  3

  2
NN
 70
     8
280
     0
  0
ATTDEF
  5
F3
330
EE
100
AcDbEntity
  8
AM_6
100
AcDbText
 10
-40.04452979792124
 20
5.05625000000018
 30
0.0
 40
0.5
  1
Grease Fitting
100
AcDbAttributeDefinition
  3

  2
NT
 70
     8
280
     0
  0
ATTDEF
  5
F4
330
EE
100
AcDbEntity
  8
AM_6
100
AcDbText
 10
-40.04452979792124
 20
4.55625000000018
 30
0.0
 40
0.5
  1
405016-Metric
100
AcDbAttributeDefinition
  3

  2
NB
 70
     8
280
     0
  0
ATTDEF
  5
F5
330
EE
100
AcDbEntity
  8
AM_6
100
AcDbText
 10
-40.04452979792124
 20
4.05625000000018
 30
0.0
 40
0.5
  1
$MN.-Metric
100
AcDbAttributeDefinition
  3

  2
NBSYN
 70
     8
280
     0
  0
ATTDEF
  5
F6
330
EE
100
AcDbEntity
  8
AM_6
100
AcDbText
 10
-40.04452979792124
 20
3.55625000000018
 30
0.0
 40
0.5
  1
405016
100
AcDbAttributeDefinition
  3

  2
LINA
 70
     8
280
     0
  0
ATTDEF
  5
F7
330
EE
100
AcDbEntity
  8
AM_6
100
AcDbText
 10
-40.04452979792124
 20
3.05625000000018
 30
0.0
 40
0.5
  1
405016
100
AcDbAttributeDefinition
  3

  2
MN
 70
     8
280
     0
  0
ATTDEF
  5
F8
330
EE
100
AcDbEntity
  8
AM_6
100
AcDbText
 10
-40.04452979792124
 20
2.55625000000018
 30
0.0
 40
0.5
  1
7/16 HEX
100
AcDbAttributeDefinition
  3

  2
H
 70
     8
280
     0
  0
ATTDEF
  5
F9
330
EE
100
AcDbEntity
  8
AM_6
100
AcDbText
 10
-40.04452979792124
 20
2.05625000000018
 30
0.0
 40
0.5
  1
9.728
100
AcDbAttributeDefinition
  3

  2
NDR
 70
     8
280
     0
  0
ATTDEF
  5
FA
330
EE
100
AcDbEntity
  8
AM_6
100
AcDbText
 10
-40.04452979792124
 20
1.55625000000018
 30
0.0
 40
0.5
  1
8.560
100
AcDbAttributeDefinition
  3

  2
KDR
 70
     8
280
     0
  0
ATTDEF
  5
FB
330
EE
100
AcDbEntity
  8
AM_6
100
AcDbText
 10
-40.04452979792124
 20
1.05625000000018
 30
0.0
 40
0.5
  1
4.0005
100
AcDbAttributeDefinition
  3

  2
BZE
 70
     8
280
     0
  0
ATTDEF
  5
FC
330
EE
100
AcDbEntity
  8
AM_6
100
AcDbText
 10
-40.04452979792124
 20
0.5562500000001798
 30
0.0
 40
0.5
  1
11.1125
100
AcDbAttributeDefinition
  3

  2
HEX
 70
     8
280
     0
  0
ATTDEF
  5
FD
330
EE
100
AcDbEntity
  8
AM_6
100
AcDbText
 10
-40.04452979792124
 20
0.0562500000001798
 30
0.0
 40
0.5
  1
7.143750
100
AcDbAttributeDefinition
  3

  2
HEX2
 70
     8
280
     0
  0
ATTDEF
  5
FE
330
EE
100
AcDbEntity
  8
AM_6
100
AcDbText
 10
-40.04452979792124
 20
-0.4437499999998202
 30
0.0
 40
0.5
  1
baldor
100
AcDbAttributeDefinition
  3

  2
COMPANY
 70
     8
280
     0
  0
LINE
  5
FF
330
EE
100
AcDbEntity
  8
AM_9
100
AcDbLine
 10
-62.75200730731697
 20
-3.837282897828231
 30
0.0
 11
-63.03957526720345
 21
-4.549376881905936
 31
0.0
  0
LINE
  5
100
330
EE
100
AcDbEntity
  8
AM_9
100
AcDbLine
 10
-58.91216621793915
 20
-5.333905179049321
 30
0.0
 11
-59.20902227191559
 21
-6.068998929608747
 31
0.0
  0
LWPOLYLINE
  5
101
330
EE
100
AcDbEntity
  8
AM_9
100
AcDbPolyline
 90
        3
 70
     0
 43
0.0
 10
-52.42042355501078
 20
-0.0000000000000029
 10
-52.9659563963184
 20
-1.382816900963401
 10
-53.42185956419785
 20
-2.778125000000002
  0
LWPOLYLINE
  5
102
330
EE
100
AcDbEntity
  8
AM_9
100
AcDbPolyline
 90
        3
 70
     0
 43
0.0
 10
-53.42185956419785
 20
2.778124999999997
 10
-52.96822445460619
 20
1.389062499999997
 10
-52.42042355501078
 20
-0.0000000000000029
  0
LWPOLYLINE
  5
103
330
EE
100
AcDbEntity
  8
AM_9
100
AcDbPolyline
 90
        3
 70
     0
 43
0.0
 10
-57.44072266801806
 20
-7.58869625231989
 10
-57.84425969592072
 20
-7.397029361446425
 10
-58.23059373905029
 20
-7.147354260923539
  0
LWPOLYLINE
  5
104
330
EE
100
AcDbEntity
  8
AM_9
100
AcDbPolyline
 90
        3
 70
     0
 43
0.0
 10
-51.22215503858538
 20
-2.778125000000002
 10
-50.87381453988082
 20
-1.389062500000002
 10
-50.61963983118002
 20
-0.0000000000000031
  0
LWPOLYLINE
  5
105
330
EE
100
AcDbEntity
  8
AM_9
100
AcDbPolyline
 90
        3
 70
     0
 43
0.0
 10
-50.61963983118002
 20
-0.0000000000000031
 10
-50.87247669988359
 20
1.382816900963397
 10
-51.22215503858538
 20
2.778124999999998
  0
LINE
  5
106
330
EE
100
AcDbEntity
  8
AM_9
100
AcDbLine
 10
-57.394095569812
 20
-6.434683422714174
 30
0.0
 11
-57.13450917551922
 21
-6.830431020205951
 31
0.0
  0
LWPOLYLINE
  5
107
330
EE
100
AcDbEntity
  8
AM_9
100
AcDbPolyline
 90
        3
 70
     0
 43
0.0
 10
-54.02437477160321
 20
5.556249999999999
 10
-53.77153790289964
 20
4.173433099036599
 10
-53.42185956419785
 20
2.778124999999997
  0
LINE
  5
108
330
EE
100
AcDbEntity
  8
AM_9
100
AcDbLine
 10
-52.42042355501078
 20
-0.0000000000000029
 30
0.0
 11
-50.61963983118002
 21
-0.0000000000000031
 31
0.0
  0
LWPOLYLINE
  5
109
330
EE
100
AcDbEntity
  8
AM_9
100
AcDbPolyline
 90
        3
 70
     0
 43
0.0
 10
-53.42185956419785
 20
-2.778125000000002
 10
-53.77020006290241
 20
-4.167187500000002
 10
-54.02437477160321
 20
-5.556250000000003
  0
LINE
  5
10A
330
EE
100
AcDbEntity
  8
AM_9
100
AcDbLine
 10
-57.13450917551922
 20
-6.830431020205951
 30
0.0
 11
-57.39793554635959
 21
-6.714283084454112
 31
0.0
  0
LINE
  5
10B
330
EE
100
AcDbEntity
  8
AM_9
100
AcDbLine
 10
-57.13450917551922
 20
-6.830431020205951
 30
0.0
 11
-57.40000000000002
 21
-7.487856204205051
 31
0.0
  0
ELLIPSE
  5
10C
330
EE
100
AcDbEntity
  8
AM_9
100
AcDbEllipse
 10
-63.59467639638497
 20
-11.90625
 30
0.0
 11
-2.43722727075587
 21
0.9842359150649265
 31
0.0
210
0.0
220
0.0
230
1.0
 40
0.2113091308703501
 41
3.04060964969654
 42
6.384168311072832
  0
ELLIPSE
  5
10D
330
EE
100
AcDbEntity
  8
AM_9
100
AcDbEllipse
 10
-62.8836373765689
 20
-10.14553017343999
 30
0.0
 11
-3.27723232775051
 21
1.323458750723535
 31
0.0
210
0.0
220
0.0
230
1.0
 40
0.2113091308703461
 41
3.036278112694981
 42
5.801105639492167
  0
ELLIPSE
  5
10E
330
EE
100
AcDbEntity
  8
AM_9
100
AcDbEllipse
 10
-62.61249283442153
 20
-9.47410489590078
 30
0.0
 11
-3.136987913477299
 21
1.266823248950861
 31
0.0
210
0.0
220
0.0
230
1.0
 40
0.2113091308704272
 41
3.381626279661571
 42
6.024964755858599
  0
LWPOLYLINE
  5
10F
330
EE
100
AcDbEntity
  8
AM_9
100
AcDbPolyline
 90
        5
 70
     0
 43
0.0
 10
-63.03957526720345
 20
-4.549376881905936
 10
-63.59487993506855
 20
-4.680053692952522
 10
-64.12564054309037
 20
-4.730040525586979
 10
-64.63154807978508
 20
-4.684077415975232
 10
-65.10179825996515
 20
-4.549376881905936
  0
LWPOLYLINE
  5
110
330
EE
100
AcDbEntity
  8
AM_9
100
AcDbPolyline
 90
        5
 70
     0
 43
0.0
 10
-59.20902227191559
 20
-6.068998929608747
 10
-60.1955910045763
 20
-5.830160733401207
 10
-61.16422119105903
 20
-5.503852774457659
 10
-62.11973856783309
 20
-5.070861224918887
 10
-63.03957526720345
 20
-4.549376881905936
  0
LWPOLYLINE
  5
111
330
EE
100
AcDbEntity
  8
AM_9
100
AcDbPolyline
 90
        3
 70
     0
 43
0.0
 10
-58.53594060566817
 20
-6.887292896806422
 10
-58.88481412088831
 20
-6.507011440078409
 10
-59.20902227191559
 20
-6.068998929608747
  0
ELLIPSE
  5
112
330
EE
100
AcDbEntity
  8
AM_9
100
AcDbEllipse
 10
-61.31706990413859
 20
-6.266296641271449
 30
0.0
 11
-3.312005593887592
 21
1.337501387546034
 31
0.0
210
0.0
220
0.0
230
1.0
 40
0.2113091308703065
 41
3.80634037200362
 42
6.91918190309725
  0
LINE
  5
113
330
EE
100
AcDbEntity
  8
AM_9
100
AcDbLine
 10
-52.02700729040264
 20
5.081049061129095
 30
0.0
 11
-52.22359104777244
 21
5.556249999999999
 31
0.0
  0
LWPOLYLINE
  5
114
330
EE
100
AcDbEntity
  8
AM_9
100
AcDbPolyline
 90
        3
 70
     0
 43
0.0
 10
-51.59289717422277
 20
3.9351170201136
 10
-51.67579014817703
 20
4.167187499999998
 10
-52.02700729040264
 20
5.081049061129095
  0
LINE
  5
115
330
EE
100
AcDbEntity
  8
AM_9
100
AcDbLine
 10
-51.22215503858538
 20
2.778124999999998
 30
0.0
 11
-51.59289717422277
 21
3.9351170201136
 31
0.0
  0
LINE
  5
116
330
EE
100
AcDbEntity
  8
AM_9
100
AcDbLine
 10
-51.59327900648053
 20
-3.936203793251982
 30
0.0
 11
-51.22215503858538
 21
-2.778125000000002
 31
0.0
  0
LWPOLYLINE
  5
117
330
EE
100
AcDbEntity
  8
AM_9
100
AcDbPolyline
 90
        3
 70
     0
 43
0.0
 10
-52.02700418952072
 20
-5.081041392296854
 10
-51.67805820646483
 20
-4.173433099036602
 10
-51.59327900648053
 20
-3.936203793251982
  0
LINE
  5
118
330
EE
100
AcDbEntity
  8
AM_9
100
AcDbLine
 10
-52.22359104777244
 20
-5.556250000000003
 30
0.0
 11
-52.02700418952072
 21
-5.081041392296854
 31
0.0
  0
LINE
  5
119
330
EE
100
AcDbEntity
  8
AM_9
100
AcDbLine
 10
-63.03483124895498
 20
-3.058387021916507
 30
0.0
 11
-63.06240155169368
 21
-3.126658350638849
 31
0.0
  0
LINE
  5
11A
330
EE
100
AcDbEntity
  8
AM_9
100
AcDbLine
 10
-57.82477744693776
 20
-5.080000000000001
 30
0.0
 11
-57.7569980715823
 21
-4.912160420603781
 31
0.0
  0
ELLIPSE
  5
11B
330
EE
100
AcDbEntity
  8
AM_9
100
AcDbEllipse
 10
-60.8522522526602
 20
-5.115285751734357
 30
0.0
 11
-2.590724375662923
 21
1.046223307591063
 31
0.0
210
0.0
220
0.0
230
1.0
 40
0.2113091308703403
 41
3.141592653589793
 42
6.283185307179586
  0
LWPOLYLINE
  5
11C
330
EE
100
AcDbEntity
  8
AM_9
100
AcDbPolyline
 90
        4
 70
     0
 43
0.0
 10
-63.03495138219247
 20
-3.058684545841784
 10
-63.03848619819953
 20
-3.069253891791883
 10
-63.02381556568851
 20
-3.162573084305298
 10
-62.97534741906033
 20
-3.235042756066508
  0
LWPOLYLINE
  5
11D
330
EE
100
AcDbEntity
  8
AM_9
100
AcDbPolyline
 90
        5
 70
     0
 43
0.0
 10
-57.75697408886449
 20
-4.912101024934068
 10
-57.75934482659574
 20
-4.917691338485696
 10
-57.84101946519275
 20
-5.008516140987742
 10
-57.99388589155942
 20
-5.065126856945112
 10
-58.16823074430267
 20
-5.079999999236803
  0
LWPOLYLINE
  5
11E
330
EE
100
AcDbEntity
  8
AM_9
100
AcDbPolyline
 90
        3
 70
     0
 43
0.0
 10
-60.53797787709862
 20
-4.434184386909876
 10
-59.84229536261346
 20
-4.766969289547203
 10
-58.91216621793915
 20
-5.333905179049321
  0
LWPOLYLINE
  5
11F
330
EE
100
AcDbEntity
  8
AM_9
100
AcDbPolyline
 90
        3
 70
     0
 43
0.0
 10
-62.75200730731697
 20
-3.837282897828231
 10
-62.01021027682909
 20
-3.973124856539688
 10
-61.2819796036948
 20
-4.163853732670683
  0
LWPOLYLINE
  5
120
330
EE
100
AcDbEntity
  8
AM_9
100
AcDbPolyline
 90
        3
 70
     0
 43
0.0
 10
-58.91216621793915
 20
-5.333905179049321
 10
-58.48103468666768
 20
-5.49523760296716
 10
-58.07112295418944
 20
-5.736282007269851
  0
LWPOLYLINE
  5
121
330
EE
100
AcDbEntity
  8
AM_9
100
AcDbPolyline
 90
        4
 70
     0
 43
0.0
 10
-63.68954366806716
 20
-3.60574614931637
 10
-63.59111563413751
 20
-3.608061141866097
 10
-63.22309719022284
 20
-3.660719790057628
 10
-62.75200730731697
 20
-3.837282897828231
  0
ELLIPSE
  5
122
330
EE
100
AcDbEntity
  8
AM_9
100
AcDbEllipse
 10
-60.85225225266037
 20
-5.115285751734381
 30
0.0
 11
-3.312005593887072
 21
1.337501387545464
 31
0.0
210
0.0
220
0.0
230
1.0
 40
0.2113091308703495
 41
3.814164134970081
 42
4.682024669496514
  0
ELLIPSE
  5
123
330
EE
100
AcDbEntity
  8
AM_9
100
AcDbEllipse
 10
-60.85225225266036
 20
-5.11528575173441
 30
0.0
 11
-3.312005593887044
 21
1.337501387545462
 31
0.0
210
0.0
220
0.0
230
1.0
 40
0.211309130870355
 41
-1.283515054064432
 42
-0.6725714813802801
  0
LINE
  5
124
330
EE
100
AcDbEntity
  8
AM_9
100
AcDbLine
 10
-58.23059373905029
 20
-7.147354260923539
 30
0.0
 11
-58.53594060566817
 21
-6.887292896806422
 31
0.0
  0
ELLIPSE
  5
125
330
EE
100
AcDbEntity
  8
AM_9
100
AcDbEllipse
 10
-61.31706990413899
 20
-6.266296641270984
 30
0.0
 11
-3.312005593886909
 21
1.337501387545388
 31
0.0
210
0.0
220
0.0
230
1.0
 40
0.211309130870351
 41
2.800469246484349
 42
3.607080702195152
  0
ELLIPSE
  5
126
330
EE
100
AcDbEntity
  8
AM_9
100
AcDbEllipse
 10
-61.31706990417727
 20
-6.266296641269745
 30
0.0
 11
-3.312005593934154
 21
1.337501387547422
 31
0.0
210
0.0
220
0.0
230
1.0
 40
0.2113091308672414
 41
-3.777589249508378
 42
-3.764628581860245
  0
LWPOLYLINE
  5
127
330
EE
100
AcDbEntity
  8
AM_9
100
AcDbPolyline
 90
       17
 70
     0
 43
0.0
 10
-57.92654726640723
 20
-4.54754929579452
 10
-58.12892087934252
 20
-4.404185730898368
 10
-58.40212514457073
 20
-4.243653641815979
 10
-58.7232586532408
 20
-4.079360450144661
 10
-59.10147540114517
 20
-3.906600444275934
 10
-59.50538307203993
 20
-3.739733627290439
 10
-59.94635170551158
 20
-3.574110867010545
 10
-60.3871808246198
 20
-3.423743718108895
 10
-60.84076669886073
 20
-3.284291520882655
 10
-61.26824264096263
 20
-3.167739146394208
 10
-61.68268793604053
 20
-3.070557447853723
 10
-62.04842382788031
 20
-3.001126812430812
 10
-62.37690559067029
 20
-2.957268343506164
 10
-62.64004268592668
 20
-2.942714645652546
 10
-62.84604112627078
 20
-2.956956816676946
 10
-62.97752781251815
 20
-2.998748603033094
 10
-63.03495138219247
 20
-3.058684545841784
  0
LWPOLYLINE
  5
128
330
EE
100
AcDbEntity
  8
AM_9
100
AcDbPolyline
 90
        4
 70
     0
 43
0.0
 10
-57.92654726640723
 20
-4.547549295794528
 10
-57.8006988904167
 20
-4.680277139818005
 10
-57.74715862496143
 20
-4.804994146739736
 10
-57.75697408886449
 20
-4.912101024934068
  0
LINE
  5
129
330
EE
100
AcDbEntity
  8
AM_9
100
AcDbLine
 10
-55.82778638908649
 20
5.079999999999997
 30
0.0
 11
-57.42009465607793
 21
5.079999999999997
 31
0.0
  0
LINE
  5
12A
330
EE
100
AcDbEntity
  8
AM_9
100
AcDbLine
 10
-57.42016181589728
 20
-5.080000000000001
 30
0.0
 11
-55.82778638908649
 21
-5.080000000000001
 31
0.0
  0
LINE
  5
12B
330
EE
100
AcDbEntity
  8
AM_9
100
AcDbLine
 10
-51.90956270283927
 20
5.079999999999997
 30
0.0
 11
-53.62808186347402
 21
5.079999999999997
 31
0.0
  0
LINE
  5
12C
330
EE
100
AcDbEntity
  8
AM_9
100
AcDbLine
 10
-53.62808186347402
 20
-5.080000000000001
 30
0.0
 11
-51.90956270283927
 21
-5.080000000000001
 31
0.0
  0
ELLIPSE
  5
12D
330
EE
100
AcDbEntity
  8
AM_9
100
AcDbEllipse
 10
-51.90956270283927
 20
-0.0000000000000049
 30
0.0
 11
3.110602869834282E-16
 21
5.080000000000007
 31
0.0
210
0.0
220
0.0
230
1.0
 40
0.4999999999999991
 41
1.73947764668992
 42
7.727195611216619
  0
LINE
  5
12E
330
EE
100
AcDbEntity
  8
AM_9
100
AcDbLine
 10
-57.23227720478808
 20
-5.556250000000002
 30
0.0
 11
-57.40816496785729
 21
-5.132101410541746
 31
0.0
  0
LINE
  5
12F
330
EE
100
AcDbEntity
  8
AM_9
100
AcDbLine
 10
-57.23227720478808
 20
-5.556250000000002
 30
0.0
 11
-52.22359104777244
 21
-5.556250000000003
 31
0.0
  0
LINE
  5
130
330
EE
100
AcDbEntity
  8
AM_9
100
AcDbLine
 10
-55.48451385693073
 20
-5.226603138326707
 30
0.0
 11
-55.4314934809573
 21
-5.556250000000002
 31
0.0
  0
LWPOLYLINE
  5
131
330
EE
100
AcDbEntity
  8
AM_9
100
AcDbPolyline
 90
        3
 70
     0
 43
0.0
 10
-56.03400868836266
 20
-2.778125000000001
 10
-55.6856681896581
 20
-4.167187500000002
 10
-55.48451385693073
 20
-5.226603138326707
  0
LWPOLYLINE
  5
132
330
EE
100
AcDbEntity
  8
AM_9
100
AcDbPolyline
 90
        3
 70
     0
 43
0.0
 10
-56.66362446783653
 20
-0.9188835053133966
 10
-56.48991185624212
 20
-1.382816900963401
 10
-56.03400868836266
 20
-2.778125000000001
  0
LINE
  5
133
330
EE
100
AcDbEntity
  8
AM_9
100
AcDbLine
 10
-57.03544469754973
 20
-0.0000000000000007
 30
0.0
 11
-56.66362446783653
 21
-0.9188835053133966
 31
0.0
  0
LINE
  5
134
330
EE
100
AcDbEntity
  8
AM_9
100
AcDbLine
 10
-57.23227720478808
 20
5.556249999999999
 30
0.0
 11
-52.22359104777244
 21
5.556249999999999
 31
0.0
  0
LINE
  5
135
330
EE
100
AcDbEntity
  8
AM_9
100
AcDbLine
 10
-57.40822385664827
 20
5.131956513921136
 30
0.0
 11
-57.23227720478808
 21
5.556249999999999
 31
0.0
  0
LINE
  5
136
330
EE
100
AcDbEntity
  8
AM_9
100
AcDbLine
 10
-57.40000000000003
 20
-0.0000000000000007
 30
0.0
 11
-57.03544469754973
 21
-0.0000000000000007
 31
0.0
  0
LINE
  5
137
330
EE
100
AcDbEntity
  8
AM_9
100
AcDbLine
 10
-56.66462605515294
 20
0.9162840581164883
 30
0.0
 11
-57.03544469754973
 21
-0.0000000000000007
 31
0.0
  0
LWPOLYLINE
  5
138
330
EE
100
AcDbEntity
  8
AM_9
100
AcDbPolyline
 90
        3
 70
     0
 43
0.0
 10
-56.19188949277486
 20
2.257296794608249
 10
-56.48764379795432
 20
1.389062499999999
 10
-56.66462605515294
 20
0.9162840581164883
  0
LINE
  5
139
330
EE
100
AcDbEntity
  8
AM_9
100
AcDbLine
 10
-56.03400868836266
 20
2.778124999999999
 30
0.0
 11
-56.19188949277486
 21
2.257296794608249
 31
0.0
  0
LWPOLYLINE
  5
13A
330
EE
100
AcDbEntity
  8
AM_9
100
AcDbPolyline
 90
        3
 70
     0
 43
0.0
 10
-55.48008926712085
 20
5.253155573281434
 10
-55.68433034966088
 20
4.173433099036599
 10
-56.03400868836266
 20
2.778124999999999
  0
LINE
  5
13B
330
EE
100
AcDbEntity
  8
AM_9
100
AcDbLine
 10
-55.4314934809573
 20
5.556249999999999
 30
0.0
 11
-55.48008926712085
 21
5.253155573281434
 31
0.0
  0
LINE
  5
13C
330
EE
100
AcDbEntity
  8
AM_9
100
AcDbLine
 10
-47.57755149772854
 20
4.708725846697615
 30
0.0
 11
-51.86567931738708
 21
4.863493258495418
 31
0.0
  0
LINE
  5
13D
330
EE
100
AcDbEntity
  8
AM_9
100
AcDbLine
 10
-51.86567931738708
 20
-4.863493258495422
 30
0.0
 11
-47.57755149772854
 21
-4.708725846697618
 31
0.0
  0
LINE
  5
13E
330
EE
100
AcDbEntity
  8
AM_9
100
AcDbLine
 10
-45.91230545741193
 20
3.352827683708302
 30
0.0
 11
-46.2605250314335
 21
3.845284527973389
 31
0.0
  0
LINE
  5
13F
330
EE
100
AcDbEntity
  8
AM_9
100
AcDbLine
 10
-46.2605250314335
 20
-3.845284527973393
 30
0.0
 11
-45.91230545741192
 21
-3.352827683708306
 31
0.0
  0
ELLIPSE
  5
140
330
EE
100
AcDbEntity
  8
AM_9
100
AcDbEllipse
 10
-55.82778638908648
 20
-0.000000000000024
 30
0.0
 11
3.402221888881256E-16
 21
5.556250000000025
 31
0.0
210
0.0
220
0.0
230
1.0
 40
0.5000000000000021
 41
0.0
 42
6.283185307179586
  0
ELLIPSE
  5
141
330
EE
100
AcDbEntity
  8
AM_9
100
AcDbEllipse
 10
-55.82778638908648
 20
-0.0000000000000009
 30
0.0
 11
3.110602869834277E-16
 21
5.08
 31
0.0
210
0.0
220
0.0
230
1.0
 40
0.4999999999999984
 41
0.0
 42
6.283185307179586
  0
ELLIPSE
  5
142
330
EE
100
AcDbEntity
  8
AM_9
100
AcDbEllipse
 10
-53.62808186347416
 20
0.000000000000079
 30
0.0
 11
3.402221888881302E-16
 21
5.556250000000101
 31
0.0
210
0.0
220
0.0
230
1.0
 40
0.500000000000012
 41
0.0
 42
6.283185307179586
  0
ELLIPSE
  5
143
330
EE
100
AcDbEntity
  8
AM_9
100
AcDbEllipse
 10
-53.62808186347402
 20
0.0000000000000142
 30
0.0
 11
3.110602869834287E-16
 21
5.080000000000016
 31
0.0
210
0.0
220
0.0
230
1.0
 40
0.4999999999999997
 41
0.0
 42
6.283185307179586
  0
ELLIPSE
  5
144
330
EE
100
AcDbEntity
  8
AM_9
100
AcDbEllipse
 10
-51.90956270283925
 20
0.0000000000000036
 30
0.0
 11
2.978515598206518E-16
 21
4.864285115153654
 31
0.0
210
0.0
220
0.0
230
1.0
 40
0.4999999999999966
 41
0.0
 42
6.283185307179586
  0
ELLIPSE
  5
145
330
EE
100
AcDbEntity
  8
AM_9
100
AcDbEllipse
 10
-47.62003841409432
 20
-0.0000000000000071
 30
0.0
 11
2.883732460730462E-16
 21
4.709492504676824
 31
0.0
210
0.0
220
0.0
230
1.0
 40
0.4999999999999962
 41
0.0
 42
6.283185307179586
  0
ELLIPSE
  5
146
330
EE
100
AcDbEntity
  8
AM_9
100
AcDbEllipse
 10
-47.09770905306198
 20
0.0000000000000164
 30
0.0
 11
2.514419402883881E-16
 21
4.106358510281524
 31
0.0
210
0.0
220
0.0
230
1.0
 40
0.4999999999999948
 41
0.0
 42
6.283185307179586
  0
LWPOLYLINE
  5
147
330
EE
100
AcDbEntity
  8
AM_4
100
AcDbPolyline
 90
        3
 70
     0
 43
0.0
 10
-57.76577608757152
 20
-5.996343371387007
 10
-57.53298542852696
 20
-6.253713524124906
 10
-57.394095569812
 20
-6.434683422714174
  0
LWPOLYLINE
  5
148
330
EE
100
AcDbEntity
  8
AM_4
100
AcDbPolyline
 90
        3
 70
     0
 43
0.0
 10
-57.39793554635959
 20
-6.714283084454112
 10
-57.46460472689934
 20
-6.691143549353728
 10
-57.82563778980104
 20
-6.609853898455522
  0
LWPOLYLINE
  5
149
330
EE
100
AcDbEntity
  8
AM_4
100
AcDbPolyline
 90
        3
 70
     0
 43
0.0
 10
-58.29045544127981
 20
-7.76086478799207
 10
-57.87435379395777
 20
-7.69811432306444
 10
-57.44072266801806
 20
-7.58869625231989
  0
LINE
  5
14A
330
EE
100
AcDbEntity
  8
AM_4
100
AcDbLine
 10
-57.40000000000002
 20
-7.487856204205051
 30
0.0
 11
-57.44072266801806
 21
-7.58869625231989
 31
0.0
  0
LINE
  5
14B
330
EE
100
AcDbEntity
  8
AM_4
100
AcDbLine
 10
-61.19083203285278
 20
-12.93739051932093
 30
0.0
 11
-59.65129357606428
 21
-11.53205948275794
 31
0.0
  0
LINE
  5
14C
330
EE
100
AcDbEntity
  8
AM_4
100
AcDbLine
 10
-66.17236682548109
 20
-8.898626575676335
 30
0.0
 11
-66.04045389929655
 21
-10.9789469745965
 31
0.0
  0
ELLIPSE
  5
14D
330
EE
100
AcDbEntity
  8
AM_4
100
AcDbEllipse
 10
-63.59467639638497
 20
-11.90625
 30
0.0
 11
-2.437227270755869
 21
0.9842359150649284
 31
0.0
210
0.0
220
0.0
230
1.0
 40
0.2113091308703514
 41
0.1009830038932558
 42
3.040609649696544
  0
LINE
  5
14E
330
EE
100
AcDbEntity
  8
AM_4
100
AcDbLine
 10
-64.81423030007868
 20
-3.837282897828231
 30
0.0
 11
-65.10179825996515
 21
-4.549376881905936
 31
0.0
  0
LWPOLYLINE
  5
14F
330
EE
100
AcDbEntity
  8
AM_4
100
AcDbPolyline
 90
        9
 70
     0
 43
0.0
 10
-65.5596135029118
 20
-8.074486373837825
 10
-65.61118572476809
 20
-8.091282727540895
 10
-65.75745385926889
 20
-8.15671547844679
 10
-65.88895303617156
 20
-8.246001791763348
 10
-66.00248378897804
 20
-8.360631169635264
 10
-66.09146410098684
 20
-8.498415529785747
 10
-66.15256819517508
 20
-8.665282489120521
 10
-66.17380254817763
 20
-8.830565317760813
 10
-66.17127057420115
 20
-8.91369833104199
  0
LWPOLYLINE
  5
150
330
EE
100
AcDbEntity
  8
AM_4
100
AcDbPolyline
 90
        9
 70
     0
 43
0.0
 10
-59.66185066283337
 20
-11.54152897706613
 10
-59.59641017947753
 20
-11.47686784610665
 10
-59.50022391138948
 20
-11.34478779937642
 10
-59.42891171822605
 20
-11.17906000604533
 10
-59.39878216973727
 20
-11.01237191203518
 10
-59.40346169578405
 20
-10.85379596938816
 10
-59.43602049385155
 20
-10.70566494081611
 10
-59.4920538340179
 20
-10.56628522276046
 10
-59.51949914821773
 20
-10.51425804346167
  0
ELLIPSE
  5
151
330
EE
100
AcDbEntity
  8
AM_4
100
AcDbEllipse
 10
-62.88363737656891
 20
-10.14553017343999
 30
0.0
 11
-3.277232327750517
 21
1.323458750723534
 31
0.0
210
0.0
220
0.0
230
1.0
 40
0.2113091308703575
 41
0.1056140169363546
 42
3.036278112694979
  0
LWPOLYLINE
  5
152
330
EE
100
AcDbEntity
  8
AM_4
100
AcDbPolyline
 90
        3
 70
     0
 43
0.0
 10
-59.50294566077976
 20
-7.58869625231989
 10
-59.15920071706986
 20
-7.697739397127513
 10
-58.81479488759523
 20
-7.758592464327529
  0
LINE
  5
153
330
EE
100
AcDbEntity
  8
AM_4
100
AcDbLine
 10
-58.82050140174876
 20
-7.757990703186896
 30
0.0
 11
-58.79226800009284
 21
-7.76086478799207
 31
0.0
  0
ELLIPSE
  5
154
330
EE
100
AcDbEntity
  8
AM_4
100
AcDbEllipse
 10
-61.3170699041391
 20
-6.266296641270943
 30
0.0
 11
-3.31200559388701
 21
1.337501387545429
 31
0.0
210
0.0
220
0.0
230
1.0
 40
0.21130913087035
 41
1.711945269609625
 42
2.505596057672115
  0
LWPOLYLINE
  5
155
330
EE
100
AcDbEntity
  8
AM_4
100
AcDbPolyline
 90
        4
 70
     0
 43
0.0
 10
-65.10179825996515
 20
-4.549376881905938
 10
-64.72391946167103
 20
-5.05042200837363
 10
-64.3066159467071
 20
-5.477080537076166
 10
-64.16699167397898
 20
-5.592268783583249
  0
LINE
  5
156
330
EE
100
AcDbEntity
  8
AM_4
100
AcDbLine
 10
-64.16948460074047
 20
-5.590323799250987
 30
0.0
 11
-64.14938683939623
 21
-5.606004100241778
 31
0.0
  0
LWPOLYLINE
  5
157
330
EE
100
AcDbEntity
  8
AM_4
100
AcDbPolyline
 90
        3
 70
     0
 43
0.0
 10
-64.16699167397898
 20
-5.592268783583249
 10
-63.83830242537383
 20
-5.817773758536458
 10
-63.33346825743902
 20
-6.068998929608743
  0
LWPOLYLINE
  5
158
330
EE
100
AcDbEntity
  8
AM_4
100
AcDbPolyline
 90
        3
 70
     0
 43
0.0
 10
-58.32745034861405
 20
-6.609853898455276
 10
-58.56236568812697
 20
-6.646959991776583
 10
-59.19673216828091
 20
-6.830431020205951
  0
LINE
  5
159
330
EE
100
AcDbEntity
  8
AM_4
100
AcDbLine
 10
-63.06240155169368
 20
-3.126658350638849
 30
0.0
 11
-63.44297662832312
 21
-4.069062444143282
 31
0.0
  0
LINE
  5
15A
330
EE
100
AcDbEntity
  8
AM_4
100
AcDbLine
 10
-58.26152787699761
 20
-6.161509059325487
 30
0.0
 11
-57.82477744693776
 21
-5.080000000000001
 31
0.0
  0
ELLIPSE
  5
15B
330
EE
100
AcDbEntity
  8
AM_4
100
AcDbEllipse
 10
-60.85225225266036
 20
-5.115285751734384
 30
0.0
 11
-2.590724375662753
 21
1.046223307591101
 31
0.0
210
0.0
220
0.0
230
1.0
 40
0.2113091308703491
 41
0.0
 42
3.141592653589793
  0
LWPOLYLINE
  5
15C
330
EE
100
AcDbEntity
  8
AM_4
100
AcDbPolyline
 90
        4
 70
     0
 43
0.0
 10
-64.81423030007868
 20
-3.837282897828231
 10
-64.39218791359545
 20
-3.705296695971724
 10
-63.98440075215507
 20
-3.624930539193417
 10
-63.68954366806716
 20
-3.60574614931637
  0
LWPOLYLINE
  5
15D
330
EE
100
AcDbEntity
  8
AM_4
100
AcDbPolyline
 90
        6
 70
     0
 43
0.0
 10
-63.03661220346255
 20
-5.333905179049321
 10
-63.29846426693871
 20
-4.936675458173813
 10
-63.58659746852766
 20
-4.585948207644054
 10
-63.90953242277855
 20
-4.290054100087518
 10
-64.26248894799672
 20
-4.060772684155615
 10
-64.81423030007868
 20
-3.837282897828231
  0
LINE
  5
15E
330
EE
100
AcDbEntity
  8
AM_4
100
AcDbLine
 10
-63.6557653880793
 20
-3.605746148079322
 30
0.0
 11
-63.69230269494238
 21
-3.605746148079322
 31
0.0
  0
ELLIPSE
  5
15F
330
EE
100
AcDbEntity
  8
AM_4
100
AcDbEllipse
 10
-60.85225225295092
 20
-5.115285751966666
 30
0.0
 11
-3.312005594192526
 21
1.337501387408529
 31
0.0
210
0.0
220
0.0
230
1.0
 40
0.2113091309213767
 41
3.806340371988629
 42
3.814164134955357
  0
ELLIPSE
  5
160
330
EE
100
AcDbEntity
  8
AM_4
100
AcDbEllipse
 10
-60.85225225266039
 20
-5.115285751733671
 30
0.0
 11
-3.312005593886979
 21
1.337501387544799
 31
0.0
210
0.0
220
0.0
230
1.0
 40
0.2113091308702606
 41
5.610613825799237
 42
7.79587090698164
  0
ELLIPSE
  5
161
330
EE
100
AcDbEntity
  8
AM_4
100
AcDbEllipse
 10
-61.3170699041391
 20
-6.266296641270968
 30
0.0
 11
-3.312005593887065
 21
1.337501387545479
 31
0.0
210
0.0
220
0.0
230
1.0
 40
0.2113091308703391
 41
0.6359965959176934
 42
1.512685599801939
  0
LWPOLYLINE
  5
162
330
EE
100
AcDbEntity
  8
AM_4
100
AcDbPolyline
 90
        3
 70
     0
 43
0.0
 10
-58.79226800009284
 20
-7.76086478799207
 10
-58.55223294838061
 20
-7.784509761460651
 10
-58.29045544127981
 20
-7.76086478799207
  0
LWPOLYLINE
  5
163
330
EE
100
AcDbEntity
  8
AM_4
100
AcDbPolyline
 90
       17
 70
     0
 43
0.0
 10
-59.50815926566495
 20
-10.53475158660589
 10
-59.5698523596358
 20
-10.39980691203207
 10
-59.62990012139606
 20
-10.22585596595523
 10
-59.67755140739606
 20
-10.01708473646514
 10
-59.70301262310517
 20
-9.780381760943392
 10
-59.69873580355138
 20
-9.52605057997455
 10
-59.6605906166053
 20
-9.26470950287276
 10
-59.57880177152151
 20
-8.981857776148322
 10
-59.4608903064719
 20
-8.719974031135893
 10
-59.31424488790785
 20
-8.486247998632896
 10
-59.14684793339701
 20
-8.28447103342934
 10
-58.96755466749387
 20
-8.116873599339225
 10
-58.78655771683555
 20
-7.984424277145668
 10
-58.6149196719774
 20
-7.886175892835939
 10
-58.46261413638729
 20
-7.818565524273333
 10
-58.3362598565144
 20
-7.775799656980571
 10
-58.24424042830691
 20
-7.752539850383392
  0
LWPOLYLINE
  5
164
330
EE
100
AcDbEntity
  8
AM_4
100
AcDbPolyline
 90
       18
 70
     0
 43
0.0
 10
-64.55637591666414
 20
-5.207721434360449
 10
-64.55334424651892
 20
-5.212303595636521
 10
-64.49776689383579
 20
-5.304664527559077
 10
-64.43556762460672
 20
-5.430711950197251
 10
-64.37363948679412
 20
-5.592961774761814
 10
-64.32093100113902
 20
-5.79112755285705
 10
-64.28741905741983
 20
-6.019941804014518
 10
-64.2815947602171
 20
-6.269837197206305
 10
-64.30868403970321
 20
-6.530031186423831
 10
-64.37907024852093
 20
-6.817239707963443
 10
-64.48741777278205
 20
-7.086176289193316
 10
-64.62666226189285
 20
-7.328448141041681
 10
-64.7889862292645
 20
-7.539621404564305
 10
-64.9658623714028
 20
-7.717137749559972
 10
-65.14748669473714
 20
-7.859624628762508
 10
-65.32291126633228
 20
-7.967393561592902
 10
-65.48158502051183
 20
-8.043233372042181
 10
-65.58449932812786
 20
-8.082173904667107
  0
ELLIPSE
  5
165
330
EE
100
AcDbEntity
  8
AM_4
100
AcDbEllipse
 10
-62.61249283442184
 20
-9.474104895899877
 30
0.0
 11
-3.136987913476887
 21
1.266823248950022
 31
0.0
210
0.0
220
0.0
230
1.0
 40
0.2113091308703496
 41
6.042366885722677
 42
9.664811586839393
  0
ELLIPSE
  5
166
330
EE
100
AcDbEntity
  8
AM_4
100
AcDbEllipse
 10
-62.61249283425904
 20
-9.47410489613306
 30
0.0
 11
-3.136987913650621
 21
1.266823249176131
 31
0.0
210
0.0
220
0.0
230
1.0
 40
0.2113091308807152
 41
-0.2582205513111706
 42
-0.2408184214483775
  0
ELLIPSE
  5
167
330
EE
100
AcDbEntity
  8
AM_4
100
AcDbEllipse
 10
-60.85225225266036
 20
-5.115285751734372
 30
0.0
 11
-3.312005593887186
 21
1.337501387545098
 31
0.0
210
0.0
220
0.0
230
1.0
 40
0.2113091308703657
 41
1.71194526960962
 42
2.518556725320341
  0
LINE
  5
168
330
EE
100
AcDbEntity
  8
AM_4
100
AcDbLine
 10
-57.82563778980104
 20
-6.609853898455522
 30
0.0
 11
-58.32745034861405
 21
-6.609853898455276
 31
0.0
  0
ELLIPSE
  5
169
330
EE
100
AcDbEntity
  8
AM_4
100
AcDbEllipse
 10
-60.85225225266038
 20
-5.115285751734379
 30
0.0
 11
-3.31200559388705
 21
1.337501387545452
 31
0.0
210
0.0
220
0.0
230
1.0
 40
0.2113091308703484
 41
2.800469246484379
 42
3.607080702195131
  0
LINE
  5
16A
330
EE
100
AcDbEntity
  8
AM_4
100
AcDbLine
 10
-58.07112295418944
 20
-5.736282007269851
 30
0.0
 11
-57.76577608757152
 21
-5.996343371387007
 31
0.0
  0
LWPOLYLINE
  5
16B
330
EE
100
AcDbEntity
  8
AM_4
100
AcDbPolyline
 90
        3
 70
     0
 43
0.0
 10
-59.19673216828091
 20
-6.830431020205951
 10
-59.90951458748954
 20
-6.382400080731244
 10
-60.66613245037438
 20
-5.996343371387013
  0
LINE
  5
16C
330
EE
100
AcDbEntity
  8
AM_4
100
AcDbLine
 10
-60.66613245037438
 20
-5.996343371387013
 30
0.0
 11
-61.32675619963439
 21
-5.736282007269859
 31
0.0
  0
LWPOLYLINE
  5
16D
330
EE
100
AcDbEntity
  8
AM_4
100
AcDbPolyline
 90
        3
 70
     0
 43
0.0
 10
-61.32675619963439
 20
-5.736282007269859
 10
-61.9107030808173
 20
-5.560509266840902
 10
-63.03661220346255
 20
-5.333905179049321
  0
LINE
  5
16E
330
EE
100
AcDbEntity
  8
AM_4
100
AcDbLine
 10
-63.03661220346255
 20
-5.333905179049321
 30
0.0
 11
-63.33346825743899
 21
-6.068998929608747
 31
0.0
  0
LWPOLYLINE
  5
16F
330
EE
100
AcDbEntity
  8
AM_4
100
AcDbPolyline
 90
        3
 70
     0
 43
0.0
 10
-63.33346825743899
 20
-6.068998929608747
 10
-62.5796007981004
 20
-6.504786871533986
 10
-61.79157385111311
 20
-6.887292896806422
  0
LINE
  5
170
330
EE
100
AcDbEntity
  8
AM_4
100
AcDbLine
 10
-61.79157385111311
 20
-6.887292896806422
 30
0.0
 11
-61.13095010185318
 21
-7.14735426092354
 31
0.0
  0
LWPOLYLINE
  5
171
330
EE
100
AcDbEntity
  8
AM_4
100
AcDbPolyline
 90
        3
 70
     0
 43
0.0
 10
-61.13095010185318
 20
-7.14735426092354
 10
-60.32702611016096
 20
-7.395910919975459
 10
-59.50294566077976
 20
-7.58869625231989
  0
LINE
  5
172
330
EE
100
AcDbEntity
  8
AM_4
100
AcDbLine
 10
-59.19673216828091
 20
-6.830431020205951
 30
0.0
 11
-59.50294566077976
 21
-7.58869625231989
 31
0.0
  0
ARC
  5
173
330
EE
100
AcDbEntity
  8
AM_4
100
AcDbCircle
 10
-59.0586024110798
 20
-0.0000000000000018
 30
0.0
 40
5.079999999999999
100
AcDbArc
 50
90.0
 51
219.6396968456459
  0
LWPOLYLINE
  5
174
330
EE
100
AcDbEntity
  8
AM_4
100
AcDbPolyline
 90
       10
 70
     0
 43
0.0
 10
-62.97534741906033
 20
-3.235042756066508
 10
-62.93309428893677
 20
-3.281280336792629
 10
-62.77364458833812
 20
-3.41561366815326
 10
-62.54104157214501
 20
-3.569173128090977
 10
-62.25411836742992
 20
-3.729407788863488
 10
-61.90509312845487
 20
-3.900563582124101
 10
-61.52253128907203
 20
-4.068570560479343
 10
-61.09597834945267
 20
-4.237973131810882
 10
-60.65403521114118
 20
-4.397035613753721
 10
-60.19065755575197
 20
-4.547549295795372
  0
ELLIPSE
  5
175
330
EE
100
AcDbEntity
  8
AM_4
100
AcDbEllipse
 10
-59.05860241107981
 20
0.0000000000000004
 30
0.0
 11
3.110602869834270E-16
 21
5.079999999999988
 31
0.0
210
0.0
220
0.0
230
1.0
 40
0.5000000000000024
 41
0.0
 42
2.679646633022827
  0
LINE
  5
176
330
EE
100
AcDbEntity
  8
AM_4
100
AcDbLine
 10
-57.42009465607793
 20
5.079999999999997
 30
0.0
 11
-59.05860241107981
 21
5.079999999999997
 31
0.0
  0
LINE
  5
177
330
EE
100
AcDbEntity
  8
AM_4
100
AcDbLine
 10
-58.17198446366612
 20
-5.080000000000001
 30
0.0
 11
-57.42016181589728
 21
-5.080000000000001
 31
0.0
  0
LWPOLYLINE
  5
178
330
EE
100
AcDbEntity
  8
AM_4
100
AcDbPolyline
 90
        8
 70
     0
 43
0.0
 10
-58.16823074430267
 20
-5.079999999236803
 10
-58.20600352218098
 20
-5.079458245572024
 10
-58.48219297429041
 20
-5.050335633392995
 10
-58.79711034582556
 20
-4.982589552160019
 10
-59.16346547712175
 20
-4.878563523460394
 10
-59.55749516558652
 20
-4.752207997638139
 10
-59.99166762177558
 20
-4.610115106939384
 10
-60.1906575557524
 20
-4.547549295794528
  0
LWPOLYLINE
  5
179
330
EE
100
AcDbEntity
  8
AM_4
100
AcDbPolyline
 90
        3
 70
     0
 43
0.0
 10
-58.23371321397514
 20
-2.778125000000001
 10
-58.58205371267969
 20
-1.389062500000001
 10
-58.8362284213805
 20
-0.0000000000000008
  0
LWPOLYLINE
  5
17A
330
EE
100
AcDbEntity
  8
AM_4
100
AcDbPolyline
 90
        3
 70
     0
 43
0.0
 10
-57.40816496785729
 20
-5.132101410541746
 10
-57.77781004609568
 20
-4.173433099036602
 10
-58.23371321397514
 20
-2.778125000000001
  0
LWPOLYLINE
  5
17B
330
EE
100
AcDbEntity
  8
AM_4
100
AcDbPolyline
 90
        3
 70
     0
 43
0.0
 10
-58.23371321397514
 20
2.778124999999998
 10
-57.78007810438348
 20
4.167187499999998
 10
-57.40822385664827
 20
5.131956513921136
  0
LWPOLYLINE
  5
17C
330
EE
100
AcDbEntity
  8
AM_4
100
AcDbPolyline
 90
        3
 70
     0
 43
0.0
 10
-58.8362284213805
 20
-0.0000000000000008
 10
-58.58339155267692
 20
1.382816900963398
 10
-58.23371321397514
 20
2.778124999999998
  0
LINE
  5
17D
330
EE
100
AcDbEntity
  8
AM_4
100
AcDbLine
 10
-58.8362284213805
 20
-0.0000000000000008
 30
0.0
 11
-57.40000000000003
 21
-0.0000000000000007
 31
0.0
  0
ENDBLK
  5
F1
330
EE
100
AcDbEntity
  8
0
100
AcDbBlockEnd
  0
BLOCK
  5
180
330
17E
100
AcDbEntity
  8
0
100
AcDbBlockBegin
  2
4_125916H_0_in_125916_4
 70
     2
 10
0.0
 20
0.0
 30
0.0
  3
4_125916H_0_in_125916_4
  1

  0
ATTDEF
  5
182
330
17E
100
AcDbEntity
  8
AM_6
100
AcDbText
 10
96.2
 20
24.65
 30
0.0
 40
0.5
  1
WSTU-SC -Metric - housing
100
AcDbAttributeDefinition
  3

  2
NN
 70
     8
280
     0
  0
ATTDEF
  5
183
330
17E
100
AcDbEntity
  8
AM_6
100
AcDbText
 10
96.2
 20
24.15
 30
0.0
 40
0.5
  1
SC Take-Up Bearings -Wide Slot -(Normal Duty)
100
AcDbAttributeDefinition
  3

  2
NT
 70
     8
280
     0
  0
ATTDEF
  5
184
330
17E
100
AcDbEntity
  8
AM_6
100
AcDbText
 10
96.2
 20
23.65
 30
0.0
 40
0.5
  1
125916H
100
AcDbAttributeDefinition
  3

  2
NB
 70
     8
280
     0
  0
ATTDEF
  5
185
330
17E
100
AcDbEntity
  8
AM_6
100
AcDbText
 10
96.2
 20
23.15
 30
0.0
 40
0.5
  1
$PN.H
100
AcDbAttributeDefinition
  3

  2
NBSYN
 70
     8
280
     0
  0
ATTDEF
  5
186
330
17E
100
AcDbEntity
  8
AM_6
100
AcDbText
 10
96.2
 20
22.65
 30
0.0
 40
0.5
  1
125916
100
AcDbAttributeDefinition
  3

  2
LINA
 70
     8
280
     0
  0
ATTDEF
  5
187
330
17E
100
AcDbEntity
  8
AM_6
100
AcDbText
 10
96.2
 20
22.15
 30
0.0
 40
0.5
  1
210
100
AcDbAttributeDefinition
  3

  2
SERIES
 70
     8
280
     0
  0
ATTDEF
  5
188
330
17E
100
AcDbEntity
  8
AM_6
100
AcDbText
 10
96.2
 20
21.65
 30
0.0
 40
0.5
  1
50
100
AcDbAttributeDefinition
  3

  2
SS
 70
     8
280
     0
  0
ATTDEF
  5
189
330
17E
100
AcDbEntity
  8
AM_6
100
AcDbText
 10
96.2
 20
21.15
 30
0.0
 40
0.5
  1
125916
100
AcDbAttributeDefinition
  3

  2
PN
 70
     8
280
     0
  0
ATTDEF
  5
18A
330
17E
100
AcDbEntity
  8
AM_6
100
AcDbText
 10
96.2
 20
20.65
 30
0.0
 40
0.5
  1
WSTU-SC-50M
100
AcDbAttributeDefinition
  3

  2
DESCRIPTION
 70
     8
280
     0
  0
ATTDEF
  5
18B
330
17E
100
AcDbEntity
  8
AM_6
100
AcDbText
 10
96.2
 20
20.15
 30
0.0
 40
0.5
  1
2.9
100
AcDbAttributeDefinition
  3

  2
W
 70
     8
280
     0
  0
ATTDEF
  5
18C
330
17E
100
AcDbEntity
  8
AM_6
100
AcDbText
 10
96.2
 20
19.65
 30
0.0
 40
0.5
  1
WS400
100
AcDbAttributeDefinition
  3

  2
FS
 70
     8
280
     0
  0
ATTDEF
  5
18D
330
17E
100
AcDbEntity
  8
AM_6
100
AcDbText
 10
96.2
 20
19.15
 30
0.0
 40
0.5
  1
49.3
100
AcDbAttributeDefinition
  3

  2
A
 70
     8
280
     0
  0
ATTDEF
  5
18E
330
17E
100
AcDbEntity
  8
AM_6
100
AcDbText
 10
96.2
 20
18.65
 30
0.0
 40
0.5
  1
147.8
100
AcDbAttributeDefinition
  3

  2
B
 70
     8
280
     0
  0
ATTDEF
  5
18F
330
17E
100
AcDbEntity
  8
AM_6
100
AcDbText
 10
96.2
 20
18.15
 30
0.0
 40
0.5
  1
17.48
100
AcDbAttributeDefinition
  3

  2
C
 70
     8
280
     0
  0
ATTDEF
  5
190
330
17E
100
AcDbEntity
  8
AM_6
100
AcDbText
 10
96.2
 20
17.65
 30
0.0
 40
0.5
  1
85.9
100
AcDbAttributeDefinition
  3

  2
D
 70
     8
280
     0
  0
ATTDEF
  5
191
330
17E
100
AcDbEntity
  8
AM_6
100
AcDbText
 10
96.2
 20
17.15
 30
0.0
 40
0.5
  1
90.4
100
AcDbAttributeDefinition
  3

  2
E
 70
     8
280
     0
  0
ATTDEF
  5
192
330
17E
100
AcDbEntity
  8
AM_6
100
AcDbText
 10
96.2
 20
16.65
 30
0.0
 40
0.5
  1
25.4
100
AcDbAttributeDefinition
  3

  2
F
 70
     8
280
     0
  0
ATTDEF
  5
193
330
17E
100
AcDbEntity
  8
AM_6
100
AcDbText
 10
96.2
 20
16.15
 30
0.0
 40
0.5
  1
16.0
100
AcDbAttributeDefinition
  3

  2
G
 70
     8
280
     0
  0
ATTDEF
  5
194
330
17E
100
AcDbEntity
  8
AM_6
100
AcDbText
 10
96.2
 20
15.65
 30
0.0
 40
0.5
  1
19.1
100
AcDbAttributeDefinition
  3

  2
H
 70
     8
280
     0
  0
ATTDEF
  5
195
330
17E
100
AcDbEntity
  8
AM_6
100
AcDbText
 10
96.2
 20
15.15
 30
0.0
 40
0.5
  1
82.6
100
AcDbAttributeDefinition
  3

  2
J
 70
     8
280
     0
  0
ATTDEF
  5
196
330
17E
100
AcDbEntity
  8
AM_6
100
AcDbText
 10
96.2
 20
14.65
 30
0.0
 40
0.5
  1
49.3
100
AcDbAttributeDefinition
  3

  2
K
 70
     8
280
     0
  0
ATTDEF
  5
197
330
17E
100
AcDbEntity
  8
AM_6
100
AcDbText
 10
96.2
 20
14.15
 30
0.0
 40
0.5
  1
61.7
100
AcDbAttributeDefinition
  3

  2
L
 70
     8
280
     0
  0
ATTDEF
  5
198
330
17E
100
AcDbEntity
  8
AM_6
100
AcDbText
 10
96.2
 20
13.65
 30
0.0
 40
0.5
  1
101.22/101.98
100
AcDbAttributeDefinition
  3

  2
M
 70
     8
280
     0
  0
ATTDEF
  5
199
330
17E
100
AcDbEntity
  8
AM_6
100
AcDbText
 10
96.2
 20
13.15
 30
0.0
 40
0.5
  1
120.7
100
AcDbAttributeDefinition
  3

  2
N
 70
     8
280
     0
  0
ATTDEF
  5
19A
330
17E
100
AcDbEntity
  8
AM_6
100
AcDbText
 10
96.2
 20
12.65
 30
0.0
 40
0.5
  1
19.1
100
AcDbAttributeDefinition
  3

  2
R
 70
     8
280
     0
  0
ATTDEF
  5
19B
330
17E
100
AcDbEntity
  8
AM_6
100
AcDbText
 10
96.2
 20
12.15
 30
0.0
 40
0.5
  1
30.2
100
AcDbAttributeDefinition
  3

  2
S
 70
     8
280
     0
  0
ATTDEF
  5
19C
330
17E
100
AcDbEntity
  8
AM_6
100
AcDbText
 10
96.2
 20
11.65
 30
0.0
 40
0.5
  1
49.3
100
AcDbAttributeDefinition
  3

  2
T
 70
     8
280
     0
  0
ATTDEF
  5
19D
330
17E
100
AcDbEntity
  8
AM_6
100
AcDbText
 10
96.2
 20
11.15
 30
0.0
 40
0.5
  1
4450
100
AcDbAttributeDefinition
  3

  2
CAPS
 70
     8
280
     0
  0
ATTDEF
  5
19E
330
17E
100
AcDbEntity
  8
AM_6
100
AcDbText
 10
96.2
 20
10.65
 30
0.0
 40
0.5
  1
7891
100
AcDbAttributeDefinition
  3

  2
CAPD
 70
     8
280
     0
  0
ATTDEF
  5
19F
330
17E
100
AcDbEntity
  8
AM_6
100
AcDbText
 10
96.2
 20
10.15
 30
0.0
 40
0.5
  1
baldor
100
AcDbAttributeDefinition
  3

  2
COMPANY
 70
     8
280
     0
  0
LWPOLYLINE
  5
1A0
330
17E
100
AcDbEntity
  8
AM_9
100
AcDbPolyline
 90
       11
 70
     0
 43
0.0
 10
-51.58901087942773
 20
-0.0000000000000015
 10
-51.56394912466232
 20
-0.6705620081231874
 10
-51.48980630788606
 20
-1.322200234873151
 10
-51.36728792987434
 20
-1.935990102948686
 10
-51.19919920354192
 20
-2.495309410957629
 10
-50.98778487513973
 20
-2.984224251398652
 10
-50.73809375458219
 20
-3.389112173998929
 10
-50.45470051790986
 20
-3.697512905941458
 10
-50.14495482611392
 20
-3.901563931895465
 10
-49.81684199688356
 20
-3.993824350715955
 10
-49.71004773813348
 20
-3.999999982033128
  0
LINE
  5
1A1
330
17E
100
AcDbEntity
  8
AM_9
100
AcDbLine
 10
-51.90956270283928
 20
-4.000000000000002
 30
0.0
 11
-49.70908330688352
 21
-4.000000000000002
 31
0.0
  0
LINE
  5
1A2
330
17E
100
AcDbEntity
  8
AM_9
100
AcDbLine
 10
-49.70972209215864
 20
3.999999999999998
 30
0.0
 11
-51.90956270283928
 21
3.999999999999998
 31
0.0
  0
LWPOLYLINE
  5
1A3
330
17E
100
AcDbEntity
  8
AM_9
100
AcDbPolyline
 90
       20
 70
     0
 43
0.0
 10
-49.71004773813348
 20
-3.999999982033128
 10
-49.47903101431676
 20
-3.973637319294645
 10
-49.14167295635226
 20
-3.840326960466647
 10
-48.81440602106743
 20
-3.599324249151
 10
-48.50749799631226
 20
-3.255691145523971
 10
-48.23106153763189
 20
-2.820675066026836
 10
-47.99457419330204
 20
-2.304171349410284
 10
-47.80641327466923
 20
-1.722622395700137
 10
-47.67419450918957
 20
-1.091625870468818
 10
-47.601981593449
 20
-0.4297135976851826
 10
-47.5934067155812
 20
0.2431329949070424
 10
-47.64760102104694
 20
0.90911479493927
 10
-47.76332954374531
 20
1.548457143833703
 10
-47.93541604676006
 20
2.144263099848501
 10
-48.15879105481751
 20
2.679865525308689
 10
-48.42458157336717
 20
3.140085638656265
 10
-48.72466447684655
 20
3.511356755461255
 10
-49.04818218709614
 20
3.783566168645326
 10
-49.38458346829648
 20
3.94737423322713
 10
-49.70994633046973
 20
3.999999996114519
  0
LWPOLYLINE
  5
1A4
330
17E
100
AcDbEntity
  8
AM_9
100
AcDbPolyline
 90
       12
 70
     0
 43
0.0
 10
-49.70994633046973
 20
3.999999996114519
 10
-49.7237411519995
 20
3.999903549516815
 10
-50.05491074756787
 20
3.938301646030083
 10
-50.36997441387019
 20
3.766148448459814
 10
-50.66047896626678
 20
3.486863113386924
 10
-50.91997506911093
 20
3.109807030399072
 10
-51.14266073547203
 20
2.643273527378817
 10
-51.32392532766403
 20
2.102267708541659
 10
-51.45980207519838
 20
1.5005026067867
 10
-51.54819415301053
 20
0.8562567485972375
 10
-51.57876282255542
 20
0.4306352095716657
 10
-51.58901087942773
 20
-0.0000000000000015
  0
ELLIPSE
  5
1A5
330
17E
100
AcDbEntity
  8
AM_9
100
AcDbEllipse
 10
-51.90956270283928
 20
-0.0000000000000018
 30
0.0
 11
5.443555022209987E-16
 21
8.890000000000002
 31
0.0
210
0.0
220
0.0
230
1.0
 40
0.4999999999999999
 41
0.0
 42
6.283185307179586
  0
LINE
  5
1A6
330
17E
100
AcDbEntity
  8
AM_9
100
AcDbLine
 10
-49.78342394248418
 20
-11.42943179720022
 30
0.0
 11
-49.70857156840596
 21
-11.42999982620869
 31
0.0
  0
LWPOLYLINE
  5
1A7
330
17E
100
AcDbEntity
  8
AM_9
100
AcDbPolyline
 90
       28
 70
     0
 43
0.0
 10
-56.69485817722681
 20
-0.0000000000000013
 10
-56.69172780811406
 20
-0.3566268078668224
 10
-56.66913912196339
 20
-1.021188231423942
 10
-56.62474777532781
 20
-1.682701686290671
 10
-56.55855603133037
 20
-2.339251421076067
 10
-56.47054405941392
 20
-2.98902754048527
 10
-56.3606615816808
 20
-3.630254607183435
 10
-56.22881510132738
 20
-4.261194209404098
 10
-56.07485272281694
 20
-4.88014125373394
 10
-55.89854816043997
 20
-5.485410435466007
 10
-55.69958732304258
 20
-6.075307937384326
 10
-55.47756402045352
 20
-6.648081877941329
 10
-55.2319964034465
 20
-7.201844291049759
 10
-54.96238263666977
 20
-7.734459885844712
 10
-54.66832046414577
 20
-8.243407506224257
 10
-54.34983713389576
 20
-8.725469770681006
 10
-54.00793326403397
 20
-9.176474926880823
 10
-53.6442549697222
 20
-9.592390301843079
 10
-53.26132520613437
 20
-9.96939979829983
 10
-52.86225304341217
 20
-10.3044909802214
 10
-52.45026875946294
 20
-10.59582934834323
 10
-52.02834425581548
 20
-10.84273649274786
 10
-51.59905683399898
 20
-11.04537278756973
 10
-51.16465499315485
 20
-11.20436319089746
 10
-50.72719237093996
 20
-11.32052807825238
 10
-50.28862854625992
 20
-11.3947473342821
 10
-49.85086252587814
 20
-11.42791232976276
 10
-49.78342394248418
 20
-11.42943179720022
  0
LWPOLYLINE
  5
1A8
330
17E
100
AcDbEntity
  8
AM_9
100
AcDbPolyline
 90
       29
 70
     0
 43
0.0
 10
-49.73423766356701
 20
11.42993759980208
 10
-49.81341691582891
 20
11.42887399092582
 10
-50.24635933344181
 20
11.39971877226211
 10
-50.67364290695939
 20
11.33182486287559
 10
-51.09379226008851
 20
11.22611059111954
 10
-51.50579194100428
 20
11.08330261419989
 10
-51.9088826000488
 20
10.9038672770336
 10
-52.3025105648787
 20
10.68795427390437
 10
-52.68622958925489
 20
10.43538534770373
 10
-53.05955723848467
 20
10.14572255749844
 10
-53.42180196424516
 20
9.818449122528285
 10
-53.77190043463533
 20
9.453273172282369
 10
-54.10833162705525
 20
9.050507191995441
 10
-54.42917979836069
 20
8.611394067330753
 10
-54.7323681604089
 20
8.138208754080322
 10
-55.01598400076033
 20
7.634046528111676
 10
-55.27854590571867
 20
7.102392566177257
 10
-55.51888283355545
 20
6.547238001941469
 10
-55.73665393120776
 20
5.971571924177096
 10
-55.93181762491668
 20
5.37796262439752
 10
-56.10447342646351
 20
4.768674821812562
 10
-56.2547708410204
 20
4.145765663690787
 10
-56.38285862681321
 20
3.511168693437421
 10
-56.4888621983954
 20
2.866754923687348
 10
-56.57287757582377
 20
2.214371972565552
 10
-56.63497362157718
 20
1.555865988350889
 10
-56.67519742631691
 20
0.893091294177216
 10
-56.6935798875738
 20
0.2279117554234738
 10
-56.69485817722681
 20
-0.0000000000000013
  0
LINE
  5
1A9
330
17E
100
AcDbEntity
  8
AM_9
100
AcDbLine
 10
-49.71131551155374
 20
11.42999977702642
 30
0.0
 11
-49.73423766356701
 21
11.42993759980208
 31
0.0
  0
LINE
  5
1AA
330
17E
100
AcDbEntity
  8
AM_9
100
AcDbLine
 10
74.4
 20
-12.7
 30
0.0
 11
90.4
 21
-12.7
 31
0.0
  0
LINE
  5
1AB
330
17E
100
AcDbEntity
  8
AM_9
100
AcDbLine
 10
90.4
 20
12.7
 30
0.0
 11
74.4
 21
12.7
 31
0.0
  0
LINE
  5
1AC
330
17E
100
AcDbEntity
  8
AM_9
100
AcDbLine
 10
72.65200000000002
 20
-14.858
 30
0.0
 11
72.65200000000002
 21
14.858
 31
0.0
  0
LINE
  5
1AD
330
17E
100
AcDbEntity
  8
AM_9
100
AcDbLine
 10
74.4
 20
-14.858
 30
0.0
 11
74.4
 21
14.858
 31
0.0
  0
LINE
  5
1AE
330
17E
100
AcDbEntity
  8
AM_9
100
AcDbLine
 10
57.04800000000002
 20
-14.858
 30
0.0
 11
57.048
 21
14.858
 31
0.0
  0
LINE
  5
1AF
330
17E
100
AcDbEntity
  8
AM_9
100
AcDbLine
 10
55.30000000000001
 20
-14.858
 30
0.0
 11
55.30000000000001
 21
14.858
 31
0.0
  0
LWPOLYLINE
  5
1B0
330
17E
100
AcDbEntity
  8
AM_9
100
AcDbPolyline
 90
       39
 70
     0
 43
0.0
 10
-49.70985817722679
 20
11.43
 10
-49.23385410669465
 20
11.39132126918211
 10
-48.74806550601446
 20
11.27586475554073
 10
-48.24169929440725
 20
11.07747285518395
 10
-47.73337143067742
 20
10.80026869762891
 10
-47.2421110251101
 20
10.45736667797955
 10
-46.75772799713995
 20
10.04463050296457
 10
-46.27146734486572
 20
9.55016303621651
 10
-45.80204745184604
 20
8.98847727958783
 10
-45.36132011433485
 20
8.373771723621076
 10
-44.9461192429143
 20
7.701891179492736
 10
-44.55044651694572
 20
6.955663017992201
 10
-44.19103953539288
 20
6.158785508459147
 10
-43.87820126448465
 20
5.333481988170631
 10
-43.60815136659951
 20
4.470340466328167
 10
-43.37851401122958
 20
3.547992134923936
 10
-43.20093870515245
 20
2.59855947553964
 10
-43.08217096253973
 20
1.669843079906346
 10
-43.01507289435963
 20
0.7292900308215003
 10
-43.001175309628
 20
-0.244823745912737
 10
-43.04322755164488
 20
-1.21709084730936
 10
-43.13555513004761
 20
-2.138945473692297
 10
-43.27739303278931
 20
-3.046101329474933
 10
-43.47327810792655
 20
-3.957416994103863
 10
-43.71708506466356
 20
-4.84030038657541
 10
-43.99938784408722
 20
-5.671093629463555
 10
-44.32133501704593
 20
-6.46339418221199
 10
-44.68992133661364
 20
-7.232289681186572
 10
-45.09226056253657
 20
-7.94994938131976
 10
-45.51937030661136
 20
-8.60484403032662
 10
-45.97060408931345
 20
-9.200442705656146
 10
-46.45525751584266
 20
-9.746925500574115
 10
-46.95542815799515
 20
-10.22234939356022
 10
-47.45203841006981
 20
-10.61299552841641
 10
-47.95382296638807
 20
-10.93011180298886
 10
-48.47125559517115
 20
-11.17706291155628
 10
-48.98455681180661
 20
-11.34142944849431
 10
-49.34954834594797
 20
-11.40774306074242
 10
-49.70985817722678
 20
-11.43
  0
LWPOLYLINE
  5
1B1
330
17E
100
AcDbEntity
  8
AM_9
100
AcDbPolyline
 90
       30
 70
     0
 43
0.0
 10
-49.70985817722678
 20
-11.43
 10
-50.29666164656499
 20
-11.36714523200614
 10
-50.85572566051661
 20
-11.18010187925984
 10
-51.40776150152995
 20
-10.85034885175122
 10
-51.92019656827303
 20
-10.38884845108142
 10
-52.38641569761305
 20
-9.804377092760665
 10
-52.80951244180594
 20
-9.091628008719072
 10
-53.18436781513239
 20
-8.265150168768026
 10
-53.50826399794272
 20
-7.339853450201382
 10
-53.78552441927221
 20
-6.306597413633031
 10
-54.0129547210697
 20
-5.189165924064584
 10
-54.189920862538
 20
-4.008306886790705
 10
-54.31691824647818
 20
-2.780846860532809
 10
-54.39648390339211
 20
-1.513127299630844
 10
-54.42858557996629
 20
-0.229747724642024
 10
-54.41398988529391
 20
1.033574050331347
 10
-54.3537947730353
 20
2.28779110340006
 10
-54.24801545950184
 20
3.509309422715871
 10
-54.09584180602319
 20
4.683474455226153
 10
-53.89617381468734
 20
5.803379292115069
 10
-53.64944220709678
 20
6.849132823711526
 10
-53.34824507470985
 20
7.82620704217926
 10
-52.99557122524411
 20
8.708693101178932
 10
-52.59370022947648
 20
9.480588800494735
 10
-52.13660553481164
 20
10.13912725164019
 10
-51.62943479053977
 20
10.67115314053308
 10
-51.07864719787129
 20
11.06610281093699
 10
-50.64183048101891
 20
11.26731433972611
 10
-50.18403979156422
 20
11.38909019087006
 10
-49.7098581772268
 20
11.43
  0
LINE
  5
1B2
330
17E
100
AcDbEntity
  8
AM_9
100
AcDbLine
 10
-16.6666665
 20
-7.865999999999994
 30
0.0
 11
-16.6666665
 21
14.858
 31
0.0
  0
LINE
  5
1B3
330
17E
100
AcDbEntity
  8
AM_9
100
AcDbLine
 10
16.6666665
 20
-7.865999999999994
 30
0.0
 11
16.6666665
 21
14.858
 31
0.0
  0
LINE
  5
1B4
330
17E
100
AcDbEntity
  8
AM_9
100
AcDbLine
 10
45.0
 20
-14.858
 30
0.0
 11
45.0
 21
14.858
 31
0.0
  0
LINE
  5
1B5
330
17E
100
AcDbEntity
  8
AM_9
100
AcDbLine
 10
-45.0
 20
14.858
 30
0.0
 11
-45.0
 21
-14.858
 31
0.0
  0
LINE
  5
1B6
330
17E
100
AcDbEntity
  8
AM_9
100
AcDbLine
 10
42.95
 20
14.858
 30
0.0
 11
12.8102458992792
 21
14.858
 31
0.0
  0
LINE
  5
1B7
330
17E
100
AcDbEntity
  8
AM_9
100
AcDbLine
 10
-12.8102458992792
 20
14.858
 30
0.0
 11
-42.95
 21
14.858
 31
0.0
  0
LINE
  5
1B8
330
17E
100
AcDbEntity
  8
AM_9
100
AcDbLine
 10
42.95
 20
-14.858
 30
0.0
 11
-42.95
 21
-14.858
 31
0.0
  0
LINE
  5
1B9
330
17E
100
AcDbEntity
  8
AM_9
100
AcDbLine
 10
16.6666665
 20
-7.865999999999994
 30
0.0
 11
-16.6666665
 21
-7.865999999999994
 31
0.0
  0
LWPOLYLINE
  5
1BA
330
17E
100
AcDbEntity
  8
AM_9
100
AcDbPolyline
 90
        8
 70
     0
 43
0.0
 10
-12.81024589927916
 20
14.85800000000001
 10
-8.774995372835539
 20
15.80043198684827
 10
-4.672961833117564
 20
16.38758247865351
 10
-0.5353642322380652
 20
16.61498290564191
 10
3.606307813710528
 20
16.48090261325598
 10
7.720533679648589
 20
15.98636203348066
 10
11.77600162249883
 20
15.13512491873982
 10
12.81024589927913
 20
14.85800000000002
  0
ELLIPSE
  5
1BB
330
17E
100
AcDbEntity
  8
AM_9
100
AcDbEllipse
 10
-51.90956270283929
 20
0.0000000000000098
 30
0.0
 11
-7.347880794884136E-16
 21
-4.00000000000001
 31
0.0
210
0.0
220
0.0
230
1.0
 40
0.5000000000000006
 41
0.0
 42
6.283185307179586
  0
ELLIPSE
  5
1BC
330
17E
100
AcDbEntity
  8
AM_9
100
AcDbEllipse
 10
-49.70985817722682
 20
0.0000000000000053
 30
0.0
 11
-2.099656937138140E-15
 21
-11.43000000000002
 31
0.0
210
0.0
220
0.0
230
1.0
 40
0.4999999999999997
 41
0.0
 42
6.283185307179586
  0
LINE
  5
1BD
330
17E
100
AcDbEntity
  8
AM_7
100
AcDbLine
 10
91.2
 20
0.0
 30
0.0
 11
73.60000000000001
 21
0.0
 31
0.0
  0
LINE
  5
1BE
330
17E
100
AcDbEntity
  8
AM_4
100
AcDbLine
 10
90.4
 20
24.65
 30
0.0
 11
74.4
 21
24.65
 31
0.0
  0
LINE
  5
1BF
330
17E
100
AcDbEntity
  8
AM_4
100
AcDbLine
 10
74.4
 20
24.65
 30
0.0
 11
74.4
 21
14.858
 31
0.0
  0
LINE
  5
1C0
330
17E
100
AcDbEntity
  8
AM_4
100
AcDbLine
 10
90.4
 20
24.65
 30
0.0
 11
90.4
 21
-24.65
 31
0.0
  0
LINE
  5
1C1
330
17E
100
AcDbEntity
  8
AM_4
100
AcDbLine
 10
74.4
 20
-14.858
 30
0.0
 11
74.4
 21
-24.65
 31
0.0
  0
LINE
  5
1C2
330
17E
100
AcDbEntity
  8
AM_4
100
AcDbLine
 10
74.4
 20
-24.65
 30
0.0
 11
90.4
 21
-24.65
 31
0.0
  0
LINE
  5
1C3
330
17E
100
AcDbEntity
  8
AM_4
100
AcDbLine
 10
-57.40000000000002
 20
13.872
 30
0.0
 11
-57.40000000000003
 21
-13.87199999999999
 31
0.0
  0
LINE
  5
1C4
330
17E
100
AcDbEntity
  8
AM_4
100
AcDbLine
 10
-56.41400000000003
 20
14.85800000000001
 30
0.0
 11
-57.40000000000002
 21
13.872
 31
0.0
  0
LINE
  5
1C5
330
17E
100
AcDbEntity
  8
AM_4
100
AcDbLine
 10
-57.40000000000002
 20
13.872
 30
0.0
 11
-42.95
 21
13.872
 31
0.0
  0
LINE
  5
1C6
330
17E
100
AcDbEntity
  8
AM_4
100
AcDbLine
 10
-56.41400000000003
 20
14.85800000000001
 30
0.0
 11
-42.95
 21
14.858
 31
0.0
  0
LINE
  5
1C7
330
17E
100
AcDbEntity
  8
AM_4
100
AcDbLine
 10
-57.40000000000002
 20
-13.87199999999999
 30
0.0
 11
-56.41400000000003
 21
-14.858
 31
0.0
  0
LINE
  5
1C8
330
17E
100
AcDbEntity
  8
AM_4
100
AcDbLine
 10
-57.40000000000002
 20
-13.87199999999999
 30
0.0
 11
-42.95
 21
-13.87199999999999
 31
0.0
  0
LINE
  5
1C9
330
17E
100
AcDbEntity
  8
AM_4
100
AcDbLine
 10
-56.41400000000003
 20
-14.858
 30
0.0
 11
-42.95
 21
-14.858
 31
0.0
  0
LINE
  5
1CA
330
17E
100
AcDbEntity
  8
AM_4
100
AcDbLine
 10
90.4
 20
-14.858
 30
0.0
 11
42.95
 21
-14.858
 31
0.0
  0
LINE
  5
1CB
330
17E
100
AcDbEntity
  8
AM_4
100
AcDbLine
 10
90.4
 20
-14.85799999999999
 30
0.0
 11
88.65200000000002
 21
-13.11
 31
0.0
  0
LINE
  5
1CC
330
17E
100
AcDbEntity
  8
AM_4
100
AcDbLine
 10
88.65200000000002
 20
-13.10999999999999
 30
0.0
 11
42.95
 21
-13.10999999999999
 31
0.0
  0
LINE
  5
1CD
330
17E
100
AcDbEntity
  8
AM_4
100
AcDbLine
 10
88.65200000000002
 20
-13.10999999999999
 30
0.0
 11
88.65200000000002
 21
13.11
 31
0.0
  0
LINE
  5
1CE
330
17E
100
AcDbEntity
  8
AM_4
100
AcDbLine
 10
90.4
 20
14.858
 30
0.0
 11
42.95
 21
14.858
 31
0.0
  0
LINE
  5
1CF
330
17E
100
AcDbEntity
  8
AM_4
100
AcDbLine
 10
88.65200000000002
 20
13.11
 30
0.0
 11
42.95
 21
13.11
 31
0.0
  0
LINE
  5
1D0
330
17E
100
AcDbEntity
  8
AM_4
100
AcDbLine
 10
88.65200000000002
 20
13.11
 30
0.0
 11
90.4
 21
14.858
 31
0.0
  0
LINE
  5
1D1
330
17E
100
AcDbEntity
  8
AM_4
100
AcDbLine
 10
-41.20200000000001
 20
-15.73199999999999
 30
0.0
 11
-41.20200000000001
 21
-8.739999999999998
 31
0.0
  0
LINE
  5
1D2
330
17E
100
AcDbEntity
  8
AM_4
100
AcDbLine
 10
41.202
 20
-15.73199999999999
 30
0.0
 11
-41.20200000000001
 21
-15.73199999999999
 31
0.0
  0
LINE
  5
1D3
330
17E
100
AcDbEntity
  8
AM_4
100
AcDbLine
 10
-41.20200000000001
 20
-15.73199999999999
 30
0.0
 11
-42.95000000000001
 21
-17.47999999999999
 31
0.0
  0
LINE
  5
1D4
330
17E
100
AcDbEntity
  8
AM_4
100
AcDbLine
 10
42.95
 20
-17.48000000000001
 30
0.0
 11
-42.95
 21
-17.48000000000001
 31
0.0
  0
LINE
  5
1D5
330
17E
100
AcDbEntity
  8
AM_4
100
AcDbLine
 10
42.95
 20
17.48000000000001
 30
0.0
 11
-42.95
 21
17.48000000000001
 31
0.0
  0
LINE
  5
1D6
330
17E
100
AcDbEntity
  8
AM_4
100
AcDbLine
 10
41.202
 20
15.732
 30
0.0
 11
-41.20200000000001
 21
15.732
 31
0.0
  0
LINE
  5
1D7
330
17E
100
AcDbEntity
  8
AM_4
100
AcDbLine
 10
42.95
 20
17.48000000000001
 30
0.0
 11
42.95
 21
-17.48000000000001
 31
0.0
  0
LINE
  5
1D8
330
17E
100
AcDbEntity
  8
AM_4
100
AcDbLine
 10
41.202
 20
15.732
 30
0.0
 11
42.95
 21
17.48
 31
0.0
  0
LINE
  5
1D9
330
17E
100
AcDbEntity
  8
AM_4
100
AcDbLine
 10
41.202
 20
8.740000000000002
 30
0.0
 11
41.202
 21
15.732
 31
0.0
  0
LINE
  5
1DA
330
17E
100
AcDbEntity
  8
AM_4
100
AcDbLine
 10
-42.95
 20
-8.739999999999998
 30
0.0
 11
42.95
 21
-8.739999999999998
 31
0.0
  0
LINE
  5
1DB
330
17E
100
AcDbEntity
  8
AM_4
100
AcDbLine
 10
41.202
 20
-15.73199999999999
 30
0.0
 11
41.202
 21
-8.739999999999995
 31
0.0
  0
LINE
  5
1DC
330
17E
100
AcDbEntity
  8
AM_4
100
AcDbLine
 10
42.95000000000001
 20
-17.48
 30
0.0
 11
41.202
 21
-15.73199999999999
 31
0.0
  0
LINE
  5
1DD
330
17E
100
AcDbEntity
  8
AM_4
100
AcDbLine
 10
42.95
 20
8.740000000000002
 30
0.0
 11
-42.95
 21
8.740000000000006
 31
0.0
  0
LINE
  5
1DE
330
17E
100
AcDbEntity
  8
AM_4
100
AcDbLine
 10
-41.20200000000001
 20
8.740000000000006
 30
0.0
 11
-41.20200000000001
 21
15.732
 31
0.0
  0
LINE
  5
1DF
330
17E
100
AcDbEntity
  8
AM_4
100
AcDbLine
 10
-42.95
 20
17.48
 30
0.0
 11
-41.20200000000001
 21
15.732
 31
0.0
  0
LINE
  5
1E0
330
17E
100
AcDbEntity
  8
AM_4
100
AcDbLine
 10
-42.95
 20
17.48000000000001
 30
0.0
 11
-42.95
 21
-17.48000000000001
 31
0.0
  0
ENDBLK
  5
181
330
17E
100
AcDbEntity
  8
0
100
AcDbBlockEnd
  0
ENDSEC
  0
SECTION
  2
ENTITIES
  0
INSERT
  5
6F
330
1F
100
AcDbEntity
  8
0
100
AcDbBlockReference
  2
1_125916_4
 10
0.0
 20
0.0
 30
0.0
  0
POINT
  5
1E2
330
1F
100
AcDbEntity
  8
ConnectionPoints
100
AcDbPoint
 10
-51.90956270283927
 20
-0.0000000000000018
 30
-29.97000000000001
  0
POINT
  5
1E3
330
1F
100
AcDbEntity
  8
ConnectionPoints
100
AcDbPoint
 10
-51.90956270283927
 20
-0.0000000000000018
 30
-29.97000000000001
  0
POINT
  5
1E4
330
1F
100
AcDbEntity
  8
ConnectionPoints
100
AcDbPoint
 10
0.0
 20
-30.2
 30
0.0000000000000018
  0
ENDSEC
  0
SECTION
  2
OBJECTS
  0
DICTIONARY
  5
C
330
0
100
AcDbDictionary
281
     1
  3
ACAD_DETAILVIEWSTYLE
350
1EC
  3
ACAD_GROUP
350
D
  3
ACAD_LAYOUT
350
1A
  3
ACAD_MATERIAL
350
43
  3
ACAD_MLEADERSTYLE
350
6B
  3
ACAD_MLINESTYLE
350
17
  3
ACAD_PLOTSETTINGS
350
19
  3
ACAD_PLOTSTYLENAME
350
E
  3
ACAD_SCALELIST
350
47
  3
ACAD_SECTIONVIEWSTYLE
350
1ED
  3
ACAD_TABLESTYLE
350
69
  3
ACAD_VISUALSTYLE
350
2A
  3
ACDB_RECOMPOSE_DATA
350
1E9
  3
AcDbVariableDictionary
350
1E5
  0
SUN
  5
6D
330
29
100
AcDbSun
 90
        1
290
     0
 63
     7
421
 16777215
 40
1.0
291
     1
 91
  2455826
 92
 54000000
292
     0
 70
     2
 71
   256
280
     1
  0
DICTIONARY
  5
1EC
102
{ACAD_REACTORS
330
C
102
}
330
C
100
AcDbDictionary
281
     1
  0
DICTIONARY
  5
D
102
{ACAD_REACTORS
330
C
102
}
330
C
100
AcDbDictionary
281
     1
  0
DICTIONARY
  5
1A
102
{ACAD_REACTORS
330
C
102
}
330
C
100
AcDbDictionary
281
     1
  3
Layout1
350
1E
  3
Layout2
350
26
  3
Model
350
22
  0
DICTIONARY
  5
43
102
{ACAD_REACTORS
330
C
102
}
330
C
100
AcDbDictionary
281
     1
  3
ByBlock
350
45
  3
ByLayer
350
44
  3
Global
350
46
  0
DICTIONARY
  5
6B
102
{ACAD_REACTORS
330
C
102
}
330
C
100
AcDbDictionary
281
     1
  3
Standard
350
6C
  0
DICTIONARY
  5
17
102
{ACAD_REACTORS
330
C
102
}
330
C
100
AcDbDictionary
281
     1
  3
Standard
350
18
  0
DICTIONARY
  5
19
102
{ACAD_REACTORS
330
C
102
}
330
C
100
AcDbDictionary
281
     1
  0
ACDBDICTIONARYWDFLT
  5
E
102
{ACAD_REACTORS
330
C
102
}
330
C
100
AcDbDictionary
281
     1
  3
Normal
350
F
100
AcDbDictionaryWithDefault
340
F
  0
DICTIONARY
  5
47
102
{ACAD_REACTORS
330
C
102
}
330
C
100
AcDbDictionary
281
     1
  3
A0
350
48
  3
A1
350
49
  3
A2
350
4A
  3
A3
350
4B
  3
A4
350
4C
  3
A5
350
4D
  3
A6
350
4E
  3
A7
350
4F
  3
A8
350
50
  3
A9
350
51
  3
B0
350
52
  3
B1
350
53
  3
B2
350
54
  3
B3
350
55
  3
B4
350
56
  3
B5
350
57
  3
B6
350
58
  3
B7
350
59
  3
B8
350
5A
  3
B9
350
5B
  3
C0
350
5C
  3
C1
350
5D
  3
C2
350
5E
  3
C3
350
5F
  3
C4
350
60
  3
C5
350
61
  3
C6
350
62
  3
C7
350
63
  3
C8
350
64
  3
C9
350
65
  3
D0
350
66
  3
D1
350
67
  3
D2
350
68
  0
DICTIONARY
  5
1ED
102
{ACAD_REACTORS
330
C
102
}
330
C
100
AcDbDictionary
281
     1
  0
DICTIONARY
  5
69
102
{ACAD_REACTORS
330
C
102
}
330
C
100
AcDbDictionary
281
     1
  3
Standard
350
6A
  0
DICTIONARY
  5
2A
102
{ACAD_REACTORS
330
C
102
}
330
C
100
AcDbDictionary
281
     1
  3
2dWireframe
350
2F
  3
Basic
350
32
  3
Brighten
350
36
  3
ColorChange
350
3A
  3
Conceptual
350
34
  3
Dim
350
35
  3
EdgeColorOff
350
3D
  3
Facepattern
350
39
  3
Flat
350
2B
  3
FlatWithEdges
350
2C
  3
Gouraud
350
2D
  3
GouraudWithEdges
350
2E
  3
Hidden
350
31
  3
JitterOff
350
3B
  3
Linepattern
350
38
  3
OverhangOff
350
3C
  3
Realistic
350
33
  3
Shaded
350
42
  3
Shaded with edges
350
41
  3
Shades of Gray
350
3E
  3
Sketchy
350
3F
  3
Thicken
350
37
  3
Wireframe
350
30
  3
X-Ray
350
40
  0
XRECORD
  5
1E9
102
{ACAD_REACTORS
330
C
102
}
330
C
100
AcDbXrecord
280
     1
 90
        1
330
6A
  0
DICTIONARY
  5
1E5
102
{ACAD_REACTORS
330
C
102
}
330
C
100
AcDbDictionary
281
     1
  3
CANNOSCALE
350
1E6
  3
CMLEADERSTYLE
350
1EB
  3
CTABLESTYLE
350
1EA
  0
LAYOUT
  5
1E
102
{ACAD_REACTORS
330
1A
102
}
330
1A
100
AcDbPlotSettings
  1

  2
none_device
  4

  6

 40
0.0
 41
0.0
 42
0.0
 43
0.0
 44
0.0
 45
0.0
 46
0.0
 47
0.0
 48
0.0
 49
0.0
140
0.0
141
0.0
142
1.0
143
1.0
 70
   688
 72
     1
 73
     0
 74
     5
  7

 75
    16
 76
     0
 77
     2
 78
   300
147
1.0
148
0.0
149
0.0
100
AcDbLayout
  1
Layout1
 70
     1
 71
     1
 10
0.0
 20
0.0
 11
420.0
 21
297.0
 12
0.0
 22
0.0
 32
0.0
 14
1.000000000000000E+20
 24
1.000000000000000E+20
 34
1.000000000000000E+20
 15
-1.000000000000000E+20
 25
-1.000000000000000E+20
 35
-1.000000000000000E+20
146
0.0
 13
0.0
 23
0.0
 33
0.0
 16
1.0
 26
0.0
 36
0.0
 17
0.0
 27
1.0
 37
0.0
 76
     0
330
1B
  0
LAYOUT
  5
26
102
{ACAD_REACTORS
330
1A
102
}
330
1A
100
AcDbPlotSettings
  1

  2
none_device
  4

  6

 40
0.0
 41
0.0
 42
0.0
 43
0.0
 44
0.0
 45
0.0
 46
0.0
 47
0.0
 48
0.0
 49
0.0
140
0.0
141
0.0
142
1.0
143
1.0
 70
   688
 72
     1
 73
     0
 74
     5
  7

 75
    16
 76
     0
 77
     2
 78
   300
147
1.0
148
0.0
149
0.0
100
AcDbLayout
  1
Layout2
 70
     1
 71
     2
 10
0.0
 20
0.0
 11
0.0
 21
0.0
 12
0.0
 22
0.0
 32
0.0
 14
0.0
 24
0.0
 34
0.0
 15
0.0
 25
0.0
 35
0.0
146
0.0
 13
0.0
 23
0.0
 33
0.0
 16
1.0
 26
0.0
 36
0.0
 17
0.0
 27
1.0
 37
0.0
 76
     0
330
23
  0
LAYOUT
  5
22
102
{ACAD_REACTORS
330
1A
102
}
330
1A
100
AcDbPlotSettings
  1

  2
none_device
  4
Letter_(8.50_x_11.00_Inches)
  6

 40
6.35
 41
6.35
 42
6.35000508
 43
6.35000508
 44
215.9
 45
279.4
 46
0.0
 47
0.0
 48
0.0
 49
0.0
140
0.0
141
0.0
142
1.0
143
1.0
 70
  1712
 72
     1
 73
     0
 74
     0
  7

 75
     0
 76
     0
 77
     2
 78
   300
147
1.0
148
0.0
149
0.0
100
AcDbLayout
  1
Model
 70
     1
 71
     0
 10
0.0
 20
0.0
 11
420.0
 21
297.0
 12
0.0
 22
0.0
 32
0.0
 14
1.000000000000000E+20
 24
1.000000000000000E+20
 34
1.000000000000000E+20
 15
-1.000000000000000E+20
 25
-1.000000000000000E+20
 35
-1.000000000000000E+20
146
0.0
 13
0.0
 23
0.0
 33
0.0
 16
1.0
 26
0.0
 36
0.0
 17
0.0
 27
1.0
 37
0.0
 76
     0
330
1F
331
29
  0
MATERIAL
  5
45
102
{ACAD_REACTORS
330
43
102
}
330
43
100
AcDbMaterial
  1
ByBlock
 72
     1
 94
      127
  0
MATERIAL
  5
44
102
{ACAD_REACTORS
330
43
102
}
330
43
100
AcDbMaterial
  1
ByLayer
 72
     1
 94
      127
  0
MATERIAL
  5
46
102
{ACAD_REACTORS
330
43
102
}
330
43
100
AcDbMaterial
  1
Global
 72
     1
 94
      127
  0
MLEADERSTYLE
  5
6C
102
{ACAD_REACTORS
330
6B
102
}
330
6B
100
AcDbMLeaderStyle
179
     2
170
     2
171
     1
172
     0
 90
        2
 40
0.0
 41
0.0
173
     1
 91
-1056964608
340
14
 92
       -2
290
     1
 42
2.0
291
     1
 43
8.0
  3
Standard
341
0
 44
4.0
300

342
11
174
     1
178
     6
175
     1
176
     0
 93
-1056964608
 45
4.0
292
     0
297
     0
 46
4.0
343
0
 94
-1056964608
 47
1.0
 49
1.0
140
1.0
293
     1
141
0.0
294
     1
177
     0
142
1.0
295
     0
296
     0
143
3.75
271
     0
272
     9
273
     9
298
     0
  0
MLINESTYLE
  5
18
102
{ACAD_REACTORS
330
17
102
}
330
17
100
AcDbMlineStyle
  2
Standard
 70
     0
  3

 62
   256
 51
90.0
 52
90.0
 71
     2
 49
0.5
 62
   256
  6
BYLAYER
 49
-0.5
 62
   256
  6
BYLAYER
  0
ACDBPLACEHOLDER
  5
F
102
{ACAD_REACTORS
330
E
102
}
330
E
  0
SCALE
  5
48
102
{ACAD_REACTORS
330
47
102
}
330
47
100
AcDbScale
 70
     0
300
1:1
140
1.0
141
1.0
290
     1
  0
SCALE
  5
49
102
{ACAD_REACTORS
330
47
102
}
330
47
100
AcDbScale
 70
     0
300
1:2
140
1.0
141
2.0
290
     0
  0
SCALE
  5
4A
102
{ACAD_REACTORS
330
47
102
}
330
47
100
AcDbScale
 70
     0
300
1:4
140
1.0
141
4.0
290
     0
  0
SCALE
  5
4B
102
{ACAD_REACTORS
330
47
102
}
330
47
100
AcDbScale
 70
     0
300
1:5
140
1.0
141
5.0
290
     0
  0
SCALE
  5
4C
102
{ACAD_REACTORS
330
47
102
}
330
47
100
AcDbScale
 70
     0
300
1:8
140
1.0
141
8.0
290
     0
  0
SCALE
  5
4D
102
{ACAD_REACTORS
330
47
102
}
330
47
100
AcDbScale
 70
     0
300
1:10
140
1.0
141
10.0
290
     0
  0
SCALE
  5
4E
102
{ACAD_REACTORS
330
47
102
}
330
47
100
AcDbScale
 70
     0
300
1:16
140
1.0
141
16.0
290
     0
  0
SCALE
  5
4F
102
{ACAD_REACTORS
330
47
102
}
330
47
100
AcDbScale
 70
     0
300
1:20
140
1.0
141
20.0
290
     0
  0
SCALE
  5
50
102
{ACAD_REACTORS
330
47
102
}
330
47
100
AcDbScale
 70
     0
300
1:30
140
1.0
141
30.0
290
     0
  0
SCALE
  5
51
102
{ACAD_REACTORS
330
47
102
}
330
47
100
AcDbScale
 70
     0
300
1:40
140
1.0
141
40.0
290
     0
  0
SCALE
  5
52
102
{ACAD_REACTORS
330
47
102
}
330
47
100
AcDbScale
 70
     0
300
1:50
140
1.0
141
50.0
290
     0
  0
SCALE
  5
53
102
{ACAD_REACTORS
330
47
102
}
330
47
100
AcDbScale
 70
     0
300
1:100
140
1.0
141
100.0
290
     0
  0
SCALE
  5
54
102
{ACAD_REACTORS
330
47
102
}
330
47
100
AcDbScale
 70
     0
300
2:1
140
2.0
141
1.0
290
     0
  0
SCALE
  5
55
102
{ACAD_REACTORS
330
47
102
}
330
47
100
AcDbScale
 70
     0
300
4:1
140
4.0
141
1.0
290
     0
  0
SCALE
  5
56
102
{ACAD_REACTORS
330
47
102
}
330
47
100
AcDbScale
 70
     0
300
8:1
140
8.0
141
1.0
290
     0
  0
SCALE
  5
57
102
{ACAD_REACTORS
330
47
102
}
330
47
100
AcDbScale
 70
     0
300
10:1
140
10.0
141
1.0
290
     0
  0
SCALE
  5
58
102
{ACAD_REACTORS
330
47
102
}
330
47
100
AcDbScale
 70
     0
300
100:1
140
100.0
141
1.0
290
     0
  0
SCALE
  5
59
102
{ACAD_REACTORS
330
47
102
}
330
47
100
AcDbScale
 70
     0
300
1/128" = 1'-0"
140
0.0078125
141
12.0
290
     0
  0
SCALE
  5
5A
102
{ACAD_REACTORS
330
47
102
}
330
47
100
AcDbScale
 70
     0
300
1/64" = 1'-0"
140
0.015625
141
12.0
290
     0
  0
SCALE
  5
5B
102
{ACAD_REACTORS
330
47
102
}
330
47
100
AcDbScale
 70
     0
300
1/32" = 1'-0"
140
0.03125
141
12.0
290
     0
  0
SCALE
  5
5C
102
{ACAD_REACTORS
330
47
102
}
330
47
100
AcDbScale
 70
     0
300
1/16" = 1'-0"
140
0.0625
141
12.0
290
     0
  0
SCALE
  5
5D
102
{ACAD_REACTORS
330
47
102
}
330
47
100
AcDbScale
 70
     0
300
3/32" = 1'-0"
140
0.09375
141
12.0
290
     0
  0
SCALE
  5
5E
102
{ACAD_REACTORS
330
47
102
}
330
47
100
AcDbScale
 70
     0
300
1/8" = 1'-0"
140
0.125
141
12.0
290
     0
  0
SCALE
  5
5F
102
{ACAD_REACTORS
330
47
102
}
330
47
100
AcDbScale
 70
     0
300
3/16" = 1'-0"
140
0.1875
141
12.0
290
     0
  0
SCALE
  5
60
102
{ACAD_REACTORS
330
47
102
}
330
47
100
AcDbScale
 70
     0
300
1/4" = 1'-0"
140
0.25
141
12.0
290
     0
  0
SCALE
  5
61
102
{ACAD_REACTORS
330
47
102
}
330
47
100
AcDbScale
 70
     0
300
3/8" = 1'-0"
140
0.375
141
12.0
290
     0
  0
SCALE
  5
62
102
{ACAD_REACTORS
330
47
102
}
330
47
100
AcDbScale
 70
     0
300
1/2" = 1'-0"
140
0.5
141
12.0
290
     0
  0
SCALE
  5
63
102
{ACAD_REACTORS
330
47
102
}
330
47
100
AcDbScale
 70
     0
300
3/4" = 1'-0"
140
0.75
141
12.0
290
     0
  0
SCALE
  5
64
102
{ACAD_REACTORS
330
47
102
}
330
47
100
AcDbScale
 70
     0
300
1" = 1'-0"
140
1.0
141
12.0
290
     0
  0
SCALE
  5
65
102
{ACAD_REACTORS
330
47
102
}
330
47
100
AcDbScale
 70
     0
300
1-1/2" = 1'-0"
140
1.5
141
12.0
290
     0
  0
SCALE
  5
66
102
{ACAD_REACTORS
330
47
102
}
330
47
100
AcDbScale
 70
     0
300
3" = 1'-0"
140
3.0
141
12.0
290
     0
  0
SCALE
  5
67
102
{ACAD_REACTORS
330
47
102
}
330
47
100
AcDbScale
 70
     0
300
6" = 1'-0"
140
6.0
141
12.0
290
     0
  0
SCALE
  5
68
102
{ACAD_REACTORS
330
47
102
}
330
47
100
AcDbScale
 70
     0
300
1'-0" = 1'-0"
140
12.0
141
12.0
290
     0
  0
TABLESTYLE
  5
6A
102
{ACAD_REACTORS
330
69
102
}
102
{ACAD_XDICTIONARY
360
1E7
102
}
330
69
100
AcDbTableStyle
  3
Standard
 70
     0
 71
     0
 40
0.06
 41
0.06
280
     0
281
     0
  7
Standard
140
4.5
170
     2
 62
     0
 63
   257
283
     0
 90
        4
 91
        0
  1

274
    -2
284
     1
 64
     0
275
    -2
285
     1
 65
     0
276
    -2
286
     1
 66
     0
277
    -2
287
     1
 67
     0
278
    -2
288
     1
 68
     0
279
    -2
289
     1
 69
     0
  7
Standard
140
6.0
170
     5
 62
     0
 63
   257
283
     0
 90
        4
 91
        0
  1

274
    -2
284
     1
 64
     0
275
    -2
285
     1
 65
     0
276
    -2
286
     1
 66
     0
277
    -2
287
     1
 67
     0
278
    -2
288
     1
 68
     0
279
    -2
289
     1
 69
     0
  7
Standard
140
4.5
170
     5
 62
     0
 63
   257
283
     0
 90
        4
 91
        0
  1

274
    -2
284
     1
 64
     0
275
    -2
285
     1
 65
     0
276
    -2
286
     1
 66
     0
277
    -2
287
     1
 67
     0
278
    -2
288
     1
 68
     0
279
    -2
289
     1
 69
     0
  0
VISUALSTYLE
  5
2F
102
{ACAD_REACTORS
330
2A
102
}
330
2A
100
AcDbVisualStyle
  2
2dWireframe
 70
     4
177
     3
291
     0
 70
    58
 90
        0
176
     1
 90
        2
176
     1
 90
        0
176
     1
 90
        0
176
     1
 40
0.6
176
     1
 40
30.0
176
     1
 62
     7
420
 16777215
176
     1
 90
        1
176
     1
 90
        4
176
     1
 62
     7
176
     1
 62
   257
176
     1
 90
        1
176
     1
 90
        1
176
     1
 40
1.0
176
     1
 90
        0
176
     1
 62
   257
176
     1
 40
1.0
176
     1
 90
        1
176
     1
 90
        6
176
     1
 90
        2
176
     1
 62
     7
176
     1
 90
        5
176
     1
 90
        0
176
     1
 90
        0
176
     1
290
     0
176
     1
 90
        1
176
     1
 40
0.0
176
     1
 90
        0
176
     1
290
     1
176
     1
290
     1
176
     1
290
     0
176
     1
290
     0
176
     1
290
     0
176
     1
290
     0
176
     1
290
     0
176
     1
290
     0
176
     1
290
     0
176
     1
 90
       50
176
     1
 40
0.0
176
     1
 40
1.0
176
     1
 90
        0
176
     1
 62
    18
420
        0
176
     1
 90
       50
176
     1
 90
        3
176
     1
 62
     5
420
      255
176
     1
290
     0
176
     1
 90
       50
176
     1
 90
       50
176
     1
 90
       50
176
     1
290
     0
176
     1
 90
       50
176
     1
 62
   256
176
     0
 40
1.0
176
     0
 90
        2
176
     1
  1
strokes_ogs.tif
176
     1
290
     0
176
     1
 40
1.0
176
     1
 40
1.0
176
     1
  0
VISUALSTYLE
  5
32
102
{ACAD_REACTORS
330
2A
102
}
330
2A
100
AcDbVisualStyle
  2
Basic
 70
     7
177
     3
291
     1
 70
    58
 90
        1
176
     1
 90
        0
176
     1
 90
        1
176
     1
 90
        0
176
     1
 40
0.6
176
     1
 40
30.0
176
     1
 62
     7
420
 16777215
176
     1
 90
        0
176
     1
 90
        4
176
     1
 62
     7
176
     1
 62
   257
176
     1
 90
        1
176
     1
 90
        1
176
     1
 40
1.0
176
     1
 90
        8
176
     1
 62
     7
176
     1
 40
1.0
176
     1
 90
        1
176
     1
 90
        6
176
     1
 90
        2
176
     1
 62
     7
176
     1
 90
        5
176
     1
 90
        0
176
     1
 90
        0
176
     1
290
     0
176
     1
 90
        1
176
     1
 40
0.0
176
     1
 90
        0
176
     1
290
     0
176
     1
290
     1
176
     1
290
     1
176
     1
290
     0
176
     1
290
     0
176
     1
290
     0
176
     1
290
     0
176
     1
290
     0
176
     1
290
     0
176
     1
 90
       50
176
     1
 40
0.0
176
     1
 40
1.0
176
     1
 90
        0
176
     1
 62
    18
420
        0
176
     1
 90
       50
176
     1
 90
        3
176
     1
 62
     5
420
      255
176
     1
290
     0
176
     1
 90
       50
176
     1
 90
       50
176
     1
 90
       50
176
     1
290
     0
176
     1
 90
       50
176
     1
 62
   256
176
     0
 40
1.0
176
     0
 90
        2
176
     1
  1
strokes_ogs.tif
176
     1
290
     0
176
     1
 40
1.0
176
     1
 40
1.0
176
     1
  0
VISUALSTYLE
  5
36
102
{ACAD_REACTORS
330
2A
102
}
330
2A
100
AcDbVisualStyle
  2
Brighten
 70
    12
177
     3
291
     1
 70
    58
 90
        2
176
     1
 90
        2
176
     1
 90
        0
176
     1
 90
        0
176
     1
 40
0.6
176
     1
 40
30.0
176
     1
 62
     7
420
 16777215
176
     1
 90
        1
176
     1
 90
        4
176
     1
 62
     7
176
     1
 62
   257
176
     1
 90
        1
176
     1
 90
        1
176
     1
 40
1.0
176
     1
 90
        8
176
     1
 62
     7
176
     1
 40
1.0
176
     1
 90
        1
176
     1
 90
        6
176
     1
 90
        2
176
     1
 62
     7
176
     1
 90
        5
176
     1
 90
        0
176
     1
 90
        0
176
     1
290
     0
176
     1
 90
        1
176
     1
 40
50.0
176
     1
 90
        0
176
     1
290
     0
176
     1
290
     1
176
     1
290
     1
176
     1
290
     0
176
     1
290
     0
176
     1
290
     0
176
     1
290
     0
176
     1
290
     0
176
     1
290
     0
176
     1
 90
       50
176
     1
 40
0.0
176
     1
 40
1.0
176
     1
 90
        0
176
     1
 62
    18
420
        0
176
     1
 90
       50
176
     1
 90
        3
176
     1
 62
     5
420
      255
176
     1
290
     0
176
     1
 90
       50
176
     1
 90
       50
176
     1
 90
       50
176
     1
290
     0
176
     1
 90
       50
176
     1
 62
   256
176
     0
 40
1.0
176
     0
 90
        2
176
     1
  1
strokes_ogs.tif
176
     1
290
     0
176
     1
 40
1.0
176
     1
 40
1.0
176
     1
  0
VISUALSTYLE
  5
3A
102
{ACAD_REACTORS
330
2A
102
}
330
2A
100
AcDbVisualStyle
  2
ColorChange
 70
    16
177
     3
291
     1
 70
    58
 90
        2
176
     1
 90
        2
176
     1
 90
        3
176
     1
 90
        0
176
     1
 40
0.6
176
     1
 40
30.0
176
     1
 62
     8
420
  8421504
176
     1
 90
        1
176
     1
 90
        4
176
     1
 62
     7
176
     1
 62
   257
176
     1
 90
        1
176
     1
 90
        1
176
     1
 40
1.0
176
     1
 90
        8
176
     1
 62
     8
420
  8421504
176
     1
 40
1.0
176
     1
 90
        1
176
     1
 90
        6
176
     1
 90
        2
176
     1
 62
     7
176
     1
 90
        5
176
     1
 90
        0
176
     1
 90
        0
176
     1
290
     0
176
     1
 90
        1
176
     1
 40
0.0
176
     1
 90
        0
176
     1
290
     0
176
     1
290
     1
176
     1
290
     1
176
     1
290
     0
176
     1
290
     0
176
     1
290
     0
176
     1
290
     0
176
     1
290
     0
176
     1
290
     0
176
     1
 90
       50
176
     1
 40
0.0
176
     1
 40
1.0
176
     1
 90
        0
176
     1
 62
    18
420
        0
176
     1
 90
       50
176
     1
 90
        3
176
     1
 62
     5
420
      255
176
     1
290
     0
176
     1
 90
       50
176
     1
 90
       50
176
     1
 90
       50
176
     1
290
     0
176
     1
 90
       50
176
     1
 62
   256
176
     0
 40
1.0
176
     0
 90
        2
176
     1
  1
strokes_ogs.tif
176
     1
290
     0
176
     1
 40
1.0
176
     1
 40
1.0
176
     1
  0
VISUALSTYLE
  5
34
102
{ACAD_REACTORS
330
2A
102
}
330
2A
100
AcDbVisualStyle
  2
Conceptual
 70
     9
177
     3
291
     0
 70
    58
 90
        3
176
     1
 90
        2
176
     1
 90
        0
176
     1
 90
        0
176
     1
 40
0.6
176
     1
 40
30.0
176
     1
 62
     7
420
 16777215
176
     1
 90
        2
176
     1
 90
        2
176
     1
 62
     7
176
     1
 62
   257
176
     1
 90
        1
176
     1
 90
        1
176
     1
 40
179.0
176
     1
 90
        8
176
     1
 62
     7
176
     1
 40
1.0
176
     1
 90
        1
176
     1
 90
        6
176
     1
 90
        2
176
     1
 62
     7
176
     1
 90
        3
176
     1
 90
        0
176
     1
 90
        0
176
     1
290
     0
176
     1
 90
        1
176
     1
 40
0.0
176
     1
 90
        0
176
     1
290
     0
176
     1
290
     1
176
     1
290
     1
176
     1
290
     0
176
     1
290
     0
176
     1
290
     0
176
     1
290
     0
176
     1
290
     0
176
     1
290
     0
176
     1
 90
       50
176
     1
 40
0.0
176
     1
 40
1.0
176
     1
 90
        0
176
     1
 62
    18
420
        0
176
     1
 90
       50
176
     1
 90
        3
176
     1
 62
     5
420
      255
176
     1
290
     0
176
     1
 90
       50
176
     1
 90
       50
176
     1
 90
       50
176
     1
290
     0
176
     1
 90
       50
176
     1
 62
   256
176
     0
 40
1.0
176
     0
 90
        2
176
     1
  1
strokes_ogs.tif
176
     1
290
     0
176
     1
 40
1.0
176
     1
 40
1.0
176
     1
  0
VISUALSTYLE
  5
35
102
{ACAD_REACTORS
330
2A
102
}
330
2A
100
AcDbVisualStyle
  2
Dim
 70
    11
177
     3
291
     1
 70
    58
 90
        2
176
     1
 90
        2
176
     1
 90
        0
176
     1
 90
        0
176
     1
 40
0.6
176
     1
 40
30.0
176
     1
 62
     7
420
 16777215
176
     1
 90
        1
176
     1
 90
        4
176
     1
 62
     7
176
     1
 62
   257
176
     1
 90
        1
176
     1
 90
        1
176
     1
 40
1.0
176
     1
 90
        8
176
     1
 62
     7
176
     1
 40
1.0
176
     1
 90
        1
176
     1
 90
        6
176
     1
 90
        2
176
     1
 62
     7
176
     1
 90
        5
176
     1
 90
        0
176
     1
 90
        0
176
     1
290
     0
176
     1
 90
        1
176
     1
 40
-50.0
176
     1
 90
        0
176
     1
290
     0
176
     1
290
     1
176
     1
290
     1
176
     1
290
     0
176
     1
290
     0
176
     1
290
     0
176
     1
290
     0
176
     1
290
     0
176
     1
290
     0
176
     1
 90
       50
176
     1
 40
0.0
176
     1
 40
1.0
176
     1
 90
        0
176
     1
 62
    18
420
        0
176
     1
 90
       50
176
     1
 90
        3
176
     1
 62
     5
420
      255
176
     1
290
     0
176
     1
 90
       50
176
     1
 90
       50
176
     1
 90
       50
176
     1
290
     0
176
     1
 90
       50
176
     1
 62
   256
176
     0
 40
1.0
176
     0
 90
        2
176
     1
  1
strokes_ogs.tif
176
     1
290
     0
176
     1
 40
1.0
176
     1
 40
1.0
176
     1
  0
VISUALSTYLE
  5
3D
102
{ACAD_REACTORS
330
2A
102
}
330
2A
100
AcDbVisualStyle
  2
EdgeColorOff
 70
    22
177
     3
291
     1
 70
    58
 90
        2
176
     0
 90
        2
176
     0
 90
        0
176
     0
 90
        0
176
     0
 40
0.6
176
     0
 40
30.0
176
     0
 62
     7
420
 16777215
176
     0
 90
        1
176
     0
 90
        4
176
     0
 62
     7
176
     0
 62
   257
176
     0
 90
        1
176
     0
 90
        1
176
     0
 40
1.0
176
     0
 90
        8
176
     2
 62
     7
176
     0
 40
1.0
176
     0
 90
        1
176
     0
 90
        6
176
     0
 90
        2
176
     0
 62
     7
176
     0
 90
        5
176
     0
 90
        0
176
     0
 90
        0
176
     0
290
     0
176
     0
 90
        1
176
     0
 40
0.0
176
     0
 90
        0
176
     0
290
     0
176
     0
290
     1
176
     0
290
     1
176
     0
290
     0
176
     0
290
     0
176
     0
290
     0
176
     0
290
     0
176
     0
290
     0
176
     0
290
     0
176
     0
 90
       50
176
     0
 40
0.0
176
     0
 40
1.0
176
     0
 90
        0
176
     0
 62
    18
420
        0
176
     0
 90
       50
176
     0
 90
        3
176
     0
 62
     5
420
      255
176
     0
290
     0
176
     0
 90
       50
176
     0
 90
       50
176
     0
 90
       50
176
     0
290
     0
176
     0
 90
       50
176
     0
 62
   256
176
     0
 40
1.0
176
     0
 90
        2
176
     0
  1
strokes_ogs.tif
176
     0
290
     0
176
     0
 40
1.0
176
     0
 40
1.0
176
     0
  0
VISUALSTYLE
  5
39
102
{ACAD_REACTORS
330
2A
102
}
330
2A
100
AcDbVisualStyle
  2
Facepattern
 70
    15
177
     3
291
     1
 70
    58
 90
        2
176
     1
 90
        2
176
     1
 90
        0
176
     1
 90
        0
176
     1
 40
0.6
176
     1
 40
30.0
176
     1
 62
     7
420
 16777215
176
     1
 90
        1
176
     1
 90
        4
176
     1
 62
     7
176
     1
 62
   257
176
     1
 90
        1
176
     1
 90
        1
176
     1
 40
1.0
176
     1
 90
        8
176
     1
 62
     7
176
     1
 40
1.0
176
     1
 90
        1
176
     1
 90
        6
176
     1
 90
        2
176
     1
 62
     7
176
     1
 90
        5
176
     1
 90
        0
176
     1
 90
        0
176
     1
290
     0
176
     1
 90
        1
176
     1
 40
0.0
176
     1
 90
        0
176
     1
290
     0
176
     1
290
     1
176
     1
290
     1
176
     1
290
     0
176
     1
290
     0
176
     1
290
     0
176
     1
290
     0
176
     1
290
     0
176
     1
290
     0
176
     1
 90
       50
176
     1
 40
0.0
176
     1
 40
1.0
176
     1
 90
        0
176
     1
 62
    18
420
        0
176
     1
 90
       50
176
     1
 90
        3
176
     1
 62
     5
420
      255
176
     1
290
     0
176
     1
 90
       50
176
     1
 90
       50
176
     1
 90
       50
176
     1
290
     0
176
     1
 90
       50
176
     1
 62
   256
176
     0
 40
1.0
176
     0
 90
        2
176
     1
  1
strokes_ogs.tif
176
     1
290
     0
176
     1
 40
1.0
176
     1
 40
1.0
176
     1
  0
VISUALSTYLE
  5
2B
102
{ACAD_REACTORS
330
2A
102
}
330
2A
100
AcDbVisualStyle
  2
Flat
 70
     0
177
     3
291
     1
 70
    58
 90
        2
176
     1
 90
        1
176
     1
 90
        1
176
     1
 90
        2
176
     1
 40
0.6
176
     1
 40
30.0
176
     1
 62
     7
420
 16777215
176
     1
 90
        0
176
     1
 90
        0
176
     1
 62
     7
176
     1
 62
   257
176
     1
 90
        1
176
     1
 90
        1
176
     1
 40
1.0
176
     1
 90
        8
176
     1
 62
     7
176
     1
 40
1.0
176
     1
 90
        1
176
     1
 90
        6
176
     1
 90
        2
176
     1
 62
     7
176
     1
 90
        5
176
     1
 90
        0
176
     1
 90
        0
176
     1
290
     0
176
     1
 90
       13
176
     1
 40
0.0
176
     1
 90
        0
176
     1
290
     0
176
     1
290
     1
176
     1
290
     1
176
     1
290
     0
176
     1
290
     0
176
     1
290
     0
176
     1
290
     0
176
     1
290
     0
176
     1
290
     0
176
     1
 90
       50
176
     1
 40
0.0
176
     1
 40
1.0
176
     1
 90
        0
176
     1
 62
    18
420
        0
176
     1
 90
       50
176
     1
 90
        3
176
     1
 62
     5
420
      255
176
     1
290
     0
176
     1
 90
       50
176
     1
 90
       50
176
     1
 90
       50
176
     1
290
     0
176
     1
 90
       50
176
     1
 62
   256
176
     0
 40
1.0
176
     0
 90
        2
176
     1
  1
strokes_ogs.tif
176
     1
290
     0
176
     1
 40
1.0
176
     1
 40
1.0
176
     1
  0
VISUALSTYLE
  5
2C
102
{ACAD_REACTORS
330
2A
102
}
330
2A
100
AcDbVisualStyle
  2
FlatWithEdges
 70
     1
177
     3
291
     1
 70
    58
 90
        2
176
     1
 90
        1
176
     1
 90
        1
176
     1
 90
        2
176
     1
 40
0.6
176
     1
 40
30.0
176
     1
 62
     7
420
 16777215
176
     1
 90
        1
176
     1
 90
        0
176
     1
 62
     7
176
     1
 62
   257
176
     1
 90
        1
176
     1
 90
        1
176
     1
 40
1.0
176
     1
 90
        0
176
     1
 62
   257
176
     1
 40
1.0
176
     1
 90
        1
176
     1
 90
        6
176
     1
 90
        2
176
     1
 62
     7
176
     1
 90
        5
176
     1
 90
        0
176
     1
 90
        0
176
     1
290
     0
176
     1
 90
       13
176
     1
 40
0.0
176
     1
 90
        0
176
     1
290
     0
176
     1
290
     1
176
     1
290
     1
176
     1
290
     0
176
     1
290
     0
176
     1
290
     0
176
     1
290
     0
176
     1
290
     0
176
     1
290
     0
176
     1
 90
       50
176
     1
 40
0.0
176
     1
 40
1.0
176
     1
 90
        0
176
     1
 62
    18
420
        0
176
     1
 90
       50
176
     1
 90
        3
176
     1
 62
     5
420
      255
176
     1
290
     0
176
     1
 90
       50
176
     1
 90
       50
176
     1
 90
       50
176
     1
290
     0
176
     1
 90
       50
176
     1
 62
   256
176
     0
 40
1.0
176
     0
 90
        2
176
     1
  1
strokes_ogs.tif
176
     1
290
     0
176
     1
 40
1.0
176
     1
 40
1.0
176
     1
  0
VISUALSTYLE
  5
2D
102
{ACAD_REACTORS
330
2A
102
}
330
2A
100
AcDbVisualStyle
  2
Gouraud
 70
     2
177
     3
291
     1
 70
    58
 90
        2
176
     1
 90
        2
176
     1
 90
        1
176
     1
 90
        2
176
     1
 40
0.6
176
     1
 40
30.0
176
     1
 62
     7
420
 16777215
176
     1
 90
        0
176
     1
 90
        0
176
     1
 62
     7
176
     1
 62
   257
176
     1
 90
        1
176
     1
 90
        1
176
     1
 40
1.0
176
     1
 90
        0
176
     1
 62
     7
176
     1
 40
1.0
176
     1
 90
        1
176
     1
 90
        6
176
     1
 90
        2
176
     1
 62
     7
176
     1
 90
        5
176
     1
 90
        0
176
     1
 90
        0
176
     1
290
     0
176
     1
 90
       13
176
     1
 40
0.0
176
     1
 90
        0
176
     1
290
     0
176
     1
290
     1
176
     1
290
     1
176
     1
290
     0
176
     1
290
     0
176
     1
290
     0
176
     1
290
     0
176
     1
290
     0
176
     1
290
     0
176
     1
 90
       50
176
     1
 40
0.0
176
     1
 40
1.0
176
     1
 90
        0
176
     1
 62
    18
420
        0
176
     1
 90
       50
176
     1
 90
        3
176
     1
 62
     5
420
      255
176
     1
290
     0
176
     1
 90
       50
176
     1
 90
       50
176
     1
 90
       50
176
     1
290
     0
176
     1
 90
       50
176
     1
 62
   256
176
     0
 40
1.0
176
     0
 90
        2
176
     1
  1
strokes_ogs.tif
176
     1
290
     0
176
     1
 40
1.0
176
     1
 40
1.0
176
     1
  0
VISUALSTYLE
  5
2E
102
{ACAD_REACTORS
330
2A
102
}
330
2A
100
AcDbVisualStyle
  2
GouraudWithEdges
 70
     3
177
     3
291
     1
 70
    58
 90
        2
176
     1
 90
        2
176
     1
 90
        1
176
     1
 90
        2
176
     1
 40
0.6
176
     1
 40
30.0
176
     1
 62
     7
420
 16777215
176
     1
 90
        1
176
     1
 90
        0
176
     1
 62
     7
176
     1
 62
   257
176
     1
 90
        1
176
     1
 90
        1
176
     1
 40
1.0
176
     1
 90
        0
176
     1
 62
   257
176
     1
 40
1.0
176
     1
 90
        1
176
     1
 90
        6
176
     1
 90
        2
176
     1
 62
     7
176
     1
 90
        5
176
     1
 90
        0
176
     1
 90
        0
176
     1
290
     0
176
     1
 90
       13
176
     1
 40
0.0
176
     1
 90
        0
176
     1
290
     0
176
     1
290
     1
176
     1
290
     1
176
     1
290
     0
176
     1
290
     0
176
     1
290
     0
176
     1
290
     0
176
     1
290
     0
176
     1
290
     0
176
     1
 90
       50
176
     1
 40
0.0
176
     1
 40
1.0
176
     1
 90
        0
176
     1
 62
    18
420
        0
176
     1
 90
       50
176
     1
 90
        3
176
     1
 62
     5
420
      255
176
     1
290
     0
176
     1
 90
       50
176
     1
 90
       50
176
     1
 90
       50
176
     1
290
     0
176
     1
 90
       50
176
     1
 62
   256
176
     0
 40
1.0
176
     0
 90
        2
176
     1
  1
strokes_ogs.tif
176
     1
290
     0
176
     1
 40
1.0
176
     1
 40
1.0
176
     1
  0
VISUALSTYLE
  5
31
102
{ACAD_REACTORS
330
2A
102
}
330
2A
100
AcDbVisualStyle
  2
Hidden
 70
     6
177
     3
291
     0
 70
    58
 90
        1
176
     1
 90
        2
176
     1
 90
        2
176
     1
 90
        0
176
     1
 40
0.6
176
     1
 40
30.0
176
     1
 62
     7
420
 16777215
176
     1
 90
        2
176
     1
 90
        2
176
     1
 62
     7
176
     1
 62
   257
176
     1
 90
        2
176
     1
 90
        1
176
     1
 40
40.0
176
     1
 90
        0
176
     1
 62
   257
176
     1
 40
1.0
176
     1
 90
        1
176
     1
 90
        6
176
     1
 90
        2
176
     1
 62
     7
176
     1
 90
        3
176
     1
 90
        0
176
     1
 90
        0
176
     1
290
     0
176
     1
 90
        1
176
     1
 40
0.0
176
     1
 90
        0
176
     1
290
     0
176
     1
290
     1
176
     1
290
     1
176
     1
290
     0
176
     1
290
     0
176
     1
290
     0
176
     1
290
     0
176
     1
290
     0
176
     1
290
     0
176
     1
 90
       50
176
     1
 40
0.0
176
     1
 40
1.0
176
     1
 90
        0
176
     1
 62
    18
420
        0
176
     1
 90
       50
176
     1
 90
        3
176
     1
 62
     5
420
      255
176
     1
290
     0
176
     1
 90
       50
176
     1
 90
       50
176
     1
 90
       50
176
     1
290
     0
176
     1
 90
       50
176
     1
 62
   256
176
     0
 40
1.0
176
     0
 90
        2
176
     1
  1
strokes_ogs.tif
176
     1
290
     0
176
     1
 40
1.0
176
     1
 40
1.0
176
     1
  0
VISUALSTYLE
  5
3B
102
{ACAD_REACTORS
330
2A
102
}
330
2A
100
AcDbVisualStyle
  2
JitterOff
 70
    20
177
     3
291
     1
 70
    58
 90
        2
176
     0
 90
        2
176
     0
 90
        0
176
     0
 90
        0
176
     0
 40
0.6
176
     0
 40
30.0
176
     0
 62
     7
420
 16777215
176
     0
 90
        1
176
     0
 90
        4
176
     0
 62
     7
176
     0
 62
   257
176
     0
 90
        1
176
     0
 90
        1
176
     0
 40
1.0
176
     0
 90
       10
176
     2
 62
     7
176
     0
 40
1.0
176
     0
 90
        1
176
     0
 90
        6
176
     0
 90
        2
176
     0
 62
     7
176
     0
 90
        5
176
     0
 90
        0
176
     0
 90
        0
176
     0
290
     0
176
     0
 90
        1
176
     0
 40
0.0
176
     0
 90
        0
176
     0
290
     0
176
     0
290
     1
176
     0
290
     1
176
     0
290
     0
176
     0
290
     0
176
     0
290
     0
176
     0
290
     0
176
     0
290
     0
176
     0
290
     0
176
     0
 90
       50
176
     0
 40
0.0
176
     0
 40
1.0
176
     0
 90
        0
176
     0
 62
    18
420
        0
176
     0
 90
       50
176
     0
 90
        3
176
     0
 62
     5
420
      255
176
     0
290
     0
176
     0
 90
       50
176
     0
 90
       50
176
     0
 90
       50
176
     0
290
     0
176
     0
 90
       50
176
     0
 62
   256
176
     0
 40
1.0
176
     0
 90
        2
176
     0
  1
strokes_ogs.tif
176
     0
290
     0
176
     0
 40
1.0
176
     0
 40
1.0
176
     0
  0
VISUALSTYLE
  5
38
102
{ACAD_REACTORS
330
2A
102
}
330
2A
100
AcDbVisualStyle
  2
Linepattern
 70
    14
177
     3
291
     1
 70
    58
 90
        2
176
     1
 90
        2
176
     1
 90
        0
176
     1
 90
        0
176
     1
 40
0.6
176
     1
 40
30.0
176
     1
 62
     7
420
 16777215
176
     1
 90
        1
176
     1
 90
        4
176
     1
 62
     7
176
     1
 62
   257
176
     1
 90
        7
176
     1
 90
        7
176
     1
 40
1.0
176
     1
 90
        8
176
     1
 62
     7
176
     1
 40
1.0
176
     1
 90
        1
176
     1
 90
        6
176
     1
 90
        2
176
     1
 62
     7
176
     1
 90
        5
176
     1
 90
        0
176
     1
 90
        0
176
     1
290
     0
176
     1
 90
        1
176
     1
 40
0.0
176
     1
 90
        0
176
     1
290
     0
176
     1
290
     1
176
     1
290
     1
176
     1
290
     0
176
     1
290
     0
176
     1
290
     0
176
     1
290
     0
176
     1
290
     0
176
     1
290
     0
176
     1
 90
       50
176
     1
 40
0.0
176
     1
 40
1.0
176
     1
 90
        0
176
     1
 62
    18
420
        0
176
     1
 90
       50
176
     1
 90
        3
176
     1
 62
     5
420
      255
176
     1
290
     0
176
     1
 90
       50
176
     1
 90
       50
176
     1
 90
       50
176
     1
290
     0
176
     1
 90
       50
176
     1
 62
   256
176
     0
 40
1.0
176
     0
 90
        2
176
     1
  1
strokes_ogs.tif
176
     1
290
     0
176
     1
 40
1.0
176
     1
 40
1.0
176
     1
  0
VISUALSTYLE
  5
3C
102
{ACAD_REACTORS
330
2A
102
}
330
2A
100
AcDbVisualStyle
  2
OverhangOff
 70
    21
177
     3
291
     1
 70
    58
 90
        2
176
     0
 90
        2
176
     0
 90
        0
176
     0
 90
        0
176
     0
 40
0.6
176
     0
 40
30.0
176
     0
 62
     7
420
 16777215
176
     0
 90
        1
176
     0
 90
        4
176
     0
 62
     7
176
     0
 62
   257
176
     0
 90
        1
176
     0
 90
        1
176
     0
 40
1.0
176
     0
 90
        9
176
     2
 62
     7
176
     0
 40
1.0
176
     0
 90
        1
176
     0
 90
        6
176
     0
 90
        2
176
     0
 62
     7
176
     0
 90
        5
176
     0
 90
        0
176
     0
 90
        0
176
     0
290
     0
176
     0
 90
        1
176
     0
 40
0.0
176
     0
 90
        0
176
     0
290
     0
176
     0
290
     1
176
     0
290
     1
176
     0
290
     0
176
     0
290
     0
176
     0
290
     0
176
     0
290
     0
176
     0
290
     0
176
     0
290
     0
176
     0
 90
       50
176
     0
 40
0.0
176
     0
 40
1.0
176
     0
 90
        0
176
     0
 62
    18
420
        0
176
     0
 90
       50
176
     0
 90
        3
176
     0
 62
     5
420
      255
176
     0
290
     0
176
     0
 90
       50
176
     0
 90
       50
176
     0
 90
       50
176
     0
290
     0
176
     0
 90
       50
176
     0
 62
   256
176
     0
 40
1.0
176
     0
 90
        2
176
     0
  1
strokes_ogs.tif
176
     0
290
     0
176
     0
 40
1.0
176
     0
 40
1.0
176
     0
  0
VISUALSTYLE
  5
33
102
{ACAD_REACTORS
330
2A
102
}
330
2A
100
AcDbVisualStyle
  2
Realistic
 70
     8
177
     3
291
     0
 70
    58
 90
        2
176
     1
 90
        3
176
     1
 90
        0
176
     1
 90
        2
176
     1
 40
0.6
176
     1
 40
30.0
176
     1
 62
     7
420
 16777215
176
     1
 90
        0
176
     1
 90
        0
176
     1
 62
     7
176
     1
 62
   257
176
     1
 90
        1
176
     1
 90
        1
176
     1
 40
1.0
176
     1
 90
        8
176
     1
 62
   257
176
     1
 40
1.0
176
     1
 90
        1
176
     1
 90
        6
176
     1
 90
        2
176
     1
 62
     7
176
     1
 90
        3
176
     1
 90
        0
176
     1
 90
        0
176
     1
290
     0
176
     1
 90
       13
176
     1
 40
0.0
176
     1
 90
        0
176
     1
290
     0
176
     1
290
     1
176
     1
290
     1
176
     1
290
     0
176
     1
290
     0
176
     1
290
     0
176
     1
290
     0
176
     1
290
     0
176
     1
290
     0
176
     1
 90
       50
176
     1
 40
0.0
176
     1
 40
1.0
176
     1
 90
        0
176
     1
 62
    18
420
        0
176
     1
 90
       50
176
     1
 90
        3
176
     1
 62
     5
420
      255
176
     1
290
     0
176
     1
 90
       50
176
     1
 90
       50
176
     1
 90
       50
176
     1
290
     0
176
     1
 90
       50
176
     1
 62
   256
176
     0
 40
1.0
176
     0
 90
        2
176
     1
  1
strokes_ogs.tif
176
     1
290
     0
176
     1
 40
1.0
176
     1
 40
1.0
176
     1
  0
VISUALSTYLE
  5
42
102
{ACAD_REACTORS
330
2A
102
}
330
2A
100
AcDbVisualStyle
  2
Shaded
 70
    27
177
     3
291
     0
 70
    58
 90
        2
176
     1
 90
        2
176
     1
 90
        1
176
     1
 90
        2
176
     1
 40
0.6
176
     1
 40
30.0
176
     1
 62
     7
420
 16777215
176
     1
 90
        0
176
     1
 90
        4
176
     1
 62
     7
176
     1
 62
   257
176
     1
 90
        1
176
     1
 90
        1
176
     1
 40
1.0
176
     1
 90
        8
176
     1
 62
   257
176
     1
 40
1.0
176
     1
 90
        1
176
     1
 90
        6
176
     1
 90
        2
176
     1
 62
     8
420
  7895160
176
     1
 90
        3
176
     1
 90
        0
176
     1
 90
        0
176
     1
290
     0
176
     1
 90
        5
176
     1
 40
0.0
176
     1
 90
        0
176
     1
290
     0
176
     1
290
     1
176
     1
290
     1
176
     1
290
     0
176
     1
290
     0
176
     1
290
     0
176
     1
290
     0
176
     1
290
     0
176
     1
290
     0
176
     1
 90
       50
176
     1
 40
0.0
176
     1
 40
1.0
176
     1
 90
        0
176
     1
 62
    18
420
        0
176
     1
 90
       50
176
     1
 90
        3
176
     1
 62
     5
420
      255
176
     1
290
     0
176
     1
 90
       50
176
     1
 90
       50
176
     1
 90
       50
176
     1
290
     0
176
     1
 90
       50
176
     1
 62
   256
176
     0
 40
1.0
176
     0
 90
        2
176
     1
  1
strokes_ogs.tif
176
     1
290
     0
176
     1
 40
1.0
176
     1
 40
1.0
176
     1
  0
VISUALSTYLE
  5
41
102
{ACAD_REACTORS
330
2A
102
}
330
2A
100
AcDbVisualStyle
  2
Shaded with edges
 70
    26
177
     3
291
     0
 70
    58
 90
        2
176
     1
 90
        2
176
     1
 90
        1
176
     1
 90
        2
176
     1
 40
0.6
176
     1
 40
30.0
176
     1
 62
     7
420
 16777215
176
     1
 90
        1
176
     1
 90
       10
176
     1
 62
     7
176
     1
 62
   257
176
     1
 90
        2
176
     1
 90
        1
176
     1
 40
1.0
176
     1
 90
        8
176
     1
 62
   257
176
     1
 40
1.0
176
     1
 90
        1
176
     1
 90
        6
176
     1
 90
        2
176
     1
 62
     7
176
     1
 90
        3
176
     1
 90
        0
176
     1
 90
        0
176
     1
290
     0
176
     1
 90
        5
176
     1
 40
0.0
176
     1
 90
        0
176
     1
290
     0
176
     1
290
     1
176
     1
290
     1
176
     1
290
     0
176
     1
290
     0
176
     1
290
     0
176
     1
290
     0
176
     1
290
     0
176
     1
290
     0
176
     1
 90
       50
176
     1
 40
0.0
176
     1
 40
1.0
176
     1
 90
        0
176
     1
 62
    18
420
        0
176
     1
 90
       50
176
     1
 90
        3
176
     1
 62
     5
420
      255
176
     1
290
     0
176
     1
 90
       50
176
     1
 90
       50
176
     1
 90
       50
176
     1
290
     0
176
     1
 90
       50
176
     1
 62
   256
176
     0
 40
1.0
176
     0
 90
        2
176
     1
  1
strokes_ogs.tif
176
     1
290
     0
176
     1
 40
1.0
176
     1
 40
1.0
176
     1
  0
VISUALSTYLE
  5
3E
102
{ACAD_REACTORS
330
2A
102
}
330
2A
100
AcDbVisualStyle
  2
Shades of Gray
 70
    23
177
     3
291
     0
 70
    58
 90
        2
176
     1
 90
        2
176
     1
 90
        3
176
     1
 90
        0
176
     1
 40
0.6
176
     1
 40
30.0
176
     1
 62
     7
420
 16777215
176
     1
 90
        2
176
     1
 90
        2
176
     1
 62
     7
176
     1
 62
     7
176
     1
 90
        1
176
     1
 90
        1
176
     1
 40
40.0
176
     1
 90
        8
176
     1
 62
     7
176
     1
 40
1.0
176
     1
 90
        1
176
     1
 90
        6
176
     1
 90
        2
176
     1
 62
     7
176
     1
 90
        3
176
     1
 90
        0
176
     1
 90
        0
176
     1
290
     0
176
     1
 90
        1
176
     1
 40
0.0
176
     1
 90
        0
176
     1
290
     0
176
     1
290
     1
176
     1
290
     1
176
     1
290
     0
176
     1
290
     0
176
     1
290
     0
176
     1
290
     0
176
     1
290
     0
176
     1
290
     0
176
     1
 90
       50
176
     1
 40
0.0
176
     1
 40
1.0
176
     1
 90
        0
176
     1
 62
    18
420
        0
176
     1
 90
       50
176
     1
 90
        3
176
     1
 62
     5
420
      255
176
     1
290
     0
176
     1
 90
       50
176
     1
 90
       50
176
     1
 90
       50
176
     1
290
     0
176
     1
 90
       50
176
     1
 62
   256
176
     0
 40
1.0
176
     0
 90
        2
176
     1
  1
strokes_ogs.tif
176
     1
290
     0
176
     1
 40
1.0
176
     1
 40
1.0
176
     1
  0
VISUALSTYLE
  5
3F
102
{ACAD_REACTORS
330
2A
102
}
330
2A
100
AcDbVisualStyle
  2
Sketchy
 70
    24
177
     3
291
     0
 70
    58
 90
        1
176
     1
 90
        2
176
     1
 90
        2
176
     1
 90
        0
176
     1
 40
0.6
176
     1
 40
30.0
176
     1
 62
     7
420
 16777215
176
     1
 90
        2
176
     1
 90
        2
176
     1
 62
     7
176
     1
 62
     7
176
     1
 90
        1
176
     1
 90
        1
176
     1
 40
40.0
176
     1
 90
       11
176
     1
 62
     7
176
     1
 40
1.0
176
     1
 90
        1
176
     1
 90
        6
176
     1
 90
        2
176
     1
 62
     7
176
     1
 90
        6
176
     1
 90
        0
176
     1
 90
        0
176
     1
290
     0
176
     1
 90
        1
176
     1
 40
0.0
176
     1
 90
        0
176
     1
290
     0
176
     1
290
     1
176
     1
290
     1
176
     1
290
     0
176
     1
290
     0
176
     1
290
     0
176
     1
290
     0
176
     1
290
     0
176
     1
290
     0
176
     1
 90
       50
176
     1
 40
0.0
176
     1
 40
1.0
176
     1
 90
        0
176
     1
 62
    18
420
        0
176
     1
 90
       50
176
     1
 90
        3
176
     1
 62
     5
420
      255
176
     1
290
     0
176
     1
 90
       50
176
     1
 90
       50
176
     1
 90
       50
176
     1
290
     0
176
     1
 90
       50
176
     1
 62
   256
176
     0
 40
1.0
176
     0
 90
        2
176
     1
  1
strokes_ogs.tif
176
     1
290
     0
176
     1
 40
1.0
176
     1
 40
1.0
176
     1
  0
VISUALSTYLE
  5
37
102
{ACAD_REACTORS
330
2A
102
}
330
2A
100
AcDbVisualStyle
  2
Thicken
 70
    13
177
     3
291
     1
 70
    58
 90
        2
176
     1
 90
        2
176
     1
 90
        0
176
     1
 90
        0
176
     1
 40
0.6
176
     1
 40
30.0
176
     1
 62
     7
420
 16777215
176
     1
 90
        1
176
     1
 90
        4
176
     1
 62
     7
176
     1
 62
   257
176
     1
 90
        1
176
     1
 90
        1
176
     1
 40
1.0
176
     1
 90
       12
176
     1
 62
     7
176
     1
 40
1.0
176
     1
 90
        1
176
     1
 90
        6
176
     1
 90
        2
176
     1
 62
     7
176
     1
 90
        5
176
     1
 90
        0
176
     1
 90
        0
176
     1
290
     0
176
     1
 90
        1
176
     1
 40
0.0
176
     1
 90
        0
176
     1
290
     0
176
     1
290
     1
176
     1
290
     1
176
     1
290
     0
176
     1
290
     0
176
     1
290
     0
176
     1
290
     0
176
     1
290
     0
176
     1
290
     0
176
     1
 90
       50
176
     1
 40
0.0
176
     1
 40
1.0
176
     1
 90
        0
176
     1
 62
    18
420
        0
176
     1
 90
       50
176
     1
 90
        3
176
     1
 62
     5
420
      255
176
     1
290
     0
176
     1
 90
       50
176
     1
 90
       50
176
     1
 90
       50
176
     1
290
     0
176
     1
 90
       50
176
     1
 62
   256
176
     0
 40
1.0
176
     0
 90
        2
176
     1
  1
strokes_ogs.tif
176
     1
290
     0
176
     1
 40
1.0
176
     1
 40
1.0
176
     1
  0
VISUALSTYLE
  5
30
102
{ACAD_REACTORS
330
2A
102
}
330
2A
100
AcDbVisualStyle
  2
Wireframe
 70
     5
177
     3
291
     0
 70
    58
 90
        0
176
     1
 90
        2
176
     1
 90
        0
176
     1
 90
        0
176
     1
 40
0.6
176
     1
 40
30.0
176
     1
 62
     7
420
 16777215
176
     1
 90
        1
176
     1
 90
        4
176
     1
 62
     7
176
     1
 62
   257
176
     1
 90
        1
176
     1
 90
        1
176
     1
 40
1.0
176
     1
 90
        0
176
     1
 62
   257
176
     1
 40
1.0
176
     1
 90
        1
176
     1
 90
        6
176
     1
 90
        2
176
     1
 62
     7
176
     1
 90
        3
176
     1
 90
        0
176
     1
 90
        0
176
     1
290
     0
176
     1
 90
        1
176
     1
 40
0.0
176
     1
 90
        0
176
     1
290
     0
176
     1
290
     1
176
     1
290
     1
176
     1
290
     0
176
     1
290
     0
176
     1
290
     0
176
     1
290
     0
176
     1
290
     0
176
     1
290
     0
176
     1
 90
       50
176
     1
 40
0.0
176
     1
 40
1.0
176
     1
 90
        0
176
     1
 62
    18
420
        0
176
     1
 90
       50
176
     1
 90
        3
176
     1
 62
     5
420
      255
176
     1
290
     0
176
     1
 90
       50
176
     1
 90
       50
176
     1
 90
       50
176
     1
290
     0
176
     1
 90
       50
176
     1
 62
   256
176
     0
 40
1.0
176
     0
 90
        2
176
     1
  1
strokes_ogs.tif
176
     1
290
     0
176
     1
 40
1.0
176
     1
 40
1.0
176
     1
  0
VISUALSTYLE
  5
40
102
{ACAD_REACTORS
330
2A
102
}
330
2A
100
AcDbVisualStyle
  2
X-Ray
 70
    25
177
     3
291
     0
 70
    58
 90
        2
176
     1
 90
        2
176
     1
 90
        1
176
     1
 90
        1
176
     1
 40
0.5
176
     1
 40
30.0
176
     1
 62
     7
420
 16777215
176
     1
 90
        1
176
     1
 90
        0
176
     1
 62
     7
176
     1
 62
   257
176
     1
 90
        1
176
     1
 90
        1
176
     1
 40
1.0
176
     1
 90
        8
176
     1
 62
     7
176
     1
 40
1.0
176
     1
 90
        1
176
     1
 90
        6
176
     1
 90
        2
176
     1
 62
     7
176
     1
 90
        3
176
     1
 90
        0
176
     1
 90
        0
176
     1
290
     0
176
     1
 90
       13
176
     1
 40
0.0
176
     1
 90
        0
176
     1
290
     0
176
     1
290
     1
176
     1
290
     1
176
     1
290
     0
176
     1
290
     0
176
     1
290
     0
176
     1
290
     0
176
     1
290
     0
176
     1
290
     0
176
     1
 90
       50
176
     1
 40
0.0
176
     1
 40
1.0
176
     1
 90
        0
176
     1
 62
    18
420
        0
176
     1
 90
       50
176
     1
 90
        3
176
     1
 62
     5
420
      255
176
     1
290
     0
176
     1
 90
       50
176
     1
 90
       50
176
     1
 90
       50
176
     1
290
     0
176
     1
 90
       50
176
     1
 62
   256
176
     0
 40
1.0
176
     0
 90
        2
176
     1
  1
strokes_ogs.tif
176
     1
290
     0
176
     1
 40
1.0
176
     1
 40
1.0
176
     1
  0
DICTIONARYVAR
  5
1E6
102
{ACAD_REACTORS
330
1E5
102
}
330
1E5
100
DictionaryVariables
280
     0
  1
1:1
  0
DICTIONARYVAR
  5
1EB
102
{ACAD_REACTORS
330
1E5
102
}
330
1E5
100
DictionaryVariables
280
     0
  1
Standard
  0
DICTIONARYVAR
  5
1EA
102
{ACAD_REACTORS
330
1E5
102
}
330
1E5
100
DictionaryVariables
280
     0
  1
Standard
  0
DICTIONARY
  5
1E7
330
6A
100
AcDbDictionary
280
     1
281
     1
  3
ACAD_ROUNDTRIP_2008_TABLESTYLE_CELLSTYLEMAP
360
1E8
  0
CELLSTYLEMAP
  5
1E8
102
{ACAD_REACTORS
330
1E7
102
}
330
1E7
100
AcDbCellStyleMap
 90
        3
300
CELLSTYLE
  1
TABLEFORMAT_BEGIN
 90
        5
170
     1
 91
        0
 92
    32768
 62
   257
 93
        1
300
CONTENTFORMAT
  1
CONTENTFORMAT_BEGIN
 90
        0
 91
        0
 92
        4
 93
        0
300

 40
0.0
140
1.0
 94
        5
 62
     0
340
11
144
6.0
309
CONTENTFORMAT_END
171
     1
301
MARGIN
  1
CELLMARGIN_BEGIN
 40
1.5
 40
1.5
 40
1.5
 40
1.5
 40
1.5
 40
1.5
309
CELLMARGIN_END
 94
        6
 95
        1
302
GRIDFORMAT
  1
GRIDFORMAT_BEGIN
 90
        0
 91
        1
 62
     0
 92
       -2
340
14
 93
        0
 40
0.045
309
GRIDFORMAT_END
 95
        2
302
GRIDFORMAT
  1
GRIDFORMAT_BEGIN
 90
        0
 91
        1
 62
     0
 92
       -2
340
14
 93
        0
 40
0.045
309
GRIDFORMAT_END
 95
        4
302
GRIDFORMAT
  1
GRIDFORMAT_BEGIN
 90
        0
 91
        1
 62
     0
 92
       -2
340
14
 93
        0
 40
0.045
309
GRIDFORMAT_END
 95
        8
302
GRIDFORMAT
  1
GRIDFORMAT_BEGIN
 90
        0
 91
        1
 62
     0
 92
       -2
340
14
 93
        0
 40
0.045
309
GRIDFORMAT_END
 95
       16
302
GRIDFORMAT
  1
GRIDFORMAT_BEGIN
 90
        0
 91
        1
 62
     0
 92
       -2
340
14
 93
        0
 40
0.045
309
GRIDFORMAT_END
 95
       32
302
GRIDFORMAT
  1
GRIDFORMAT_BEGIN
 90
        0
 91
        1
 62
     0
 92
       -2
340
14
 93
        0
 40
0.045
309
GRIDFORMAT_END
309
TABLEFORMAT_END
  1
CELLSTYLE_BEGIN
 90
        1
 91
        1
300
_TITLE
309
CELLSTYLE_END
300
CELLSTYLE
  1
TABLEFORMAT_BEGIN
 90
        5
170
     1
 91
        0
 92
        0
 62
   257
 93
        1
300
CONTENTFORMAT
  1
CONTENTFORMAT_BEGIN
 90
        0
 91
        0
 92
        4
 93
        0
300

 40
0.0
140
1.0
 94
        5
 62
     0
340
11
144
4.5
309
CONTENTFORMAT_END
171
     1
301
MARGIN
  1
CELLMARGIN_BEGIN
 40
1.5
 40
1.5
 40
1.5
 40
1.5
 40
1.5
 40
1.5
309
CELLMARGIN_END
 94
        6
 95
        1
302
GRIDFORMAT
  1
GRIDFORMAT_BEGIN
 90
        0
 91
        1
 62
     0
 92
       -2
340
14
 93
        0
 40
0.045
309
GRIDFORMAT_END
 95
        2
302
GRIDFORMAT
  1
GRIDFORMAT_BEGIN
 90
        0
 91
        1
 62
     0
 92
       -2
340
14
 93
        0
 40
0.045
309
GRIDFORMAT_END
 95
        4
302
GRIDFORMAT
  1
GRIDFORMAT_BEGIN
 90
        0
 91
        1
 62
     0
 92
       -2
340
14
 93
        0
 40
0.045
309
GRIDFORMAT_END
 95
        8
302
GRIDFORMAT
  1
GRIDFORMAT_BEGIN
 90
        0
 91
        1
 62
     0
 92
       -2
340
14
 93
        0
 40
0.045
309
GRIDFORMAT_END
 95
       16
302
GRIDFORMAT
  1
GRIDFORMAT_BEGIN
 90
        0
 91
        1
 62
     0
 92
       -2
340
14
 93
        0
 40
0.045
309
GRIDFORMAT_END
 95
       32
302
GRIDFORMAT
  1
GRIDFORMAT_BEGIN
 90
        0
 91
        1
 62
     0
 92
       -2
340
14
 93
        0
 40
0.045
309
GRIDFORMAT_END
309
TABLEFORMAT_END
  1
CELLSTYLE_BEGIN
 90
        2
 91
        1
300
_HEADER
309
CELLSTYLE_END
300
CELLSTYLE
  1
TABLEFORMAT_BEGIN
 90
        5
170
     1
 91
        0
 92
        0
 62
   257
 93
        1
300
CONTENTFORMAT
  1
CONTENTFORMAT_BEGIN
 90
        0
 91
        0
 92
        4
 93
        0
300

 40
0.0
140
1.0
 94
        2
 62
     0
340
11
144
4.5
309
CONTENTFORMAT_END
171
     1
301
MARGIN
  1
CELLMARGIN_BEGIN
 40
1.5
 40
1.5
 40
1.5
 40
1.5
 40
1.5
 40
1.5
309
CELLMARGIN_END
 94
        6
 95
        1
302
GRIDFORMAT
  1
GRIDFORMAT_BEGIN
 90
        0
 91
        1
 62
     0
 92
       -2
340
14
 93
        0
 40
0.045
309
GRIDFORMAT_END
 95
        2
302
GRIDFORMAT
  1
GRIDFORMAT_BEGIN
 90
        0
 91
        1
 62
     0
 92
       -2
340
14
 93
        0
 40
0.045
309
GRIDFORMAT_END
 95
        4
302
GRIDFORMAT
  1
GRIDFORMAT_BEGIN
 90
        0
 91
        1
 62
     0
 92
       -2
340
14
 93
        0
 40
0.045
309
GRIDFORMAT_END
 95
        8
302
GRIDFORMAT
  1
GRIDFORMAT_BEGIN
 90
        0
 91
        1
 62
     0
 92
       -2
340
14
 93
        0
 40
0.045
309
GRIDFORMAT_END
 95
       16
302
GRIDFORMAT
  1
GRIDFORMAT_BEGIN
 90
        0
 91
        1
 62
     0
 92
       -2
340
14
 93
        0
 40
0.045
309
GRIDFORMAT_END
 95
       32
302
GRIDFORMAT
  1
GRIDFORMAT_BEGIN
 90
        0
 91
        1
 62
     0
 92
       -2
340
14
 93
        0
 40
0.045
309
GRIDFORMAT_END
309
TABLEFORMAT_END
  1
CELLSTYLE_BEGIN
 90
        3
 91
        2
300
_DATA
309
CELLSTYLE_END
  0
ENDSEC
  0
EOF