0
SECTION
  2
HEADER
  9
$ACADVER
  1
AC1027
  9
$ACADMAINTVER
 70
     8
  9
$DWGCODEPAGE
  3
ANSI_1252
  9
$REQUIREDVERSIONS
160
                 0
  9
$COMMENTS
  1
File was created by Cadenas
  9
$CUSTOMPROPERTYTAG
  1
NN
  9
$CUSTOMPROPERTY
  1
Set Screw Wide Slot Take Up Metric Bore
  9
$CUSTOMPROPERTYTAG
  1
NT
  9
$CUSTOMPROPERTY
  1
SC Take-Up Bearings -Wide Slot -(Normal Duty)
  9
$CUSTOMPROPERTYTAG
  1
NB
  9
$CUSTOMPROPERTY
  1
125915
  9
$CUSTOMPROPERTYTAG
  1
NBSYN
  9
$CUSTOMPROPERTY
  1
$PN.
  9
$CUSTOMPROPERTYTAG
  1
LINA
  9
$CUSTOMPROPERTY
  1
125915
  9
$CUSTOMPROPERTYTAG
  1
SERIES
  9
$CUSTOMPROPERTY
  1
209
  9
$CUSTOMPROPERTYTAG
  1
SS
  9
$CUSTOMPROPERTY
  1
45
  9
$CUSTOMPROPERTYTAG
  1
PN
  9
$CUSTOMPROPERTY
  1
125915
  9
$CUSTOMPROPERTYTAG
  1
DESCRIPTION
  9
$CUSTOMPROPERTY
  1
WSTU-SC-45M
  9
$CUSTOMPROPERTYTAG
  1
W
  9
$CUSTOMPROPERTY
  1
2.7
  9
$CUSTOMPROPERTYTAG
  1
FS
  9
$CUSTOMPROPERTY
  1
WS400
  9
$CUSTOMPROPERTYTAG
  1
LF
  9
$CUSTOMPROPERTY
  1
RE-LUBE
  9
$CUSTOMPROPERTYTAG
  1
A
  9
$CUSTOMPROPERTY
  1
49.3
  9
$CUSTOMPROPERTYTAG
  1
B
  9
$CUSTOMPROPERTY
  1
143.0
  9
$CUSTOMPROPERTYTAG
  1
C
  9
$CUSTOMPROPERTY
  1
17.48
  9
$CUSTOMPROPERTYTAG
  1
D
  9
$CUSTOMPROPERTY
  1
82.6
  9
$CUSTOMPROPERTYTAG
  1
E
  9
$CUSTOMPROPERTY
  1
87.4
  9
$CUSTOMPROPERTYTAG
  1
F
  9
$CUSTOMPROPERTY
  1
25.4
  9
$CUSTOMPROPERTYTAG
  1
G
  9
$CUSTOMPROPERTY
  1
16.0
  9
$CUSTOMPROPERTYTAG
  1
H
  9
$CUSTOMPROPERTY
  1
19.1
  9
$CUSTOMPROPERTYTAG
  1
J
  9
$CUSTOMPROPERTY
  1
82.6
  9
$CUSTOMPROPERTYTAG
  1
K
  9
$CUSTOMPROPERTY
  1
49.3
  9
$CUSTOMPROPERTYTAG
  1
L
  9
$CUSTOMPROPERTY
  1
56.4
  9
$CUSTOMPROPERTYTAG
  1
M
  9
$CUSTOMPROPERTY
  1
101.22/101.98
  9
$CUSTOMPROPERTYTAG
  1
N
  9
$CUSTOMPROPERTY
  1
120.7
  9
$CUSTOMPROPERTYTAG
  1
R
  9
$CUSTOMPROPERTY
  1
19.1
  9
$CUSTOMPROPERTYTAG
  1
S
  9
$CUSTOMPROPERTY
  1
30.2
  9
$CUSTOMPROPERTYTAG
  1
T
  9
$CUSTOMPROPERTY
  1
49.3
  9
$CUSTOMPROPERTYTAG
  1
COMPANY
  9
$CUSTOMPROPERTY
  1
baldor
  9
$INSBASE
 10
0.0
 20
0.0
 30
0.0
  9
$EXTMIN
 10
1.000000000000000E+20
 20
1.000000000000000E+20
 30
1.000000000000000E+20
  9
$EXTMAX
 10
-1.000000000000000E+20
 20
-1.000000000000000E+20
 30
-1.000000000000000E+20
  9
$LIMMIN
 10
0.0
 20
0.0
  9
$LIMMAX
 10
420.0
 20
297.0
  9
$ORTHOMODE
 70
     0
  9
$REGENMODE
 70
     1
  9
$FILLMODE
 70
     1
  9
$QTEXTMODE
 70
     0
  9
$MIRRTEXT
 70
     1
  9
$LTSCALE
 40
1.0
  9
$ATTMODE
 70
     1
  9
$TEXTSIZE
 40
2.5
  9
$TRACEWID
 40
1.0
  9
$TEXTSTYLE
  7
Standard
  9
$CLAYER
  8
0
  9
$CELTYPE
  6
ByLayer
  9
$CECOLOR
 62
   256
  9
$CELTSCALE
 40
1.0
  9
$DISPSILH
 70
     0
  9
$DIMSCALE
 40
1.0
  9
$DIMASZ
 40
2.5
  9
$DIMEXO
 40
0.625
  9
$DIMDLI
 40
3.75
  9
$DIMRND
 40
0.0
  9
$DIMDLE
 40
0.0
  9
$DIMEXE
 40
1.25
  9
$DIMTP
 40
0.0
  9
$DIMTM
 40
0.0
  9
$DIMTXT
 40
2.5
  9
$DIMCEN
 40
2.5
  9
$DIMTSZ
 40
0.0
  9
$DIMTOL
 70
     0
  9
$DIMLIM
 70
     0
  9
$DIMTIH
 70
     0
  9
$DIMTOH
 70
     0
  9
$DIMSE1
 70
     0
  9
$DIMSE2
 70
     0
  9
$DIMTAD
 70
     1
  9
$DIMZIN
 70
     8
  9
$DIMBLK
  1

  9
$DIMASO
 70
     1
  9
$DIMSHO
 70
     1
  9
$DIMPOST
  1

  9
$DIMAPOST
  1

  9
$DIMALT
 70
     0
  9
$DIMALTD
 70
     3
  9
$DIMALTF
 40
0.03937007874016
  9
$DIMLFAC
 40
1.0
  9
$DIMTOFL
 70
     1
  9
$DIMTVP
 40
0.0
  9
$DIMTIX
 70
     0
  9
$DIMSOXD
 70
     0
  9
$DIMSAH
 70
     0
  9
$DIMBLK1
  1

  9
$DIMBLK2
  1

  9
$DIMSTYLE
  2
ISO-25
  9
$DIMCLRD
 70
     0
  9
$DIMCLRE
 70
     0
  9
$DIMCLRT
 70
     0
  9
$DIMTFAC
 40
1.0
  9
$DIMGAP
 40
0.625
  9
$DIMJUST
 70
     0
  9
$DIMSD1
 70
     0
  9
$DIMSD2
 70
     0
  9
$DIMTOLJ
 70
     0
  9
$DIMTZIN
 70
     8
  9
$DIMALTZ
 70
     0
  9
$DIMALTTZ
 70
     0
  9
$DIMUPT
 70
     0
  9
$DIMDEC
 70
     2
  9
$DIMTDEC
 70
     2
  9
$DIMALTU
 70
     2
  9
$DIMALTTD
 70
     3
  9
$DIMTXSTY
  7
Standard
  9
$DIMAUNIT
 70
     0
  9
$DIMADEC
 70
     0
  9
$DIMALTRND
 40
0.0
  9
$DIMAZIN
 70
     0
  9
$DIMDSEP
 70
    44
  9
$DIMATFIT
 70
     3
  9
$DIMFRAC
 70
     0
  9
$DIMLDRBLK
  1

  9
$DIMLUNIT
 70
     2
  9
$DIMLWD
 70
    -2
  9
$DIMLWE
 70
    -2
  9
$DIMTMOVE
 70
     0
  9
$DIMFXL
 40
1.0
  9
$DIMFXLON
 70
     0
  9
$DIMJOGANG
 40
0.7853981633974483
  9
$DIMTFILL
 70
     0
  9
$DIMTFILLCLR
 70
     0
  9
$DIMARCSYM
 70
     0
  9
$DIMLTYPE
  6

  9
$DIMLTEX1
  6

  9
$DIMLTEX2
  6

  9
$DIMTXTDIRECTION
 70
     0
  9
$LUNITS
 70
     2
  9
$LUPREC
 70
     4
  9
$SKETCHINC
 40
1.0
  9
$FILLETRAD
 40
10.0
  9
$AUNITS
 70
     0
  9
$AUPREC
 70
     0
  9
$MENU
  1
.
  9
$ELEVATION
 40
0.0
  9
$PELEVATION
 40
0.0
  9
$THICKNESS
 40
0.0
  9
$LIMCHECK
 70
     0
  9
$CHAMFERA
 40
0.0
  9
$CHAMFERB
 40
0.0
  9
$CHAMFERC
 40
0.0
  9
$CHAMFERD
 40
0.0
  9
$SKPOLY
 70
     0
  9
$TDCREATE
 40
2458168.961843727
  9
$TDUCREATE
 40
2458168.92017706
  9
$TDUPDATE
 40
2458168.9618439
  9
$TDUUPDATE
 40
2458168.920177234
  9
$TDINDWG
 40
0.0000000116
  9
$TDUSRTIMER
 40
0.0000000116
  9
$USRTIMER
 70
     1
  9
$ANGBASE
 50
0.0
  9
$ANGDIR
 70
     0
  9
$PDMODE
 70
     0
  9
$PDSIZE
 40
0.0
  9
$PLINEWID
 40
0.0
  9
$SPLFRAME
 70
     0
  9
$SPLINETYPE
 70
     6
  9
$SPLINESEGS
 70
     8
  9
$HANDSEED
  5
1EF
  9
$SURFTAB1
 70
     6
  9
$SURFTAB2
 70
     6
  9
$SURFTYPE
 70
     6
  9
$SURFU
 70
     6
  9
$SURFV
 70
     6
  9
$UCSBASE
  2

  9
$UCSNAME
  2

  9
$UCSORG
 10
0.0
 20
0.0
 30
0.0
  9
$UCSXDIR
 10
1.0
 20
0.0
 30
0.0
  9
$UCSYDIR
 10
0.0
 20
1.0
 30
0.0
  9
$UCSORTHOREF
  2

  9
$UCSORTHOVIEW
 70
     0
  9
$UCSORGTOP
 10
0.0
 20
0.0
 30
0.0
  9
$UCSORGBOTTOM
 10
0.0
 20
0.0
 30
0.0
  9
$UCSORGLEFT
 10
0.0
 20
0.0
 30
0.0
  9
$UCSORGRIGHT
 10
0.0
 20
0.0
 30
0.0
  9
$UCSORGFRONT
 10
0.0
 20
0.0
 30
0.0
  9
$UCSORGBACK
 10
0.0
 20
0.0
 30
0.0
  9
$PUCSBASE
  2

  9
$PUCSNAME
  2

  9
$PUCSORG
 10
0.0
 20
0.0
 30
0.0
  9
$PUCSXDIR
 10
1.0
 20
0.0
 30
0.0
  9
$PUCSYDIR
 10
0.0
 20
1.0
 30
0.0
  9
$PUCSORTHOREF
  2

  9
$PUCSORTHOVIEW
 70
     0
  9
$PUCSORGTOP
 10
0.0
 20
0.0
 30
0.0
  9
$PUCSORGBOTTOM
 10
0.0
 20
0.0
 30
0.0
  9
$PUCSORGLEFT
 10
0.0
 20
0.0
 30
0.0
  9
$PUCSORGRIGHT
 10
0.0
 20
0.0
 30
0.0
  9
$PUCSORGFRONT
 10
0.0
 20
0.0
 30
0.0
  9
$PUCSORGBACK
 10
0.0
 20
0.0
 30
0.0
  9
$USERI1
 70
     0
  9
$USERI2
 70
     0
  9
$USERI3
 70
     0
  9
$USERI4
 70
     0
  9
$USERI5
 70
     0
  9
$USERR1
 40
0.0
  9
$USERR2
 40
0.0
  9
$USERR3
 40
0.0
  9
$USERR4
 40
0.0
  9
$USERR5
 40
0.0
  9
$WORLDVIEW
 70
     1
  9
$SHADEDGE
 70
     3
  9
$SHADEDIF
 70
    70
  9
$TILEMODE
 70
     1
  9
$MAXACTVP
 70
    64
  9
$PINSBASE
 10
0.0
 20
0.0
 30
0.0
  9
$PLIMCHECK
 70
     0
  9
$PEXTMIN
 10
1.000000000000000E+20
 20
1.000000000000000E+20
 30
1.000000000000000E+20
  9
$PEXTMAX
 10
-1.000000000000000E+20
 20
-1.000000000000000E+20
 30
-1.000000000000000E+20
  9
$PLIMMIN
 10
0.0
 20
0.0
  9
$PLIMMAX
 10
420.0
 20
297.0
  9
$UNITMODE
 70
     0
  9
$VISRETAIN
 70
     1
  9
$PLINEGEN
 70
     0
  9
$PSLTSCALE
 70
     1
  9
$TREEDEPTH
 70
  3020
  9
$CMLSTYLE
  2
Standard
  9
$CMLJUST
 70
     0
  9
$CMLSCALE
 40
20.0
  9
$PROXYGRAPHICS
 70
     1
  9
$MEASUREMENT
 70
     1
  9
$CELWEIGHT
370
    -1
  9
$ENDCAPS
280
     0
  9
$JOINSTYLE
280
     0
  9
$LWDISPLAY
290
     0
  9
$INSUNITS
 70
     4
  9
$HYPERLINKBASE
  1

  9
$STYLESHEET
  1

  9
$XEDIT
290
     1
  9
$CEPSNTYPE
380
     0
  9
$PSTYLEMODE
290
     1
  9
$FINGERPRINTGUID
  2
{B8A50660-7497-455D-AEEB-7BFA0E49ACB8}
  9
$VERSIONGUID
  2
{FAEB1C32-E019-11D5-929B-00C0DF256EC4}
  9
$EXTNAMES
290
     1
  9
$PSVPSCALE
 40
0.0
  9
$OLESTARTUP
290
     0
  9
$SORTENTS
280
   127
  9
$INDEXCTL
280
     0
  9
$HIDETEXT
280
     1
  9
$XCLIPFRAME
280
     2
  9
$HALOGAP
280
     0
  9
$OBSCOLOR
 70
   257
  9
$OBSLTYPE
280
     0
  9
$INTERSECTIONDISPLAY
280
     0
  9
$INTERSECTIONCOLOR
 70
   257
  9
$DIMASSOC
280
     2
  9
$PROJECTNAME
  1

  9
$CAMERADISPLAY
290
     0
  9
$LENSLENGTH
 40
50.0
  9
$CAMERAHEIGHT
 40
0.0
  9
$STEPSPERSEC
 40
2.0
  9
$STEPSIZE
 40
6.0
  9
$3DDWFPREC
 40
2.0
  9
$PSOLWIDTH
 40
5.0
  9
$PSOLHEIGHT
 40
80.0
  9
$LOFTANG1
 40
1.570796326794897
  9
$LOFTANG2
 40
1.570796326794897
  9
$LOFTMAG1
 40
0.0
  9
$LOFTMAG2
 40
0.0
  9
$LOFTPARAM
 70
     7
  9
$LOFTNORMALS
280
     1
  9
$LATITUDE
 40
37.795
  9
$LONGITUDE
 40
-122.394
  9
$NORTHDIRECTION
 40
0.0
  9
$TIMEZONE
 70
 -8000
  9
$LIGHTGLYPHDISPLAY
280
     1
  9
$TILEMODELIGHTSYNCH
280
     1
  9
$CMATERIAL
347
44
  9
$SOLIDHIST
280
     0
  9
$SHOWHIST
280
     1
  9
$DWFFRAME
280
     2
  9
$DGNFRAME
280
     2
  9
$REALWORLDSCALE
290
     1
  9
$INTERFERECOLOR
 62
   256
  9
$CSHADOW
280
     0
  9
$SHADOWPLANELOCATION
 40
0.0
  0
ENDSEC
  0
SECTION
  2
CLASSES
  0
CLASS
  1
ACDBDICTIONARYWDFLT
  2
AcDbDictionaryWithDefault
  3
ObjectDBX Classes
 90
        0
 91
        4
280
     0
281
     0
  0
CLASS
  1
VISUALSTYLE
  2
AcDbVisualStyle
  3
ObjectDBX Classes
 90
     4095
 91
        4
280
     0
281
     0
  0
CLASS
  1
MATERIAL
  2
AcDbMaterial
  3
ObjectDBX Classes
 90
     1153
 91
        4
280
     0
281
     0
  0
CLASS
  1
SCALE
  2
AcDbScale
  3
ObjectDBX Classes
 90
     1153
 91
        4
280
     0
281
     0
  0
CLASS
  1
TABLESTYLE
  2
AcDbTableStyle
  3
ObjectDBX Classes
 90
     4095
 91
        4
280
     0
281
     0
  0
CLASS
  1
MLEADERSTYLE
  2
AcDbMLeaderStyle
  3
ACDB_MLEADERSTYLE_CLASS
 90
     4095
 91
        4
280
     0
281
     0
  0
CLASS
  1
SUN
  2
AcDbSun
  3
SCENEOE
 90
     1153
 91
        4
280
     0
281
     0
  0
CLASS
  1
DICTIONARYVAR
  2
AcDbDictionaryVar
  3
ObjectDBX Classes
 90
        0
 91
        4
280
     0
281
     0
  0
CLASS
  1
CELLSTYLEMAP
  2
AcDbCellStyleMap
  3
ObjectDBX Classes
 90
     1152
 91
        4
280
     0
281
     0
  0
ENDSEC
  0
SECTION
  2
TABLES
  0
TABLE
  2
VPORT
  5
8
330
0
100
AcDbSymbolTable
 70
     1
  0
VPORT
  5
29
330
8
100
AcDbSymbolTableRecord
100
AcDbViewportTableRecord
  2
*Active
 70
     0
 10
0.0
 20
0.0
 11
1.0
 21
1.0
 12
11.79252158931718
 22
-4.007500000000022
 13
0.0
 23
0.0
 14
10.0
 24
10.0
 15
10.0
 25
10.0
 16
0.0
 26
0.0
 36
1.0
 17
0.0
 27
0.0
 37
0.0
 40
58.46130000000002
 41
2.666229727320345
 42
50.0
 43
0.0
 44
0.0
 50
0.0
 51
0.0
 71
     0
 72
   100
 73
     1
 74
     3
 75
     0
 76
     0
 77
     0
 78
     0
281
     0
 65
     1
110
0.0
120
0.0
130
0.0
111
1.0
121
0.0
131
0.0
112
0.0
122
1.0
132
0.0
 79
     0
146
0.0
348
2F
 60
     3
 61
     5
292
     1
282
     1
141
0.0
142
0.0
 63
   250
361
6D
  0
ENDTAB
  0
TABLE
  2
LTYPE
  5
5
330
0
100
AcDbSymbolTable
 70
     3
  0
LTYPE
  5
14
330
5
100
AcDbSymbolTableRecord
100
AcDbLinetypeTableRecord
  2
ByBlock
 70
     0
  3

 72
    65
 73
     0
 40
0.0
  0
LTYPE
  5
15
330
5
100
AcDbSymbolTableRecord
100
AcDbLinetypeTableRecord
  2
ByLayer
 70
     0
  3

 72
    65
 73
     0
 40
0.0
  0
LTYPE
  5
16
330
5
100
AcDbSymbolTableRecord
100
AcDbLinetypeTableRecord
  2
Continuous
 70
     0
  3
Solid line
 72
    65
 73
     0
 40
0.0
  0
LTYPE
  5
A7
330
5
100
AcDbSymbolTableRecord
100
AcDbLinetypeTableRecord
  2
Dashed
 70
     0
  3

 72
    65
 73
     2
 40
2.0
 49
1.0
 74
     0
 49
-1.0
 74
     0
  0
LTYPE
  5
DD
330
5
100
AcDbSymbolTableRecord
100
AcDbLinetypeTableRecord
  2
Center
 70
     0
  3

 72
    65
 73
     4
 40
1.5
 49
0.45
 74
     0
 49
-0.5
 74
     0
 49
0.05
 74
     0
 49
-0.5
 74
     0
  0
ENDTAB
  0
TABLE
  2
LAYER
  5
2
330
0
100
AcDbSymbolTable
 70
     7
  0
LAYER
  5
10
330
2
100
AcDbSymbolTableRecord
100
AcDbLayerTableRecord
  2
0
 70
     0
 62
     7
  6
Continuous
370
    -3
390
F
347
46
348
0
  0
LAYER
  5
72
330
2
100
AcDbSymbolTableRecord
100
AcDbLayerTableRecord
  2
AM_6
 70
     0
 62
    -2
  6
Continuous
370
    35
390
F
347
46
348
0
  0
LAYER
  5
A8
330
2
100
AcDbSymbolTableRecord
100
AcDbLayerTableRecord
  2
AM_9
 70
     0
 62
     6
  6
Dashed
370
    25
390
F
347
46
348
0
  0
LAYER
  5
D8
330
2
100
AcDbSymbolTableRecord
100
AcDbLayerTableRecord
  2
AM_5
 70
     0
 62
     3
  6
Continuous
370
    25
390
F
347
46
348
0
  0
LAYER
  5
DE
330
2
100
AcDbSymbolTableRecord
100
AcDbLayerTableRecord
  2
AM_7
 70
     0
 62
     7
  6
Center
370
    25
390
F
347
46
348
0
  0
LAYER
  5
E2
330
2
100
AcDbSymbolTableRecord
100
AcDbLayerTableRecord
  2
AM_4
 70
     0
 62
     7
  6
Continuous
370
    50
390
F
347
46
348
0
  0
LAYER
  5
1E2
330
2
100
AcDbSymbolTableRecord
100
AcDbLayerTableRecord
  2
ConnectionPoints
 70
     0
 62
     7
  6
Continuous
370
    50
390
F
347
46
348
0
  0
ENDTAB
  0
TABLE
  2
STYLE
  5
3
330
0
100
AcDbSymbolTable
 70
     1
  0
STYLE
  5
11
330
3
100
AcDbSymbolTableRecord
100
AcDbTextStyleTableRecord
  2
Standard
 70
     0
 40
0.0
 41
1.0
 50
0.0
 71
     0
 42
2.5
  3
txt
  4

  0
ENDTAB
  0
TABLE
  2
VIEW
  5
6
330
0
100
AcDbSymbolTable
 70
     0
  0
ENDTAB
  0
TABLE
  2
UCS
  5
7
330
0
100
AcDbSymbolTable
 70
     0
  0
ENDTAB
  0
TABLE
  2
APPID
  5
9
330
0
100
AcDbSymbolTable
 70
     1
  0
APPID
  5
12
330
9
100
AcDbSymbolTableRecord
100
AcDbRegAppTableRecord
  2
ACAD
 70
     0
  0
ENDTAB
  0
TABLE
  2
DIMSTYLE
  5
A
330
0
100
AcDbSymbolTable
 70
     1
100
AcDbDimStyleTable
  0
DIMSTYLE
105
27
330
A
100
AcDbSymbolTableRecord
100
AcDbDimStyleTableRecord
  2
ISO-25
 70
     0
 41
2.5
 42
0.625
 43
3.75
 44
1.25
 73
     0
 74
     0
 77
     1
 78
     8
140
2.5
141
2.5
143
0.03937007874016
147
0.625
171
     3
172
     1
178
     0
271
     2
272
     2
274
     3
278
    44
283
     0
284
     8
340
11
  0
ENDTAB
  0
TABLE
  2
BLOCK_RECORD
  5
1
330
0
100
AcDbSymbolTable
 70
     5
  0
BLOCK_RECORD
  5
1F
330
1
100
AcDbSymbolTableRecord
100
AcDbBlockTableRecord
  2
*Model_Space
340
22
 70
     0
280
     1
281
     0
  0
BLOCK_RECORD
  5
1B
330
1
100
AcDbSymbolTableRecord
100
AcDbBlockTableRecord
  2
*Paper_Space
340
1E
 70
     0
280
     1
281
     0
  0
BLOCK_RECORD
  5
23
330
1
100
AcDbSymbolTableRecord
100
AcDbBlockTableRecord
  2
*Paper_Space0
340
26
 70
     0
280
     1
281
     0
  0
BLOCK_RECORD
  5
6E
330
1
100
AcDbSymbolTableRecord
100
AcDbBlockTableRecord
  2
1_125915_4
340
0
102
{BLKREFS
331
6F
102
}
 70
     0
280
     1
281
     0
  0
BLOCK_RECORD
  5
90
330
1
100
AcDbSymbolTableRecord
100
AcDbBlockTableRecord
  2
2_125812_0_in_125915_4
340
0
102
{BLKREFS
331
91
102
}
 70
     0
280
     1
281
     0
  0
BLOCK_RECORD
  5
F1
330
1
100
AcDbSymbolTableRecord
100
AcDbBlockTableRecord
  2
3_405016_Metric_0_in_125915_4
340
0
102
{BLKREFS
331
F2
102
}
 70
     0
280
     1
281
     0
  0
BLOCK_RECORD
  5
181
330
1
100
AcDbSymbolTableRecord
100
AcDbBlockTableRecord
  2
4_125915H_0_in_125915_4
340
0
102
{BLKREFS
331
182
102
}
 70
     0
280
     1
281
     0
  0
ENDTAB
  0
ENDSEC
  0
SECTION
  2
BLOCKS
  0
BLOCK
  5
20
330
1F
100
AcDbEntity
  8
0
100
AcDbBlockBegin
  2
*Model_Space
 70
     0
 10
0.0
 20
0.0
 30
0.0
  3
*Model_Space
  1

  0
ENDBLK
  5
21
330
1F
100
AcDbEntity
  8
0
100
AcDbBlockEnd
  0
BLOCK
  5
1C
330
1B
100
AcDbEntity
 67
     1
  8
0
100
AcDbBlockBegin
  2
*Paper_Space
 70
     0
 10
0.0
 20
0.0
 30
0.0
  3
*Paper_Space
  1

  0
ENDBLK
  5
1D
330
1B
100
AcDbEntity
 67
     1
  8
0
100
AcDbBlockEnd
  0
BLOCK
  5
24
330
23
100
AcDbEntity
  8
0
100
AcDbBlockBegin
  2
*Paper_Space0
 70
     0
 10
0.0
 20
0.0
 30
0.0
  3
*Paper_Space0
  1

  0
ENDBLK
  5
25
330
23
100
AcDbEntity
  8
0
100
AcDbBlockEnd
  0
BLOCK
  5
70
330
6E
100
AcDbEntity
  8
0
100
AcDbBlockBegin
  2
1_125915_4
 70
     2
 10
0.0
 20
0.0
 30
0.0
  3
1_125915_4
  1

  0
ATTDEF
  5
73
330
6E
100
AcDbEntity
  8
AM_6
100
AcDbText
 10
93.2
 20
24.65
 30
0.0
 40
0.5
  1
Set Screw Wide Slot Take Up Metric Bore
100
AcDbAttributeDefinition
  3

  2
NN
 70
     8
280
     0
  0
ATTDEF
  5
74
330
6E
100
AcDbEntity
  8
AM_6
100
AcDbText
 10
93.2
 20
24.15
 30
0.0
 40
0.5
  1
SC Take-Up Bearings -Wide Slot -(Normal Duty)
100
AcDbAttributeDefinition
  3

  2
NT
 70
     8
280
     0
  0
ATTDEF
  5
75
330
6E
100
AcDbEntity
  8
AM_6
100
AcDbText
 10
93.2
 20
23.65
 30
0.0
 40
0.5
  1
125915
100
AcDbAttributeDefinition
  3

  2
NB
 70
     8
280
     0
  0
ATTDEF
  5
76
330
6E
100
AcDbEntity
  8
AM_6
100
AcDbText
 10
93.2
 20
23.15
 30
0.0
 40
0.5
  1
$PN.
100
AcDbAttributeDefinition
  3

  2
NBSYN
 70
     8
280
     0
  0
ATTDEF
  5
77
330
6E
100
AcDbEntity
  8
AM_6
100
AcDbText
 10
93.2
 20
22.65
 30
0.0
 40
0.5
  1
125915
100
AcDbAttributeDefinition
  3

  2
LINA
 70
     8
280
     0
  0
ATTDEF
  5
78
330
6E
100
AcDbEntity
  8
AM_6
100
AcDbText
 10
93.2
 20
22.15
 30
0.0
 40
0.5
  1
209
100
AcDbAttributeDefinition
  3

  2
SERIES
 70
     8
280
     0
  0
ATTDEF
  5
79
330
6E
100
AcDbEntity
  8
AM_6
100
AcDbText
 10
93.2
 20
21.65
 30
0.0
 40
0.5
  1
45
100
AcDbAttributeDefinition
  3

  2
SS
 70
     8
280
     0
  0
ATTDEF
  5
7A
330
6E
100
AcDbEntity
  8
AM_6
100
AcDbText
 10
93.2
 20
21.15
 30
0.0
 40
0.5
  1
125915
100
AcDbAttributeDefinition
  3

  2
PN
 70
     8
280
     0
  0
ATTDEF
  5
7B
330
6E
100
AcDbEntity
  8
AM_6
100
AcDbText
 10
93.2
 20
20.65
 30
0.0
 40
0.5
  1
WSTU-SC-45M
100
AcDbAttributeDefinition
  3

  2
DESCRIPTION
 70
     8
280
     0
  0
ATTDEF
  5
7C
330
6E
100
AcDbEntity
  8
AM_6
100
AcDbText
 10
93.2
 20
20.15
 30
0.0
 40
0.5
  1
2.7
100
AcDbAttributeDefinition
  3

  2
W
 70
     8
280
     0
  0
ATTDEF
  5
7D
330
6E
100
AcDbEntity
  8
AM_6
100
AcDbText
 10
93.2
 20
19.65
 30
0.0
 40
0.5
  1
WS400
100
AcDbAttributeDefinition
  3

  2
FS
 70
     8
280
     0
  0
ATTDEF
  5
7E
330
6E
100
AcDbEntity
  8
AM_6
100
AcDbText
 10
93.2
 20
19.15
 30
0.0
 40
0.5
  1
RE-LUBE
100
AcDbAttributeDefinition
  3

  2
LF
 70
     8
280
     0
  0
ATTDEF
  5
7F
330
6E
100
AcDbEntity
  8
AM_6
100
AcDbText
 10
93.2
 20
18.65
 30
0.0
 40
0.5
  1
49.3
100
AcDbAttributeDefinition
  3

  2
A
 70
     8
280
     0
  0
ATTDEF
  5
80
330
6E
100
AcDbEntity
  8
AM_6
100
AcDbText
 10
93.2
 20
18.15
 30
0.0
 40
0.5
  1
143.0
100
AcDbAttributeDefinition
  3

  2
B
 70
     8
280
     0
  0
ATTDEF
  5
81
330
6E
100
AcDbEntity
  8
AM_6
100
AcDbText
 10
93.2
 20
17.65
 30
0.0
 40
0.5
  1
17.48
100
AcDbAttributeDefinition
  3

  2
C
 70
     8
280
     0
  0
ATTDEF
  5
82
330
6E
100
AcDbEntity
  8
AM_6
100
AcDbText
 10
93.2
 20
17.15
 30
0.0
 40
0.5
  1
82.6
100
AcDbAttributeDefinition
  3

  2
D
 70
     8
280
     0
  0
ATTDEF
  5
83
330
6E
100
AcDbEntity
  8
AM_6
100
AcDbText
 10
93.2
 20
16.65
 30
0.0
 40
0.5
  1
87.4
100
AcDbAttributeDefinition
  3

  2
E
 70
     8
280
     0
  0
ATTDEF
  5
84
330
6E
100
AcDbEntity
  8
AM_6
100
AcDbText
 10
93.2
 20
16.15
 30
0.0
 40
0.5
  1
25.4
100
AcDbAttributeDefinition
  3

  2
F
 70
     8
280
     0
  0
ATTDEF
  5
85
330
6E
100
AcDbEntity
  8
AM_6
100
AcDbText
 10
93.2
 20
15.65
 30
0.0
 40
0.5
  1
16.0
100
AcDbAttributeDefinition
  3

  2
G
 70
     8
280
     0
  0
ATTDEF
  5
86
330
6E
100
AcDbEntity
  8
AM_6
100
AcDbText
 10
93.2
 20
15.15
 30
0.0
 40
0.5
  1
19.1
100
AcDbAttributeDefinition
  3

  2
H
 70
     8
280
     0
  0
ATTDEF
  5
87
330
6E
100
AcDbEntity
  8
AM_6
100
AcDbText
 10
93.2
 20
14.65
 30
0.0
 40
0.5
  1
82.6
100
AcDbAttributeDefinition
  3

  2
J
 70
     8
280
     0
  0
ATTDEF
  5
88
330
6E
100
AcDbEntity
  8
AM_6
100
AcDbText
 10
93.2
 20
14.15
 30
0.0
 40
0.5
  1
49.3
100
AcDbAttributeDefinition
  3

  2
K
 70
     8
280
     0
  0
ATTDEF
  5
89
330
6E
100
AcDbEntity
  8
AM_6
100
AcDbText
 10
93.2
 20
13.65
 30
0.0
 40
0.5
  1
56.4
100
AcDbAttributeDefinition
  3

  2
L
 70
     8
280
     0
  0
ATTDEF
  5
8A
330
6E
100
AcDbEntity
  8
AM_6
100
AcDbText
 10
93.2
 20
13.15
 30
0.0
 40
0.5
  1
101.22/101.98
100
AcDbAttributeDefinition
  3

  2
M
 70
     8
280
     0
  0
ATTDEF
  5
8B
330
6E
100
AcDbEntity
  8
AM_6
100
AcDbText
 10
93.2
 20
12.65
 30
0.0
 40
0.5
  1
120.7
100
AcDbAttributeDefinition
  3

  2
N
 70
     8
280
     0
  0
ATTDEF
  5
8C
330
6E
100
AcDbEntity
  8
AM_6
100
AcDbText
 10
93.2
 20
12.15
 30
0.0
 40
0.5
  1
19.1
100
AcDbAttributeDefinition
  3

  2
R
 70
     8
280
     0
  0
ATTDEF
  5
8D
330
6E
100
AcDbEntity
  8
AM_6
100
AcDbText
 10
93.2
 20
11.65
 30
0.0
 40
0.5
  1
30.2
100
AcDbAttributeDefinition
  3

  2
S
 70
     8
280
     0
  0
ATTDEF
  5
8E
330
6E
100
AcDbEntity
  8
AM_6
100
AcDbText
 10
93.2
 20
11.15
 30
0.0
 40
0.5
  1
49.3
100
AcDbAttributeDefinition
  3

  2
T
 70
     8
280
     0
  0
ATTDEF
  5
8F
330
6E
100
AcDbEntity
  8
AM_6
100
AcDbText
 10
93.2
 20
10.65
 30
0.0
 40
0.5
  1
baldor
100
AcDbAttributeDefinition
  3

  2
COMPANY
 70
     8
280
     0
  0
INSERT
  5
91
330
6E
100
AcDbEntity
  8
0
100
AcDbBlockReference
  2
2_125812_0_in_125915_4
 10
0.0
 20
0.0
 30
0.0
  0
INSERT
  5
F2
330
6E
100
AcDbEntity
  8
0
100
AcDbBlockReference
  2
3_405016_Metric_0_in_125915_4
 10
0.0
 20
0.0
 30
0.0
  0
INSERT
  5
182
330
6E
100
AcDbEntity
  8
0
100
AcDbBlockReference
  2
4_125915H_0_in_125915_4
 10
0.0
 20
0.0
 30
0.0
  0
ENDBLK
  5
71
330
6E
100
AcDbEntity
  8
0
100
AcDbBlockEnd
  0
BLOCK
  5
92
330
90
100
AcDbEntity
  8
0
100
AcDbBlockBegin
  2
2_125812_0_in_125915_4
 70
     2
 10
0.0
 20
0.0
 30
0.0
  3
2_125812_0_in_125915_4
  1

  0
ATTDEF
  5
94
330
90
100
AcDbEntity
  8
AM_6
100
AcDbText
 10
47.49121541230437
 20
21.56499999999999
 30
0.0
 40
0.5
  1
Set Screw Insert Metric Bore - Stainless Steel
100
AcDbAttributeDefinition
  3

  2
NN
 70
     8
280
     0
  0
ATTDEF
  5
95
330
90
100
AcDbEntity
  8
AM_6
100
AcDbText
 10
47.49121541230437
 20
21.06499999999999
 30
0.0
 40
0.5
  1
SC Bearing Insert -Metric
100
AcDbAttributeDefinition
  3

  2
NT
 70
     8
280
     0
  0
ATTDEF
  5
96
330
90
100
AcDbEntity
  8
AM_6
100
AcDbText
 10
47.49121541230437
 20
20.56499999999999
 30
0.0
 40
0.5
  1
125812
100
AcDbAttributeDefinition
  3

  2
NB
 70
     8
280
     0
  0
ATTDEF
  5
97
330
90
100
AcDbEntity
  8
AM_6
100
AcDbText
 10
47.49121541230437
 20
20.06499999999999
 30
0.0
 40
0.5
  1
$PN.
100
AcDbAttributeDefinition
  3

  2
NBSYN
 70
     8
280
     0
  0
ATTDEF
  5
98
330
90
100
AcDbEntity
  8
AM_6
100
AcDbText
 10
47.49121541230437
 20
19.56499999999999
 30
0.0
 40
0.5
  1
125812
100
AcDbAttributeDefinition
  3

  2
LINA
 70
     8
280
     0
  0
ATTDEF
  5
99
330
90
100
AcDbEntity
  8
AM_6
100
AcDbText
 10
47.49121541230437
 20
19.06499999999999
 30
0.0
 40
0.5
  1
209
100
AcDbAttributeDefinition
  3

  2
SERIES
 70
     8
280
     0
  0
ATTDEF
  5
9A
330
90
100
AcDbEntity
  8
AM_6
100
AcDbText
 10
47.49121541230437
 20
18.56499999999999
 30
0.0
 40
0.5
  1
45
100
AcDbAttributeDefinition
  3

  2
SS
 70
     8
280
     0
  0
ATTDEF
  5
9B
330
90
100
AcDbEntity
  8
AM_6
100
AcDbText
 10
47.49121541230437
 20
18.06499999999999
 30
0.0
 40
0.5
  1
125812
100
AcDbAttributeDefinition
  3

  2
PN
 70
     8
280
     0
  0
ATTDEF
  5
9C
330
90
100
AcDbEntity
  8
AM_6
100
AcDbText
 10
47.49121541230437
 20
17.56499999999999
 30
0.0
 40
0.5
  1
INS-SC-45
100
AcDbAttributeDefinition
  3

  2
DESCRIPTION
 70
     8
280
     0
  0
ATTDEF
  5
9D
330
90
100
AcDbEntity
  8
AM_6
100
AcDbText
 10
47.49121541230437
 20
17.06499999999999
 30
0.0
 40
0.5
  1
0.62
100
AcDbAttributeDefinition
  3

  2
WEIGHT
 70
     8
280
     0
  0
ATTDEF
  5
9E
330
90
100
AcDbEntity
  8
AM_6
100
AcDbText
 10
47.49121541230437
 20
16.56499999999999
 30
0.0
 40
0.5
  1
49.3
100
AcDbAttributeDefinition
  3

  2
A
 70
     8
280
     0
  0
ATTDEF
  5
9F
330
90
100
AcDbEntity
  8
AM_6
100
AcDbText
 10
47.49121541230437
 20
16.06499999999999
 30
0.0
 40
0.5
  1
22.1
100
AcDbAttributeDefinition
  3

  2
C
 70
     8
280
     0
  0
ATTDEF
  5
A0
330
90
100
AcDbEntity
  8
AM_6
100
AcDbText
 10
47.49121541230437
 20
15.56499999999999
 30
0.0
 40
0.5
  1
85
100
AcDbAttributeDefinition
  3

  2
D
 70
     8
280
     0
  0
ATTDEF
  5
A1
330
90
100
AcDbEntity
  8
AM_6
100
AcDbText
 10
47.49121541230437
 20
15.06499999999999
 30
0.0
 40
0.5
  1
6.4
100
AcDbAttributeDefinition
  3

  2
J
 70
     8
280
     0
  0
ATTDEF
  5
A2
330
90
100
AcDbEntity
  8
AM_6
100
AcDbText
 10
47.49121541230437
 20
14.56499999999999
 30
0.0
 40
0.5
  1
56.4
100
AcDbAttributeDefinition
  3

  2
L
 70
     8
280
     0
  0
ATTDEF
  5
A3
330
90
100
AcDbEntity
  8
AM_6
100
AcDbText
 10
47.49121541230437
 20
14.06499999999999
 30
0.0
 40
0.5
  1
M8 x 1.25
100
AcDbAttributeDefinition
  3

  2
N
 70
     8
280
     0
  0
ATTDEF
  5
A4
330
90
100
AcDbEntity
  8
AM_6
100
AcDbText
 10
47.49121541230437
 20
13.56499999999999
 30
0.0
 40
0.5
  1
19.1
100
AcDbAttributeDefinition
  3

  2
W
 70
     8
280
     0
  0
ATTDEF
  5
A5
330
90
100
AcDbEntity
  8
AM_6
100
AcDbText
 10
47.49121541230437
 20
13.06499999999999
 30
0.0
 40
0.5
  1
30.2
100
AcDbAttributeDefinition
  3

  2
Y
 70
     8
280
     0
  0
ATTDEF
  5
A6
330
90
100
AcDbEntity
  8
AM_6
100
AcDbText
 10
47.49121541230437
 20
12.56499999999999
 30
0.0
 40
0.5
  1
baldor
100
AcDbAttributeDefinition
  3

  2
COMPANY
 70
     8
280
     0
  0
LINE
  5
A9
330
90
100
AcDbEntity
  8
AM_9
100
AcDbLine
 10
9.508224958260643
 20
-23.9485
 30
0.0
 11
11.79733408503509
 21
-23.9485
 31
0.0
  0
LINE
  5
AA
330
90
100
AcDbEntity
  8
AM_9
100
AcDbLine
 10
11.79733408503509
 20
-17.3015
 30
0.0
 11
9.508804182317858
 21
-17.3015
 31
0.0
  0
LWPOLYLINE
  5
AB
330
90
100
AcDbEntity
  8
AM_9
100
AcDbPolyline
 90
        4
 70
     0
 43
0.0
 10
8.536556226584157
 20
-17.47547468585743
 10
8.980608123128068
 20
-17.35274579570235
 10
9.489718289779487
 20
-17.30156743794991
 10
9.508789990693339
 20
-17.30150000267709
  0
LWPOLYLINE
  5
AC
330
90
100
AcDbEntity
  8
AM_9
100
AcDbPolyline
 90
       19
 70
     0
 43
0.0
 10
9.50916662942768
 20
-23.94849998802091
 10
9.17460761588605
 20
-23.92812318952443
 10
8.675378573605396
 20
-23.82084887836515
 10
8.19447704615893
 20
-23.62553915623038
 10
7.744895270244926
 20
-23.34548287621233
 10
7.341506522622003
 20
-22.99021684492602
 10
6.994442482925671
 20
-22.5642448844867
 10
6.718109302422658
 20
-22.08329207572872
 10
6.522719176700515
 20
-21.55968854800417
 10
6.414081825752643
 20
-21.00917175535972
 10
6.397174600340191
 20
-20.45267480633288
 10
6.469788560577937
 20
-19.9010748547087
 10
6.629685250707642
 20
-19.37280304886335
 10
6.87028429977656
 20
-18.87943154753775
 10
7.187262875928065
 20
-18.4319874646684
 10
7.567956211442925
 20
-18.04575513114145
 10
8.004938592044832
 20
-17.73005905362548
 10
8.481162401644916
 20
-17.49624821385143
 10
8.536556226584157
 20
-17.47547468585743
  0
LWPOLYLINE
  5
AD
330
90
100
AcDbEntity
  8
AM_9
100
AcDbPolyline
 90
        9
 70
     0
 43
0.0
 10
10.47128837806522
 20
-17.4797560923047
 10
10.9161426348539
 20
-17.70069006382316
 10
11.32066565936628
 20
-18.00309180004966
 10
11.67483710688436
 20
-18.38234598939128
 10
11.96718290423412
 20
-18.82457605866275
 10
12.19100680507072
 20
-19.32098127827018
 10
12.34035937689505
 20
-19.85484947305771
 10
12.39750923313387
 20
-20.23723260092779
 10
12.4167172911613
 20
-20.625
  0
LWPOLYLINE
  5
AE
330
90
100
AcDbEntity
  8
AM_9
100
AcDbPolyline
 90
        4
 70
     0
 43
0.0
 10
9.508789990693339
 20
-17.30150000267709
 10
9.98870427379849
 20
-17.34475502428095
 10
10.46870202280541
 20
-17.47876113812567
 10
10.47128837806522
 20
-17.4797560923047
  0
LINE
  5
AF
330
90
100
AcDbEntity
  8
AM_9
100
AcDbLine
 10
22.49837472131964
 20
-23.9485
 30
0.0
 11
27.91487058898896
 21
-23.9485
 31
0.0
  0
LINE
  5
B0
330
90
100
AcDbEntity
  8
AM_9
100
AcDbLine
 10
27.91487058898896
 20
-17.3015
 30
0.0
 11
22.5
 21
-17.3015
 31
0.0
  0
LINE
  5
B1
330
90
100
AcDbEntity
  8
AM_9
100
AcDbLine
 10
27.91487058898896
 20
-17.3015
 30
0.0
 11
27.91487058898896
 21
-23.9485
 31
0.0
  0
LINE
  5
B2
330
90
100
AcDbEntity
  8
AM_9
100
AcDbLine
 10
27.91487058898896
 20
-23.9485
 30
0.0
 11
28.2
 21
-24.23362941101105
 31
0.0
  0
LINE
  5
B3
330
90
100
AcDbEntity
  8
AM_9
100
AcDbLine
 10
28.2
 20
-17.01637058898896
 30
0.0
 11
27.91487058898896
 21
-17.3015
 31
0.0
  0
LWPOLYLINE
  5
B4
330
90
100
AcDbEntity
  8
AM_9
100
AcDbPolyline
 90
       11
 70
     0
 43
0.0
 10
22.25318736158935
 20
-20.625
 10
22.25990031500734
 20
-21.17163908025661
 10
22.28002703962128
 20
-21.71827816051321
 10
22.3101952491451
 20
-22.21888340382114
 10
22.3486274080248
 20
-22.68820121963835
 10
22.3893160139547
 20
-23.09018231024168
 10
22.42965557269432
 20
-23.43304226458532
 10
22.46316350381774
 20
-23.6892073769981
 10
22.48769556197062
 20
-23.86415173122116
 10
22.49911861646146
 20
-23.9425278096201
 10
22.49999999999917
 20
-23.94849999999439
  0
LWPOLYLINE
  5
B5
330
90
100
AcDbEntity
  8
AM_9
100
AcDbPolyline
 90
       11
 70
     0
 43
0.0
 10
12.4167172911613
 20
-20.625
 10
12.377148071517
 20
-21.17949542879395
 10
12.26042402290736
 20
-21.7182781605132
 10
12.06837718174936
 20
-22.22561111178388
 10
11.80636174346122
 20
-22.68820121963835
 10
11.47701553229027
 20
-23.09526178943151
 10
11.09041043847129
 20
-23.43304226458532
 10
10.65291777656489
 20
-23.69205450553081
 10
10.17801130151101
 20
-23.86415173122116
 10
9.681634781307702
 20
-23.94266119486338
 10
9.50916662942768
 20
-23.94849998802091
  0
LINE
  5
B6
330
90
100
AcDbEntity
  8
AM_9
100
AcDbLine
 10
22.5
 20
-29.072
 30
0.0
 11
22.5
 21
-23.93746508142475
 31
0.0
  0
LINE
  5
B7
330
90
100
AcDbEntity
  8
AM_9
100
AcDbLine
 10
22.5
 20
-17.30318074824482
 30
0.0
 11
22.5
 21
17.972
 31
0.0
  0
LINE
  5
B8
330
90
100
AcDbEntity
  8
AM_9
100
AcDbLine
 10
-22.5
 20
17.972
 30
0.0
 11
-22.5
 21
-29.072
 31
0.0
  0
LINE
  5
B9
330
90
100
AcDbEntity
  8
AM_9
100
AcDbLine
 10
22.47398630724317
 20
-17.48243531679083
 30
0.0
 11
22.49999999999983
 21
-17.30150000000115
 31
0.0
  0
LINE
  5
BA
330
90
100
AcDbEntity
  8
AM_9
100
AcDbLine
 10
22.25403121416056
 20
-20.81879765435845
 30
0.0
 11
22.25342829351713
 21
-20.52144776821011
 31
0.0
  0
LWPOLYLINE
  5
BB
330
90
100
AcDbEntity
  8
AM_9
100
AcDbPolyline
 90
       11
 70
     0
 43
0.0
 10
22.49999999999983
 20
-17.30150000000115
 10
22.49388443634683
 20
-17.34315763850147
 10
22.47450036654805
 20
-17.47876113812567
 10
22.44502587874992
 20
-17.69671740643875
 10
22.4071138337575
 20
-18.00309180004966
 10
22.36651691521212
 20
-18.37628232797667
 10
22.32590141782724
 20
-18.82457605866275
 10
22.29181125067332
 20
-19.31332127193977
 10
22.2665102695539
 20
-19.85484947305771
 10
22.25661298168093
 20
-20.23452123447212
 10
22.25318736158935
 20
-20.625
  0
LINE
  5
BC
330
90
100
AcDbEntity
  8
AM_9
100
AcDbLine
 10
22.5
 20
17.972
 30
0.0
 11
23.62799999999997
 21
19.09999999999999
 31
0.0
  0
LINE
  5
BD
330
90
100
AcDbEntity
  8
AM_9
100
AcDbLine
 10
-23.62799999999997
 20
19.09999999999999
 30
0.0
 11
-22.5
 21
17.972
 31
0.0
  0
LINE
  5
BE
330
90
100
AcDbEntity
  8
AM_9
100
AcDbLine
 10
-22.5
 20
-29.072
 30
0.0
 11
-23.62799999999997
 21
-30.2
 31
0.0
  0
LINE
  5
BF
330
90
100
AcDbEntity
  8
AM_9
100
AcDbLine
 10
23.62799999999997
 20
-30.2
 30
0.0
 11
22.5
 21
-29.072
 31
0.0
  0
LINE
  5
C0
330
90
100
AcDbEntity
  8
AM_9
100
AcDbLine
 10
28.20000000000001
 20
11.05
 30
0.0
 11
28.20000000000001
 21
17.47999999999999
 31
0.0
  0
LINE
  5
C1
330
90
100
AcDbEntity
  8
AM_9
100
AcDbLine
 10
-28.20000000000001
 20
17.47999999999999
 30
0.0
 11
-28.20000000000001
 21
11.05
 31
0.0
  0
LINE
  5
C2
330
90
100
AcDbEntity
  8
AM_9
100
AcDbLine
 10
28.15090086929637
 20
-17.47802119972563
 30
0.0
 11
28.19999999999999
 21
-17.01637058898903
 31
0.0
  0
LWPOLYLINE
  5
C3
330
90
100
AcDbEntity
  8
AM_9
100
AcDbPolyline
 90
       38
 70
     0
 43
0.0
 10
11.77156957424858
 20
-17.02043264092341
 10
11.28521372267172
 20
-17.09279507745524
 10
10.81251647346486
 20
-17.25185760593594
 10
10.36429907937317
 20
-17.49467095486156
 10
9.954741772120004
 20
-17.81119775398682
 10
9.579214966946779
 20
-18.21129624189749
 10
9.265806974701038
 20
-18.6694358739414
 10
9.010445984253135
 20
-19.20445963671913
 10
8.838656489143068
 20
-19.77578799492785
 10
8.753918137500895
 20
-20.39521666053312
 10
8.766683769529937
 20
-21.02090416510911
 10
8.880925675686452
 20
-21.64690482384298
 10
9.093022859029187
 20
-22.24371132094526
 10
9.396200469287455
 20
-22.78909743386179
 10
9.782066739238424
 20
-23.27060891959828
 10
10.22313938536355
 20
-23.65746232164664
 10
10.71762697626934
 20
-23.95472396139136
 10
11.21798456545579
 20
-24.1399674132244
 10
11.73600234924265
 20
-24.22735385651683
 10
12.22794853226274
 20
-24.21479776894054
 10
12.70672952800947
 20
-24.11143081950772
 10
13.15379174885123
 20
-23.92264585343932
 10
13.56461250696852
 20
-23.65566706533287
 10
13.94171869362493
 20
-23.30538347493493
 10
14.26357035967541
 20
-22.89147880239477
 10
14.53728335911092
 20
-22.39655382295125
 10
14.73890434298979
 20
-21.85733377355804
 10
14.86907275854365
 20
-21.25793533631085
 10
14.9145334872147
 20
-20.64162711622513
 10
14.87134733716501
 20
-20.00825032321385
 10
14.73878200866145
 20
-19.39225114508619
 10
14.51745754248333
 20
-18.81111962654662
 10
14.21232975426965
 20
-18.28306319277116
 10
13.83895656759672
 20
-17.83742015746282
 10
13.39949676621333
 20
-17.47457857724963
 10
12.93168406140537
 20
-17.22191624695042
 10
12.42698475681518
 20
-17.06650316836522
 10
11.77156953447714
 20
-17.02043259641737
  0
LINE
  5
C4
330
90
100
AcDbEntity
  8
AM_9
100
AcDbLine
 10
28.2
 20
-17.01637058898896
 30
0.0
 11
28.2
 21
-11.05
 31
0.0
  0
LINE
  5
C5
330
90
100
AcDbEntity
  8
AM_9
100
AcDbLine
 10
-28.2
 20
-11.05
 30
0.0
 11
-28.2
 21
-17.48000000000001
 31
0.0
  0
LINE
  5
C6
330
90
100
AcDbEntity
  8
AM_9
100
AcDbLine
 10
28.09526756173691
 20
-18.09886592572396
 30
0.0
 11
28.06378478620025
 21
-18.52889005938165
 31
0.0
  0
LINE
  5
C7
330
90
100
AcDbEntity
  8
AM_9
100
AcDbLine
 10
40.29000000000001
 20
-7.233333333333334
 30
0.0
 11
40.29000000000001
 21
-4.286666666666664
 31
0.0
  0
LINE
  5
C8
330
90
100
AcDbEntity
  8
AM_9
100
AcDbLine
 10
-40.29000000000001
 20
-4.286666666666664
 30
0.0
 11
-40.29000000000001
 21
-7.233333333333334
 31
0.0
  0
LINE
  5
C9
330
90
100
AcDbEntity
  8
AM_9
100
AcDbLine
 10
-39.69396883195166
 20
11.05
 30
0.0
 11
39.69396883195166
 21
11.05
 31
0.0
  0
ARC
  5
CA
330
90
100
AcDbEntity
  8
AM_9
100
AcDbCircle
 10
39.69396883195168
 20
10.16600000000001
 30
0.0
 40
0.8839999999999867
100
AcDbArc
 50
21.4124811754265
 51
90.0
  0
ARC
  5
CB
330
90
100
AcDbEntity
  8
AM_9
100
AcDbCircle
 10
-39.69396883195168
 20
10.16600000000001
 30
0.0
 40
0.8839999999999932
100
AcDbArc
 50
90.0
 51
158.5875188245735
  0
LINE
  5
CC
330
90
100
AcDbEntity
  8
AM_9
100
AcDbLine
 10
-39.69396884512427
 20
-11.05
 30
0.0
 11
39.69396884512427
 21
-11.05
 31
0.0
  0
ARC
  5
CD
330
90
100
AcDbEntity
  8
AM_9
100
AcDbCircle
 10
39.69396883195164
 20
-10.16599999999998
 30
0.0
 40
0.8840000000000199
100
AcDbArc
 50
270.0
 51
338.587532953115
  0
ARC
  5
CE
330
90
100
AcDbEntity
  8
AM_9
100
AcDbCircle
 10
-39.69396883195164
 20
-10.16599999999998
 30
0.0
 40
0.8840000000000182
100
AcDbArc
 50
201.412467046885
 51
270.0
  0
LINE
  5
CF
330
90
100
AcDbEntity
  8
AM_9
100
AcDbLine
 10
-40.51695196947392
 20
-10.48873015873016
 30
0.0
 11
40.51695196947392
 21
-10.48873015873016
 31
0.0
  0
ARC
  5
D0
330
90
100
AcDbEntity
  8
AM_9
100
AcDbCircle
 10
13.77000000000563
 20
-0.0000000000017408
 30
0.0
 40
28.72999999999413
100
AcDbArc
 50
338.587532953115
 51
345.4177622541458
  0
ARC
  5
D1
330
90
100
AcDbEntity
  8
AM_9
100
AcDbCircle
 10
-13.77000000003528
 20
-0.0000000000113936
 30
0.0
 40
28.729999999963
100
AcDbArc
 50
194.5822377458505
 51
201.4124670468886
  0
LINE
  5
D2
330
90
100
AcDbEntity
  8
AM_9
100
AcDbLine
 10
-41.57452820834926
 20
-7.233333333333334
 30
0.0
 11
41.57452820834926
 21
-7.233333333333334
 31
0.0
  0
LINE
  5
D3
330
90
100
AcDbEntity
  8
AM_9
100
AcDbLine
 10
-40.51695188989202
 20
10.48873036166922
 30
0.0
 11
40.51695188989202
 21
10.48873036166922
 31
0.0
  0
ARC
  5
D4
330
90
100
AcDbEntity
  8
AM_9
100
AcDbCircle
 10
13.76999999999984
 20
-0.0000000000000631
 30
0.0
 40
28.73000000000018
100
AcDbArc
 50
351.4191278814028
 51
21.41246748160841
  0
ARC
  5
D5
330
90
100
AcDbEntity
  8
AM_9
100
AcDbCircle
 10
-13.77000000002182
 20
0.0000000000024087
 30
0.0
 40
28.72999999997881
100
AcDbArc
 50
158.5875325183802
 51
188.5808721186085
  0
LINE
  5
D6
330
90
100
AcDbEntity
  8
AM_9
100
AcDbLine
 10
-42.17840349067315
 20
-4.286666666666668
 30
0.0
 11
42.17840349067315
 21
-4.286666666666668
 31
0.0
  0
CIRCLE
  5
D7
330
90
100
AcDbEntity
  8
AM_9
100
AcDbCircle
 10
-0.0000000000000027
 20
6.400000000000003
 30
0.0
 40
0.2009090909090882
  0
LINE
  5
D9
330
90
100
AcDbEntity
  8
AM_5
100
AcDbLine
 10
22.5
 20
-16.625
 30
0.0
 11
28.2
 21
-16.625
 31
0.0
  0
LINE
  5
DA
330
90
100
AcDbEntity
  8
AM_5
100
AcDbLine
 10
22.5
 20
-24.625
 30
0.0
 11
28.2
 21
-24.625
 31
0.0
  0
ELLIPSE
  5
DB
330
90
100
AcDbEntity
  8
AM_9
100
AcDbEllipse
 10
11.79733408503509
 20
-20.625
 30
0.0
 11
-6.105170455449327E-16
 21
-3.323499999999992
 31
0.0
210
0.0
220
0.0
230
1.0
 40
0.9063077870366497
 41
0.0
 42
6.283185307179586
  0
CIRCLE
  5
DC
330
90
100
AcDbEntity
  8
AM_9
100
AcDbCircle
 10
-0.0000000000000026
 20
6.400000000000002
 30
0.0
 40
2.210000000000004
  0
LINE
  5
DF
330
90
100
AcDbEntity
  8
AM_7
100
AcDbLine
 10
0.0
 20
-32.66500000000001
 30
0.0
 11
0.0
 21
21.56499999999999
 31
0.0
  0
LINE
  5
E0
330
90
100
AcDbEntity
  8
AM_7
100
AcDbLine
 10
29.47268462716419
 20
-20.625
 30
0.0
 11
21.0837757873093
 21
-20.625
 31
0.0
  0
LINE
  5
E1
330
90
100
AcDbEntity
  8
AM_7
100
AcDbLine
 10
-2.320500000000007
 20
6.400000000000002
 30
0.0
 11
2.320500000000001
 21
6.400000000000002
 31
0.0
  0
LINE
  5
E3
330
90
100
AcDbEntity
  8
AM_4
100
AcDbLine
 10
-27.07200000000001
 20
-30.2
 30
0.0
 11
27.07200000000001
 21
-30.2
 31
0.0
  0
LINE
  5
E4
330
90
100
AcDbEntity
  8
AM_4
100
AcDbLine
 10
27.07200000000001
 20
-30.2
 30
0.0
 11
28.19999999999998
 21
-29.072
 31
0.0
  0
LINE
  5
E5
330
90
100
AcDbEntity
  8
AM_4
100
AcDbLine
 10
-28.19999999999998
 20
-29.072
 30
0.0
 11
-27.07200000000001
 21
-30.2
 31
0.0
  0
LINE
  5
E6
330
90
100
AcDbEntity
  8
AM_4
100
AcDbLine
 10
-27.07200000000001
 20
19.09999999999999
 30
0.0
 11
27.07200000000001
 21
19.09999999999999
 31
0.0
  0
LINE
  5
E7
330
90
100
AcDbEntity
  8
AM_4
100
AcDbLine
 10
-27.07200000000001
 20
19.09999999999999
 30
0.0
 11
-28.20000000000001
 21
17.97199999999999
 31
0.0
  0
LINE
  5
E8
330
90
100
AcDbEntity
  8
AM_4
100
AcDbLine
 10
28.20000000000001
 20
17.97199999999999
 30
0.0
 11
27.07200000000001
 21
19.09999999999999
 31
0.0
  0
LINE
  5
E9
330
90
100
AcDbEntity
  8
AM_4
100
AcDbLine
 10
-28.20000000000001
 20
17.97199999999999
 30
0.0
 11
28.20000000000001
 21
17.97199999999999
 31
0.0
  0
LINE
  5
EA
330
90
100
AcDbEntity
  8
AM_4
100
AcDbLine
 10
28.20000000000001
 20
17.47999999999999
 30
0.0
 11
28.20000000000001
 21
17.97199999999999
 31
0.0
  0
LINE
  5
EB
330
90
100
AcDbEntity
  8
AM_4
100
AcDbLine
 10
-28.20000000000001
 20
17.97199999999999
 30
0.0
 11
-28.20000000000001
 21
17.47999999999999
 31
0.0
  0
LINE
  5
EC
330
90
100
AcDbEntity
  8
AM_4
100
AcDbLine
 10
-28.2
 20
-29.072
 30
0.0
 11
28.2
 21
-29.072
 31
0.0
  0
LINE
  5
ED
330
90
100
AcDbEntity
  8
AM_4
100
AcDbLine
 10
28.09410310239828
 20
-18.11347373322927
 30
0.0
 11
28.15090086929637
 21
-17.47802119972563
 31
0.0
  0
LINE
  5
EE
330
90
100
AcDbEntity
  8
AM_4
100
AcDbLine
 10
28.2
 20
-29.072
 30
0.0
 11
28.2
 21
-24.22210219552656
 31
0.0
  0
LINE
  5
EF
330
90
100
AcDbEntity
  8
AM_4
100
AcDbLine
 10
-28.2
 20
-17.48000000000001
 30
0.0
 11
-28.2
 21
-29.072
 31
0.0
  0
LWPOLYLINE
  5
F0
330
90
100
AcDbEntity
  8
AM_4
100
AcDbPolyline
 90
       16
 70
     0
 43
0.0
 10
28.19999999999972
 20
-24.23362941100852
 10
28.19930350283508
 20
-24.22748496954819
 10
28.1907255362174
 20
-24.15095551510192
 10
28.17261519036558
 20
-23.98380329273783
 10
28.14766471042004
 20
-23.73920239039646
 10
28.11731139710819
 20
-23.41345096501819
 10
28.08458414873778
 20
-23.01380886249742
 10
28.05258719564442
 20
-22.54533037975779
 10
28.02465206731781
 20
-22.01372070757822
 10
28.00433317840892
 20
-21.43183976359289
 10
27.99457134788238
 20
-20.81942313908126
 10
27.99705814680473
 20
-20.18457677510563
 10
28.01172570055262
 20
-19.5687775744664
 10
28.0377516303108
 20
-18.96576560878854
 10
28.06416441452128
 20
-18.52318620236283
 10
28.09410310239828
 20
-18.11347373322927
  0
ENDBLK
  5
93
330
90
100
AcDbEntity
  8
0
100
AcDbBlockEnd
  0
BLOCK
  5
F3
330
F1
100
AcDbEntity
  8
0
100
AcDbBlockBegin
  2
3_405016_Metric_0_in_125915_4
 70
     2
 10
0.0
 20
0.0
 30
0.0
  3
3_405016_Metric_0_in_125915_4
  1

  0
ATTDEF
  5
F5
330
F1
100
AcDbEntity
  8
AM_6
100
AcDbText
 10
-38.48568407110924
 20
5.556249999999999
 30
0.0
 40
0.5
  1
405016 -Metric
100
AcDbAttributeDefinition
  3

  2
NN
 70
     8
280
     0
  0
ATTDEF
  5
F6
330
F1
100
AcDbEntity
  8
AM_6
100
AcDbText
 10
-38.48568407110924
 20
5.056249999999999
 30
0.0
 40
0.5
  1
Grease Fitting
100
AcDbAttributeDefinition
  3

  2
NT
 70
     8
280
     0
  0
ATTDEF
  5
F7
330
F1
100
AcDbEntity
  8
AM_6
100
AcDbText
 10
-38.48568407110924
 20
4.556249999999999
 30
0.0
 40
0.5
  1
405016-Metric
100
AcDbAttributeDefinition
  3

  2
NB
 70
     8
280
     0
  0
ATTDEF
  5
F8
330
F1
100
AcDbEntity
  8
AM_6
100
AcDbText
 10
-38.48568407110924
 20
4.056249999999999
 30
0.0
 40
0.5
  1
$MN.-Metric
100
AcDbAttributeDefinition
  3

  2
NBSYN
 70
     8
280
     0
  0
ATTDEF
  5
F9
330
F1
100
AcDbEntity
  8
AM_6
100
AcDbText
 10
-38.48568407110924
 20
3.556249999999999
 30
0.0
 40
0.5
  1
405016
100
AcDbAttributeDefinition
  3

  2
LINA
 70
     8
280
     0
  0
ATTDEF
  5
FA
330
F1
100
AcDbEntity
  8
AM_6
100
AcDbText
 10
-38.48568407110924
 20
3.056249999999999
 30
0.0
 40
0.5
  1
405016
100
AcDbAttributeDefinition
  3

  2
MN
 70
     8
280
     0
  0
ATTDEF
  5
FB
330
F1
100
AcDbEntity
  8
AM_6
100
AcDbText
 10
-38.48568407110924
 20
2.556249999999999
 30
0.0
 40
0.5
  1
7/16 HEX
100
AcDbAttributeDefinition
  3

  2
H
 70
     8
280
     0
  0
ATTDEF
  5
FC
330
F1
100
AcDbEntity
  8
AM_6
100
AcDbText
 10
-38.48568407110924
 20
2.056249999999999
 30
0.0
 40
0.5
  1
9.728
100
AcDbAttributeDefinition
  3

  2
NDR
 70
     8
280
     0
  0
ATTDEF
  5
FD
330
F1
100
AcDbEntity
  8
AM_6
100
AcDbText
 10
-38.48568407110924
 20
1.556249999999999
 30
0.0
 40
0.5
  1
8.560
100
AcDbAttributeDefinition
  3

  2
KDR
 70
     8
280
     0
  0
ATTDEF
  5
FE
330
F1
100
AcDbEntity
  8
AM_6
100
AcDbText
 10
-38.48568407110924
 20
1.056249999999999
 30
0.0
 40
0.5
  1
4.0005
100
AcDbAttributeDefinition
  3

  2
BZE
 70
     8
280
     0
  0
ATTDEF
  5
FF
330
F1
100
AcDbEntity
  8
AM_6
100
AcDbText
 10
-38.48568407110924
 20
0.5562499999999995
 30
0.0
 40
0.5
  1
11.1125
100
AcDbAttributeDefinition
  3

  2
HEX
 70
     8
280
     0
  0
ATTDEF
  5
100
330
F1
100
AcDbEntity
  8
AM_6
100
AcDbText
 10
-38.48568407110924
 20
0.0562499999999995
 30
0.0
 40
0.5
  1
7.143750
100
AcDbAttributeDefinition
  3

  2
HEX2
 70
     8
280
     0
  0
ATTDEF
  5
101
330
F1
100
AcDbEntity
  8
AM_6
100
AcDbText
 10
-38.48568407110924
 20
-0.4437500000000005
 30
0.0
 40
0.5
  1
baldor
100
AcDbAttributeDefinition
  3

  2
COMPANY
 70
     8
280
     0
  0
LINE
  5
102
330
F1
100
AcDbEntity
  8
AM_9
100
AcDbLine
 10
-61.19316158050497
 20
-3.837282897828231
 30
0.0
 11
-61.48072954039145
 21
-4.549376881905936
 31
0.0
  0
LINE
  5
103
330
F1
100
AcDbEntity
  8
AM_9
100
AcDbLine
 10
-57.35332049112714
 20
-5.333905179049321
 30
0.0
 11
-57.65017654510358
 21
-6.068998929608747
 31
0.0
  0
LWPOLYLINE
  5
104
330
F1
100
AcDbEntity
  8
AM_9
100
AcDbPolyline
 90
        3
 70
     0
 43
0.0
 10
-50.86157782819877
 20
-0.0000000000000028
 10
-51.40711066950639
 20
-1.382816900963401
 10
-51.86301383738584
 20
-2.778125000000002
  0
LWPOLYLINE
  5
105
330
F1
100
AcDbEntity
  8
AM_9
100
AcDbPolyline
 90
        3
 70
     0
 43
0.0
 10
-51.86301383738584
 20
2.778124999999997
 10
-51.40937872779418
 20
1.389062499999997
 10
-50.86157782819877
 20
-0.0000000000000028
  0
LWPOLYLINE
  5
106
330
F1
100
AcDbEntity
  8
AM_9
100
AcDbPolyline
 90
        3
 70
     0
 43
0.0
 10
-55.88187694120605
 20
-7.58869625231989
 10
-56.28541396910871
 20
-7.397029361446425
 10
-56.67174801223828
 20
-7.147354260923539
  0
LWPOLYLINE
  5
107
330
F1
100
AcDbEntity
  8
AM_9
100
AcDbPolyline
 90
        3
 70
     0
 43
0.0
 10
-49.66330931177337
 20
-2.778125000000002
 10
-49.31496881306881
 20
-1.389062500000002
 10
-49.06079410436801
 20
-0.0000000000000031
  0
LWPOLYLINE
  5
108
330
F1
100
AcDbEntity
  8
AM_9
100
AcDbPolyline
 90
        3
 70
     0
 43
0.0
 10
-49.06079410436801
 20
-0.0000000000000031
 10
-49.31363097307158
 20
1.382816900963397
 10
-49.66330931177337
 20
2.778124999999998
  0
LINE
  5
109
330
F1
100
AcDbEntity
  8
AM_9
100
AcDbLine
 10
-55.5985211760179
 20
-6.792577459924286
 30
0.0
 11
-55.57566344870721
 21
-6.830431020205951
 31
0.0
  0
LWPOLYLINE
  5
10A
330
F1
100
AcDbEntity
  8
AM_9
100
AcDbPolyline
 90
        3
 70
     0
 43
0.0
 10
-52.4655290447912
 20
5.556249999999999
 10
-52.21269217608763
 20
4.173433099036599
 10
-51.86301383738584
 20
2.778124999999997
  0
LINE
  5
10B
330
F1
100
AcDbEntity
  8
AM_9
100
AcDbLine
 10
-50.86157782819877
 20
-0.0000000000000028
 30
0.0
 11
-49.06079410436801
 21
-0.0000000000000031
 31
0.0
  0
LWPOLYLINE
  5
10C
330
F1
100
AcDbEntity
  8
AM_9
100
AcDbPolyline
 90
        3
 70
     0
 43
0.0
 10
-51.86301383738584
 20
-2.778125000000002
 10
-52.2113543360904
 20
-4.167187500000002
 10
-52.4655290447912
 20
-5.556250000000003
  0
LINE
  5
10D
330
F1
100
AcDbEntity
  8
AM_9
100
AcDbLine
 10
-55.57566344870721
 20
-6.830431020205951
 30
0.0
 11
-55.59912653658728
 21
-6.818516214812173
 31
0.0
  0
LINE
  5
10E
330
F1
100
AcDbEntity
  8
AM_9
100
AcDbLine
 10
-55.57566344870721
 20
-6.830431020205951
 30
0.0
 11
-55.60000000000001
 21
-6.890694728915514
 31
0.0
  0
ELLIPSE
  5
10F
330
F1
100
AcDbEntity
  8
AM_9
100
AcDbEllipse
 10
-62.03583066957295
 20
-11.90625
 30
0.0
 11
-2.437227270755863
 21
0.9842359150649257
 31
0.0
210
0.0
220
0.0
230
1.0
 40
0.2113091308703527
 41
3.040609649696544
 42
6.384168311072839
  0
ELLIPSE
  5
110
330
F1
100
AcDbEntity
  8
AM_9
100
AcDbEllipse
 10
-61.32479164975688
 20
-10.14553017344
 30
0.0
 11
-3.277232327750504
 21
1.323458750723529
 31
0.0
210
0.0
220
0.0
230
1.0
 40
0.211309130870352
 41
3.036278112694981
 42
5.801105639492169
  0
ELLIPSE
  5
111
330
F1
100
AcDbEntity
  8
AM_9
100
AcDbEllipse
 10
-61.05364710760997
 20
-9.474104895899671
 30
0.0
 11
-3.136987913476738
 21
1.266823248949832
 31
0.0
210
0.0
220
0.0
230
1.0
 40
0.2113091308703363
 41
3.381626279659457
 42
6.024964755858623
  0
LWPOLYLINE
  5
112
330
F1
100
AcDbEntity
  8
AM_9
100
AcDbPolyline
 90
        5
 70
     0
 43
0.0
 10
-61.48072954039145
 20
-4.549376881905936
 10
-62.03603420825654
 20
-4.680053692952522
 10
-62.56679481627837
 20
-4.730040525586979
 10
-63.07270235297307
 20
-4.684077415975232
 10
-63.54295253315315
 20
-4.549376881905936
  0
LWPOLYLINE
  5
113
330
F1
100
AcDbEntity
  8
AM_9
100
AcDbPolyline
 90
        5
 70
     0
 43
0.0
 10
-57.65017654510358
 20
-6.068998929608747
 10
-58.63674527776429
 20
-5.830160733401207
 10
-59.60537546424702
 20
-5.503852774457659
 10
-60.56089284102108
 20
-5.070861224918887
 10
-61.48072954039145
 20
-4.549376881905936
  0
LWPOLYLINE
  5
114
330
F1
100
AcDbEntity
  8
AM_9
100
AcDbPolyline
 90
        3
 70
     0
 43
0.0
 10
-56.97709487885616
 20
-6.887292896806422
 10
-57.32596839407631
 20
-6.507011440078409
 10
-57.65017654510358
 20
-6.068998929608747
  0
ELLIPSE
  5
115
330
F1
100
AcDbEntity
  8
AM_9
100
AcDbEllipse
 10
-59.75822417732664
 20
-6.266296641271174
 30
0.0
 11
-3.312005593887541
 21
1.337501387545751
 31
0.0
210
0.0
220
0.0
230
1.0
 40
0.2113091308703352
 41
3.80634037200308
 42
6.919181903097247
  0
LINE
  5
116
330
F1
100
AcDbEntity
  8
AM_9
100
AcDbLine
 10
-50.46816156359063
 20
5.081049061129096
 30
0.0
 11
-50.66474532096043
 21
5.556249999999999
 31
0.0
  0
LWPOLYLINE
  5
117
330
F1
100
AcDbEntity
  8
AM_9
100
AcDbPolyline
 90
        3
 70
     0
 43
0.0
 10
-50.03405144741076
 20
3.935117020113599
 10
-50.11694442136502
 20
4.167187499999998
 10
-50.46816156359063
 20
5.081049061129096
  0
LINE
  5
118
330
F1
100
AcDbEntity
  8
AM_9
100
AcDbLine
 10
-49.66330931177337
 20
2.778124999999998
 30
0.0
 11
-50.03405144741076
 21
3.935117020113599
 31
0.0
  0
LINE
  5
119
330
F1
100
AcDbEntity
  8
AM_9
100
AcDbLine
 10
-50.03443327966852
 20
-3.93620379325198
 30
0.0
 11
-49.66330931177337
 21
-2.778125000000002
 31
0.0
  0
LWPOLYLINE
  5
11A
330
F1
100
AcDbEntity
  8
AM_9
100
AcDbPolyline
 90
        3
 70
     0
 43
0.0
 10
-50.46815846270871
 20
-5.081041392296855
 10
-50.11921247965282
 20
-4.173433099036602
 10
-50.03443327966852
 20
-3.93620379325198
  0
LINE
  5
11B
330
F1
100
AcDbEntity
  8
AM_9
100
AcDbLine
 10
-50.66474532096043
 20
-5.556250000000003
 30
0.0
 11
-50.46815846270871
 21
-5.081041392296855
 31
0.0
  0
LINE
  5
11C
330
F1
100
AcDbEntity
  8
AM_9
100
AcDbLine
 10
-61.47598552214298
 20
-3.058387021916507
 30
0.0
 11
-61.50355582488167
 21
-3.126658350638854
 31
0.0
  0
LINE
  5
11D
330
F1
100
AcDbEntity
  8
AM_9
100
AcDbLine
 10
-56.26593172012576
 20
-5.080000000000001
 30
0.0
 11
-56.19815234477029
 21
-4.912160420603781
 31
0.0
  0
ELLIPSE
  5
11E
330
F1
100
AcDbEntity
  8
AM_9
100
AcDbEllipse
 10
-59.29340652584846
 20
-5.115285751734302
 30
0.0
 11
-2.590724375662645
 21
1.046223307591025
 31
0.0
210
0.0
220
0.0
230
1.0
 40
0.2113091308703464
 41
3.141592653589793
 42
6.283185307179586
  0
LWPOLYLINE
  5
11F
330
F1
100
AcDbEntity
  8
AM_9
100
AcDbPolyline
 90
        4
 70
     0
 43
0.0
 10
-61.47610565538047
 20
-3.058684545841784
 10
-61.47964047138752
 20
-3.069253891791883
 10
-61.46496983887651
 20
-3.162573084305298
 10
-61.41650169224832
 20
-3.235042756066509
  0
LWPOLYLINE
  5
120
330
F1
100
AcDbEntity
  8
AM_9
100
AcDbPolyline
 90
        5
 70
     0
 43
0.0
 10
-56.19812836205248
 20
-4.912101024934069
 10
-56.20049909978373
 20
-4.917691338485696
 10
-56.28217373838073
 20
-5.008516140987742
 10
-56.43504016474741
 20
-5.065126856945112
 10
-56.60938501749066
 20
-5.079999999236803
  0
LWPOLYLINE
  5
121
330
F1
100
AcDbEntity
  8
AM_9
100
AcDbPolyline
 90
        3
 70
     0
 43
0.0
 10
-58.9791321502866
 20
-4.434184386909876
 10
-58.28344963580145
 20
-4.766969289547203
 10
-57.35332049112714
 20
-5.333905179049321
  0
LWPOLYLINE
  5
122
330
F1
100
AcDbEntity
  8
AM_9
100
AcDbPolyline
 90
        3
 70
     0
 43
0.0
 10
-61.19316158050497
 20
-3.837282897828231
 10
-60.45136455001708
 20
-3.973124856539688
 10
-59.72313387688277
 20
-4.163853732670687
  0
LWPOLYLINE
  5
123
330
F1
100
AcDbEntity
  8
AM_9
100
AcDbPolyline
 90
        3
 70
     0
 43
0.0
 10
-57.35332049112714
 20
-5.333905179049321
 10
-56.92218895985567
 20
-5.49523760296716
 10
-56.51227722737743
 20
-5.736282007269851
  0
LWPOLYLINE
  5
124
330
F1
100
AcDbEntity
  8
AM_9
100
AcDbPolyline
 90
        4
 70
     0
 43
0.0
 10
-62.13069794125515
 20
-3.60574614931637
 10
-62.03226990732551
 20
-3.608061141866097
 10
-61.66425146341084
 20
-3.660719790057628
 10
-61.19316158050497
 20
-3.837282897828231
  0
ELLIPSE
  5
125
330
F1
100
AcDbEntity
  8
AM_9
100
AcDbEllipse
 10
-59.29340652584833
 20
-5.115285751734379
 30
0.0
 11
-3.312005593887
 21
1.337501387545435
 31
0.0
210
0.0
220
0.0
230
1.0
 40
0.2113091308703478
 41
3.814164134970072
 42
4.68202466949653
  0
ELLIPSE
  5
126
330
F1
100
AcDbEntity
  8
AM_9
100
AcDbEllipse
 10
-59.29340652584834
 20
-5.115285751734408
 30
0.0
 11
-3.31200559388708
 21
1.337501387545463
 31
0.0
210
0.0
220
0.0
230
1.0
 40
0.211309130870354
 41
-1.283515054064443
 42
-0.6725714813802872
  0
LINE
  5
127
330
F1
100
AcDbEntity
  8
AM_9
100
AcDbLine
 10
-56.67174801223828
 20
-7.147354260923539
 30
0.0
 11
-56.97709487885616
 21
-6.887292896806422
 31
0.0
  0
ELLIPSE
  5
128
330
F1
100
AcDbEntity
  8
AM_9
100
AcDbEllipse
 10
-59.75822417732706
 20
-6.266296641270962
 30
0.0
 11
-3.312005593886993
 21
1.33750138754541
 31
0.0
210
0.0
220
0.0
230
1.0
 40
0.2113091308703498
 41
2.800469246484355
 42
3.607080702195142
  0
ELLIPSE
  5
129
330
F1
100
AcDbEntity
  8
AM_9
100
AcDbEllipse
 10
-59.75822417736361
 20
-6.266296641270729
 30
0.0
 11
-3.312005593931979
 21
1.337501387546544
 31
0.0
210
0.0
220
0.0
230
1.0
 40
0.2113091308672414
 41
-3.777589249508378
 42
-3.764628581860237
  0
LWPOLYLINE
  5
12A
330
F1
100
AcDbEntity
  8
AM_9
100
AcDbPolyline
 90
       17
 70
     0
 43
0.0
 10
-56.36770153959522
 20
-4.547549295794519
 10
-56.57007515253051
 20
-4.404185730898368
 10
-56.84327941775872
 20
-4.243653641815979
 10
-57.1644129264288
 20
-4.079360450144661
 10
-57.54262967433316
 20
-3.906600444275934
 10
-57.94653734522792
 20
-3.739733627290439
 10
-58.38750597869957
 20
-3.574110867010545
 10
-58.82833509780779
 20
-3.423743718108895
 10
-59.28192097204872
 20
-3.284291520882655
 10
-59.70939691415062
 20
-3.167739146394208
 10
-60.12384220922852
 20
-3.070557447853723
 10
-60.4895781010683
 20
-3.001126812430812
 10
-60.81805986385828
 20
-2.957268343506164
 10
-61.08119695911466
 20
-2.942714645652546
 10
-61.28719539945877
 20
-2.956956816676946
 10
-61.41868208570614
 20
-2.998748603033094
 10
-61.47610565538047
 20
-3.058684545841784
  0
LWPOLYLINE
  5
12B
330
F1
100
AcDbEntity
  8
AM_9
100
AcDbPolyline
 90
        4
 70
     0
 43
0.0
 10
-56.36770153959522
 20
-4.547549295794528
 10
-56.24185316360469
 20
-4.680277139818005
 10
-56.18831289814942
 20
-4.804994146739736
 10
-56.19812836205248
 20
-4.912101024934069
  0
LINE
  5
12C
330
F1
100
AcDbEntity
  8
AM_9
100
AcDbLine
 10
-54.26894066227449
 20
5.079999999999997
 30
0.0
 11
-55.86124892926591
 21
5.079999999999997
 31
0.0
  0
LINE
  5
12D
330
F1
100
AcDbEntity
  8
AM_9
100
AcDbLine
 10
-55.86131608908527
 20
-5.080000000000001
 30
0.0
 11
-54.26894066227449
 21
-5.080000000000001
 31
0.0
  0
LINE
  5
12E
330
F1
100
AcDbEntity
  8
AM_9
100
AcDbLine
 10
-50.35071697602726
 20
5.079999999999997
 30
0.0
 11
-52.06923613666201
 21
5.079999999999997
 31
0.0
  0
LINE
  5
12F
330
F1
100
AcDbEntity
  8
AM_9
100
AcDbLine
 10
-52.06923613666201
 20
-5.080000000000001
 30
0.0
 11
-50.35071697602726
 21
-5.080000000000001
 31
0.0
  0
ELLIPSE
  5
130
330
F1
100
AcDbEntity
  8
AM_9
100
AcDbEllipse
 10
-50.35071697602726
 20
-0.0000000000000073
 30
0.0
 11
3.110602869834287E-16
 21
5.080000000000016
 31
0.0
210
0.0
220
0.0
230
1.0
 40
0.4999999999999983
 41
1.801336494231761
 42
7.619064090402617
  0
LINE
  5
131
330
F1
100
AcDbEntity
  8
AM_9
100
AcDbLine
 10
-55.60000000000001
 20
5.556249999999999
 30
0.0
 11
-50.66474532096043
 21
5.556249999999999
 31
0.0
  0
LWPOLYLINE
  5
132
330
F1
100
AcDbEntity
  8
AM_9
100
AcDbPolyline
 90
        3
 70
     0
 43
0.0
 10
-53.92124354030884
 20
5.253155573281385
 10
-54.12548462284887
 20
4.173433099036599
 10
-54.47516296155065
 20
2.778124999999999
  0
LINE
  5
133
330
F1
100
AcDbEntity
  8
AM_9
100
AcDbLine
 10
-53.87264775414529
 20
5.556249999999999
 30
0.0
 11
-53.92124354030884
 21
5.253155573281385
 31
0.0
  0
LINE
  5
134
330
F1
100
AcDbEntity
  8
AM_9
100
AcDbLine
 10
-55.10578032834092
 20
0.916284058116495
 30
0.0
 11
-55.47659897073772
 21
-0.0000000000000006
 31
0.0
  0
LWPOLYLINE
  5
135
330
F1
100
AcDbEntity
  8
AM_9
100
AcDbPolyline
 90
        3
 70
     0
 43
0.0
 10
-54.63304376596284
 20
2.257296794608293
 10
-54.92879807114231
 20
1.389062499999999
 10
-55.10578032834092
 20
0.916284058116495
  0
LINE
  5
136
330
F1
100
AcDbEntity
  8
AM_9
100
AcDbLine
 10
-54.47516296155065
 20
2.778124999999999
 30
0.0
 11
-54.63304376596284
 21
2.257296794608293
 31
0.0
  0
LINE
  5
137
330
F1
100
AcDbEntity
  8
AM_9
100
AcDbLine
 10
-55.60000000000001
 20
-0.0000000000000006
 30
0.0
 11
-55.47659897073772
 21
-0.0000000000000006
 31
0.0
  0
LINE
  5
138
330
F1
100
AcDbEntity
  8
AM_9
100
AcDbLine
 10
-55.60000000000001
 20
-5.556250000000002
 30
0.0
 11
-50.66474532096043
 21
-5.556250000000003
 31
0.0
  0
LINE
  5
139
330
F1
100
AcDbEntity
  8
AM_9
100
AcDbLine
 10
-53.92566813011872
 20
-5.226603138326668
 30
0.0
 11
-53.87264775414529
 21
-5.556250000000002
 31
0.0
  0
LWPOLYLINE
  5
13A
330
F1
100
AcDbEntity
  8
AM_9
100
AcDbPolyline
 90
        3
 70
     0
 43
0.0
 10
-54.47516296155065
 20
-2.778125000000001
 10
-54.12682246284609
 20
-4.167187500000002
 10
-53.92566813011872
 20
-5.226603138326668
  0
LWPOLYLINE
  5
13B
330
F1
100
AcDbEntity
  8
AM_9
100
AcDbPolyline
 90
        3
 70
     0
 43
0.0
 10
-55.10477874102451
 20
-0.9188835053134055
 10
-54.93106612943011
 20
-1.382816900963401
 10
-54.47516296155065
 20
-2.778125000000001
  0
LINE
  5
13C
330
F1
100
AcDbEntity
  8
AM_9
100
AcDbLine
 10
-55.47659897073772
 20
-0.0000000000000006
 30
0.0
 11
-55.10477874102451
 21
-0.9188835053134055
 31
0.0
  0
LINE
  5
13D
330
F1
100
AcDbEntity
  8
AM_9
100
AcDbLine
 10
-46.01870577091653
 20
4.708725846697615
 30
0.0
 11
-50.30683359057507
 21
4.863493258495418
 31
0.0
  0
LINE
  5
13E
330
F1
100
AcDbEntity
  8
AM_9
100
AcDbLine
 10
-50.30683359057507
 20
-4.863493258495422
 30
0.0
 11
-46.01870577091653
 21
-4.708725846697618
 31
0.0
  0
LINE
  5
13F
330
F1
100
AcDbEntity
  8
AM_9
100
AcDbLine
 10
-44.35345973059991
 20
3.352827683708302
 30
0.0
 11
-44.70167930462149
 21
3.845284527973389
 31
0.0
  0
LINE
  5
140
330
F1
100
AcDbEntity
  8
AM_9
100
AcDbLine
 10
-44.70167930462149
 20
-3.845284527973393
 30
0.0
 11
-44.35345973059991
 21
-3.352827683708306
 31
0.0
  0
ELLIPSE
  5
141
330
F1
100
AcDbEntity
  8
AM_9
100
AcDbEllipse
 10
-54.2689406622745
 20
-0.0000000000000007
 30
0.0
 11
3.402221888881227E-16
 21
5.556249999999978
 31
0.0
210
0.0
220
0.0
230
1.0
 40
0.4999999999999999
 41
0.0
 42
6.283185307179586
  0
ELLIPSE
  5
142
330
F1
100
AcDbEntity
  8
AM_9
100
AcDbEllipse
 10
-54.26894066227448
 20
0.0000000000000142
 30
0.0
 11
3.110602869834287E-16
 21
5.080000000000016
 31
0.0
210
0.0
220
0.0
230
1.0
 40
0.4999999999999997
 41
0.0
 42
6.283185307179586
  0
ELLIPSE
  5
143
330
F1
100
AcDbEntity
  8
AM_9
100
AcDbEllipse
 10
-52.06923613666198
 20
-0.0000000000001004
 30
0.0
 11
3.402221888881173E-16
 21
5.556249999999889
 31
0.0
210
0.0
220
0.0
230
1.0
 40
0.4999999999999951
 41
0.0
 42
6.283185307179586
  0
ELLIPSE
  5
144
330
F1
100
AcDbEntity
  8
AM_9
100
AcDbEllipse
 10
-52.06923613666199
 20
-0.0000000000000089
 30
0.0
 11
3.110602869834272E-16
 21
5.079999999999991
 31
0.0
210
0.0
220
0.0
230
1.0
 40
0.4999999999999979
 41
0.0
 42
6.283185307179586
  0
ELLIPSE
  5
145
330
F1
100
AcDbEntity
  8
AM_9
100
AcDbEllipse
 10
-50.35071697602727
 20
-0.0000000000000044
 30
0.0
 11
2.978515598206520E-16
 21
4.864285115153657
 31
0.0
210
0.0
220
0.0
230
1.0
 40
0.4999999999999992
 41
0.0
 42
6.283185307179586
  0
ELLIPSE
  5
146
330
F1
100
AcDbEntity
  8
AM_9
100
AcDbEllipse
 10
-46.06119268728231
 20
-0.000000000000008
 30
0.0
 11
2.883732460730458E-16
 21
4.709492504676818
 31
0.0
210
0.0
220
0.0
230
1.0
 40
0.4999999999999954
 41
0.0
 42
6.283185307179586
  0
ELLIPSE
  5
147
330
F1
100
AcDbEntity
  8
AM_9
100
AcDbEllipse
 10
-45.53886332624997
 20
0.0000000000000093
 30
0.0
 11
2.514419402883873E-16
 21
4.106358510281511
 31
0.0
210
0.0
220
0.0
230
1.0
 40
0.4999999999999928
 41
0.0
 42
6.283185307179586
  0
LWPOLYLINE
  5
148
330
F1
100
AcDbEntity
  8
AM_4
100
AcDbPolyline
 90
        3
 70
     0
 43
0.0
 10
-56.20693036075951
 20
-5.996343371387007
 10
-55.97413970171495
 20
-6.253713524124906
 10
-55.5985211760179
 20
-6.792577459924286
  0
LWPOLYLINE
  5
149
330
F1
100
AcDbEntity
  8
AM_4
100
AcDbPolyline
 90
        3
 70
     0
 43
0.0
 10
-55.59912653658728
 20
-6.818516214812173
 10
-55.90575900008733
 20
-6.691143549353728
 10
-56.26679206298903
 20
-6.609853898455522
  0
LWPOLYLINE
  5
14A
330
F1
100
AcDbEntity
  8
AM_4
100
AcDbPolyline
 90
        3
 70
     0
 43
0.0
 10
-56.7316097144678
 20
-7.76086478799207
 10
-56.31550806714576
 20
-7.69811432306444
 10
-55.88187694120605
 20
-7.58869625231989
  0
LINE
  5
14B
330
F1
100
AcDbEntity
  8
AM_4
100
AcDbLine
 10
-55.60000000000001
 20
-6.890694728915514
 30
0.0
 11
-55.88187694120605
 21
-7.58869625231989
 31
0.0
  0
LINE
  5
14C
330
F1
100
AcDbEntity
  8
AM_4
100
AcDbLine
 10
-59.63198630604077
 20
-12.93739051932093
 30
0.0
 11
-58.09244784925227
 21
-11.53205948275794
 31
0.0
  0
LINE
  5
14D
330
F1
100
AcDbEntity
  8
AM_4
100
AcDbLine
 10
-64.6135210986691
 20
-8.898626575676335
 30
0.0
 11
-64.48160817248454
 21
-10.9789469745965
 31
0.0
  0
ELLIPSE
  5
14E
330
F1
100
AcDbEntity
  8
AM_4
100
AcDbEllipse
 10
-62.03583066957297
 20
-11.90625
 30
0.0
 11
-2.437227270755876
 21
0.98423591506493
 31
0.0
210
0.0
220
0.0
230
1.0
 40
0.2113091308703423
 41
0.1009830038932495
 42
3.04060964969654
  0
LINE
  5
14F
330
F1
100
AcDbEntity
  8
AM_4
100
AcDbLine
 10
-63.25538457326667
 20
-3.837282897828231
 30
0.0
 11
-63.54295253315315
 21
-4.549376881905936
 31
0.0
  0
LWPOLYLINE
  5
150
330
F1
100
AcDbEntity
  8
AM_4
100
AcDbPolyline
 90
        9
 70
     0
 43
0.0
 10
-64.00076777609978
 20
-8.074486373837825
 10
-64.05233999795608
 20
-8.091282727540895
 10
-64.19860813245688
 20
-8.15671547844679
 10
-64.33010730935955
 20
-8.246001791763348
 10
-64.44363806216602
 20
-8.360631169635264
 10
-64.53261837417483
 20
-8.498415529785747
 10
-64.59372246836308
 20
-8.665282489120521
 10
-64.61495682136561
 20
-8.830565317760813
 10
-64.61242484738915
 20
-8.91369833104199
  0
LWPOLYLINE
  5
151
330
F1
100
AcDbEntity
  8
AM_4
100
AcDbPolyline
 90
        9
 70
     0
 43
0.0
 10
-58.10300493602136
 20
-11.54152897706613
 10
-58.03756445266553
 20
-11.47686784610665
 10
-57.94137818457748
 20
-11.34478779937642
 10
-57.87006599141404
 20
-11.17906000604533
 10
-57.83993644292526
 20
-11.01237191203518
 10
-57.84461596897204
 20
-10.85379596938816
 10
-57.87717476703954
 20
-10.70566494081611
 10
-57.93320810720589
 20
-10.56628522276046
 10
-57.96065342140572
 20
-10.51425804346167
  0
ELLIPSE
  5
152
330
F1
100
AcDbEntity
  8
AM_4
100
AcDbEllipse
 10
-61.3247916497569
 20
-10.14553017343999
 30
0.0
 11
-3.277232327750504
 21
1.323458750723529
 31
0.0
210
0.0
220
0.0
230
1.0
 40
0.2113091308703457
 41
0.1056140169363493
 42
3.036278112694977
  0
LWPOLYLINE
  5
153
330
F1
100
AcDbEntity
  8
AM_4
100
AcDbPolyline
 90
        3
 70
     0
 43
0.0
 10
-57.94409993396775
 20
-7.58869625231989
 10
-57.60035499025785
 20
-7.697739397127513
 10
-57.25594916078322
 20
-7.758592464327528
  0
LINE
  5
154
330
F1
100
AcDbEntity
  8
AM_4
100
AcDbLine
 10
-57.26165567493675
 20
-7.757990703186896
 30
0.0
 11
-57.23342227328083
 21
-7.76086478799207
 31
0.0
  0
ELLIPSE
  5
155
330
F1
100
AcDbEntity
  8
AM_4
100
AcDbEllipse
 10
-59.75822417732711
 20
-6.266296641270917
 30
0.0
 11
-3.312005593887037
 21
1.337501387545445
 31
0.0
210
0.0
220
0.0
230
1.0
 40
0.2113091308703521
 41
1.71194526960963
 42
2.505596057672106
  0
LWPOLYLINE
  5
156
330
F1
100
AcDbEntity
  8
AM_4
100
AcDbPolyline
 90
        4
 70
     0
 43
0.0
 10
-63.54295253315315
 20
-4.549376881905935
 10
-63.16507373485902
 20
-5.05042200837363
 10
-62.74777021989508
 20
-5.477080537076166
 10
-62.60814594716697
 20
-5.592268783583251
  0
LINE
  5
157
330
F1
100
AcDbEntity
  8
AM_4
100
AcDbLine
 10
-62.61063887392847
 20
-5.590323799250987
 30
0.0
 11
-62.59054111258422
 21
-5.606004100241778
 31
0.0
  0
LWPOLYLINE
  5
158
330
F1
100
AcDbEntity
  8
AM_4
100
AcDbPolyline
 90
        3
 70
     0
 43
0.0
 10
-62.60814594716697
 20
-5.592268783583251
 10
-62.27945669856183
 20
-5.817773758536458
 10
-61.774622530627
 20
-6.068998929608745
  0
LWPOLYLINE
  5
159
330
F1
100
AcDbEntity
  8
AM_4
100
AcDbPolyline
 90
        3
 70
     0
 43
0.0
 10
-56.76860462180204
 20
-6.609853898455276
 10
-57.00351996131496
 20
-6.646959991776583
 10
-57.6378864414689
 20
-6.830431020205951
  0
LINE
  5
15A
330
F1
100
AcDbEntity
  8
AM_4
100
AcDbLine
 10
-61.50355582488167
 20
-3.126658350638854
 30
0.0
 11
-61.88413090151111
 21
-4.069062444143282
 31
0.0
  0
LINE
  5
15B
330
F1
100
AcDbEntity
  8
AM_4
100
AcDbLine
 10
-56.7026821501856
 20
-6.161509059325487
 30
0.0
 11
-56.26593172012576
 21
-5.080000000000001
 31
0.0
  0
ELLIPSE
  5
15C
330
F1
100
AcDbEntity
  8
AM_4
100
AcDbEllipse
 10
-59.29340652584835
 20
-5.115285751734385
 30
0.0
 11
-2.590724375662752
 21
1.046223307591104
 31
0.0
210
0.0
220
0.0
230
1.0
 40
0.2113091308703499
 41
0.0
 42
3.141592653589793
  0
LWPOLYLINE
  5
15D
330
F1
100
AcDbEntity
  8
AM_4
100
AcDbPolyline
 90
        4
 70
     0
 43
0.0
 10
-63.25538457326667
 20
-3.837282897828232
 10
-62.83334218678343
 20
-3.705296695971724
 10
-62.42555502534306
 20
-3.624930539193417
 10
-62.13069794125515
 20
-3.60574614931637
  0
LWPOLYLINE
  5
15E
330
F1
100
AcDbEntity
  8
AM_4
100
AcDbPolyline
 90
        6
 70
     0
 43
0.0
 10
-61.47776647665053
 20
-5.333905179049321
 10
-61.7396185401267
 20
-4.936675458173813
 10
-62.02775174171564
 20
-4.585948207644054
 10
-62.35068669596654
 20
-4.290054100087518
 10
-62.70364322118471
 20
-4.060772684155615
 10
-63.25538457326667
 20
-3.837282897828231
  0
LINE
  5
15F
330
F1
100
AcDbEntity
  8
AM_4
100
AcDbLine
 10
-62.09691966126728
 20
-3.605746148079322
 30
0.0
 11
-62.13345696813037
 21
-3.605746148079322
 31
0.0
  0
ELLIPSE
  5
160
330
F1
100
AcDbEntity
  8
AM_4
100
AcDbEllipse
 10
-59.29340652588077
 20
-5.115285751927191
 30
0.0
 11
-3.312005593898022
 21
1.337501387374411
 31
0.0
210
0.0
220
0.0
230
1.0
 40
0.2113091309046891
 41
3.806340371993103
 42
3.814164134960455
  0
ELLIPSE
  5
161
330
F1
100
AcDbEntity
  8
AM_4
100
AcDbEllipse
 10
-59.29340652584808
 20
-5.115285751734532
 30
0.0
 11
-3.312005593887377
 21
1.337501387545577
 31
0.0
210
0.0
220
0.0
230
1.0
 40
0.2113091308703484
 41
5.610613825799311
 42
7.79587090698143
  0
ELLIPSE
  5
162
330
F1
100
AcDbEntity
  8
AM_4
100
AcDbEllipse
 10
-59.75822417732707
 20
-6.266296641270923
 30
0.0
 11
-3.312005593887093
 21
1.337501387545463
 31
0.0
210
0.0
220
0.0
230
1.0
 40
0.2113091308703518
 41
0.6359965959176943
 42
1.512685599801935
  0
LWPOLYLINE
  5
163
330
F1
100
AcDbEntity
  8
AM_4
100
AcDbPolyline
 90
        3
 70
     0
 43
0.0
 10
-57.23342227328083
 20
-7.76086478799207
 10
-56.9933872215686
 20
-7.784509761460651
 10
-56.7316097144678
 20
-7.76086478799207
  0
LWPOLYLINE
  5
164
330
F1
100
AcDbEntity
  8
AM_4
100
AcDbPolyline
 90
       17
 70
     0
 43
0.0
 10
-57.94931353885294
 20
-10.53475158660589
 10
-58.01100663282379
 20
-10.39980691203207
 10
-58.07105439458405
 20
-10.22585596595523
 10
-58.11870568058405
 20
-10.01708473646514
 10
-58.14416689629316
 20
-9.780381760943392
 10
-58.13989007673937
 20
-9.52605057997455
 10
-58.1017448897933
 20
-9.26470950287276
 10
-58.0199560447095
 20
-8.981857776148322
 10
-57.90204457965989
 20
-8.719974031135893
 10
-57.75539916109584
 20
-8.486247998632896
 10
-57.58800220658501
 20
-8.28447103342934
 10
-57.40870894068185
 20
-8.116873599339225
 10
-57.22771199002354
 20
-7.984424277145668
 10
-57.05607394516539
 20
-7.886175892835939
 10
-56.90376840957529
 20
-7.818565524273333
 10
-56.77741412970239
 20
-7.775799656980571
 10
-56.6853947014949
 20
-7.752539850383392
  0
LWPOLYLINE
  5
165
330
F1
100
AcDbEntity
  8
AM_4
100
AcDbPolyline
 90
       18
 70
     0
 43
0.0
 10
-62.99753018985213
 20
-5.207721434360449
 10
-62.9944985197069
 20
-5.212303595636521
 10
-62.93892116702378
 20
-5.304664527559077
 10
-62.8767218977947
 20
-5.430711950197251
 10
-62.81479375998211
 20
-5.592961774761814
 10
-62.762085274327
 20
-5.79112755285705
 10
-62.72857333060782
 20
-6.019941804014518
 10
-62.72274903340511
 20
-6.269837197206305
 10
-62.7498383128912
 20
-6.530031186423831
 10
-62.82022452170892
 20
-6.817239707963443
 10
-62.92857204597005
 20
-7.086176289193316
 10
-63.06781653508082
 20
-7.328448141041681
 10
-63.23014050245249
 20
-7.539621404564305
 10
-63.40701664459081
 20
-7.717137749559972
 10
-63.58864096792512
 20
-7.859624628762508
 10
-63.76406553952027
 20
-7.967393561592902
 10
-63.92273929369981
 20
-8.043233372042181
 10
-64.02565360131587
 20
-8.082173904667107
  0
ELLIPSE
  5
166
330
F1
100
AcDbEntity
  8
AM_4
100
AcDbEllipse
 10
-61.05364710760984
 20
-9.474104895899876
 30
0.0
 11
-3.136987913476894
 21
1.266823248950025
 31
0.0
210
0.0
220
0.0
230
1.0
 40
0.211309130870351
 41
6.042366885722678
 42
9.664811586839392
  0
ELLIPSE
  5
167
330
F1
100
AcDbEntity
  8
AM_4
100
AcDbEllipse
 10
-61.05364710768634
 20
-9.474104895873039
 30
0.0
 11
-3.136987913396147
 21
1.266823248926459
 31
0.0
210
0.0
220
0.0
230
1.0
 40
0.2113091308709129
 41
-0.2582205513205116
 42
-0.2408184214560265
  0
ELLIPSE
  5
168
330
F1
100
AcDbEntity
  8
AM_4
100
AcDbEllipse
 10
-59.29340652584838
 20
-5.115285751734342
 30
0.0
 11
-3.312005593887257
 21
1.337501387545125
 31
0.0
210
0.0
220
0.0
230
1.0
 40
0.2113091308703675
 41
1.711945269609626
 42
2.518556725320333
  0
LINE
  5
169
330
F1
100
AcDbEntity
  8
AM_4
100
AcDbLine
 10
-56.26679206298903
 20
-6.609853898455522
 30
0.0
 11
-56.76860462180204
 21
-6.609853898455276
 31
0.0
  0
ELLIPSE
  5
16A
330
F1
100
AcDbEntity
  8
AM_4
100
AcDbEllipse
 10
-59.29340652584842
 20
-5.115285751734358
 30
0.0
 11
-3.312005593887093
 21
1.33750138754547
 31
0.0
210
0.0
220
0.0
230
1.0
 40
0.2113091308703491
 41
2.800469246484381
 42
3.607080702195122
  0
LINE
  5
16B
330
F1
100
AcDbEntity
  8
AM_4
100
AcDbLine
 10
-56.51227722737743
 20
-5.736282007269851
 30
0.0
 11
-56.20693036075951
 21
-5.996343371387007
 31
0.0
  0
LWPOLYLINE
  5
16C
330
F1
100
AcDbEntity
  8
AM_4
100
AcDbPolyline
 90
        3
 70
     0
 43
0.0
 10
-57.6378864414689
 20
-6.830431020205951
 10
-58.35066886067754
 20
-6.382400080731244
 10
-59.10728672356237
 20
-5.996343371387013
  0
LINE
  5
16D
330
F1
100
AcDbEntity
  8
AM_4
100
AcDbLine
 10
-59.10728672356237
 20
-5.996343371387013
 30
0.0
 11
-59.76791047282238
 21
-5.736282007269859
 31
0.0
  0
LWPOLYLINE
  5
16E
330
F1
100
AcDbEntity
  8
AM_4
100
AcDbPolyline
 90
        3
 70
     0
 43
0.0
 10
-59.76791047282238
 20
-5.736282007269859
 10
-60.35185735400529
 20
-5.560509266840902
 10
-61.47776647665053
 20
-5.333905179049321
  0
LINE
  5
16F
330
F1
100
AcDbEntity
  8
AM_4
100
AcDbLine
 10
-61.47776647665053
 20
-5.333905179049321
 30
0.0
 11
-61.77462253062697
 21
-6.068998929608747
 31
0.0
  0
LWPOLYLINE
  5
170
330
F1
100
AcDbEntity
  8
AM_4
100
AcDbPolyline
 90
        3
 70
     0
 43
0.0
 10
-61.77462253062697
 20
-6.068998929608747
 10
-61.0207550712884
 20
-6.504786871533986
 10
-60.2327281243011
 20
-6.887292896806422
  0
LINE
  5
171
330
F1
100
AcDbEntity
  8
AM_4
100
AcDbLine
 10
-60.2327281243011
 20
-6.887292896806422
 30
0.0
 11
-59.57210437504117
 21
-7.14735426092354
 31
0.0
  0
LWPOLYLINE
  5
172
330
F1
100
AcDbEntity
  8
AM_4
100
AcDbPolyline
 90
        3
 70
     0
 43
0.0
 10
-59.57210437504117
 20
-7.14735426092354
 10
-58.76818038334895
 20
-7.395910919975459
 10
-57.94409993396775
 20
-7.58869625231989
  0
LINE
  5
173
330
F1
100
AcDbEntity
  8
AM_4
100
AcDbLine
 10
-57.6378864414689
 20
-6.830431020205951
 30
0.0
 11
-57.94409993396775
 21
-7.58869625231989
 31
0.0
  0
ARC
  5
174
330
F1
100
AcDbEntity
  8
AM_4
100
AcDbCircle
 10
-57.49975668426785
 20
0.0000000000000235
 30
0.0
 40
5.079999999999973
100
AcDbArc
 50
90.0
 51
219.6396968456465
  0
LWPOLYLINE
  5
175
330
F1
100
AcDbEntity
  8
AM_4
100
AcDbPolyline
 90
       10
 70
     0
 43
0.0
 10
-61.41650169224832
 20
-3.235042756066509
 10
-61.37424856212476
 20
-3.281280336792629
 10
-61.21479886152611
 20
-3.41561366815326
 10
-60.982195845333
 20
-3.569173128090977
 10
-60.69527264061792
 20
-3.729407788863488
 10
-60.34624740164286
 20
-3.900563582124101
 10
-59.96368556226003
 20
-4.068570560479343
 10
-59.53713262264067
 20
-4.237973131810882
 10
-59.09518948432918
 20
-4.397035613753721
 10
-58.63181182893996
 20
-4.547549295795372
  0
ELLIPSE
  5
176
330
F1
100
AcDbEntity
  8
AM_4
100
AcDbEllipse
 10
-57.4997566842678
 20
0.0000000000000036
 30
0.0
 11
3.110602869834275E-16
 21
5.079999999999996
 31
0.0
210
0.0
220
0.0
230
1.0
 40
0.5000000000000003
 41
0.0
 42
2.679646633022825
  0
LINE
  5
177
330
F1
100
AcDbEntity
  8
AM_4
100
AcDbLine
 10
-55.86124892926591
 20
5.079999999999997
 30
0.0
 11
-57.49975668426781
 21
5.079999999999997
 31
0.0
  0
LINE
  5
178
330
F1
100
AcDbEntity
  8
AM_4
100
AcDbLine
 10
-56.61313873685411
 20
-5.080000000000001
 30
0.0
 11
-55.86131608908527
 21
-5.080000000000001
 31
0.0
  0
LWPOLYLINE
  5
179
330
F1
100
AcDbEntity
  8
AM_4
100
AcDbPolyline
 90
        8
 70
     0
 43
0.0
 10
-56.60938501749066
 20
-5.079999999236803
 10
-56.64715779536897
 20
-5.079458245572024
 10
-56.9233472474784
 20
-5.050335633392995
 10
-57.23826461901355
 20
-4.982589552160019
 10
-57.60461975030974
 20
-4.878563523460394
 10
-57.99864943877451
 20
-4.752207997638139
 10
-58.43282189496357
 20
-4.610115106939384
 10
-58.63181182894039
 20
-4.547549295794528
  0
LINE
  5
17A
330
F1
100
AcDbEntity
  8
AM_4
100
AcDbLine
 10
-55.67343147797606
 20
5.556249999999999
 30
0.0
 11
-55.60000000000001
 21
5.556249999999999
 31
0.0
  0
LWPOLYLINE
  5
17B
330
F1
100
AcDbEntity
  8
AM_4
100
AcDbPolyline
 90
        3
 70
     0
 43
0.0
 10
-56.67486748716313
 20
2.778124999999998
 10
-56.22123237757147
 20
4.167187499999998
 10
-55.67343147797606
 20
5.556249999999999
  0
LWPOLYLINE
  5
17C
330
F1
100
AcDbEntity
  8
AM_4
100
AcDbPolyline
 90
        3
 70
     0
 43
0.0
 10
-57.27738269456849
 20
-0.0000000000000007
 10
-57.02454582586491
 20
1.382816900963398
 10
-56.67486748716313
 20
2.778124999999998
  0
LINE
  5
17D
330
F1
100
AcDbEntity
  8
AM_4
100
AcDbLine
 10
-57.27738269456849
 20
-0.0000000000000007
 30
0.0
 11
-55.60000000000001
 21
-0.0000000000000006
 31
0.0
  0
LWPOLYLINE
  5
17E
330
F1
100
AcDbEntity
  8
AM_4
100
AcDbPolyline
 90
        3
 70
     0
 43
0.0
 10
-56.67486748716313
 20
-2.778125000000001
 10
-57.02320798586769
 20
-1.389062500000001
 10
-57.27738269456849
 20
-0.0000000000000007
  0
LWPOLYLINE
  5
17F
330
F1
100
AcDbEntity
  8
AM_4
100
AcDbPolyline
 90
        3
 70
     0
 43
0.0
 10
-55.67343147797606
 20
-5.556250000000002
 10
-56.21896431928367
 20
-4.173433099036602
 10
-56.67486748716313
 20
-2.778125000000001
  0
LINE
  5
180
330
F1
100
AcDbEntity
  8
AM_4
100
AcDbLine
 10
-55.67343147797606
 20
-5.556250000000002
 30
0.0
 11
-55.60000000000001
 21
-5.556250000000002
 31
0.0
  0
ENDBLK
  5
F4
330
F1
100
AcDbEntity
  8
0
100
AcDbBlockEnd
  0
BLOCK
  5
183
330
181
100
AcDbEntity
  8
0
100
AcDbBlockBegin
  2
4_125915H_0_in_125915_4
 70
     2
 10
0.0
 20
0.0
 30
0.0
  3
4_125915H_0_in_125915_4
  1

  0
ATTDEF
  5
185
330
181
100
AcDbEntity
  8
AM_6
100
AcDbText
 10
93.2
 20
24.65
 30
0.0
 40
0.5
  1
WSTU-SC -Metric - housing
100
AcDbAttributeDefinition
  3

  2
NN
 70
     8
280
     0
  0
ATTDEF
  5
186
330
181
100
AcDbEntity
  8
AM_6
100
AcDbText
 10
93.2
 20
24.15
 30
0.0
 40
0.5
  1
SC Take-Up Bearings -Wide Slot -(Normal Duty)
100
AcDbAttributeDefinition
  3

  2
NT
 70
     8
280
     0
  0
ATTDEF
  5
187
330
181
100
AcDbEntity
  8
AM_6
100
AcDbText
 10
93.2
 20
23.65
 30
0.0
 40
0.5
  1
125915H
100
AcDbAttributeDefinition
  3

  2
NB
 70
     8
280
     0
  0
ATTDEF
  5
188
330
181
100
AcDbEntity
  8
AM_6
100
AcDbText
 10
93.2
 20
23.15
 30
0.0
 40
0.5
  1
$PN.H
100
AcDbAttributeDefinition
  3

  2
NBSYN
 70
     8
280
     0
  0
ATTDEF
  5
189
330
181
100
AcDbEntity
  8
AM_6
100
AcDbText
 10
93.2
 20
22.65
 30
0.0
 40
0.5
  1
125915
100
AcDbAttributeDefinition
  3

  2
LINA
 70
     8
280
     0
  0
ATTDEF
  5
18A
330
181
100
AcDbEntity
  8
AM_6
100
AcDbText
 10
93.2
 20
22.15
 30
0.0
 40
0.5
  1
209
100
AcDbAttributeDefinition
  3

  2
SERIES
 70
     8
280
     0
  0
ATTDEF
  5
18B
330
181
100
AcDbEntity
  8
AM_6
100
AcDbText
 10
93.2
 20
21.65
 30
0.0
 40
0.5
  1
45
100
AcDbAttributeDefinition
  3

  2
SS
 70
     8
280
     0
  0
ATTDEF
  5
18C
330
181
100
AcDbEntity
  8
AM_6
100
AcDbText
 10
93.2
 20
21.15
 30
0.0
 40
0.5
  1
125915
100
AcDbAttributeDefinition
  3

  2
PN
 70
     8
280
     0
  0
ATTDEF
  5
18D
330
181
100
AcDbEntity
  8
AM_6
100
AcDbText
 10
93.2
 20
20.65
 30
0.0
 40
0.5
  1
WSTU-SC-45M
100
AcDbAttributeDefinition
  3

  2
DESCRIPTION
 70
     8
280
     0
  0
ATTDEF
  5
18E
330
181
100
AcDbEntity
  8
AM_6
100
AcDbText
 10
93.2
 20
20.15
 30
0.0
 40
0.5
  1
2.7
100
AcDbAttributeDefinition
  3

  2
W
 70
     8
280
     0
  0
ATTDEF
  5
18F
330
181
100
AcDbEntity
  8
AM_6
100
AcDbText
 10
93.2
 20
19.65
 30
0.0
 40
0.5
  1
WS400
100
AcDbAttributeDefinition
  3

  2
FS
 70
     8
280
     0
  0
ATTDEF
  5
190
330
181
100
AcDbEntity
  8
AM_6
100
AcDbText
 10
93.2
 20
19.15
 30
0.0
 40
0.5
  1
49.3
100
AcDbAttributeDefinition
  3

  2
A
 70
     8
280
     0
  0
ATTDEF
  5
191
330
181
100
AcDbEntity
  8
AM_6
100
AcDbText
 10
93.2
 20
18.65
 30
0.0
 40
0.5
  1
143.0
100
AcDbAttributeDefinition
  3

  2
B
 70
     8
280
     0
  0
ATTDEF
  5
192
330
181
100
AcDbEntity
  8
AM_6
100
AcDbText
 10
93.2
 20
18.15
 30
0.0
 40
0.5
  1
17.48
100
AcDbAttributeDefinition
  3

  2
C
 70
     8
280
     0
  0
ATTDEF
  5
193
330
181
100
AcDbEntity
  8
AM_6
100
AcDbText
 10
93.2
 20
17.65
 30
0.0
 40
0.5
  1
82.6
100
AcDbAttributeDefinition
  3

  2
D
 70
     8
280
     0
  0
ATTDEF
  5
194
330
181
100
AcDbEntity
  8
AM_6
100
AcDbText
 10
93.2
 20
17.15
 30
0.0
 40
0.5
  1
87.4
100
AcDbAttributeDefinition
  3

  2
E
 70
     8
280
     0
  0
ATTDEF
  5
195
330
181
100
AcDbEntity
  8
AM_6
100
AcDbText
 10
93.2
 20
16.65
 30
0.0
 40
0.5
  1
25.4
100
AcDbAttributeDefinition
  3

  2
F
 70
     8
280
     0
  0
ATTDEF
  5
196
330
181
100
AcDbEntity
  8
AM_6
100
AcDbText
 10
93.2
 20
16.15
 30
0.0
 40
0.5
  1
16.0
100
AcDbAttributeDefinition
  3

  2
G
 70
     8
280
     0
  0
ATTDEF
  5
197
330
181
100
AcDbEntity
  8
AM_6
100
AcDbText
 10
93.2
 20
15.65
 30
0.0
 40
0.5
  1
19.1
100
AcDbAttributeDefinition
  3

  2
H
 70
     8
280
     0
  0
ATTDEF
  5
198
330
181
100
AcDbEntity
  8
AM_6
100
AcDbText
 10
93.2
 20
15.15
 30
0.0
 40
0.5
  1
82.6
100
AcDbAttributeDefinition
  3

  2
J
 70
     8
280
     0
  0
ATTDEF
  5
199
330
181
100
AcDbEntity
  8
AM_6
100
AcDbText
 10
93.2
 20
14.65
 30
0.0
 40
0.5
  1
49.3
100
AcDbAttributeDefinition
  3

  2
K
 70
     8
280
     0
  0
ATTDEF
  5
19A
330
181
100
AcDbEntity
  8
AM_6
100
AcDbText
 10
93.2
 20
14.15
 30
0.0
 40
0.5
  1
56.4
100
AcDbAttributeDefinition
  3

  2
L
 70
     8
280
     0
  0
ATTDEF
  5
19B
330
181
100
AcDbEntity
  8
AM_6
100
AcDbText
 10
93.2
 20
13.65
 30
0.0
 40
0.5
  1
101.22/101.98
100
AcDbAttributeDefinition
  3

  2
M
 70
     8
280
     0
  0
ATTDEF
  5
19C
330
181
100
AcDbEntity
  8
AM_6
100
AcDbText
 10
93.2
 20
13.15
 30
0.0
 40
0.5
  1
120.7
100
AcDbAttributeDefinition
  3

  2
N
 70
     8
280
     0
  0
ATTDEF
  5
19D
330
181
100
AcDbEntity
  8
AM_6
100
AcDbText
 10
93.2
 20
12.65
 30
0.0
 40
0.5
  1
19.1
100
AcDbAttributeDefinition
  3

  2
R
 70
     8
280
     0
  0
ATTDEF
  5
19E
330
181
100
AcDbEntity
  8
AM_6
100
AcDbText
 10
93.2
 20
12.15
 30
0.0
 40
0.5
  1
30.2
100
AcDbAttributeDefinition
  3

  2
S
 70
     8
280
     0
  0
ATTDEF
  5
19F
330
181
100
AcDbEntity
  8
AM_6
100
AcDbText
 10
93.2
 20
11.65
 30
0.0
 40
0.5
  1
49.3
100
AcDbAttributeDefinition
  3

  2
T
 70
     8
280
     0
  0
ATTDEF
  5
1A0
330
181
100
AcDbEntity
  8
AM_6
100
AcDbText
 10
93.2
 20
11.15
 30
0.0
 40
0.5
  1
4450
100
AcDbAttributeDefinition
  3

  2
CAPS
 70
     8
280
     0
  0
ATTDEF
  5
1A1
330
181
100
AcDbEntity
  8
AM_6
100
AcDbText
 10
93.2
 20
10.65
 30
0.0
 40
0.5
  1
7891
100
AcDbAttributeDefinition
  3

  2
CAPD
 70
     8
280
     0
  0
ATTDEF
  5
1A2
330
181
100
AcDbEntity
  8
AM_6
100
AcDbText
 10
93.2
 20
10.15
 30
0.0
 40
0.5
  1
baldor
100
AcDbAttributeDefinition
  3

  2
COMPANY
 70
     8
280
     0
  0
LWPOLYLINE
  5
1A3
330
181
100
AcDbEntity
  8
AM_9
100
AcDbPolyline
 90
       11
 70
     0
 43
0.0
 10
-50.02624282618827
 20
-0.0000000000000015
 10
-50.00215475950394
 20
-0.6610401278567842
 10
-49.92748679596525
 20
-1.322080255713567
 10
-49.80770280787495
 20
-1.927584856211199
 10
-49.63804319340156
 20
-2.495081409855168
 10
-49.4307438121178
 20
-2.977885068423273
 10
-49.17827659141546
 20
-3.388934734348851
 10
-48.89980368952974
 20
-3.694057868876285
 10
-48.58604264074329
 20
-3.90150649724691
 10
-48.26299403074796
 20
-3.993680941352408
 10
-48.15120192656347
 20
-3.999999982049182
  0
LINE
  5
1A4
330
181
100
AcDbEntity
  8
AM_9
100
AcDbLine
 10
-50.35071697602726
 20
-4.0
 30
0.0
 11
-48.15021115781042
 21
-4.0
 31
0.0
  0
LINE
  5
1A5
330
181
100
AcDbEntity
  8
AM_9
100
AcDbLine
 10
-48.1508767666298
 20
3.999999999999996
 30
0.0
 11
-50.35071697602726
 21
3.999999999999996
 31
0.0
  0
LWPOLYLINE
  5
1A6
330
181
100
AcDbEntity
  8
AM_9
100
AcDbPolyline
 90
       20
 70
     0
 43
0.0
 10
-48.15120192656347
 20
-3.999999982049182
 10
-47.92028960687948
 20
-3.973672721878548
 10
-47.58749306327068
 20
-3.843503418437104
 10
-47.25506556510544
 20
-3.599553584816292
 10
-46.95169239968136
 20
-3.261934940749613
 10
-46.6705150709884
 20
-2.821169126864275
 10
-46.43622542135438
 20
-2.312862249995794
 10
-46.24453761583706
 20
-1.72323515160526
 10
-46.11307598306682
 20
-1.10171266444945
 10
-46.03929653602123
 20
-0.4303315453323631
 10
-46.03005688022751
 20
0.2328234561603552
 10
-46.08494219715316
 20
0.9083955127677763
 10
-46.19868415536934
 20
1.538968048067063
 10
-46.37349056009013
 20
2.143443411269972
 10
-46.59374468746005
 20
2.672222617397996
 10
-46.86377742957762
 20
3.139416306280968
 10
-47.15985492665502
 20
3.50655160719775
 10
-47.4884229275008
 20
3.783235043480887
 10
-47.82024852893507
 20
3.946032667606037
 10
-48.15109912622666
 20
3.999999996243668
  0
LWPOLYLINE
  5
1A7
330
181
100
AcDbEntity
  8
AM_9
100
AcDbPolyline
 90
       12
 70
     0
 43
0.0
 10
-48.15109912622666
 20
3.999999996243668
 10
-48.16439195768334
 20
3.999910418700108
 10
-48.49085211746956
 20
3.940556746235888
 10
-48.8101508211616
 20
3.766547270558291
 10
-49.09635855072023
 20
3.492528713532189
 10
-49.35908050865113
 20
3.110685985334767
 10
-49.57843483438828
 20
2.65182941539278
 10
-49.76190542709453
 20
2.103492343357118
 10
-49.89588981581255
 20
1.510956192750837
 10
-49.98547802395615
 20
0.857590951692982
 10
-50.01591363745528
 20
0.433849150979056
 10
-50.02624282618827
 20
-0.0000000000000015
  0
ELLIPSE
  5
1A8
330
181
100
AcDbEntity
  8
AM_9
100
AcDbEllipse
 10
-50.35071697602726
 20
-0.0000000000000018
 30
0.0
 11
5.443555022209985E-16
 21
8.890000000000001
 31
0.0
210
0.0
220
0.0
230
1.0
 40
0.5
 41
0.0
 42
6.283185307179586
  0
LINE
  5
1A9
330
181
100
AcDbEntity
  8
AM_9
100
AcDbLine
 10
-48.2245782156722
 20
-11.42943179720022
 30
0.0
 11
-48.149725841594
 21
-11.42999982620868
 31
0.0
  0
LWPOLYLINE
  5
1AA
330
181
100
AcDbEntity
  8
AM_9
100
AcDbPolyline
 90
       28
 70
     0
 43
0.0
 10
-55.13601245041479
 20
-0.0000000000000012
 10
-55.13288208130204
 20
-0.3566268078668224
 10
-55.11029339515138
 20
-1.021188231423888
 10
-55.0659020485158
 20
-1.682701686290691
 10
-54.99971030451836
 20
-2.339251421076001
 10
-54.91169833260192
 20
-2.989027540485214
 10
-54.80181585486879
 20
-3.630254607183435
 10
-54.66996937451537
 20
-4.261194209404105
 10
-54.5160069960049
 20
-4.880141253733953
 10
-54.33970243362797
 20
-5.485410435465957
 10
-54.14074159623053
 20
-6.075307937384402
 10
-53.91871829364148
 20
-6.648081877941403
 10
-53.67315067663449
 20
-7.201844291049759
 10
-53.40353690985776
 20
-7.734459885844717
 10
-53.10947473733371
 20
-8.243407506224324
 10
-52.79099140708367
 20
-8.725469770681103
 10
-52.44908753722192
 20
-9.176474926880879
 10
-52.08540924291016
 20
-9.592390301843103
 10
-51.70247947932224
 20
-9.969399798299929
 10
-51.30340731660009
 20
-10.30449098022145
 10
-50.89142303265086
 20
-10.59582934834327
 10
-50.4694985290034
 20
-10.84273649274789
 10
-50.04021110718698
 20
-11.04537278756973
 10
-49.60580926634287
 20
-11.20436319089745
 10
-49.16834664412796
 20
-11.32052807825238
 10
-48.72978281944793
 20
-11.39474733428209
 10
-48.29201679906614
 20
-11.42791232976276
 10
-48.2245782156722
 20
-11.42943179720022
  0
LWPOLYLINE
  5
1AB
330
181
100
AcDbEntity
  8
AM_9
100
AcDbPolyline
 90
       29
 70
     0
 43
0.0
 10
-48.17539193675497
 20
11.42993759980208
 10
-48.25457118901665
 20
11.42887399092582
 10
-48.68751360662957
 20
11.39971877226214
 10
-49.11479718014714
 20
11.33182486287564
 10
-49.53494653327627
 20
11.22611059111961
 10
-49.946946214192
 20
11.08330261419999
 10
-50.35003687323658
 20
10.90386727703369
 10
-50.74366483806643
 20
10.68795427390452
 10
-51.12738386244267
 20
10.43538534770388
 10
-51.50071151167246
 20
10.1457225574986
 10
-51.86295623743296
 20
9.818449122528452
 10
-52.21305470782317
 20
9.45327317228253
 10
-52.54948590024311
 20
9.050507191995607
 10
-52.87033407154855
 20
8.611394067330927
 10
-53.17352243359674
 20
8.13820875408057
 10
-53.45713827394819
 20
7.634046528111893
 10
-53.7197001789065
 20
7.102392566177578
 10
-53.96003710674325
 20
6.547238001941917
 10
-54.1778082043956
 20
5.971571924177471
 10
-54.37297189810452
 20
5.377962624397981
 10
-54.54562769965136
 20
4.768674821813058
 10
-54.69592511420829
 20
4.145765663691209
 10
-54.82401290000109
 20
3.511168693437963
 10
-54.93001647158331
 20
2.866754923687899
 10
-55.01403184901169
 20
2.21437197256611
 10
-55.07612789476512
 20
1.555865988351416
 10
-55.11635169950487
 20
0.8930912941777557
 10
-55.13473416076178
 20
0.2279117554239158
 10
-55.13601245041479
 20
-0.0000000000000012
  0
LINE
  5
1AC
330
181
100
AcDbEntity
  8
AM_9
100
AcDbLine
 10
-48.15246978474173
 20
11.42999977702642
 30
0.0
 11
-48.17539193675497
 21
11.42993759980208
 31
0.0
  0
LINE
  5
1AD
330
181
100
AcDbEntity
  8
AM_9
100
AcDbLine
 10
71.4
 20
-12.7
 30
0.0
 11
87.4
 21
-12.7
 31
0.0
  0
LINE
  5
1AE
330
181
100
AcDbEntity
  8
AM_9
100
AcDbLine
 10
87.4
 20
12.7
 30
0.0
 11
71.4
 21
12.7
 31
0.0
  0
LINE
  5
1AF
330
181
100
AcDbEntity
  8
AM_9
100
AcDbLine
 10
69.652
 20
-14.858
 30
0.0
 11
69.652
 21
14.858
 31
0.0
  0
LINE
  5
1B0
330
181
100
AcDbEntity
  8
AM_9
100
AcDbLine
 10
71.4
 20
-14.858
 30
0.0
 11
71.4
 21
14.858
 31
0.0
  0
LINE
  5
1B1
330
181
100
AcDbEntity
  8
AM_9
100
AcDbLine
 10
54.04800000000001
 20
-14.858
 30
0.0
 11
54.04800000000001
 21
14.858
 31
0.0
  0
LINE
  5
1B2
330
181
100
AcDbEntity
  8
AM_9
100
AcDbLine
 10
52.3
 20
-14.858
 30
0.0
 11
52.3
 21
14.858
 31
0.0
  0
LWPOLYLINE
  5
1B3
330
181
100
AcDbEntity
  8
AM_9
100
AcDbPolyline
 90
       39
 70
     0
 43
0.0
 10
-48.15101245041478
 20
11.43
 10
-47.67514086245302
 20
11.39137691996019
 10
-47.18908158526884
 20
11.27608955498568
 10
-46.68201899097355
 20
11.07799018335482
 10
-46.17260925971387
 20
10.80120746066053
 10
-45.67997213545721
 20
10.45885641433188
 10
-45.19391254787928
 20
10.04680694917371
 10
-44.70567230902117
 20
9.553209033476158
 10
-44.23403752124617
 20
8.992532671322524
 10
-43.79060482405408
 20
8.37843539392026
 10
-43.37260815822327
 20
7.707173811213472
 10
-42.97404484698172
 20
6.961603059240114
 10
-42.61178789698709
 20
6.165355101848581
 10
-42.29608064431486
 20
5.340081270242873
 10
-42.02340270929054
 20
4.476852808932941
 10
-41.79138536687859
 20
3.554241979093165
 10
-41.61185201614405
 20
2.60441931925195
 10
-41.49175481112492
 20
1.676057624770026
 10
-41.42372894369617
 20
0.7357923130793279
 10
-41.40932907142813
 20
-0.2381460331384532
 10
-41.45135086316061
 20
-1.210283935356129
 10
-41.54395958298763
 20
-2.131057687789272
 10
-41.68637258789754
 20
-3.037189384559413
 10
-41.88312057421683
 20
-3.947506666165041
 10
-42.12802401595714
 20
-4.829490919570675
 10
-42.4117173314522
 20
-5.659891187306018
 10
-42.73521956174166
 20
-6.451915247989098
 10
-43.10549588891599
 20
-7.220628130137146
 10
-43.50958462677739
 20
-7.938291520536427
 10
-43.93897604156752
 20
-8.594170350387492
 10
-44.39250589010363
 20
-9.190832068279455
 10
-44.87946595743131
 20
-9.738485335081872
 10
-45.38182864288745
 20
-10.21515519643988
 10
-45.88047868885477
 20
-10.60712668265739
 10
-46.38408230931793
 20
-10.92558268825203
 10
-46.90313213151999
 20
-11.17391618970391
 10
-47.41770669203094
 20
-11.33961909944765
 10
-47.78685347325845
 20
-11.40728528943959
 10
-48.15101245041479
 20
-11.43
  0
LWPOLYLINE
  5
1B4
330
181
100
AcDbEntity
  8
AM_9
100
AcDbPolyline
 90
       30
 70
     0
 43
0.0
 10
-48.15101245041479
 20
-11.43
 10
-48.73348459697735
 20
-11.36801617221025
 10
-49.28795307004731
 20
-11.18355370700669
 10
-49.83804681229959
 20
-10.85607792506813
 10
-50.34804226157759
 20
-10.39715958189303
 10
-50.81145426562023
 20
-9.815536228093459
 10
-51.23172553434354
 20
-9.105401388064134
 10
-51.60358982891368
 20
-8.281594308738391
 10
-51.92452458803537
 20
-7.358938114179663
 10
-52.19924329804307
 20
-6.327146467767466
 10
-52.42439811104151
 20
-5.210840548259914
 10
-52.59953558224053
 20
-4.030719942996801
 10
-52.7252947126231
 20
-2.803798204735536
 10
-52.80432731944099
 20
-1.536219264612663
 10
-52.83667883395518
 20
-0.2526302453702595
 10
-52.82319582391537
 20
1.009636867430252
 10
-52.76501228874965
 20
2.263093270629585
 10
-52.66208641262053
 20
3.484148642156617
 10
-52.5136045627895
 20
4.657790748500717
 10
-52.31832333552763
 20
5.777551147513201
 10
-52.07650283745331
 20
6.823613324362099
 10
-51.78035439633838
 20
7.802524621917791
 10
-51.43283248802379
 20
8.687219387098327
 10
-51.03597505053825
 20
9.461703456008209
 10
-50.58321186783229
 20
10.12373732457155
 10
-50.07976691297182
 20
10.65940540353634
 10
-49.53190647163461
 20
11.05804190440607
 10
-49.09199325462
 20
11.26368283286208
 10
-48.63012325339152
 20
11.38817009371925
 10
-48.15101245041478
 20
11.43
  0
LINE
  5
1B5
330
181
100
AcDbEntity
  8
AM_9
100
AcDbLine
 10
-14.99999985
 20
-7.865999999999996
 30
0.0
 11
-14.99999985
 21
14.858
 31
0.0
  0
LINE
  5
1B6
330
181
100
AcDbEntity
  8
AM_9
100
AcDbLine
 10
14.99999985
 20
-7.865999999999996
 30
0.0
 11
14.99999985
 21
14.858
 31
0.0
  0
LINE
  5
1B7
330
181
100
AcDbEntity
  8
AM_9
100
AcDbLine
 10
42.5
 20
-14.858
 30
0.0
 11
42.5
 21
14.858
 31
0.0
  0
LINE
  5
1B8
330
181
100
AcDbEntity
  8
AM_9
100
AcDbLine
 10
-42.5
 20
14.858
 30
0.0
 11
-42.5
 21
-14.858
 31
0.0
  0
LINE
  5
1B9
330
181
100
AcDbEntity
  8
AM_9
100
AcDbLine
 10
14.99999985
 20
-7.865999999999996
 30
0.0
 11
-14.99999985
 21
-7.865999999999996
 31
0.0
  0
LINE
  5
1BA
330
181
100
AcDbEntity
  8
AM_9
100
AcDbLine
 10
41.3
 20
14.858
 30
0.0
 11
-41.3
 21
14.858
 31
0.0
  0
LINE
  5
1BB
330
181
100
AcDbEntity
  8
AM_9
100
AcDbLine
 10
41.3
 20
-14.858
 30
0.0
 11
-41.3
 21
-14.858
 31
0.0
  0
ELLIPSE
  5
1BC
330
181
100
AcDbEntity
  8
AM_9
100
AcDbEllipse
 10
-50.35071697602727
 20
0.000000000000008
 30
0.0
 11
-7.347880794884131E-16
 21
-4.000000000000006
 31
0.0
210
0.0
220
0.0
230
1.0
 40
0.4999999999999992
 41
0.0
 42
6.283185307179586
  0
ELLIPSE
  5
1BD
330
181
100
AcDbEntity
  8
AM_9
100
AcDbEllipse
 10
-48.15101245041481
 20
-0.0000000000000133
 30
0.0
 11
-2.099656937138143E-15
 21
-11.43000000000003
 31
0.0
210
0.0
220
0.0
230
1.0
 40
0.5000000000000008
 41
0.0
 42
6.283185307179586
  0
LINE
  5
1BE
330
181
100
AcDbEntity
  8
AM_7
100
AcDbLine
 10
88.2
 20
0.0
 30
0.0
 11
70.60000000000001
 21
0.0
 31
0.0
  0
LINE
  5
1BF
330
181
100
AcDbEntity
  8
AM_4
100
AcDbLine
 10
71.4
 20
-14.858
 30
0.0
 11
71.4
 21
-24.65
 31
0.0
  0
LINE
  5
1C0
330
181
100
AcDbEntity
  8
AM_4
100
AcDbLine
 10
71.4
 20
-24.65
 30
0.0
 11
87.4
 21
-24.65
 31
0.0
  0
LINE
  5
1C1
330
181
100
AcDbEntity
  8
AM_4
100
AcDbLine
 10
87.4
 20
24.65
 30
0.0
 11
71.4
 21
24.65
 31
0.0
  0
LINE
  5
1C2
330
181
100
AcDbEntity
  8
AM_4
100
AcDbLine
 10
71.4
 20
24.65
 30
0.0
 11
71.4
 21
14.858
 31
0.0
  0
LINE
  5
1C3
330
181
100
AcDbEntity
  8
AM_4
100
AcDbLine
 10
87.4
 20
24.65
 30
0.0
 11
87.4
 21
-24.65
 31
0.0
  0
LINE
  5
1C4
330
181
100
AcDbEntity
  8
AM_4
100
AcDbLine
 10
-55.6
 20
-13.87199999999999
 30
0.0
 11
-54.614
 21
-14.858
 31
0.0
  0
LINE
  5
1C5
330
181
100
AcDbEntity
  8
AM_4
100
AcDbLine
 10
-54.614
 20
-14.858
 30
0.0
 11
-41.29999999999999
 21
-14.858
 31
0.0
  0
LINE
  5
1C6
330
181
100
AcDbEntity
  8
AM_4
100
AcDbLine
 10
-55.6
 20
13.872
 30
0.0
 11
-55.60000000000001
 21
-13.87199999999999
 31
0.0
  0
LINE
  5
1C7
330
181
100
AcDbEntity
  8
AM_4
100
AcDbLine
 10
-55.60000000000001
 20
-13.87199999999999
 30
0.0
 11
-41.3
 21
-13.87199999999999
 31
0.0
  0
LINE
  5
1C8
330
181
100
AcDbEntity
  8
AM_4
100
AcDbLine
 10
-54.614
 20
14.85800000000001
 30
0.0
 11
-55.6
 21
13.872
 31
0.0
  0
LINE
  5
1C9
330
181
100
AcDbEntity
  8
AM_4
100
AcDbLine
 10
-55.6
 20
13.872
 30
0.0
 11
-41.3
 21
13.872
 31
0.0
  0
LINE
  5
1CA
330
181
100
AcDbEntity
  8
AM_4
100
AcDbLine
 10
-54.614
 20
14.85800000000001
 30
0.0
 11
-41.29999999999998
 21
14.858
 31
0.0
  0
LINE
  5
1CB
330
181
100
AcDbEntity
  8
AM_4
100
AcDbLine
 10
87.4
 20
-14.858
 30
0.0
 11
41.3
 21
-14.858
 31
0.0
  0
LINE
  5
1CC
330
181
100
AcDbEntity
  8
AM_4
100
AcDbLine
 10
87.4
 20
-14.85799999999999
 30
0.0
 11
85.652
 21
-13.11
 31
0.0
  0
LINE
  5
1CD
330
181
100
AcDbEntity
  8
AM_4
100
AcDbLine
 10
87.4
 20
14.858
 30
0.0
 11
41.3
 21
14.858
 31
0.0
  0
LINE
  5
1CE
330
181
100
AcDbEntity
  8
AM_4
100
AcDbLine
 10
85.652
 20
13.11
 30
0.0
 11
87.4
 21
14.858
 31
0.0
  0
LINE
  5
1CF
330
181
100
AcDbEntity
  8
AM_4
100
AcDbLine
 10
85.652
 20
13.11
 30
0.0
 11
41.3
 21
13.11
 31
0.0
  0
LINE
  5
1D0
330
181
100
AcDbEntity
  8
AM_4
100
AcDbLine
 10
85.652
 20
-13.10999999999999
 30
0.0
 11
41.3
 21
-13.10999999999999
 31
0.0
  0
LINE
  5
1D1
330
181
100
AcDbEntity
  8
AM_4
100
AcDbLine
 10
85.652
 20
-13.10999999999999
 30
0.0
 11
85.652
 21
13.11
 31
0.0
  0
LINE
  5
1D2
330
181
100
AcDbEntity
  8
AM_4
100
AcDbLine
 10
41.3
 20
17.47999999999999
 30
0.0
 11
41.3
 21
-17.48000000000001
 31
0.0
  0
LINE
  5
1D3
330
181
100
AcDbEntity
  8
AM_4
100
AcDbLine
 10
39.55199999999999
 20
8.740000000000007
 30
0.0
 11
39.55199999999999
 21
15.73199999999998
 31
0.0
  0
LINE
  5
1D4
330
181
100
AcDbEntity
  8
AM_4
100
AcDbLine
 10
-41.3
 20
-8.739999999999998
 30
0.0
 11
41.3
 21
-8.739999999999998
 31
0.0
  0
LINE
  5
1D5
330
181
100
AcDbEntity
  8
AM_4
100
AcDbLine
 10
-39.552
 20
-15.73199999999997
 30
0.0
 11
-41.30000000000003
 21
-17.47999999999999
 31
0.0
  0
LINE
  5
1D6
330
181
100
AcDbEntity
  8
AM_4
100
AcDbLine
 10
41.3
 20
-17.48000000000001
 30
0.0
 11
-41.3
 21
-17.48000000000001
 31
0.0
  0
LINE
  5
1D7
330
181
100
AcDbEntity
  8
AM_4
100
AcDbLine
 10
41.3
 20
-17.48
 30
0.0
 11
39.55200007814168
 21
-15.73200007814168
 31
0.0
  0
LINE
  5
1D8
330
181
100
AcDbEntity
  8
AM_4
100
AcDbLine
 10
41.3
 20
17.47999999999999
 30
0.0
 11
-41.3
 21
17.48000000000001
 31
0.0
  0
LINE
  5
1D9
330
181
100
AcDbEntity
  8
AM_4
100
AcDbLine
 10
39.55199999999999
 20
15.73199999999998
 30
0.0
 11
-39.55199999999998
 21
15.73199999999998
 31
0.0
  0
LINE
  5
1DA
330
181
100
AcDbEntity
  8
AM_4
100
AcDbLine
 10
39.55199999999998
 20
15.73199999999999
 30
0.0
 11
41.29999999999999
 21
17.48
 31
0.0
  0
LINE
  5
1DB
330
181
100
AcDbEntity
  8
AM_4
100
AcDbLine
 10
-39.55199999999998
 20
-15.73199999999999
 30
0.0
 11
-39.55199999999999
 21
-8.739999999999998
 31
0.0
  0
LINE
  5
1DC
330
181
100
AcDbEntity
  8
AM_4
100
AcDbLine
 10
39.55199999999999
 20
-15.73199999999999
 30
0.0
 11
-39.55199999999998
 21
-15.73199999999999
 31
0.0
  0
LINE
  5
1DD
330
181
100
AcDbEntity
  8
AM_4
100
AcDbLine
 10
39.55199999999999
 20
-15.73199999999999
 30
0.0
 11
39.55199999999999
 21
-8.740000000000007
 31
0.0
  0
LINE
  5
1DE
330
181
100
AcDbEntity
  8
AM_4
100
AcDbLine
 10
41.3
 20
8.73999999999998
 30
0.0
 11
-41.3
 21
8.740000000000006
 31
0.0
  0
LINE
  5
1DF
330
181
100
AcDbEntity
  8
AM_4
100
AcDbLine
 10
-39.55199999999999
 20
8.740000000000006
 30
0.0
 11
-39.55199999999998
 21
15.73199999999998
 31
0.0
  0
LINE
  5
1E0
330
181
100
AcDbEntity
  8
AM_4
100
AcDbLine
 10
-41.30000000000001
 20
17.47999999999999
 30
0.0
 11
-39.55199999999999
 21
15.73199999999997
 31
0.0
  0
LINE
  5
1E1
330
181
100
AcDbEntity
  8
AM_4
100
AcDbLine
 10
-41.3
 20
17.48000000000001
 30
0.0
 11
-41.3
 21
-17.48000000000001
 31
0.0
  0
ENDBLK
  5
184
330
181
100
AcDbEntity
  8
0
100
AcDbBlockEnd
  0
ENDSEC
  0
SECTION
  2
ENTITIES
  0
INSERT
  5
6F
330
1F
100
AcDbEntity
  8
0
100
AcDbBlockReference
  2
1_125915_4
 10
0.0
 20
0.0
 30
0.0
  0
POINT
  5
1E3
330
1F
100
AcDbEntity
  8
ConnectionPoints
100
AcDbPoint
 10
-50.35071697602726
 20
-0.0000000000000018
 30
-29.07
  0
POINT
  5
1E4
330
1F
100
AcDbEntity
  8
ConnectionPoints
100
AcDbPoint
 10
-50.35071697602726
 20
-0.0000000000000018
 30
-29.07
  0
POINT
  5
1E5
330
1F
100
AcDbEntity
  8
ConnectionPoints
100
AcDbPoint
 10
0.0
 20
-30.2
 30
0.0000000000000018
  0
ENDSEC
  0
SECTION
  2
OBJECTS
  0
DICTIONARY
  5
C
330
0
100
AcDbDictionary
281
     1
  3
ACAD_DETAILVIEWSTYLE
350
1ED
  3
ACAD_GROUP
350
D
  3
ACAD_LAYOUT
350
1A
  3
ACAD_MATERIAL
350
43
  3
ACAD_MLEADERSTYLE
350
6B
  3
ACAD_MLINESTYLE
350
17
  3
ACAD_PLOTSETTINGS
350
19
  3
ACAD_PLOTSTYLENAME
350
E
  3
ACAD_SCALELIST
350
47
  3
ACAD_SECTIONVIEWSTYLE
350
1EE
  3
ACAD_TABLESTYLE
350
69
  3
ACAD_VISUALSTYLE
350
2A
  3
ACDB_RECOMPOSE_DATA
350
1EA
  3
AcDbVariableDictionary
350
1E6
  0
SUN
  5
6D
330
29
100
AcDbSun
 90
        1
290
     0
 63
     7
421
 16777215
 40
1.0
291
     1
 91
  2455826
 92
 54000000
292
     0
 70
     2
 71
   256
280
     1
  0
DICTIONARY
  5
1ED
102
{ACAD_REACTORS
330
C
102
}
330
C
100
AcDbDictionary
281
     1
  0
DICTIONARY
  5
D
102
{ACAD_REACTORS
330
C
102
}
330
C
100
AcDbDictionary
281
     1
  0
DICTIONARY
  5
1A
102
{ACAD_REACTORS
330
C
102
}
330
C
100
AcDbDictionary
281
     1
  3
Layout1
350
1E
  3
Layout2
350
26
  3
Model
350
22
  0
DICTIONARY
  5
43
102
{ACAD_REACTORS
330
C
102
}
330
C
100
AcDbDictionary
281
     1
  3
ByBlock
350
45
  3
ByLayer
350
44
  3
Global
350
46
  0
DICTIONARY
  5
6B
102
{ACAD_REACTORS
330
C
102
}
330
C
100
AcDbDictionary
281
     1
  3
Standard
350
6C
  0
DICTIONARY
  5
17
102
{ACAD_REACTORS
330
C
102
}
330
C
100
AcDbDictionary
281
     1
  3
Standard
350
18
  0
DICTIONARY
  5
19
102
{ACAD_REACTORS
330
C
102
}
330
C
100
AcDbDictionary
281
     1
  0
ACDBDICTIONARYWDFLT
  5
E
102
{ACAD_REACTORS
330
C
102
}
330
C
100
AcDbDictionary
281
     1
  3
Normal
350
F
100
AcDbDictionaryWithDefault
340
F
  0
DICTIONARY
  5
47
102
{ACAD_REACTORS
330
C
102
}
330
C
100
AcDbDictionary
281
     1
  3
A0
350
48
  3
A1
350
49
  3
A2
350
4A
  3
A3
350
4B
  3
A4
350
4C
  3
A5
350
4D
  3
A6
350
4E
  3
A7
350
4F
  3
A8
350
50
  3
A9
350
51
  3
B0
350
52
  3
B1
350
53
  3
B2
350
54
  3
B3
350
55
  3
B4
350
56
  3
B5
350
57
  3
B6
350
58
  3
B7
350
59
  3
B8
350
5A
  3
B9
350
5B
  3
C0
350
5C
  3
C1
350
5D
  3
C2
350
5E
  3
C3
350
5F
  3
C4
350
60
  3
C5
350
61
  3
C6
350
62
  3
C7
350
63
  3
C8
350
64
  3
C9
350
65
  3
D0
350
66
  3
D1
350
67
  3
D2
350
68
  0
DICTIONARY
  5
1EE
102
{ACAD_REACTORS
330
C
102
}
330
C
100
AcDbDictionary
281
     1
  0
DICTIONARY
  5
69
102
{ACAD_REACTORS
330
C
102
}
330
C
100
AcDbDictionary
281
     1
  3
Standard
350
6A
  0
DICTIONARY
  5
2A
102
{ACAD_REACTORS
330
C
102
}
330
C
100
AcDbDictionary
281
     1
  3
2dWireframe
350
2F
  3
Basic
350
32
  3
Brighten
350
36
  3
ColorChange
350
3A
  3
Conceptual
350
34
  3
Dim
350
35
  3
EdgeColorOff
350
3D
  3
Facepattern
350
39
  3
Flat
350
2B
  3
FlatWithEdges
350
2C
  3
Gouraud
350
2D
  3
GouraudWithEdges
350
2E
  3
Hidden
350
31
  3
JitterOff
350
3B
  3
Linepattern
350
38
  3
OverhangOff
350
3C
  3
Realistic
350
33
  3
Shaded
350
42
  3
Shaded with edges
350
41
  3
Shades of Gray
350
3E
  3
Sketchy
350
3F
  3
Thicken
350
37
  3
Wireframe
350
30
  3
X-Ray
350
40
  0
XRECORD
  5
1EA
102
{ACAD_REACTORS
330
C
102
}
330
C
100
AcDbXrecord
280
     1
 90
        1
330
6A
  0
DICTIONARY
  5
1E6
102
{ACAD_REACTORS
330
C
102
}
330
C
100
AcDbDictionary
281
     1
  3
CANNOSCALE
350
1E7
  3
CMLEADERSTYLE
350
1EC
  3
CTABLESTYLE
350
1EB
  0
LAYOUT
  5
1E
102
{ACAD_REACTORS
330
1A
102
}
330
1A
100
AcDbPlotSettings
  1

  2
none_device
  4

  6

 40
0.0
 41
0.0
 42
0.0
 43
0.0
 44
0.0
 45
0.0
 46
0.0
 47
0.0
 48
0.0
 49
0.0
140
0.0
141
0.0
142
1.0
143
1.0
 70
   688
 72
     1
 73
     0
 74
     5
  7

 75
    16
 76
     0
 77
     2
 78
   300
147
1.0
148
0.0
149
0.0
100
AcDbLayout
  1
Layout1
 70
     1
 71
     1
 10
0.0
 20
0.0
 11
420.0
 21
297.0
 12
0.0
 22
0.0
 32
0.0
 14
1.000000000000000E+20
 24
1.000000000000000E+20
 34
1.000000000000000E+20
 15
-1.000000000000000E+20
 25
-1.000000000000000E+20
 35
-1.000000000000000E+20
146
0.0
 13
0.0
 23
0.0
 33
0.0
 16
1.0
 26
0.0
 36
0.0
 17
0.0
 27
1.0
 37
0.0
 76
     0
330
1B
  0
LAYOUT
  5
26
102
{ACAD_REACTORS
330
1A
102
}
330
1A
100
AcDbPlotSettings
  1

  2
none_device
  4

  6

 40
0.0
 41
0.0
 42
0.0
 43
0.0
 44
0.0
 45
0.0
 46
0.0
 47
0.0
 48
0.0
 49
0.0
140
0.0
141
0.0
142
1.0
143
1.0
 70
   688
 72
     1
 73
     0
 74
     5
  7

 75
    16
 76
     0
 77
     2
 78
   300
147
1.0
148
0.0
149
0.0
100
AcDbLayout
  1
Layout2
 70
     1
 71
     2
 10
0.0
 20
0.0
 11
0.0
 21
0.0
 12
0.0
 22
0.0
 32
0.0
 14
0.0
 24
0.0
 34
0.0
 15
0.0
 25
0.0
 35
0.0
146
0.0
 13
0.0
 23
0.0
 33
0.0
 16
1.0
 26
0.0
 36
0.0
 17
0.0
 27
1.0
 37
0.0
 76
     0
330
23
  0
LAYOUT
  5
22
102
{ACAD_REACTORS
330
1A
102
}
330
1A
100
AcDbPlotSettings
  1

  2
none_device
  4
Letter_(8.50_x_11.00_Inches)
  6

 40
6.35
 41
6.35
 42
6.35000508
 43
6.35000508
 44
215.9
 45
279.4
 46
0.0
 47
0.0
 48
0.0
 49
0.0
140
0.0
141
0.0
142
1.0
143
1.0
 70
  1712
 72
     1
 73
     0
 74
     0
  7

 75
     0
 76
     0
 77
     2
 78
   300
147
1.0
148
0.0
149
0.0
100
AcDbLayout
  1
Model
 70
     1
 71
     0
 10
0.0
 20
0.0
 11
420.0
 21
297.0
 12
0.0
 22
0.0
 32
0.0
 14
1.000000000000000E+20
 24
1.000000000000000E+20
 34
1.000000000000000E+20
 15
-1.000000000000000E+20
 25
-1.000000000000000E+20
 35
-1.000000000000000E+20
146
0.0
 13
0.0
 23
0.0
 33
0.0
 16
1.0
 26
0.0
 36
0.0
 17
0.0
 27
1.0
 37
0.0
 76
     0
330
1F
331
29
  0
MATERIAL
  5
45
102
{ACAD_REACTORS
330
43
102
}
330
43
100
AcDbMaterial
  1
ByBlock
 72
     1
 94
      127
  0
MATERIAL
  5
44
102
{ACAD_REACTORS
330
43
102
}
330
43
100
AcDbMaterial
  1
ByLayer
 72
     1
 94
      127
  0
MATERIAL
  5
46
102
{ACAD_REACTORS
330
43
102
}
330
43
100
AcDbMaterial
  1
Global
 72
     1
 94
      127
  0
MLEADERSTYLE
  5
6C
102
{ACAD_REACTORS
330
6B
102
}
330
6B
100
AcDbMLeaderStyle
179
     2
170
     2
171
     1
172
     0
 90
        2
 40
0.0
 41
0.0
173
     1
 91
-1056964608
340
14
 92
       -2
290
     1
 42
2.0
291
     1
 43
8.0
  3
Standard
341
0
 44
4.0
300

342
11
174
     1
178
     6
175
     1
176
     0
 93
-1056964608
 45
4.0
292
     0
297
     0
 46
4.0
343
0
 94
-1056964608
 47
1.0
 49
1.0
140
1.0
293
     1
141
0.0
294
     1
177
     0
142
1.0
295
     0
296
     0
143
3.75
271
     0
272
     9
273
     9
298
     0
  0
MLINESTYLE
  5
18
102
{ACAD_REACTORS
330
17
102
}
330
17
100
AcDbMlineStyle
  2
Standard
 70
     0
  3

 62
   256
 51
90.0
 52
90.0
 71
     2
 49
0.5
 62
   256
  6
BYLAYER
 49
-0.5
 62
   256
  6
BYLAYER
  0
ACDBPLACEHOLDER
  5
F
102
{ACAD_REACTORS
330
E
102
}
330
E
  0
SCALE
  5
48
102
{ACAD_REACTORS
330
47
102
}
330
47
100
AcDbScale
 70
     0
300
1:1
140
1.0
141
1.0
290
     1
  0
SCALE
  5
49
102
{ACAD_REACTORS
330
47
102
}
330
47
100
AcDbScale
 70
     0
300
1:2
140
1.0
141
2.0
290
     0
  0
SCALE
  5
4A
102
{ACAD_REACTORS
330
47
102
}
330
47
100
AcDbScale
 70
     0
300
1:4
140
1.0
141
4.0
290
     0
  0
SCALE
  5
4B
102
{ACAD_REACTORS
330
47
102
}
330
47
100
AcDbScale
 70
     0
300
1:5
140
1.0
141
5.0
290
     0
  0
SCALE
  5
4C
102
{ACAD_REACTORS
330
47
102
}
330
47
100
AcDbScale
 70
     0
300
1:8
140
1.0
141
8.0
290
     0
  0
SCALE
  5
4D
102
{ACAD_REACTORS
330
47
102
}
330
47
100
AcDbScale
 70
     0
300
1:10
140
1.0
141
10.0
290
     0
  0
SCALE
  5
4E
102
{ACAD_REACTORS
330
47
102
}
330
47
100
AcDbScale
 70
     0
300
1:16
140
1.0
141
16.0
290
     0
  0
SCALE
  5
4F
102
{ACAD_REACTORS
330
47
102
}
330
47
100
AcDbScale
 70
     0
300
1:20
140
1.0
141
20.0
290
     0
  0
SCALE
  5
50
102
{ACAD_REACTORS
330
47
102
}
330
47
100
AcDbScale
 70
     0
300
1:30
140
1.0
141
30.0
290
     0
  0
SCALE
  5
51
102
{ACAD_REACTORS
330
47
102
}
330
47
100
AcDbScale
 70
     0
300
1:40
140
1.0
141
40.0
290
     0
  0
SCALE
  5
52
102
{ACAD_REACTORS
330
47
102
}
330
47
100
AcDbScale
 70
     0
300
1:50
140
1.0
141
50.0
290
     0
  0
SCALE
  5
53
102
{ACAD_REACTORS
330
47
102
}
330
47
100
AcDbScale
 70
     0
300
1:100
140
1.0
141
100.0
290
     0
  0
SCALE
  5
54
102
{ACAD_REACTORS
330
47
102
}
330
47
100
AcDbScale
 70
     0
300
2:1
140
2.0
141
1.0
290
     0
  0
SCALE
  5
55
102
{ACAD_REACTORS
330
47
102
}
330
47
100
AcDbScale
 70
     0
300
4:1
140
4.0
141
1.0
290
     0
  0
SCALE
  5
56
102
{ACAD_REACTORS
330
47
102
}
330
47
100
AcDbScale
 70
     0
300
8:1
140
8.0
141
1.0
290
     0
  0
SCALE
  5
57
102
{ACAD_REACTORS
330
47
102
}
330
47
100
AcDbScale
 70
     0
300
10:1
140
10.0
141
1.0
290
     0
  0
SCALE
  5
58
102
{ACAD_REACTORS
330
47
102
}
330
47
100
AcDbScale
 70
     0
300
100:1
140
100.0
141
1.0
290
     0
  0
SCALE
  5
59
102
{ACAD_REACTORS
330
47
102
}
330
47
100
AcDbScale
 70
     0
300
1/128" = 1'-0"
140
0.0078125
141
12.0
290
     0
  0
SCALE
  5
5A
102
{ACAD_REACTORS
330
47
102
}
330
47
100
AcDbScale
 70
     0
300
1/64" = 1'-0"
140
0.015625
141
12.0
290
     0
  0
SCALE
  5
5B
102
{ACAD_REACTORS
330
47
102
}
330
47
100
AcDbScale
 70
     0
300
1/32" = 1'-0"
140
0.03125
141
12.0
290
     0
  0
SCALE
  5
5C
102
{ACAD_REACTORS
330
47
102
}
330
47
100
AcDbScale
 70
     0
300
1/16" = 1'-0"
140
0.0625
141
12.0
290
     0
  0
SCALE
  5
5D
102
{ACAD_REACTORS
330
47
102
}
330
47
100
AcDbScale
 70
     0
300
3/32" = 1'-0"
140
0.09375
141
12.0
290
     0
  0
SCALE
  5
5E
102
{ACAD_REACTORS
330
47
102
}
330
47
100
AcDbScale
 70
     0
300
1/8" = 1'-0"
140
0.125
141
12.0
290
     0
  0
SCALE
  5
5F
102
{ACAD_REACTORS
330
47
102
}
330
47
100
AcDbScale
 70
     0
300
3/16" = 1'-0"
140
0.1875
141
12.0
290
     0
  0
SCALE
  5
60
102
{ACAD_REACTORS
330
47
102
}
330
47
100
AcDbScale
 70
     0
300
1/4" = 1'-0"
140
0.25
141
12.0
290
     0
  0
SCALE
  5
61
102
{ACAD_REACTORS
330
47
102
}
330
47
100
AcDbScale
 70
     0
300
3/8" = 1'-0"
140
0.375
141
12.0
290
     0
  0
SCALE
  5
62
102
{ACAD_REACTORS
330
47
102
}
330
47
100
AcDbScale
 70
     0
300
1/2" = 1'-0"
140
0.5
141
12.0
290
     0
  0
SCALE
  5
63
102
{ACAD_REACTORS
330
47
102
}
330
47
100
AcDbScale
 70
     0
300
3/4" = 1'-0"
140
0.75
141
12.0
290
     0
  0
SCALE
  5
64
102
{ACAD_REACTORS
330
47
102
}
330
47
100
AcDbScale
 70
     0
300
1" = 1'-0"
140
1.0
141
12.0
290
     0
  0
SCALE
  5
65
102
{ACAD_REACTORS
330
47
102
}
330
47
100
AcDbScale
 70
     0
300
1-1/2" = 1'-0"
140
1.5
141
12.0
290
     0
  0
SCALE
  5
66
102
{ACAD_REACTORS
330
47
102
}
330
47
100
AcDbScale
 70
     0
300
3" = 1'-0"
140
3.0
141
12.0
290
     0
  0
SCALE
  5
67
102
{ACAD_REACTORS
330
47
102
}
330
47
100
AcDbScale
 70
     0
300
6" = 1'-0"
140
6.0
141
12.0
290
     0
  0
SCALE
  5
68
102
{ACAD_REACTORS
330
47
102
}
330
47
100
AcDbScale
 70
     0
300
1'-0" = 1'-0"
140
12.0
141
12.0
290
     0
  0
TABLESTYLE
  5
6A
102
{ACAD_REACTORS
330
69
102
}
102
{ACAD_XDICTIONARY
360
1E8
102
}
330
69
100
AcDbTableStyle
  3
Standard
 70
     0
 71
     0
 40
0.06
 41
0.06
280
     0
281
     0
  7
Standard
140
4.5
170
     2
 62
     0
 63
   257
283
     0
 90
        4
 91
        0
  1

274
    -2
284
     1
 64
     0
275
    -2
285
     1
 65
     0
276
    -2
286
     1
 66
     0
277
    -2
287
     1
 67
     0
278
    -2
288
     1
 68
     0
279
    -2
289
     1
 69
     0
  7
Standard
140
6.0
170
     5
 62
     0
 63
   257
283
     0
 90
        4
 91
        0
  1

274
    -2
284
     1
 64
     0
275
    -2
285
     1
 65
     0
276
    -2
286
     1
 66
     0
277
    -2
287
     1
 67
     0
278
    -2
288
     1
 68
     0
279
    -2
289
     1
 69
     0
  7
Standard
140
4.5
170
     5
 62
     0
 63
   257
283
     0
 90
        4
 91
        0
  1

274
    -2
284
     1
 64
     0
275
    -2
285
     1
 65
     0
276
    -2
286
     1
 66
     0
277
    -2
287
     1
 67
     0
278
    -2
288
     1
 68
     0
279
    -2
289
     1
 69
     0
  0
VISUALSTYLE
  5
2F
102
{ACAD_REACTORS
330
2A
102
}
330
2A
100
AcDbVisualStyle
  2
2dWireframe
 70
     4
177
     3
291
     0
 70
    58
 90
        0
176
     1
 90
        2
176
     1
 90
        0
176
     1
 90
        0
176
     1
 40
0.6
176
     1
 40
30.0
176
     1
 62
     7
420
 16777215
176
     1
 90
        1
176
     1
 90
        4
176
     1
 62
     7
176
     1
 62
   257
176
     1
 90
        1
176
     1
 90
        1
176
     1
 40
1.0
176
     1
 90
        0
176
     1
 62
   257
176
     1
 40
1.0
176
     1
 90
        1
176
     1
 90
        6
176
     1
 90
        2
176
     1
 62
     7
176
     1
 90
        5
176
     1
 90
        0
176
     1
 90
        0
176
     1
290
     0
176
     1
 90
        1
176
     1
 40
0.0
176
     1
 90
        0
176
     1
290
     1
176
     1
290
     1
176
     1
290
     0
176
     1
290
     0
176
     1
290
     0
176
     1
290
     0
176
     1
290
     0
176
     1
290
     0
176
     1
290
     0
176
     1
 90
       50
176
     1
 40
0.0
176
     1
 40
1.0
176
     1
 90
        0
176
     1
 62
    18
420
        0
176
     1
 90
       50
176
     1
 90
        3
176
     1
 62
     5
420
      255
176
     1
290
     0
176
     1
 90
       50
176
     1
 90
       50
176
     1
 90
       50
176
     1
290
     0
176
     1
 90
       50
176
     1
 62
   256
176
     0
 40
1.0
176
     0
 90
        2
176
     1
  1
strokes_ogs.tif
176
     1
290
     0
176
     1
 40
1.0
176
     1
 40
1.0
176
     1
  0
VISUALSTYLE
  5
32
102
{ACAD_REACTORS
330
2A
102
}
330
2A
100
AcDbVisualStyle
  2
Basic
 70
     7
177
     3
291
     1
 70
    58
 90
        1
176
     1
 90
        0
176
     1
 90
        1
176
     1
 90
        0
176
     1
 40
0.6
176
     1
 40
30.0
176
     1
 62
     7
420
 16777215
176
     1
 90
        0
176
     1
 90
        4
176
     1
 62
     7
176
     1
 62
   257
176
     1
 90
        1
176
     1
 90
        1
176
     1
 40
1.0
176
     1
 90
        8
176
     1
 62
     7
176
     1
 40
1.0
176
     1
 90
        1
176
     1
 90
        6
176
     1
 90
        2
176
     1
 62
     7
176
     1
 90
        5
176
     1
 90
        0
176
     1
 90
        0
176
     1
290
     0
176
     1
 90
        1
176
     1
 40
0.0
176
     1
 90
        0
176
     1
290
     0
176
     1
290
     1
176
     1
290
     1
176
     1
290
     0
176
     1
290
     0
176
     1
290
     0
176
     1
290
     0
176
     1
290
     0
176
     1
290
     0
176
     1
 90
       50
176
     1
 40
0.0
176
     1
 40
1.0
176
     1
 90
        0
176
     1
 62
    18
420
        0
176
     1
 90
       50
176
     1
 90
        3
176
     1
 62
     5
420
      255
176
     1
290
     0
176
     1
 90
       50
176
     1
 90
       50
176
     1
 90
       50
176
     1
290
     0
176
     1
 90
       50
176
     1
 62
   256
176
     0
 40
1.0
176
     0
 90
        2
176
     1
  1
strokes_ogs.tif
176
     1
290
     0
176
     1
 40
1.0
176
     1
 40
1.0
176
     1
  0
VISUALSTYLE
  5
36
102
{ACAD_REACTORS
330
2A
102
}
330
2A
100
AcDbVisualStyle
  2
Brighten
 70
    12
177
     3
291
     1
 70
    58
 90
        2
176
     1
 90
        2
176
     1
 90
        0
176
     1
 90
        0
176
     1
 40
0.6
176
     1
 40
30.0
176
     1
 62
     7
420
 16777215
176
     1
 90
        1
176
     1
 90
        4
176
     1
 62
     7
176
     1
 62
   257
176
     1
 90
        1
176
     1
 90
        1
176
     1
 40
1.0
176
     1
 90
        8
176
     1
 62
     7
176
     1
 40
1.0
176
     1
 90
        1
176
     1
 90
        6
176
     1
 90
        2
176
     1
 62
     7
176
     1
 90
        5
176
     1
 90
        0
176
     1
 90
        0
176
     1
290
     0
176
     1
 90
        1
176
     1
 40
50.0
176
     1
 90
        0
176
     1
290
     0
176
     1
290
     1
176
     1
290
     1
176
     1
290
     0
176
     1
290
     0
176
     1
290
     0
176
     1
290
     0
176
     1
290
     0
176
     1
290
     0
176
     1
 90
       50
176
     1
 40
0.0
176
     1
 40
1.0
176
     1
 90
        0
176
     1
 62
    18
420
        0
176
     1
 90
       50
176
     1
 90
        3
176
     1
 62
     5
420
      255
176
     1
290
     0
176
     1
 90
       50
176
     1
 90
       50
176
     1
 90
       50
176
     1
290
     0
176
     1
 90
       50
176
     1
 62
   256
176
     0
 40
1.0
176
     0
 90
        2
176
     1
  1
strokes_ogs.tif
176
     1
290
     0
176
     1
 40
1.0
176
     1
 40
1.0
176
     1
  0
VISUALSTYLE
  5
3A
102
{ACAD_REACTORS
330
2A
102
}
330
2A
100
AcDbVisualStyle
  2
ColorChange
 70
    16
177
     3
291
     1
 70
    58
 90
        2
176
     1
 90
        2
176
     1
 90
        3
176
     1
 90
        0
176
     1
 40
0.6
176
     1
 40
30.0
176
     1
 62
     8
420
  8421504
176
     1
 90
        1
176
     1
 90
        4
176
     1
 62
     7
176
     1
 62
   257
176
     1
 90
        1
176
     1
 90
        1
176
     1
 40
1.0
176
     1
 90
        8
176
     1
 62
     8
420
  8421504
176
     1
 40
1.0
176
     1
 90
        1
176
     1
 90
        6
176
     1
 90
        2
176
     1
 62
     7
176
     1
 90
        5
176
     1
 90
        0
176
     1
 90
        0
176
     1
290
     0
176
     1
 90
        1
176
     1
 40
0.0
176
     1
 90
        0
176
     1
290
     0
176
     1
290
     1
176
     1
290
     1
176
     1
290
     0
176
     1
290
     0
176
     1
290
     0
176
     1
290
     0
176
     1
290
     0
176
     1
290
     0
176
     1
 90
       50
176
     1
 40
0.0
176
     1
 40
1.0
176
     1
 90
        0
176
     1
 62
    18
420
        0
176
     1
 90
       50
176
     1
 90
        3
176
     1
 62
     5
420
      255
176
     1
290
     0
176
     1
 90
       50
176
     1
 90
       50
176
     1
 90
       50
176
     1
290
     0
176
     1
 90
       50
176
     1
 62
   256
176
     0
 40
1.0
176
     0
 90
        2
176
     1
  1
strokes_ogs.tif
176
     1
290
     0
176
     1
 40
1.0
176
     1
 40
1.0
176
     1
  0
VISUALSTYLE
  5
34
102
{ACAD_REACTORS
330
2A
102
}
330
2A
100
AcDbVisualStyle
  2
Conceptual
 70
     9
177
     3
291
     0
 70
    58
 90
        3
176
     1
 90
        2
176
     1
 90
        0
176
     1
 90
        0
176
     1
 40
0.6
176
     1
 40
30.0
176
     1
 62
     7
420
 16777215
176
     1
 90
        2
176
     1
 90
        2
176
     1
 62
     7
176
     1
 62
   257
176
     1
 90
        1
176
     1
 90
        1
176
     1
 40
179.0
176
     1
 90
        8
176
     1
 62
     7
176
     1
 40
1.0
176
     1
 90
        1
176
     1
 90
        6
176
     1
 90
        2
176
     1
 62
     7
176
     1
 90
        3
176
     1
 90
        0
176
     1
 90
        0
176
     1
290
     0
176
     1
 90
        1
176
     1
 40
0.0
176
     1
 90
        0
176
     1
290
     0
176
     1
290
     1
176
     1
290
     1
176
     1
290
     0
176
     1
290
     0
176
     1
290
     0
176
     1
290
     0
176
     1
290
     0
176
     1
290
     0
176
     1
 90
       50
176
     1
 40
0.0
176
     1
 40
1.0
176
     1
 90
        0
176
     1
 62
    18
420
        0
176
     1
 90
       50
176
     1
 90
        3
176
     1
 62
     5
420
      255
176
     1
290
     0
176
     1
 90
       50
176
     1
 90
       50
176
     1
 90
       50
176
     1
290
     0
176
     1
 90
       50
176
     1
 62
   256
176
     0
 40
1.0
176
     0
 90
        2
176
     1
  1
strokes_ogs.tif
176
     1
290
     0
176
     1
 40
1.0
176
     1
 40
1.0
176
     1
  0
VISUALSTYLE
  5
35
102
{ACAD_REACTORS
330
2A
102
}
330
2A
100
AcDbVisualStyle
  2
Dim
 70
    11
177
     3
291
     1
 70
    58
 90
        2
176
     1
 90
        2
176
     1
 90
        0
176
     1
 90
        0
176
     1
 40
0.6
176
     1
 40
30.0
176
     1
 62
     7
420
 16777215
176
     1
 90
        1
176
     1
 90
        4
176
     1
 62
     7
176
     1
 62
   257
176
     1
 90
        1
176
     1
 90
        1
176
     1
 40
1.0
176
     1
 90
        8
176
     1
 62
     7
176
     1
 40
1.0
176
     1
 90
        1
176
     1
 90
        6
176
     1
 90
        2
176
     1
 62
     7
176
     1
 90
        5
176
     1
 90
        0
176
     1
 90
        0
176
     1
290
     0
176
     1
 90
        1
176
     1
 40
-50.0
176
     1
 90
        0
176
     1
290
     0
176
     1
290
     1
176
     1
290
     1
176
     1
290
     0
176
     1
290
     0
176
     1
290
     0
176
     1
290
     0
176
     1
290
     0
176
     1
290
     0
176
     1
 90
       50
176
     1
 40
0.0
176
     1
 40
1.0
176
     1
 90
        0
176
     1
 62
    18
420
        0
176
     1
 90
       50
176
     1
 90
        3
176
     1
 62
     5
420
      255
176
     1
290
     0
176
     1
 90
       50
176
     1
 90
       50
176
     1
 90
       50
176
     1
290
     0
176
     1
 90
       50
176
     1
 62
   256
176
     0
 40
1.0
176
     0
 90
        2
176
     1
  1
strokes_ogs.tif
176
     1
290
     0
176
     1
 40
1.0
176
     1
 40
1.0
176
     1
  0
VISUALSTYLE
  5
3D
102
{ACAD_REACTORS
330
2A
102
}
330
2A
100
AcDbVisualStyle
  2
EdgeColorOff
 70
    22
177
     3
291
     1
 70
    58
 90
        2
176
     0
 90
        2
176
     0
 90
        0
176
     0
 90
        0
176
     0
 40
0.6
176
     0
 40
30.0
176
     0
 62
     7
420
 16777215
176
     0
 90
        1
176
     0
 90
        4
176
     0
 62
     7
176
     0
 62
   257
176
     0
 90
        1
176
     0
 90
        1
176
     0
 40
1.0
176
     0
 90
        8
176
     2
 62
     7
176
     0
 40
1.0
176
     0
 90
        1
176
     0
 90
        6
176
     0
 90
        2
176
     0
 62
     7
176
     0
 90
        5
176
     0
 90
        0
176
     0
 90
        0
176
     0
290
     0
176
     0
 90
        1
176
     0
 40
0.0
176
     0
 90
        0
176
     0
290
     0
176
     0
290
     1
176
     0
290
     1
176
     0
290
     0
176
     0
290
     0
176
     0
290
     0
176
     0
290
     0
176
     0
290
     0
176
     0
290
     0
176
     0
 90
       50
176
     0
 40
0.0
176
     0
 40
1.0
176
     0
 90
        0
176
     0
 62
    18
420
        0
176
     0
 90
       50
176
     0
 90
        3
176
     0
 62
     5
420
      255
176
     0
290
     0
176
     0
 90
       50
176
     0
 90
       50
176
     0
 90
       50
176
     0
290
     0
176
     0
 90
       50
176
     0
 62
   256
176
     0
 40
1.0
176
     0
 90
        2
176
     0
  1
strokes_ogs.tif
176
     0
290
     0
176
     0
 40
1.0
176
     0
 40
1.0
176
     0
  0
VISUALSTYLE
  5
39
102
{ACAD_REACTORS
330
2A
102
}
330
2A
100
AcDbVisualStyle
  2
Facepattern
 70
    15
177
     3
291
     1
 70
    58
 90
        2
176
     1
 90
        2
176
     1
 90
        0
176
     1
 90
        0
176
     1
 40
0.6
176
     1
 40
30.0
176
     1
 62
     7
420
 16777215
176
     1
 90
        1
176
     1
 90
        4
176
     1
 62
     7
176
     1
 62
   257
176
     1
 90
        1
176
     1
 90
        1
176
     1
 40
1.0
176
     1
 90
        8
176
     1
 62
     7
176
     1
 40
1.0
176
     1
 90
        1
176
     1
 90
        6
176
     1
 90
        2
176
     1
 62
     7
176
     1
 90
        5
176
     1
 90
        0
176
     1
 90
        0
176
     1
290
     0
176
     1
 90
        1
176
     1
 40
0.0
176
     1
 90
        0
176
     1
290
     0
176
     1
290
     1
176
     1
290
     1
176
     1
290
     0
176
     1
290
     0
176
     1
290
     0
176
     1
290
     0
176
     1
290
     0
176
     1
290
     0
176
     1
 90
       50
176
     1
 40
0.0
176
     1
 40
1.0
176
     1
 90
        0
176
     1
 62
    18
420
        0
176
     1
 90
       50
176
     1
 90
        3
176
     1
 62
     5
420
      255
176
     1
290
     0
176
     1
 90
       50
176
     1
 90
       50
176
     1
 90
       50
176
     1
290
     0
176
     1
 90
       50
176
     1
 62
   256
176
     0
 40
1.0
176
     0
 90
        2
176
     1
  1
strokes_ogs.tif
176
     1
290
     0
176
     1
 40
1.0
176
     1
 40
1.0
176
     1
  0
VISUALSTYLE
  5
2B
102
{ACAD_REACTORS
330
2A
102
}
330
2A
100
AcDbVisualStyle
  2
Flat
 70
     0
177
     3
291
     1
 70
    58
 90
        2
176
     1
 90
        1
176
     1
 90
        1
176
     1
 90
        2
176
     1
 40
0.6
176
     1
 40
30.0
176
     1
 62
     7
420
 16777215
176
     1
 90
        0
176
     1
 90
        0
176
     1
 62
     7
176
     1
 62
   257
176
     1
 90
        1
176
     1
 90
        1
176
     1
 40
1.0
176
     1
 90
        8
176
     1
 62
     7
176
     1
 40
1.0
176
     1
 90
        1
176
     1
 90
        6
176
     1
 90
        2
176
     1
 62
     7
176
     1
 90
        5
176
     1
 90
        0
176
     1
 90
        0
176
     1
290
     0
176
     1
 90
       13
176
     1
 40
0.0
176
     1
 90
        0
176
     1
290
     0
176
     1
290
     1
176
     1
290
     1
176
     1
290
     0
176
     1
290
     0
176
     1
290
     0
176
     1
290
     0
176
     1
290
     0
176
     1
290
     0
176
     1
 90
       50
176
     1
 40
0.0
176
     1
 40
1.0
176
     1
 90
        0
176
     1
 62
    18
420
        0
176
     1
 90
       50
176
     1
 90
        3
176
     1
 62
     5
420
      255
176
     1
290
     0
176
     1
 90
       50
176
     1
 90
       50
176
     1
 90
       50
176
     1
290
     0
176
     1
 90
       50
176
     1
 62
   256
176
     0
 40
1.0
176
     0
 90
        2
176
     1
  1
strokes_ogs.tif
176
     1
290
     0
176
     1
 40
1.0
176
     1
 40
1.0
176
     1
  0
VISUALSTYLE
  5
2C
102
{ACAD_REACTORS
330
2A
102
}
330
2A
100
AcDbVisualStyle
  2
FlatWithEdges
 70
     1
177
     3
291
     1
 70
    58
 90
        2
176
     1
 90
        1
176
     1
 90
        1
176
     1
 90
        2
176
     1
 40
0.6
176
     1
 40
30.0
176
     1
 62
     7
420
 16777215
176
     1
 90
        1
176
     1
 90
        0
176
     1
 62
     7
176
     1
 62
   257
176
     1
 90
        1
176
     1
 90
        1
176
     1
 40
1.0
176
     1
 90
        0
176
     1
 62
   257
176
     1
 40
1.0
176
     1
 90
        1
176
     1
 90
        6
176
     1
 90
        2
176
     1
 62
     7
176
     1
 90
        5
176
     1
 90
        0
176
     1
 90
        0
176
     1
290
     0
176
     1
 90
       13
176
     1
 40
0.0
176
     1
 90
        0
176
     1
290
     0
176
     1
290
     1
176
     1
290
     1
176
     1
290
     0
176
     1
290
     0
176
     1
290
     0
176
     1
290
     0
176
     1
290
     0
176
     1
290
     0
176
     1
 90
       50
176
     1
 40
0.0
176
     1
 40
1.0
176
     1
 90
        0
176
     1
 62
    18
420
        0
176
     1
 90
       50
176
     1
 90
        3
176
     1
 62
     5
420
      255
176
     1
290
     0
176
     1
 90
       50
176
     1
 90
       50
176
     1
 90
       50
176
     1
290
     0
176
     1
 90
       50
176
     1
 62
   256
176
     0
 40
1.0
176
     0
 90
        2
176
     1
  1
strokes_ogs.tif
176
     1
290
     0
176
     1
 40
1.0
176
     1
 40
1.0
176
     1
  0
VISUALSTYLE
  5
2D
102
{ACAD_REACTORS
330
2A
102
}
330
2A
100
AcDbVisualStyle
  2
Gouraud
 70
     2
177
     3
291
     1
 70
    58
 90
        2
176
     1
 90
        2
176
     1
 90
        1
176
     1
 90
        2
176
     1
 40
0.6
176
     1
 40
30.0
176
     1
 62
     7
420
 16777215
176
     1
 90
        0
176
     1
 90
        0
176
     1
 62
     7
176
     1
 62
   257
176
     1
 90
        1
176
     1
 90
        1
176
     1
 40
1.0
176
     1
 90
        0
176
     1
 62
     7
176
     1
 40
1.0
176
     1
 90
        1
176
     1
 90
        6
176
     1
 90
        2
176
     1
 62
     7
176
     1
 90
        5
176
     1
 90
        0
176
     1
 90
        0
176
     1
290
     0
176
     1
 90
       13
176
     1
 40
0.0
176
     1
 90
        0
176
     1
290
     0
176
     1
290
     1
176
     1
290
     1
176
     1
290
     0
176
     1
290
     0
176
     1
290
     0
176
     1
290
     0
176
     1
290
     0
176
     1
290
     0
176
     1
 90
       50
176
     1
 40
0.0
176
     1
 40
1.0
176
     1
 90
        0
176
     1
 62
    18
420
        0
176
     1
 90
       50
176
     1
 90
        3
176
     1
 62
     5
420
      255
176
     1
290
     0
176
     1
 90
       50
176
     1
 90
       50
176
     1
 90
       50
176
     1
290
     0
176
     1
 90
       50
176
     1
 62
   256
176
     0
 40
1.0
176
     0
 90
        2
176
     1
  1
strokes_ogs.tif
176
     1
290
     0
176
     1
 40
1.0
176
     1
 40
1.0
176
     1
  0
VISUALSTYLE
  5
2E
102
{ACAD_REACTORS
330
2A
102
}
330
2A
100
AcDbVisualStyle
  2
GouraudWithEdges
 70
     3
177
     3
291
     1
 70
    58
 90
        2
176
     1
 90
        2
176
     1
 90
        1
176
     1
 90
        2
176
     1
 40
0.6
176
     1
 40
30.0
176
     1
 62
     7
420
 16777215
176
     1
 90
        1
176
     1
 90
        0
176
     1
 62
     7
176
     1
 62
   257
176
     1
 90
        1
176
     1
 90
        1
176
     1
 40
1.0
176
     1
 90
        0
176
     1
 62
   257
176
     1
 40
1.0
176
     1
 90
        1
176
     1
 90
        6
176
     1
 90
        2
176
     1
 62
     7
176
     1
 90
        5
176
     1
 90
        0
176
     1
 90
        0
176
     1
290
     0
176
     1
 90
       13
176
     1
 40
0.0
176
     1
 90
        0
176
     1
290
     0
176
     1
290
     1
176
     1
290
     1
176
     1
290
     0
176
     1
290
     0
176
     1
290
     0
176
     1
290
     0
176
     1
290
     0
176
     1
290
     0
176
     1
 90
       50
176
     1
 40
0.0
176
     1
 40
1.0
176
     1
 90
        0
176
     1
 62
    18
420
        0
176
     1
 90
       50
176
     1
 90
        3
176
     1
 62
     5
420
      255
176
     1
290
     0
176
     1
 90
       50
176
     1
 90
       50
176
     1
 90
       50
176
     1
290
     0
176
     1
 90
       50
176
     1
 62
   256
176
     0
 40
1.0
176
     0
 90
        2
176
     1
  1
strokes_ogs.tif
176
     1
290
     0
176
     1
 40
1.0
176
     1
 40
1.0
176
     1
  0
VISUALSTYLE
  5
31
102
{ACAD_REACTORS
330
2A
102
}
330
2A
100
AcDbVisualStyle
  2
Hidden
 70
     6
177
     3
291
     0
 70
    58
 90
        1
176
     1
 90
        2
176
     1
 90
        2
176
     1
 90
        0
176
     1
 40
0.6
176
     1
 40
30.0
176
     1
 62
     7
420
 16777215
176
     1
 90
        2
176
     1
 90
        2
176
     1
 62
     7
176
     1
 62
   257
176
     1
 90
        2
176
     1
 90
        1
176
     1
 40
40.0
176
     1
 90
        0
176
     1
 62
   257
176
     1
 40
1.0
176
     1
 90
        1
176
     1
 90
        6
176
     1
 90
        2
176
     1
 62
     7
176
     1
 90
        3
176
     1
 90
        0
176
     1
 90
        0
176
     1
290
     0
176
     1
 90
        1
176
     1
 40
0.0
176
     1
 90
        0
176
     1
290
     0
176
     1
290
     1
176
     1
290
     1
176
     1
290
     0
176
     1
290
     0
176
     1
290
     0
176
     1
290
     0
176
     1
290
     0
176
     1
290
     0
176
     1
 90
       50
176
     1
 40
0.0
176
     1
 40
1.0
176
     1
 90
        0
176
     1
 62
    18
420
        0
176
     1
 90
       50
176
     1
 90
        3
176
     1
 62
     5
420
      255
176
     1
290
     0
176
     1
 90
       50
176
     1
 90
       50
176
     1
 90
       50
176
     1
290
     0
176
     1
 90
       50
176
     1
 62
   256
176
     0
 40
1.0
176
     0
 90
        2
176
     1
  1
strokes_ogs.tif
176
     1
290
     0
176
     1
 40
1.0
176
     1
 40
1.0
176
     1
  0
VISUALSTYLE
  5
3B
102
{ACAD_REACTORS
330
2A
102
}
330
2A
100
AcDbVisualStyle
  2
JitterOff
 70
    20
177
     3
291
     1
 70
    58
 90
        2
176
     0
 90
        2
176
     0
 90
        0
176
     0
 90
        0
176
     0
 40
0.6
176
     0
 40
30.0
176
     0
 62
     7
420
 16777215
176
     0
 90
        1
176
     0
 90
        4
176
     0
 62
     7
176
     0
 62
   257
176
     0
 90
        1
176
     0
 90
        1
176
     0
 40
1.0
176
     0
 90
       10
176
     2
 62
     7
176
     0
 40
1.0
176
     0
 90
        1
176
     0
 90
        6
176
     0
 90
        2
176
     0
 62
     7
176
     0
 90
        5
176
     0
 90
        0
176
     0
 90
        0
176
     0
290
     0
176
     0
 90
        1
176
     0
 40
0.0
176
     0
 90
        0
176
     0
290
     0
176
     0
290
     1
176
     0
290
     1
176
     0
290
     0
176
     0
290
     0
176
     0
290
     0
176
     0
290
     0
176
     0
290
     0
176
     0
290
     0
176
     0
 90
       50
176
     0
 40
0.0
176
     0
 40
1.0
176
     0
 90
        0
176
     0
 62
    18
420
        0
176
     0
 90
       50
176
     0
 90
        3
176
     0
 62
     5
420
      255
176
     0
290
     0
176
     0
 90
       50
176
     0
 90
       50
176
     0
 90
       50
176
     0
290
     0
176
     0
 90
       50
176
     0
 62
   256
176
     0
 40
1.0
176
     0
 90
        2
176
     0
  1
strokes_ogs.tif
176
     0
290
     0
176
     0
 40
1.0
176
     0
 40
1.0
176
     0
  0
VISUALSTYLE
  5
38
102
{ACAD_REACTORS
330
2A
102
}
330
2A
100
AcDbVisualStyle
  2
Linepattern
 70
    14
177
     3
291
     1
 70
    58
 90
        2
176
     1
 90
        2
176
     1
 90
        0
176
     1
 90
        0
176
     1
 40
0.6
176
     1
 40
30.0
176
     1
 62
     7
420
 16777215
176
     1
 90
        1
176
     1
 90
        4
176
     1
 62
     7
176
     1
 62
   257
176
     1
 90
        7
176
     1
 90
        7
176
     1
 40
1.0
176
     1
 90
        8
176
     1
 62
     7
176
     1
 40
1.0
176
     1
 90
        1
176
     1
 90
        6
176
     1
 90
        2
176
     1
 62
     7
176
     1
 90
        5
176
     1
 90
        0
176
     1
 90
        0
176
     1
290
     0
176
     1
 90
        1
176
     1
 40
0.0
176
     1
 90
        0
176
     1
290
     0
176
     1
290
     1
176
     1
290
     1
176
     1
290
     0
176
     1
290
     0
176
     1
290
     0
176
     1
290
     0
176
     1
290
     0
176
     1
290
     0
176
     1
 90
       50
176
     1
 40
0.0
176
     1
 40
1.0
176
     1
 90
        0
176
     1
 62
    18
420
        0
176
     1
 90
       50
176
     1
 90
        3
176
     1
 62
     5
420
      255
176
     1
290
     0
176
     1
 90
       50
176
     1
 90
       50
176
     1
 90
       50
176
     1
290
     0
176
     1
 90
       50
176
     1
 62
   256
176
     0
 40
1.0
176
     0
 90
        2
176
     1
  1
strokes_ogs.tif
176
     1
290
     0
176
     1
 40
1.0
176
     1
 40
1.0
176
     1
  0
VISUALSTYLE
  5
3C
102
{ACAD_REACTORS
330
2A
102
}
330
2A
100
AcDbVisualStyle
  2
OverhangOff
 70
    21
177
     3
291
     1
 70
    58
 90
        2
176
     0
 90
        2
176
     0
 90
        0
176
     0
 90
        0
176
     0
 40
0.6
176
     0
 40
30.0
176
     0
 62
     7
420
 16777215
176
     0
 90
        1
176
     0
 90
        4
176
     0
 62
     7
176
     0
 62
   257
176
     0
 90
        1
176
     0
 90
        1
176
     0
 40
1.0
176
     0
 90
        9
176
     2
 62
     7
176
     0
 40
1.0
176
     0
 90
        1
176
     0
 90
        6
176
     0
 90
        2
176
     0
 62
     7
176
     0
 90
        5
176
     0
 90
        0
176
     0
 90
        0
176
     0
290
     0
176
     0
 90
        1
176
     0
 40
0.0
176
     0
 90
        0
176
     0
290
     0
176
     0
290
     1
176
     0
290
     1
176
     0
290
     0
176
     0
290
     0
176
     0
290
     0
176
     0
290
     0
176
     0
290
     0
176
     0
290
     0
176
     0
 90
       50
176
     0
 40
0.0
176
     0
 40
1.0
176
     0
 90
        0
176
     0
 62
    18
420
        0
176
     0
 90
       50
176
     0
 90
        3
176
     0
 62
     5
420
      255
176
     0
290
     0
176
     0
 90
       50
176
     0
 90
       50
176
     0
 90
       50
176
     0
290
     0
176
     0
 90
       50
176
     0
 62
   256
176
     0
 40
1.0
176
     0
 90
        2
176
     0
  1
strokes_ogs.tif
176
     0
290
     0
176
     0
 40
1.0
176
     0
 40
1.0
176
     0
  0
VISUALSTYLE
  5
33
102
{ACAD_REACTORS
330
2A
102
}
330
2A
100
AcDbVisualStyle
  2
Realistic
 70
     8
177
     3
291
     0
 70
    58
 90
        2
176
     1
 90
        3
176
     1
 90
        0
176
     1
 90
        2
176
     1
 40
0.6
176
     1
 40
30.0
176
     1
 62
     7
420
 16777215
176
     1
 90
        0
176
     1
 90
        0
176
     1
 62
     7
176
     1
 62
   257
176
     1
 90
        1
176
     1
 90
        1
176
     1
 40
1.0
176
     1
 90
        8
176
     1
 62
   257
176
     1
 40
1.0
176
     1
 90
        1
176
     1
 90
        6
176
     1
 90
        2
176
     1
 62
     7
176
     1
 90
        3
176
     1
 90
        0
176
     1
 90
        0
176
     1
290
     0
176
     1
 90
       13
176
     1
 40
0.0
176
     1
 90
        0
176
     1
290
     0
176
     1
290
     1
176
     1
290
     1
176
     1
290
     0
176
     1
290
     0
176
     1
290
     0
176
     1
290
     0
176
     1
290
     0
176
     1
290
     0
176
     1
 90
       50
176
     1
 40
0.0
176
     1
 40
1.0
176
     1
 90
        0
176
     1
 62
    18
420
        0
176
     1
 90
       50
176
     1
 90
        3
176
     1
 62
     5
420
      255
176
     1
290
     0
176
     1
 90
       50
176
     1
 90
       50
176
     1
 90
       50
176
     1
290
     0
176
     1
 90
       50
176
     1
 62
   256
176
     0
 40
1.0
176
     0
 90
        2
176
     1
  1
strokes_ogs.tif
176
     1
290
     0
176
     1
 40
1.0
176
     1
 40
1.0
176
     1
  0
VISUALSTYLE
  5
42
102
{ACAD_REACTORS
330
2A
102
}
330
2A
100
AcDbVisualStyle
  2
Shaded
 70
    27
177
     3
291
     0
 70
    58
 90
        2
176
     1
 90
        2
176
     1
 90
        1
176
     1
 90
        2
176
     1
 40
0.6
176
     1
 40
30.0
176
     1
 62
     7
420
 16777215
176
     1
 90
        0
176
     1
 90
        4
176
     1
 62
     7
176
     1
 62
   257
176
     1
 90
        1
176
     1
 90
        1
176
     1
 40
1.0
176
     1
 90
        8
176
     1
 62
   257
176
     1
 40
1.0
176
     1
 90
        1
176
     1
 90
        6
176
     1
 90
        2
176
     1
 62
     8
420
  7895160
176
     1
 90
        3
176
     1
 90
        0
176
     1
 90
        0
176
     1
290
     0
176
     1
 90
        5
176
     1
 40
0.0
176
     1
 90
        0
176
     1
290
     0
176
     1
290
     1
176
     1
290
     1
176
     1
290
     0
176
     1
290
     0
176
     1
290
     0
176
     1
290
     0
176
     1
290
     0
176
     1
290
     0
176
     1
 90
       50
176
     1
 40
0.0
176
     1
 40
1.0
176
     1
 90
        0
176
     1
 62
    18
420
        0
176
     1
 90
       50
176
     1
 90
        3
176
     1
 62
     5
420
      255
176
     1
290
     0
176
     1
 90
       50
176
     1
 90
       50
176
     1
 90
       50
176
     1
290
     0
176
     1
 90
       50
176
     1
 62
   256
176
     0
 40
1.0
176
     0
 90
        2
176
     1
  1
strokes_ogs.tif
176
     1
290
     0
176
     1
 40
1.0
176
     1
 40
1.0
176
     1
  0
VISUALSTYLE
  5
41
102
{ACAD_REACTORS
330
2A
102
}
330
2A
100
AcDbVisualStyle
  2
Shaded with edges
 70
    26
177
     3
291
     0
 70
    58
 90
        2
176
     1
 90
        2
176
     1
 90
        1
176
     1
 90
        2
176
     1
 40
0.6
176
     1
 40
30.0
176
     1
 62
     7
420
 16777215
176
     1
 90
        1
176
     1
 90
       10
176
     1
 62
     7
176
     1
 62
   257
176
     1
 90
        2
176
     1
 90
        1
176
     1
 40
1.0
176
     1
 90
        8
176
     1
 62
   257
176
     1
 40
1.0
176
     1
 90
        1
176
     1
 90
        6
176
     1
 90
        2
176
     1
 62
     7
176
     1
 90
        3
176
     1
 90
        0
176
     1
 90
        0
176
     1
290
     0
176
     1
 90
        5
176
     1
 40
0.0
176
     1
 90
        0
176
     1
290
     0
176
     1
290
     1
176
     1
290
     1
176
     1
290
     0
176
     1
290
     0
176
     1
290
     0
176
     1
290
     0
176
     1
290
     0
176
     1
290
     0
176
     1
 90
       50
176
     1
 40
0.0
176
     1
 40
1.0
176
     1
 90
        0
176
     1
 62
    18
420
        0
176
     1
 90
       50
176
     1
 90
        3
176
     1
 62
     5
420
      255
176
     1
290
     0
176
     1
 90
       50
176
     1
 90
       50
176
     1
 90
       50
176
     1
290
     0
176
     1
 90
       50
176
     1
 62
   256
176
     0
 40
1.0
176
     0
 90
        2
176
     1
  1
strokes_ogs.tif
176
     1
290
     0
176
     1
 40
1.0
176
     1
 40
1.0
176
     1
  0
VISUALSTYLE
  5
3E
102
{ACAD_REACTORS
330
2A
102
}
330
2A
100
AcDbVisualStyle
  2
Shades of Gray
 70
    23
177
     3
291
     0
 70
    58
 90
        2
176
     1
 90
        2
176
     1
 90
        3
176
     1
 90
        0
176
     1
 40
0.6
176
     1
 40
30.0
176
     1
 62
     7
420
 16777215
176
     1
 90
        2
176
     1
 90
        2
176
     1
 62
     7
176
     1
 62
     7
176
     1
 90
        1
176
     1
 90
        1
176
     1
 40
40.0
176
     1
 90
        8
176
     1
 62
     7
176
     1
 40
1.0
176
     1
 90
        1
176
     1
 90
        6
176
     1
 90
        2
176
     1
 62
     7
176
     1
 90
        3
176
     1
 90
        0
176
     1
 90
        0
176
     1
290
     0
176
     1
 90
        1
176
     1
 40
0.0
176
     1
 90
        0
176
     1
290
     0
176
     1
290
     1
176
     1
290
     1
176
     1
290
     0
176
     1
290
     0
176
     1
290
     0
176
     1
290
     0
176
     1
290
     0
176
     1
290
     0
176
     1
 90
       50
176
     1
 40
0.0
176
     1
 40
1.0
176
     1
 90
        0
176
     1
 62
    18
420
        0
176
     1
 90
       50
176
     1
 90
        3
176
     1
 62
     5
420
      255
176
     1
290
     0
176
     1
 90
       50
176
     1
 90
       50
176
     1
 90
       50
176
     1
290
     0
176
     1
 90
       50
176
     1
 62
   256
176
     0
 40
1.0
176
     0
 90
        2
176
     1
  1
strokes_ogs.tif
176
     1
290
     0
176
     1
 40
1.0
176
     1
 40
1.0
176
     1
  0
VISUALSTYLE
  5
3F
102
{ACAD_REACTORS
330
2A
102
}
330
2A
100
AcDbVisualStyle
  2
Sketchy
 70
    24
177
     3
291
     0
 70
    58
 90
        1
176
     1
 90
        2
176
     1
 90
        2
176
     1
 90
        0
176
     1
 40
0.6
176
     1
 40
30.0
176
     1
 62
     7
420
 16777215
176
     1
 90
        2
176
     1
 90
        2
176
     1
 62
     7
176
     1
 62
     7
176
     1
 90
        1
176
     1
 90
        1
176
     1
 40
40.0
176
     1
 90
       11
176
     1
 62
     7
176
     1
 40
1.0
176
     1
 90
        1
176
     1
 90
        6
176
     1
 90
        2
176
     1
 62
     7
176
     1
 90
        6
176
     1
 90
        0
176
     1
 90
        0
176
     1
290
     0
176
     1
 90
        1
176
     1
 40
0.0
176
     1
 90
        0
176
     1
290
     0
176
     1
290
     1
176
     1
290
     1
176
     1
290
     0
176
     1
290
     0
176
     1
290
     0
176
     1
290
     0
176
     1
290
     0
176
     1
290
     0
176
     1
 90
       50
176
     1
 40
0.0
176
     1
 40
1.0
176
     1
 90
        0
176
     1
 62
    18
420
        0
176
     1
 90
       50
176
     1
 90
        3
176
     1
 62
     5
420
      255
176
     1
290
     0
176
     1
 90
       50
176
     1
 90
       50
176
     1
 90
       50
176
     1
290
     0
176
     1
 90
       50
176
     1
 62
   256
176
     0
 40
1.0
176
     0
 90
        2
176
     1
  1
strokes_ogs.tif
176
     1
290
     0
176
     1
 40
1.0
176
     1
 40
1.0
176
     1
  0
VISUALSTYLE
  5
37
102
{ACAD_REACTORS
330
2A
102
}
330
2A
100
AcDbVisualStyle
  2
Thicken
 70
    13
177
     3
291
     1
 70
    58
 90
        2
176
     1
 90
        2
176
     1
 90
        0
176
     1
 90
        0
176
     1
 40
0.6
176
     1
 40
30.0
176
     1
 62
     7
420
 16777215
176
     1
 90
        1
176
     1
 90
        4
176
     1
 62
     7
176
     1
 62
   257
176
     1
 90
        1
176
     1
 90
        1
176
     1
 40
1.0
176
     1
 90
       12
176
     1
 62
     7
176
     1
 40
1.0
176
     1
 90
        1
176
     1
 90
        6
176
     1
 90
        2
176
     1
 62
     7
176
     1
 90
        5
176
     1
 90
        0
176
     1
 90
        0
176
     1
290
     0
176
     1
 90
        1
176
     1
 40
0.0
176
     1
 90
        0
176
     1
290
     0
176
     1
290
     1
176
     1
290
     1
176
     1
290
     0
176
     1
290
     0
176
     1
290
     0
176
     1
290
     0
176
     1
290
     0
176
     1
290
     0
176
     1
 90
       50
176
     1
 40
0.0
176
     1
 40
1.0
176
     1
 90
        0
176
     1
 62
    18
420
        0
176
     1
 90
       50
176
     1
 90
        3
176
     1
 62
     5
420
      255
176
     1
290
     0
176
     1
 90
       50
176
     1
 90
       50
176
     1
 90
       50
176
     1
290
     0
176
     1
 90
       50
176
     1
 62
   256
176
     0
 40
1.0
176
     0
 90
        2
176
     1
  1
strokes_ogs.tif
176
     1
290
     0
176
     1
 40
1.0
176
     1
 40
1.0
176
     1
  0
VISUALSTYLE
  5
30
102
{ACAD_REACTORS
330
2A
102
}
330
2A
100
AcDbVisualStyle
  2
Wireframe
 70
     5
177
     3
291
     0
 70
    58
 90
        0
176
     1
 90
        2
176
     1
 90
        0
176
     1
 90
        0
176
     1
 40
0.6
176
     1
 40
30.0
176
     1
 62
     7
420
 16777215
176
     1
 90
        1
176
     1
 90
        4
176
     1
 62
     7
176
     1
 62
   257
176
     1
 90
        1
176
     1
 90
        1
176
     1
 40
1.0
176
     1
 90
        0
176
     1
 62
   257
176
     1
 40
1.0
176
     1
 90
        1
176
     1
 90
        6
176
     1
 90
        2
176
     1
 62
     7
176
     1
 90
        3
176
     1
 90
        0
176
     1
 90
        0
176
     1
290
     0
176
     1
 90
        1
176
     1
 40
0.0
176
     1
 90
        0
176
     1
290
     0
176
     1
290
     1
176
     1
290
     1
176
     1
290
     0
176
     1
290
     0
176
     1
290
     0
176
     1
290
     0
176
     1
290
     0
176
     1
290
     0
176
     1
 90
       50
176
     1
 40
0.0
176
     1
 40
1.0
176
     1
 90
        0
176
     1
 62
    18
420
        0
176
     1
 90
       50
176
     1
 90
        3
176
     1
 62
     5
420
      255
176
     1
290
     0
176
     1
 90
       50
176
     1
 90
       50
176
     1
 90
       50
176
     1
290
     0
176
     1
 90
       50
176
     1
 62
   256
176
     0
 40
1.0
176
     0
 90
        2
176
     1
  1
strokes_ogs.tif
176
     1
290
     0
176
     1
 40
1.0
176
     1
 40
1.0
176
     1
  0
VISUALSTYLE
  5
40
102
{ACAD_REACTORS
330
2A
102
}
330
2A
100
AcDbVisualStyle
  2
X-Ray
 70
    25
177
     3
291
     0
 70
    58
 90
        2
176
     1
 90
        2
176
     1
 90
        1
176
     1
 90
        1
176
     1
 40
0.5
176
     1
 40
30.0
176
     1
 62
     7
420
 16777215
176
     1
 90
        1
176
     1
 90
        0
176
     1
 62
     7
176
     1
 62
   257
176
     1
 90
        1
176
     1
 90
        1
176
     1
 40
1.0
176
     1
 90
        8
176
     1
 62
     7
176
     1
 40
1.0
176
     1
 90
        1
176
     1
 90
        6
176
     1
 90
        2
176
     1
 62
     7
176
     1
 90
        3
176
     1
 90
        0
176
     1
 90
        0
176
     1
290
     0
176
     1
 90
       13
176
     1
 40
0.0
176
     1
 90
        0
176
     1
290
     0
176
     1
290
     1
176
     1
290
     1
176
     1
290
     0
176
     1
290
     0
176
     1
290
     0
176
     1
290
     0
176
     1
290
     0
176
     1
290
     0
176
     1
 90
       50
176
     1
 40
0.0
176
     1
 40
1.0
176
     1
 90
        0
176
     1
 62
    18
420
        0
176
     1
 90
       50
176
     1
 90
        3
176
     1
 62
     5
420
      255
176
     1
290
     0
176
     1
 90
       50
176
     1
 90
       50
176
     1
 90
       50
176
     1
290
     0
176
     1
 90
       50
176
     1
 62
   256
176
     0
 40
1.0
176
     0
 90
        2
176
     1
  1
strokes_ogs.tif
176
     1
290
     0
176
     1
 40
1.0
176
     1
 40
1.0
176
     1
  0
DICTIONARYVAR
  5
1E7
102
{ACAD_REACTORS
330
1E6
102
}
330
1E6
100
DictionaryVariables
280
     0
  1
1:1
  0
DICTIONARYVAR
  5
1EC
102
{ACAD_REACTORS
330
1E6
102
}
330
1E6
100
DictionaryVariables
280
     0
  1
Standard
  0
DICTIONARYVAR
  5
1EB
102
{ACAD_REACTORS
330
1E6
102
}
330
1E6
100
DictionaryVariables
280
     0
  1
Standard
  0
DICTIONARY
  5
1E8
330
6A
100
AcDbDictionary
280
     1
281
     1
  3
ACAD_ROUNDTRIP_2008_TABLESTYLE_CELLSTYLEMAP
360
1E9
  0
CELLSTYLEMAP
  5
1E9
102
{ACAD_REACTORS
330
1E8
102
}
330
1E8
100
AcDbCellStyleMap
 90
        3
300
CELLSTYLE
  1
TABLEFORMAT_BEGIN
 90
        5
170
     1
 91
        0
 92
    32768
 62
   257
 93
        1
300
CONTENTFORMAT
  1
CONTENTFORMAT_BEGIN
 90
        0
 91
        0
 92
        4
 93
        0
300

 40
0.0
140
1.0
 94
        5
 62
     0
340
11
144
6.0
309
CONTENTFORMAT_END
171
     1
301
MARGIN
  1
CELLMARGIN_BEGIN
 40
1.5
 40
1.5
 40
1.5
 40
1.5
 40
1.5
 40
1.5
309
CELLMARGIN_END
 94
        6
 95
        1
302
GRIDFORMAT
  1
GRIDFORMAT_BEGIN
 90
        0
 91
        1
 62
     0
 92
       -2
340
14
 93
        0
 40
0.045
309
GRIDFORMAT_END
 95
        2
302
GRIDFORMAT
  1
GRIDFORMAT_BEGIN
 90
        0
 91
        1
 62
     0
 92
       -2
340
14
 93
        0
 40
0.045
309
GRIDFORMAT_END
 95
        4
302
GRIDFORMAT
  1
GRIDFORMAT_BEGIN
 90
        0
 91
        1
 62
     0
 92
       -2
340
14
 93
        0
 40
0.045
309
GRIDFORMAT_END
 95
        8
302
GRIDFORMAT
  1
GRIDFORMAT_BEGIN
 90
        0
 91
        1
 62
     0
 92
       -2
340
14
 93
        0
 40
0.045
309
GRIDFORMAT_END
 95
       16
302
GRIDFORMAT
  1
GRIDFORMAT_BEGIN
 90
        0
 91
        1
 62
     0
 92
       -2
340
14
 93
        0
 40
0.045
309
GRIDFORMAT_END
 95
       32
302
GRIDFORMAT
  1
GRIDFORMAT_BEGIN
 90
        0
 91
        1
 62
     0
 92
       -2
340
14
 93
        0
 40
0.045
309
GRIDFORMAT_END
309
TABLEFORMAT_END
  1
CELLSTYLE_BEGIN
 90
        1
 91
        1
300
_TITLE
309
CELLSTYLE_END
300
CELLSTYLE
  1
TABLEFORMAT_BEGIN
 90
        5
170
     1
 91
        0
 92
        0
 62
   257
 93
        1
300
CONTENTFORMAT
  1
CONTENTFORMAT_BEGIN
 90
        0
 91
        0
 92
        4
 93
        0
300

 40
0.0
140
1.0
 94
        5
 62
     0
340
11
144
4.5
309
CONTENTFORMAT_END
171
     1
301
MARGIN
  1
CELLMARGIN_BEGIN
 40
1.5
 40
1.5
 40
1.5
 40
1.5
 40
1.5
 40
1.5
309
CELLMARGIN_END
 94
        6
 95
        1
302
GRIDFORMAT
  1
GRIDFORMAT_BEGIN
 90
        0
 91
        1
 62
     0
 92
       -2
340
14
 93
        0
 40
0.045
309
GRIDFORMAT_END
 95
        2
302
GRIDFORMAT
  1
GRIDFORMAT_BEGIN
 90
        0
 91
        1
 62
     0
 92
       -2
340
14
 93
        0
 40
0.045
309
GRIDFORMAT_END
 95
        4
302
GRIDFORMAT
  1
GRIDFORMAT_BEGIN
 90
        0
 91
        1
 62
     0
 92
       -2
340
14
 93
        0
 40
0.045
309
GRIDFORMAT_END
 95
        8
302
GRIDFORMAT
  1
GRIDFORMAT_BEGIN
 90
        0
 91
        1
 62
     0
 92
       -2
340
14
 93
        0
 40
0.045
309
GRIDFORMAT_END
 95
       16
302
GRIDFORMAT
  1
GRIDFORMAT_BEGIN
 90
        0
 91
        1
 62
     0
 92
       -2
340
14
 93
        0
 40
0.045
309
GRIDFORMAT_END
 95
       32
302
GRIDFORMAT
  1
GRIDFORMAT_BEGIN
 90
        0
 91
        1
 62
     0
 92
       -2
340
14
 93
        0
 40
0.045
309
GRIDFORMAT_END
309
TABLEFORMAT_END
  1
CELLSTYLE_BEGIN
 90
        2
 91
        1
300
_HEADER
309
CELLSTYLE_END
300
CELLSTYLE
  1
TABLEFORMAT_BEGIN
 90
        5
170
     1
 91
        0
 92
        0
 62
   257
 93
        1
300
CONTENTFORMAT
  1
CONTENTFORMAT_BEGIN
 90
        0
 91
        0
 92
        4
 93
        0
300

 40
0.0
140
1.0
 94
        2
 62
     0
340
11
144
4.5
309
CONTENTFORMAT_END
171
     1
301
MARGIN
  1
CELLMARGIN_BEGIN
 40
1.5
 40
1.5
 40
1.5
 40
1.5
 40
1.5
 40
1.5
309
CELLMARGIN_END
 94
        6
 95
        1
302
GRIDFORMAT
  1
GRIDFORMAT_BEGIN
 90
        0
 91
        1
 62
     0
 92
       -2
340
14
 93
        0
 40
0.045
309
GRIDFORMAT_END
 95
        2
302
GRIDFORMAT
  1
GRIDFORMAT_BEGIN
 90
        0
 91
        1
 62
     0
 92
       -2
340
14
 93
        0
 40
0.045
309
GRIDFORMAT_END
 95
        4
302
GRIDFORMAT
  1
GRIDFORMAT_BEGIN
 90
        0
 91
        1
 62
     0
 92
       -2
340
14
 93
        0
 40
0.045
309
GRIDFORMAT_END
 95
        8
302
GRIDFORMAT
  1
GRIDFORMAT_BEGIN
 90
        0
 91
        1
 62
     0
 92
       -2
340
14
 93
        0
 40
0.045
309
GRIDFORMAT_END
 95
       16
302
GRIDFORMAT
  1
GRIDFORMAT_BEGIN
 90
        0
 91
        1
 62
     0
 92
       -2
340
14
 93
        0
 40
0.045
309
GRIDFORMAT_END
 95
       32
302
GRIDFORMAT
  1
GRIDFORMAT_BEGIN
 90
        0
 91
        1
 62
     0
 92
       -2
340
14
 93
        0
 40
0.045
309
GRIDFORMAT_END
309
TABLEFORMAT_END
  1
CELLSTYLE_BEGIN
 90
        3
 91
        2
300
_DATA
309
CELLSTYLE_END
  0
ENDSEC
  0
EOF