0
SECTION
  2
HEADER
  9
$ACADVER
  1
AC1027
  9
$ACADMAINTVER
 70
     8
  9
$DWGCODEPAGE
  3
ANSI_1252
  9
$REQUIREDVERSIONS
160
                 0
  9
$COMMENTS
  1
File was created by Cadenas
  9
$CUSTOMPROPERTYTAG
  1
NN
  9
$CUSTOMPROPERTY
  1
Set Screw Wide Slot Take Up Metric Bore
  9
$CUSTOMPROPERTYTAG
  1
NT
  9
$CUSTOMPROPERTY
  1
SC Take-Up Bearings -Wide Slot -(Normal Duty)
  9
$CUSTOMPROPERTYTAG
  1
NB
  9
$CUSTOMPROPERTY
  1
125913
  9
$CUSTOMPROPERTYTAG
  1
NBSYN
  9
$CUSTOMPROPERTY
  1
$PN.
  9
$CUSTOMPROPERTYTAG
  1
LINA
  9
$CUSTOMPROPERTY
  1
125913
  9
$CUSTOMPROPERTYTAG
  1
SERIES
  9
$CUSTOMPROPERTY
  1
207
  9
$CUSTOMPROPERTYTAG
  1
SS
  9
$CUSTOMPROPERTY
  1
35
  9
$CUSTOMPROPERTYTAG
  1
PN
  9
$CUSTOMPROPERTY
  1
125913
  9
$CUSTOMPROPERTYTAG
  1
DESCRIPTION
  9
$CUSTOMPROPERTY
  1
WSTU-SC-35M
  9
$CUSTOMPROPERTYTAG
  1
W
  9
$CUSTOMPROPERTY
  1
1.6
  9
$CUSTOMPROPERTYTAG
  1
FS
  9
$CUSTOMPROPERTY
  1
WS308
  9
$CUSTOMPROPERTYTAG
  1
LF
  9
$CUSTOMPROPERTY
  1
RE-LUBE
  9
$CUSTOMPROPERTYTAG
  1
A
  9
$CUSTOMPROPERTY
  1
43.4
  9
$CUSTOMPROPERTYTAG
  1
B
  9
$CUSTOMPROPERTY
  1
123.7
  9
$CUSTOMPROPERTYTAG
  1
C
  9
$CUSTOMPROPERTY
  1
13.49
  9
$CUSTOMPROPERTYTAG
  1
D
  9
$CUSTOMPROPERTY
  1
63.5
  9
$CUSTOMPROPERTYTAG
  1
E
  9
$CUSTOMPROPERTY
  1
77.7
  9
$CUSTOMPROPERTYTAG
  1
F
  9
$CUSTOMPROPERTY
  1
19.1
  9
$CUSTOMPROPERTYTAG
  1
G
  9
$CUSTOMPROPERTY
  1
12.7
  9
$CUSTOMPROPERTYTAG
  1
H
  9
$CUSTOMPROPERTY
  1
16.0
  9
$CUSTOMPROPERTYTAG
  1
J
  9
$CUSTOMPROPERTY
  1
63.5
  9
$CUSTOMPROPERTYTAG
  1
K
  9
$CUSTOMPROPERTY
  1
36.6
  9
$CUSTOMPROPERTYTAG
  1
L
  9
$CUSTOMPROPERTY
  1
46.7
  9
$CUSTOMPROPERTYTAG
  1
M
  9
$CUSTOMPROPERTY
  1
88.39/89.15
  9
$CUSTOMPROPERTYTAG
  1
N
  9
$CUSTOMPROPERTY
  1
104.9
  9
$CUSTOMPROPERTYTAG
  1
R
  9
$CUSTOMPROPERTY
  1
17.0
  9
$CUSTOMPROPERTYTAG
  1
S
  9
$CUSTOMPROPERTY
  1
26.4
  9
$CUSTOMPROPERTYTAG
  1
T
  9
$CUSTOMPROPERTY
  1
41.3
  9
$CUSTOMPROPERTYTAG
  1
COMPANY
  9
$CUSTOMPROPERTY
  1
baldor
  9
$INSBASE
 10
0.0
 20
0.0
 30
0.0
  9
$EXTMIN
 10
1.000000000000000E+20
 20
1.000000000000000E+20
 30
1.000000000000000E+20
  9
$EXTMAX
 10
-1.000000000000000E+20
 20
-1.000000000000000E+20
 30
-1.000000000000000E+20
  9
$LIMMIN
 10
0.0
 20
0.0
  9
$LIMMAX
 10
420.0
 20
297.0
  9
$ORTHOMODE
 70
     0
  9
$REGENMODE
 70
     1
  9
$FILLMODE
 70
     1
  9
$QTEXTMODE
 70
     0
  9
$MIRRTEXT
 70
     1
  9
$LTSCALE
 40
1.0
  9
$ATTMODE
 70
     1
  9
$TEXTSIZE
 40
2.5
  9
$TRACEWID
 40
1.0
  9
$TEXTSTYLE
  7
Standard
  9
$CLAYER
  8
0
  9
$CELTYPE
  6
ByLayer
  9
$CECOLOR
 62
   256
  9
$CELTSCALE
 40
1.0
  9
$DISPSILH
 70
     0
  9
$DIMSCALE
 40
1.0
  9
$DIMASZ
 40
2.5
  9
$DIMEXO
 40
0.625
  9
$DIMDLI
 40
3.75
  9
$DIMRND
 40
0.0
  9
$DIMDLE
 40
0.0
  9
$DIMEXE
 40
1.25
  9
$DIMTP
 40
0.0
  9
$DIMTM
 40
0.0
  9
$DIMTXT
 40
2.5
  9
$DIMCEN
 40
2.5
  9
$DIMTSZ
 40
0.0
  9
$DIMTOL
 70
     0
  9
$DIMLIM
 70
     0
  9
$DIMTIH
 70
     0
  9
$DIMTOH
 70
     0
  9
$DIMSE1
 70
     0
  9
$DIMSE2
 70
     0
  9
$DIMTAD
 70
     1
  9
$DIMZIN
 70
     8
  9
$DIMBLK
  1

  9
$DIMASO
 70
     1
  9
$DIMSHO
 70
     1
  9
$DIMPOST
  1

  9
$DIMAPOST
  1

  9
$DIMALT
 70
     0
  9
$DIMALTD
 70
     3
  9
$DIMALTF
 40
0.03937007874016
  9
$DIMLFAC
 40
1.0
  9
$DIMTOFL
 70
     1
  9
$DIMTVP
 40
0.0
  9
$DIMTIX
 70
     0
  9
$DIMSOXD
 70
     0
  9
$DIMSAH
 70
     0
  9
$DIMBLK1
  1

  9
$DIMBLK2
  1

  9
$DIMSTYLE
  2
ISO-25
  9
$DIMCLRD
 70
     0
  9
$DIMCLRE
 70
     0
  9
$DIMCLRT
 70
     0
  9
$DIMTFAC
 40
1.0
  9
$DIMGAP
 40
0.625
  9
$DIMJUST
 70
     0
  9
$DIMSD1
 70
     0
  9
$DIMSD2
 70
     0
  9
$DIMTOLJ
 70
     0
  9
$DIMTZIN
 70
     8
  9
$DIMALTZ
 70
     0
  9
$DIMALTTZ
 70
     0
  9
$DIMUPT
 70
     0
  9
$DIMDEC
 70
     2
  9
$DIMTDEC
 70
     2
  9
$DIMALTU
 70
     2
  9
$DIMALTTD
 70
     3
  9
$DIMTXSTY
  7
Standard
  9
$DIMAUNIT
 70
     0
  9
$DIMADEC
 70
     0
  9
$DIMALTRND
 40
0.0
  9
$DIMAZIN
 70
     0
  9
$DIMDSEP
 70
    44
  9
$DIMATFIT
 70
     3
  9
$DIMFRAC
 70
     0
  9
$DIMLDRBLK
  1

  9
$DIMLUNIT
 70
     2
  9
$DIMLWD
 70
    -2
  9
$DIMLWE
 70
    -2
  9
$DIMTMOVE
 70
     0
  9
$DIMFXL
 40
1.0
  9
$DIMFXLON
 70
     0
  9
$DIMJOGANG
 40
0.7853981633974483
  9
$DIMTFILL
 70
     0
  9
$DIMTFILLCLR
 70
     0
  9
$DIMARCSYM
 70
     0
  9
$DIMLTYPE
  6

  9
$DIMLTEX1
  6

  9
$DIMLTEX2
  6

  9
$DIMTXTDIRECTION
 70
     0
  9
$LUNITS
 70
     2
  9
$LUPREC
 70
     4
  9
$SKETCHINC
 40
1.0
  9
$FILLETRAD
 40
10.0
  9
$AUNITS
 70
     0
  9
$AUPREC
 70
     0
  9
$MENU
  1
.
  9
$ELEVATION
 40
0.0
  9
$PELEVATION
 40
0.0
  9
$THICKNESS
 40
0.0
  9
$LIMCHECK
 70
     0
  9
$CHAMFERA
 40
0.0
  9
$CHAMFERB
 40
0.0
  9
$CHAMFERC
 40
0.0
  9
$CHAMFERD
 40
0.0
  9
$SKPOLY
 70
     0
  9
$TDCREATE
 40
2458168.986017801
  9
$TDUCREATE
 40
2458168.944351134
  9
$TDUPDATE
 40
2458168.986017975
  9
$TDUUPDATE
 40
2458168.944351308
  9
$TDINDWG
 40
0.0000000116
  9
$TDUSRTIMER
 40
0.0000000116
  9
$USRTIMER
 70
     1
  9
$ANGBASE
 50
0.0
  9
$ANGDIR
 70
     0
  9
$PDMODE
 70
     0
  9
$PDSIZE
 40
0.0
  9
$PLINEWID
 40
0.0
  9
$SPLFRAME
 70
     0
  9
$SPLINETYPE
 70
     6
  9
$SPLINESEGS
 70
     8
  9
$HANDSEED
  5
20B
  9
$SURFTAB1
 70
     6
  9
$SURFTAB2
 70
     6
  9
$SURFTYPE
 70
     6
  9
$SURFU
 70
     6
  9
$SURFV
 70
     6
  9
$UCSBASE
  2

  9
$UCSNAME
  2

  9
$UCSORG
 10
0.0
 20
0.0
 30
0.0
  9
$UCSXDIR
 10
1.0
 20
0.0
 30
0.0
  9
$UCSYDIR
 10
0.0
 20
1.0
 30
0.0
  9
$UCSORTHOREF
  2

  9
$UCSORTHOVIEW
 70
     0
  9
$UCSORGTOP
 10
0.0
 20
0.0
 30
0.0
  9
$UCSORGBOTTOM
 10
0.0
 20
0.0
 30
0.0
  9
$UCSORGLEFT
 10
0.0
 20
0.0
 30
0.0
  9
$UCSORGRIGHT
 10
0.0
 20
0.0
 30
0.0
  9
$UCSORGFRONT
 10
0.0
 20
0.0
 30
0.0
  9
$UCSORGBACK
 10
0.0
 20
0.0
 30
0.0
  9
$PUCSBASE
  2

  9
$PUCSNAME
  2

  9
$PUCSORG
 10
0.0
 20
0.0
 30
0.0
  9
$PUCSXDIR
 10
1.0
 20
0.0
 30
0.0
  9
$PUCSYDIR
 10
0.0
 20
1.0
 30
0.0
  9
$PUCSORTHOREF
  2

  9
$PUCSORTHOVIEW
 70
     0
  9
$PUCSORGTOP
 10
0.0
 20
0.0
 30
0.0
  9
$PUCSORGBOTTOM
 10
0.0
 20
0.0
 30
0.0
  9
$PUCSORGLEFT
 10
0.0
 20
0.0
 30
0.0
  9
$PUCSORGRIGHT
 10
0.0
 20
0.0
 30
0.0
  9
$PUCSORGFRONT
 10
0.0
 20
0.0
 30
0.0
  9
$PUCSORGBACK
 10
0.0
 20
0.0
 30
0.0
  9
$USERI1
 70
     0
  9
$USERI2
 70
     0
  9
$USERI3
 70
     0
  9
$USERI4
 70
     0
  9
$USERI5
 70
     0
  9
$USERR1
 40
0.0
  9
$USERR2
 40
0.0
  9
$USERR3
 40
0.0
  9
$USERR4
 40
0.0
  9
$USERR5
 40
0.0
  9
$WORLDVIEW
 70
     1
  9
$SHADEDGE
 70
     3
  9
$SHADEDIF
 70
    70
  9
$TILEMODE
 70
     1
  9
$MAXACTVP
 70
    64
  9
$PINSBASE
 10
0.0
 20
0.0
 30
0.0
  9
$PLIMCHECK
 70
     0
  9
$PEXTMIN
 10
1.000000000000000E+20
 20
1.000000000000000E+20
 30
1.000000000000000E+20
  9
$PEXTMAX
 10
-1.000000000000000E+20
 20
-1.000000000000000E+20
 30
-1.000000000000000E+20
  9
$PLIMMIN
 10
0.0
 20
0.0
  9
$PLIMMAX
 10
420.0
 20
297.0
  9
$UNITMODE
 70
     0
  9
$VISRETAIN
 70
     1
  9
$PLINEGEN
 70
     0
  9
$PSLTSCALE
 70
     1
  9
$TREEDEPTH
 70
  3020
  9
$CMLSTYLE
  2
Standard
  9
$CMLJUST
 70
     0
  9
$CMLSCALE
 40
20.0
  9
$PROXYGRAPHICS
 70
     1
  9
$MEASUREMENT
 70
     1
  9
$CELWEIGHT
370
    -1
  9
$ENDCAPS
280
     0
  9
$JOINSTYLE
280
     0
  9
$LWDISPLAY
290
     0
  9
$INSUNITS
 70
     4
  9
$HYPERLINKBASE
  1

  9
$STYLESHEET
  1

  9
$XEDIT
290
     1
  9
$CEPSNTYPE
380
     0
  9
$PSTYLEMODE
290
     1
  9
$FINGERPRINTGUID
  2
{7CCC4A96-DDC4-441B-A457-9076BC83ABBF}
  9
$VERSIONGUID
  2
{FAEB1C32-E019-11D5-929B-00C0DF256EC4}
  9
$EXTNAMES
290
     1
  9
$PSVPSCALE
 40
0.0
  9
$OLESTARTUP
290
     0
  9
$SORTENTS
280
   127
  9
$INDEXCTL
280
     0
  9
$HIDETEXT
280
     1
  9
$XCLIPFRAME
280
     2
  9
$HALOGAP
280
     0
  9
$OBSCOLOR
 70
   257
  9
$OBSLTYPE
280
     0
  9
$INTERSECTIONDISPLAY
280
     0
  9
$INTERSECTIONCOLOR
 70
   257
  9
$DIMASSOC
280
     2
  9
$PROJECTNAME
  1

  9
$CAMERADISPLAY
290
     0
  9
$LENSLENGTH
 40
50.0
  9
$CAMERAHEIGHT
 40
0.0
  9
$STEPSPERSEC
 40
2.0
  9
$STEPSIZE
 40
6.0
  9
$3DDWFPREC
 40
2.0
  9
$PSOLWIDTH
 40
5.0
  9
$PSOLHEIGHT
 40
80.0
  9
$LOFTANG1
 40
1.570796326794897
  9
$LOFTANG2
 40
1.570796326794897
  9
$LOFTMAG1
 40
0.0
  9
$LOFTMAG2
 40
0.0
  9
$LOFTPARAM
 70
     7
  9
$LOFTNORMALS
280
     1
  9
$LATITUDE
 40
37.795
  9
$LONGITUDE
 40
-122.394
  9
$NORTHDIRECTION
 40
0.0
  9
$TIMEZONE
 70
 -8000
  9
$LIGHTGLYPHDISPLAY
280
     1
  9
$TILEMODELIGHTSYNCH
280
     1
  9
$CMATERIAL
347
44
  9
$SOLIDHIST
280
     0
  9
$SHOWHIST
280
     1
  9
$DWFFRAME
280
     2
  9
$DGNFRAME
280
     2
  9
$REALWORLDSCALE
290
     1
  9
$INTERFERECOLOR
 62
   256
  9
$CSHADOW
280
     0
  9
$SHADOWPLANELOCATION
 40
0.0
  0
ENDSEC
  0
SECTION
  2
CLASSES
  0
CLASS
  1
ACDBDICTIONARYWDFLT
  2
AcDbDictionaryWithDefault
  3
ObjectDBX Classes
 90
        0
 91
        4
280
     0
281
     0
  0
CLASS
  1
VISUALSTYLE
  2
AcDbVisualStyle
  3
ObjectDBX Classes
 90
     4095
 91
        4
280
     0
281
     0
  0
CLASS
  1
MATERIAL
  2
AcDbMaterial
  3
ObjectDBX Classes
 90
     1153
 91
        4
280
     0
281
     0
  0
CLASS
  1
SCALE
  2
AcDbScale
  3
ObjectDBX Classes
 90
     1153
 91
        4
280
     0
281
     0
  0
CLASS
  1
TABLESTYLE
  2
AcDbTableStyle
  3
ObjectDBX Classes
 90
     4095
 91
        4
280
     0
281
     0
  0
CLASS
  1
MLEADERSTYLE
  2
AcDbMLeaderStyle
  3
ACDB_MLEADERSTYLE_CLASS
 90
     4095
 91
        4
280
     0
281
     0
  0
CLASS
  1
SUN
  2
AcDbSun
  3
SCENEOE
 90
     1153
 91
        4
280
     0
281
     0
  0
CLASS
  1
DICTIONARYVAR
  2
AcDbDictionaryVar
  3
ObjectDBX Classes
 90
        0
 91
        4
280
     0
281
     0
  0
CLASS
  1
CELLSTYLEMAP
  2
AcDbCellStyleMap
  3
ObjectDBX Classes
 90
     1152
 91
        4
280
     0
281
     0
  0
ENDSEC
  0
SECTION
  2
TABLES
  0
TABLE
  2
VPORT
  5
8
330
0
100
AcDbSymbolTable
 70
     1
  0
VPORT
  5
29
330
8
100
AcDbSymbolTableRecord
100
AcDbViewportTableRecord
  2
*Active
 70
     0
 10
0.0
 20
0.0
 11
1.0
 21
1.0
 12
-3.95999999999998
 22
0.0
 13
0.0
 23
0.0
 14
10.0
 24
10.0
 15
10.0
 25
10.0
 16
0.0
 26
0.0
 36
1.0
 17
0.0
 27
0.0
 37
0.0
 40
106.998
 41
0.4692087702573883
 42
50.0
 43
0.0
 44
0.0
 50
0.0
 51
0.0
 71
     0
 72
   100
 73
     1
 74
     3
 75
     0
 76
     0
 77
     0
 78
     0
281
     0
 65
     1
110
0.0
120
0.0
130
0.0
111
1.0
121
0.0
131
0.0
112
0.0
122
1.0
132
0.0
 79
     0
146
0.0
348
2F
 60
     3
 61
     5
292
     1
282
     1
141
0.0
142
0.0
 63
   250
361
6D
  0
ENDTAB
  0
TABLE
  2
LTYPE
  5
5
330
0
100
AcDbSymbolTable
 70
     3
  0
LTYPE
  5
14
330
5
100
AcDbSymbolTableRecord
100
AcDbLinetypeTableRecord
  2
ByBlock
 70
     0
  3

 72
    65
 73
     0
 40
0.0
  0
LTYPE
  5
15
330
5
100
AcDbSymbolTableRecord
100
AcDbLinetypeTableRecord
  2
ByLayer
 70
     0
  3

 72
    65
 73
     0
 40
0.0
  0
LTYPE
  5
16
330
5
100
AcDbSymbolTableRecord
100
AcDbLinetypeTableRecord
  2
Continuous
 70
     0
  3
Solid line
 72
    65
 73
     0
 40
0.0
  0
LTYPE
  5
A7
330
5
100
AcDbSymbolTableRecord
100
AcDbLinetypeTableRecord
  2
Dashed
 70
     0
  3

 72
    65
 73
     2
 40
2.0
 49
1.0
 74
     0
 49
-1.0
 74
     0
  0
LTYPE
  5
DB
330
5
100
AcDbSymbolTableRecord
100
AcDbLinetypeTableRecord
  2
Center
 70
     0
  3

 72
    65
 73
     4
 40
1.5
 49
0.45
 74
     0
 49
-0.5
 74
     0
 49
0.05
 74
     0
 49
-0.5
 74
     0
  0
ENDTAB
  0
TABLE
  2
LAYER
  5
2
330
0
100
AcDbSymbolTable
 70
     7
  0
LAYER
  5
10
330
2
100
AcDbSymbolTableRecord
100
AcDbLayerTableRecord
  2
0
 70
     0
 62
     7
  6
Continuous
370
    -3
390
F
347
46
348
0
  0
LAYER
  5
72
330
2
100
AcDbSymbolTableRecord
100
AcDbLayerTableRecord
  2
AM_6
 70
     0
 62
    -2
  6
Continuous
370
    35
390
F
347
46
348
0
  0
LAYER
  5
A8
330
2
100
AcDbSymbolTableRecord
100
AcDbLayerTableRecord
  2
AM_9
 70
     0
 62
     6
  6
Dashed
370
    25
390
F
347
46
348
0
  0
LAYER
  5
D8
330
2
100
AcDbSymbolTableRecord
100
AcDbLayerTableRecord
  2
AM_5
 70
     0
 62
     3
  6
Continuous
370
    25
390
F
347
46
348
0
  0
LAYER
  5
DC
330
2
100
AcDbSymbolTableRecord
100
AcDbLayerTableRecord
  2
AM_7
 70
     0
 62
     7
  6
Center
370
    25
390
F
347
46
348
0
  0
LAYER
  5
E0
330
2
100
AcDbSymbolTableRecord
100
AcDbLayerTableRecord
  2
AM_4
 70
     0
 62
     7
  6
Continuous
370
    50
390
F
347
46
348
0
  0
LAYER
  5
1FE
330
2
100
AcDbSymbolTableRecord
100
AcDbLayerTableRecord
  2
ConnectionPoints
 70
     0
 62
     7
  6
Continuous
370
    50
390
F
347
46
348
0
  0
ENDTAB
  0
TABLE
  2
STYLE
  5
3
330
0
100
AcDbSymbolTable
 70
     1
  0
STYLE
  5
11
330
3
100
AcDbSymbolTableRecord
100
AcDbTextStyleTableRecord
  2
Standard
 70
     0
 40
0.0
 41
1.0
 50
0.0
 71
     0
 42
2.5
  3
txt
  4

  0
ENDTAB
  0
TABLE
  2
VIEW
  5
6
330
0
100
AcDbSymbolTable
 70
     0
  0
ENDTAB
  0
TABLE
  2
UCS
  5
7
330
0
100
AcDbSymbolTable
 70
     0
  0
ENDTAB
  0
TABLE
  2
APPID
  5
9
330
0
100
AcDbSymbolTable
 70
     1
  0
APPID
  5
12
330
9
100
AcDbSymbolTableRecord
100
AcDbRegAppTableRecord
  2
ACAD
 70
     0
  0
ENDTAB
  0
TABLE
  2
DIMSTYLE
  5
A
330
0
100
AcDbSymbolTable
 70
     1
100
AcDbDimStyleTable
  0
DIMSTYLE
105
27
330
A
100
AcDbSymbolTableRecord
100
AcDbDimStyleTableRecord
  2
ISO-25
 70
     0
 41
2.5
 42
0.625
 43
3.75
 44
1.25
 73
     0
 74
     0
 77
     1
 78
     8
140
2.5
141
2.5
143
0.03937007874016
147
0.625
171
     3
172
     1
178
     0
271
     2
272
     2
274
     3
278
    44
283
     0
284
     8
340
11
  0
ENDTAB
  0
TABLE
  2
BLOCK_RECORD
  5
1
330
0
100
AcDbSymbolTable
 70
     5
  0
BLOCK_RECORD
  5
1F
330
1
100
AcDbSymbolTableRecord
100
AcDbBlockTableRecord
  2
*Model_Space
340
22
 70
     0
280
     1
281
     0
  0
BLOCK_RECORD
  5
1B
330
1
100
AcDbSymbolTableRecord
100
AcDbBlockTableRecord
  2
*Paper_Space
340
1E
 70
     0
280
     1
281
     0
  0
BLOCK_RECORD
  5
23
330
1
100
AcDbSymbolTableRecord
100
AcDbBlockTableRecord
  2
*Paper_Space0
340
26
 70
     0
280
     1
281
     0
  0
BLOCK_RECORD
  5
6E
330
1
100
AcDbSymbolTableRecord
100
AcDbBlockTableRecord
  2
1_125913_2
340
0
102
{BLKREFS
331
6F
102
}
 70
     0
280
     1
281
     0
  0
BLOCK_RECORD
  5
90
330
1
100
AcDbSymbolTableRecord
100
AcDbBlockTableRecord
  2
2_125808_0_in_125913_2
340
0
102
{BLKREFS
331
91
102
}
 70
     0
280
     1
281
     0
  0
BLOCK_RECORD
  5
F7
330
1
100
AcDbSymbolTableRecord
100
AcDbBlockTableRecord
  2
3_405016_Metric_0_in_125913_2
340
0
102
{BLKREFS
331
F8
102
}
 70
     0
280
     1
281
     0
  0
BLOCK_RECORD
  5
171
330
1
100
AcDbSymbolTableRecord
100
AcDbBlockTableRecord
  2
4_125913H_0_in_125913_2
340
0
102
{BLKREFS
331
172
102
}
 70
     0
280
     1
281
     0
  0
ENDTAB
  0
ENDSEC
  0
SECTION
  2
BLOCKS
  0
BLOCK
  5
20
330
1F
100
AcDbEntity
  8
0
100
AcDbBlockBegin
  2
*Model_Space
 70
     0
 10
0.0
 20
0.0
 30
0.0
  3
*Model_Space
  1

  0
ENDBLK
  5
21
330
1F
100
AcDbEntity
  8
0
100
AcDbBlockEnd
  0
BLOCK
  5
1C
330
1B
100
AcDbEntity
 67
     1
  8
0
100
AcDbBlockBegin
  2
*Paper_Space
 70
     0
 10
0.0
 20
0.0
 30
0.0
  3
*Paper_Space
  1

  0
ENDBLK
  5
1D
330
1B
100
AcDbEntity
 67
     1
  8
0
100
AcDbBlockEnd
  0
BLOCK
  5
24
330
23
100
AcDbEntity
  8
0
100
AcDbBlockBegin
  2
*Paper_Space0
 70
     0
 10
0.0
 20
0.0
 30
0.0
  3
*Paper_Space0
  1

  0
ENDBLK
  5
25
330
23
100
AcDbEntity
  8
0
100
AcDbBlockEnd
  0
BLOCK
  5
70
330
6E
100
AcDbEntity
  8
0
100
AcDbBlockBegin
  2
1_125913_2
 70
     2
 10
0.0
 20
0.0
 30
0.0
  3
1_125913_2
  1

  0
ATTDEF
  5
73
330
6E
100
AcDbEntity
  8
AM_6
100
AcDbText
 10
25.63117744508228
 20
52.45
 30
0.0
 40
0.5
  1
Set Screw Wide Slot Take Up Metric Bore
100
AcDbAttributeDefinition
  3

  2
NN
 70
     8
280
     0
  0
ATTDEF
  5
74
330
6E
100
AcDbEntity
  8
AM_6
100
AcDbText
 10
25.63117744508228
 20
51.95
 30
0.0
 40
0.5
  1
SC Take-Up Bearings -Wide Slot -(Normal Duty)
100
AcDbAttributeDefinition
  3

  2
NT
 70
     8
280
     0
  0
ATTDEF
  5
75
330
6E
100
AcDbEntity
  8
AM_6
100
AcDbText
 10
25.63117744508228
 20
51.45
 30
0.0
 40
0.5
  1
125913
100
AcDbAttributeDefinition
  3

  2
NB
 70
     8
280
     0
  0
ATTDEF
  5
76
330
6E
100
AcDbEntity
  8
AM_6
100
AcDbText
 10
25.63117744508228
 20
50.95
 30
0.0
 40
0.5
  1
$PN.
100
AcDbAttributeDefinition
  3

  2
NBSYN
 70
     8
280
     0
  0
ATTDEF
  5
77
330
6E
100
AcDbEntity
  8
AM_6
100
AcDbText
 10
25.63117744508228
 20
50.45
 30
0.0
 40
0.5
  1
125913
100
AcDbAttributeDefinition
  3

  2
LINA
 70
     8
280
     0
  0
ATTDEF
  5
78
330
6E
100
AcDbEntity
  8
AM_6
100
AcDbText
 10
25.63117744508228
 20
49.95
 30
0.0
 40
0.5
  1
207
100
AcDbAttributeDefinition
  3

  2
SERIES
 70
     8
280
     0
  0
ATTDEF
  5
79
330
6E
100
AcDbEntity
  8
AM_6
100
AcDbText
 10
25.63117744508228
 20
49.45
 30
0.0
 40
0.5
  1
35
100
AcDbAttributeDefinition
  3

  2
SS
 70
     8
280
     0
  0
ATTDEF
  5
7A
330
6E
100
AcDbEntity
  8
AM_6
100
AcDbText
 10
25.63117744508228
 20
48.95
 30
0.0
 40
0.5
  1
125913
100
AcDbAttributeDefinition
  3

  2
PN
 70
     8
280
     0
  0
ATTDEF
  5
7B
330
6E
100
AcDbEntity
  8
AM_6
100
AcDbText
 10
25.63117744508228
 20
48.45
 30
0.0
 40
0.5
  1
WSTU-SC-35M
100
AcDbAttributeDefinition
  3

  2
DESCRIPTION
 70
     8
280
     0
  0
ATTDEF
  5
7C
330
6E
100
AcDbEntity
  8
AM_6
100
AcDbText
 10
25.63117744508228
 20
47.95
 30
0.0
 40
0.5
  1
1.6
100
AcDbAttributeDefinition
  3

  2
W
 70
     8
280
     0
  0
ATTDEF
  5
7D
330
6E
100
AcDbEntity
  8
AM_6
100
AcDbText
 10
25.63117744508228
 20
47.45
 30
0.0
 40
0.5
  1
WS308
100
AcDbAttributeDefinition
  3

  2
FS
 70
     8
280
     0
  0
ATTDEF
  5
7E
330
6E
100
AcDbEntity
  8
AM_6
100
AcDbText
 10
25.63117744508228
 20
46.95
 30
0.0
 40
0.5
  1
RE-LUBE
100
AcDbAttributeDefinition
  3

  2
LF
 70
     8
280
     0
  0
ATTDEF
  5
7F
330
6E
100
AcDbEntity
  8
AM_6
100
AcDbText
 10
25.63117744508228
 20
46.45
 30
0.0
 40
0.5
  1
43.4
100
AcDbAttributeDefinition
  3

  2
A
 70
     8
280
     0
  0
ATTDEF
  5
80
330
6E
100
AcDbEntity
  8
AM_6
100
AcDbText
 10
25.63117744508228
 20
45.95
 30
0.0
 40
0.5
  1
123.7
100
AcDbAttributeDefinition
  3

  2
B
 70
     8
280
     0
  0
ATTDEF
  5
81
330
6E
100
AcDbEntity
  8
AM_6
100
AcDbText
 10
25.63117744508228
 20
45.45
 30
0.0
 40
0.5
  1
13.49
100
AcDbAttributeDefinition
  3

  2
C
 70
     8
280
     0
  0
ATTDEF
  5
82
330
6E
100
AcDbEntity
  8
AM_6
100
AcDbText
 10
25.63117744508228
 20
44.95
 30
0.0
 40
0.5
  1
63.5
100
AcDbAttributeDefinition
  3

  2
D
 70
     8
280
     0
  0
ATTDEF
  5
83
330
6E
100
AcDbEntity
  8
AM_6
100
AcDbText
 10
25.63117744508228
 20
44.45
 30
0.0
 40
0.5
  1
77.7
100
AcDbAttributeDefinition
  3

  2
E
 70
     8
280
     0
  0
ATTDEF
  5
84
330
6E
100
AcDbEntity
  8
AM_6
100
AcDbText
 10
25.63117744508228
 20
43.95
 30
0.0
 40
0.5
  1
19.1
100
AcDbAttributeDefinition
  3

  2
F
 70
     8
280
     0
  0
ATTDEF
  5
85
330
6E
100
AcDbEntity
  8
AM_6
100
AcDbText
 10
25.63117744508228
 20
43.45
 30
0.0
 40
0.5
  1
12.7
100
AcDbAttributeDefinition
  3

  2
G
 70
     8
280
     0
  0
ATTDEF
  5
86
330
6E
100
AcDbEntity
  8
AM_6
100
AcDbText
 10
25.63117744508228
 20
42.95
 30
0.0
 40
0.5
  1
16.0
100
AcDbAttributeDefinition
  3

  2
H
 70
     8
280
     0
  0
ATTDEF
  5
87
330
6E
100
AcDbEntity
  8
AM_6
100
AcDbText
 10
25.63117744508228
 20
42.45
 30
0.0
 40
0.5
  1
63.5
100
AcDbAttributeDefinition
  3

  2
J
 70
     8
280
     0
  0
ATTDEF
  5
88
330
6E
100
AcDbEntity
  8
AM_6
100
AcDbText
 10
25.63117744508228
 20
41.95
 30
0.0
 40
0.5
  1
36.6
100
AcDbAttributeDefinition
  3

  2
K
 70
     8
280
     0
  0
ATTDEF
  5
89
330
6E
100
AcDbEntity
  8
AM_6
100
AcDbText
 10
25.63117744508228
 20
41.45
 30
0.0
 40
0.5
  1
46.7
100
AcDbAttributeDefinition
  3

  2
L
 70
     8
280
     0
  0
ATTDEF
  5
8A
330
6E
100
AcDbEntity
  8
AM_6
100
AcDbText
 10
25.63117744508228
 20
40.95
 30
0.0
 40
0.5
  1
88.39/89.15
100
AcDbAttributeDefinition
  3

  2
M
 70
     8
280
     0
  0
ATTDEF
  5
8B
330
6E
100
AcDbEntity
  8
AM_6
100
AcDbText
 10
25.63117744508228
 20
40.45
 30
0.0
 40
0.5
  1
104.9
100
AcDbAttributeDefinition
  3

  2
N
 70
     8
280
     0
  0
ATTDEF
  5
8C
330
6E
100
AcDbEntity
  8
AM_6
100
AcDbText
 10
25.63117744508228
 20
39.95
 30
0.0
 40
0.5
  1
17.0
100
AcDbAttributeDefinition
  3

  2
R
 70
     8
280
     0
  0
ATTDEF
  5
8D
330
6E
100
AcDbEntity
  8
AM_6
100
AcDbText
 10
25.63117744508228
 20
39.45
 30
0.0
 40
0.5
  1
26.4
100
AcDbAttributeDefinition
  3

  2
S
 70
     8
280
     0
  0
ATTDEF
  5
8E
330
6E
100
AcDbEntity
  8
AM_6
100
AcDbText
 10
25.63117744508228
 20
38.95
 30
0.0
 40
0.5
  1
41.3
100
AcDbAttributeDefinition
  3

  2
T
 70
     8
280
     0
  0
ATTDEF
  5
8F
330
6E
100
AcDbEntity
  8
AM_6
100
AcDbText
 10
25.63117744508228
 20
38.45
 30
0.0
 40
0.5
  1
baldor
100
AcDbAttributeDefinition
  3

  2
COMPANY
 70
     8
280
     0
  0
INSERT
  5
91
330
6E
100
AcDbEntity
  8
0
100
AcDbBlockReference
  2
2_125808_0_in_125913_2
 10
0.0
 20
0.0
 30
0.0
  0
INSERT
  5
F8
330
6E
100
AcDbEntity
  8
0
100
AcDbBlockReference
  2
3_405016_Metric_0_in_125913_2
 10
0.0
 20
0.0
 30
0.0
  0
INSERT
  5
172
330
6E
100
AcDbEntity
  8
0
100
AcDbBlockReference
  2
4_125913H_0_in_125913_2
 10
0.0
 20
0.0
 30
0.0
  0
ENDBLK
  5
71
330
6E
100
AcDbEntity
  8
0
100
AcDbBlockEnd
  0
BLOCK
  5
92
330
90
100
AcDbEntity
  8
0
100
AcDbBlockBegin
  2
2_125808_0_in_125913_2
 70
     2
 10
0.0
 20
0.0
 30
0.0
  3
2_125808_0_in_125913_2
  1

  0
ATTDEF
  5
94
330
90
100
AcDbEntity
  8
AM_6
100
AcDbText
 10
24.17
 20
38.47
 30
0.0
 40
0.5
  1
Set Screw Insert Metric Bore - Stainless Steel
100
AcDbAttributeDefinition
  3

  2
NN
 70
     8
280
     0
  0
ATTDEF
  5
95
330
90
100
AcDbEntity
  8
AM_6
100
AcDbText
 10
24.17
 20
37.97
 30
0.0
 40
0.5
  1
SC Bearing Insert -Metric
100
AcDbAttributeDefinition
  3

  2
NT
 70
     8
280
     0
  0
ATTDEF
  5
96
330
90
100
AcDbEntity
  8
AM_6
100
AcDbText
 10
24.17
 20
37.47
 30
0.0
 40
0.5
  1
125808
100
AcDbAttributeDefinition
  3

  2
NB
 70
     8
280
     0
  0
ATTDEF
  5
97
330
90
100
AcDbEntity
  8
AM_6
100
AcDbText
 10
24.17
 20
36.97
 30
0.0
 40
0.5
  1
$PN.
100
AcDbAttributeDefinition
  3

  2
NBSYN
 70
     8
280
     0
  0
ATTDEF
  5
98
330
90
100
AcDbEntity
  8
AM_6
100
AcDbText
 10
24.17
 20
36.47
 30
0.0
 40
0.5
  1
125808
100
AcDbAttributeDefinition
  3

  2
LINA
 70
     8
280
     0
  0
ATTDEF
  5
99
330
90
100
AcDbEntity
  8
AM_6
100
AcDbText
 10
24.17
 20
35.97
 30
0.0
 40
0.5
  1
207
100
AcDbAttributeDefinition
  3

  2
SERIES
 70
     8
280
     0
  0
ATTDEF
  5
9A
330
90
100
AcDbEntity
  8
AM_6
100
AcDbText
 10
24.17
 20
35.47
 30
0.0
 40
0.5
  1
35
100
AcDbAttributeDefinition
  3

  2
SS
 70
     8
280
     0
  0
ATTDEF
  5
9B
330
90
100
AcDbEntity
  8
AM_6
100
AcDbText
 10
24.17
 20
34.97
 30
0.0
 40
0.5
  1
125808
100
AcDbAttributeDefinition
  3

  2
PN
 70
     8
280
     0
  0
ATTDEF
  5
9C
330
90
100
AcDbEntity
  8
AM_6
100
AcDbText
 10
24.17
 20
34.47
 30
0.0
 40
0.5
  1
INS-SC-35
100
AcDbAttributeDefinition
  3

  2
DESCRIPTION
 70
     8
280
     0
  0
ATTDEF
  5
9D
330
90
100
AcDbEntity
  8
AM_6
100
AcDbText
 10
24.17
 20
33.97
 30
0.0
 40
0.5
  1
0.44
100
AcDbAttributeDefinition
  3

  2
WEIGHT
 70
     8
280
     0
  0
ATTDEF
  5
9E
330
90
100
AcDbEntity
  8
AM_6
100
AcDbText
 10
24.17
 20
33.47
 30
0.0
 40
0.5
  1
43.4
100
AcDbAttributeDefinition
  3

  2
A
 70
     8
280
     0
  0
ATTDEF
  5
9F
330
90
100
AcDbEntity
  8
AM_6
100
AcDbText
 10
24.17
 20
32.97
 30
0.0
 40
0.5
  1
19.1
100
AcDbAttributeDefinition
  3

  2
C
 70
     8
280
     0
  0
ATTDEF
  5
A0
330
90
100
AcDbEntity
  8
AM_6
100
AcDbText
 10
24.17
 20
32.47
 30
0.0
 40
0.5
  1
72
100
AcDbAttributeDefinition
  3

  2
D
 70
     8
280
     0
  0
ATTDEF
  5
A1
330
90
100
AcDbEntity
  8
AM_6
100
AcDbText
 10
24.17
 20
31.97
 30
0.0
 40
0.5
  1
5.1
100
AcDbAttributeDefinition
  3

  2
J
 70
     8
280
     0
  0
ATTDEF
  5
A2
330
90
100
AcDbEntity
  8
AM_6
100
AcDbText
 10
24.17
 20
31.47
 30
0.0
 40
0.5
  1
46.7
100
AcDbAttributeDefinition
  3

  2
L
 70
     8
280
     0
  0
ATTDEF
  5
A3
330
90
100
AcDbEntity
  8
AM_6
100
AcDbText
 10
24.17
 20
30.97
 30
0.0
 40
0.5
  1
M8 x 1.25
100
AcDbAttributeDefinition
  3

  2
N
 70
     8
280
     0
  0
ATTDEF
  5
A4
330
90
100
AcDbEntity
  8
AM_6
100
AcDbText
 10
24.17
 20
30.47
 30
0.0
 40
0.5
  1
17.0
100
AcDbAttributeDefinition
  3

  2
W
 70
     8
280
     0
  0
ATTDEF
  5
A5
330
90
100
AcDbEntity
  8
AM_6
100
AcDbText
 10
24.17
 20
29.97
 30
0.0
 40
0.5
  1
26.4
100
AcDbAttributeDefinition
  3

  2
Y
 70
     8
280
     0
  0
ATTDEF
  5
A6
330
90
100
AcDbEntity
  8
AM_6
100
AcDbText
 10
24.17
 20
29.47
 30
0.0
 40
0.5
  1
baldor
100
AcDbAttributeDefinition
  3

  2
COMPANY
 70
     8
280
     0
  0
LINE
  5
A9
330
90
100
AcDbEntity
  8
AM_9
100
AcDbLine
 10
5.27363636363636
 20
37.75
 30
0.0
 11
4.926363636363639
 21
37.75
 31
0.0
  0
ARC
  5
AA
330
90
100
AcDbEntity
  8
AM_9
100
AcDbCircle
 10
4.926363636363629
 20
36.01363636363637
 30
0.0
 40
1.736363636363635
100
AcDbArc
 50
90.0
 51
180.0
  0
ARC
  5
AB
330
90
100
AcDbEntity
  8
AM_9
100
AcDbCircle
 10
5.273636363636374
 20
36.01363636363638
 30
0.0
 40
1.736363636363625
100
AcDbArc
 50
0.0
 51
90.0
  0
LINE
  5
AC
330
90
100
AcDbEntity
  8
AM_9
100
AcDbLine
 10
7.01
 20
36.01363636363637
 30
0.0
 11
3.189999999999999
 21
36.01363636363637
 31
0.0
  0
LINE
  5
AD
330
90
100
AcDbEntity
  8
AM_9
100
AcDbLine
 10
3.189999999999999
 20
36.01363636363637
 30
0.0
 11
3.189999999999999
 21
35.79302682923721
 31
0.0
  0
LINE
  5
AE
330
90
100
AcDbEntity
  8
AM_9
100
AcDbLine
 10
7.01
 20
34.99103165593423
 30
0.0
 11
7.01
 21
36.01363636363637
 31
0.0
  0
LINE
  5
AF
330
90
100
AcDbEntity
  8
AM_9
100
AcDbLine
 10
-21.2985
 20
-15.85845521732019
 30
0.0
 11
-21.2985
 21
-20.84946241234214
 31
0.0
  0
LINE
  5
B0
330
90
100
AcDbEntity
  8
AM_9
100
AcDbLine
 10
-14.6515
 20
-20.84946241234214
 30
0.0
 11
-14.6515
 21
-15.85963662038737
 31
0.0
  0
LWPOLYLINE
  5
B1
330
90
100
AcDbEntity
  8
AM_9
100
AcDbPolyline
 90
       21
 70
     0
 43
0.0
 10
-21.29849999045415
 20
-15.86027981593672
 10
-21.27935313630725
 20
-16.00765080919095
 10
-21.17493281256785
 20
-16.21838888194774
 10
-20.98364458867844
 20
-16.4054077321082
 10
-20.70812482335528
 20
-16.56644314293774
 10
-20.358029204015
 20
-16.69985542443196
 10
-19.93484772250669
 20
-16.80696713861202
 10
-19.45594936824621
 20
-16.88689407938484
 10
-18.93285295853302
 20
-16.94084060315141
 10
-18.3817843213026
 20
-16.97011284601203
 10
-17.82729353119316
 20
-16.97546906493107
 10
-17.27702658584056
 20
-16.95782972881632
 10
-16.75134418993576
 20
-16.91702739137868
 10
-16.25952783028501
 20
-16.85216262552064
 10
-15.81033830761047
 20
-16.76049509295733
 10
-15.42115078434193
 20
-16.64166372980685
 10
-15.09947228804776
 20
-16.49228125405993
 10
-14.85927906002824
 20
-16.31454213502086
 10
-14.70951431095774
 20
-16.11091859939325
 10
-14.65200746466648
 20
-15.88484305202144
 10
-14.65150001258288
 20
-15.86050849346787
  0
LWPOLYLINE
  5
B2
330
90
100
AcDbEntity
  8
AM_9
100
AcDbPolyline
 90
       11
 70
     0
 43
0.0
 10
-14.65150001258288
 20
-15.86050849346787
 10
-14.68863210888946
 20
-15.64556171609956
 10
-14.81528653267586
 20
-15.39737163580238
 10
-15.02888265047119
 20
-15.14919231915957
 10
-15.32226491429298
 20
-14.91009254706283
 10
-15.69425254573687
 20
-14.68690443546309
 10
-16.1299905257751
 20
-14.49299916307736
 10
-16.62321475636097
 20
-14.33696398540821
 10
-17.15572491737522
 20
-14.22820361027346
 10
-17.56207015954334
 20
-14.18262674939955
 10
-17.975
 20
-14.16716614494102
  0
ELLIPSE
  5
B3
330
90
100
AcDbEntity
  8
AM_9
100
AcDbEllipse
 10
-17.97499999999999
 20
-20.84946241234214
 30
0.0
 11
-3.323500000000017
 21
4.070113636966249E-16
 31
0.0
210
0.0
220
0.0
230
1.0
 40
0.4226182617406974
 41
3.530453576367808
 42
5.852059858084336
  0
LINE
  5
B4
330
90
100
AcDbEntity
  8
AM_9
100
AcDbLine
 10
-20.91504325527303
 20
-20.19449982888661
 30
0.0
 11
-21.16194356076535
 21
-20.3924497694404
 31
0.0
  0
LINE
  5
B5
330
90
100
AcDbEntity
  8
AM_9
100
AcDbLine
 10
-14.7850015425707
 20
-20.39489900340073
 30
0.0
 11
-15.03495674472697
 21
-20.19449982888661
 31
0.0
  0
LWPOLYLINE
  5
B6
330
90
100
AcDbEntity
  8
AM_9
100
AcDbPolyline
 90
       11
 70
     0
 43
0.0
 10
-17.975
 20
-14.16716614494102
 10
-18.52725334681741
 20
-14.19499122031377
 10
-19.06380144741377
 20
-14.27591401363234
 10
-19.56889560799568
 20
-14.40631081511158
 10
-20.02967502471487
 20
-14.57869397824826
 10
-20.43741102507237
 20
-14.78774144726825
 10
-20.77632251121018
 20
-15.02155682580949
 10
-21.03768773011107
 20
-15.27212029772408
 10
-21.21195830946554
 20
-15.52723745530997
 10
-21.29203100487008
 20
-15.77404641883404
 10
-21.29849999045415
 20
-15.86027981593672
  0
LINE
  5
B7
330
90
100
AcDbEntity
  8
AM_9
100
AcDbLine
 10
-25.466
 20
-17.5
 30
0.0
 11
16.066
 21
-17.5
 31
0.0
  0
LINE
  5
B8
330
90
100
AcDbEntity
  8
AM_9
100
AcDbLine
 10
16.066
 20
17.5
 30
0.0
 11
-25.466
 21
17.5
 31
0.0
  0
LINE
  5
B9
330
90
100
AcDbEntity
  8
AM_9
100
AcDbLine
 10
-25.466
 20
17.5
 30
0.0
 11
-26.4
 21
18.43399999999999
 31
0.0
  0
LINE
  5
BA
330
90
100
AcDbEntity
  8
AM_9
100
AcDbLine
 10
-26.4
 20
-18.43399999999999
 30
0.0
 11
-25.466
 21
-17.5
 31
0.0
  0
LINE
  5
BB
330
90
100
AcDbEntity
  8
AM_9
100
AcDbLine
 10
16.066
 20
-17.5
 30
0.0
 11
17.0
 21
-18.43399999999999
 31
0.0
  0
LINE
  5
BC
330
90
100
AcDbEntity
  8
AM_9
100
AcDbLine
 10
17.0
 20
18.43399999999999
 30
0.0
 11
16.066
 21
17.5
 31
0.0
  0
LINE
  5
BD
330
90
100
AcDbEntity
  8
AM_9
100
AcDbLine
 10
17.0
 20
11.72273432267404
 30
0.0
 11
17.0
 21
-11.72273432267404
 31
0.0
  0
LINE
  5
BE
330
90
100
AcDbEntity
  8
AM_9
100
AcDbLine
 10
16.066
 20
12.97328578271518
 30
0.0
 11
16.066
 21
-12.97328578271518
 31
0.0
  0
LINE
  5
BF
330
90
100
AcDbEntity
  8
AM_9
100
AcDbLine
 10
9.55
 20
-23.34999999999999
 30
0.0
 11
11.46650000000001
 21
-23.34999999999999
 31
0.0
  0
LINE
  5
C0
330
90
100
AcDbEntity
  8
AM_9
100
AcDbLine
 10
11.46649999999999
 20
23.34999999999999
 30
0.0
 11
9.55
 21
23.34999999999999
 31
0.0
  0
ARC
  5
C1
330
90
100
AcDbEntity
  8
AM_9
100
AcDbCircle
 10
-17.975
 20
-0.0000000000000036
 30
0.0
 40
3.323500000000003
100
AcDbArc
 50
219.4376465196996
 51
140.5623534803004
  0
LWPOLYLINE
  5
C2
330
90
100
AcDbEntity
  8
AM_9
100
AcDbPolyline
 90
       11
 70
     0
 43
0.0
 10
-20.49803450359398
 20
2.478488641820321
 10
-20.44667360631876
 20
2.522673857053771
 10
-19.98846370488426
 20
2.854885030822224
 10
-19.44710793273484
 20
3.128769262848858
 10
-18.86875091253514
 20
3.313902017942969
 10
-18.23649295560388
 20
3.408209016144221
 10
-17.59714603358136
 20
3.399008093773674
 10
-16.95515476409155
 20
3.281687173980875
 10
-16.34230768061255
 20
3.058978720710163
 10
-15.86602392766595
 20
2.794089600287402
 10
-15.43398293052221
 20
2.462494948082511
  0
LWPOLYLINE
  5
C3
330
90
100
AcDbEntity
  8
AM_9
100
AcDbPolyline
 90
       20
 70
     0
 43
0.0
 10
-15.43398293052221
 20
2.462494948082511
 10
-15.07050331256552
 20
2.084674421144393
 10
-14.76774538820588
 20
1.656607036501404
 10
-14.51294595389513
 20
1.127272042413265
 10
-14.35626484039345
 20
0.5607824120572936
 10
-14.30678683223065
 20
0.0140331832369387
 10
-14.35143399358755
 20
-0.533136910955631
 10
-14.48355156277693
 20
-1.046397680602203
 10
-14.69663893918019
 20
-1.531376977251863
 10
-14.99257955986928
 20
-1.986967723492852
 10
-15.35607118415767
 20
-2.390620166209779
 10
-15.80675596186085
 20
-2.754328468255378
 10
-16.30908196362922
 20
-3.043358872765038
 10
-16.88812552598494
 20
-3.262971276221651
 10
-17.49524287336159
 20
-3.387791940047134
 10
-18.14068205526118
 20
-3.413422301459435
 10
-18.78153948992874
 20
-3.333326321325042
 10
-19.40656434466538
 20
-3.144997226471444
 10
-19.99009381848207
 20
-2.853885387579113
 10
-20.49540319093115
 20
-2.480810868397902
  0
LINE
  5
C4
330
90
100
AcDbEntity
  8
AM_9
100
AcDbLine
 10
-11.4665
 20
-23.35
 30
0.0
 11
-9.550000000000002
 21
-23.35
 31
0.0
  0
LINE
  5
C5
330
90
100
AcDbEntity
  8
AM_9
100
AcDbLine
 10
-9.550000000000002
 20
23.35
 30
0.0
 11
-11.4665
 21
23.35
 31
0.0
  0
LINE
  5
C6
330
90
100
AcDbEntity
  8
AM_9
100
AcDbLine
 10
-5.863333333333332
 20
-34.09000000000003
 30
0.0
 11
-3.316666666666666
 21
-34.09000000000003
 31
0.0
  0
LINE
  5
C7
330
90
100
AcDbEntity
  8
AM_9
100
AcDbLine
 10
-3.316666666666666
 20
34.09000000000003
 30
0.0
 11
-5.863333333333332
 21
34.09000000000003
 31
0.0
  0
LINE
  5
C8
330
90
100
AcDbEntity
  8
AM_9
100
AcDbLine
 10
9.55
 20
33.57487804028403
 30
0.0
 11
9.55
 21
-33.57487804023788
 31
0.0
  0
ARC
  5
C9
330
90
100
AcDbEntity
  8
AM_9
100
AcDbCircle
 10
8.785999999999998
 20
-33.57487804028403
 30
0.0
 40
0.7640000000000106
100
AcDbArc
 50
291.4124814882284
 51
0.0
  0
ARC
  5
CA
330
90
100
AcDbEntity
  8
AM_9
100
AcDbCircle
 10
8.785999999999998
 20
33.57487804028403
 30
0.0
 40
0.7640000000000029
100
AcDbArc
 50
0.0
 51
68.58751851177169
  0
LINE
  5
CB
330
90
100
AcDbEntity
  8
AM_9
100
AcDbLine
 10
-9.549999999999995
 20
33.57487804028401
 30
0.0
 11
-9.549999999999995
 21
-33.57487804023786
 31
0.0
  0
ARC
  5
CC
330
90
100
AcDbEntity
  8
AM_9
100
AcDbCircle
 10
-8.785999999999987
 20
-33.57487804028401
 30
0.0
 40
0.7640000000000082
100
AcDbArc
 50
180.0
 51
248.5875329531158
  0
ARC
  5
CD
330
90
100
AcDbEntity
  8
AM_9
100
AcDbCircle
 10
-8.785999999999987
 20
33.57487804028401
 30
0.0
 40
0.764000000000008
100
AcDbArc
 50
111.4124670468842
 51
180.0
  0
LINE
  5
CE
330
90
100
AcDbEntity
  8
AM_9
100
AcDbLine
 10
-9.064920634920627
 20
34.28614400981684
 30
0.0
 11
-9.064920634920627
 21
-34.28614400981684
 31
0.0
  0
LINE
  5
CF
330
90
100
AcDbEntity
  8
AM_9
100
AcDbLine
 10
-5.863333333333332
 20
35.29778941847394
 30
0.0
 11
-5.863333333333332
 21
-35.29778941847394
 31
0.0
  0
ARC
  5
D0
330
90
100
AcDbEntity
  8
AM_9
100
AcDbCircle
 10
0.0000000000001847
 20
-11.16999999999933
 30
0.0
 40
24.83000000000071
100
AcDbArc
 50
248.5875329531161
 51
256.3412229076664
  0
ARC
  5
D1
330
90
100
AcDbEntity
  8
AM_9
100
AcDbCircle
 10
0.000000000000127
 20
11.16999999999951
 30
0.0
 40
24.83000000000052
100
AcDbArc
 50
103.6587770923336
 51
111.4124670468839
  0
LINE
  5
D2
330
90
100
AcDbEntity
  8
AM_9
100
AcDbLine
 10
-3.316666666666673
 20
35.77749118098436
 30
0.0
 11
-3.316666666666673
 21
-35.77749118098435
 31
0.0
  0
LINE
  5
D3
330
90
100
AcDbEntity
  8
AM_9
100
AcDbLine
 10
9.064920814194508
 20
34.28614393951517
 30
0.0
 11
9.064920814194508
 21
-34.28614393951517
 31
0.0
  0
ARC
  5
D4
330
90
100
AcDbEntity
  8
AM_9
100
AcDbCircle
 10
0.0000000000000036
 20
-11.16999999999988
 30
0.0
 40
24.83000000000013
100
AcDbArc
 50
262.3237742425158
 51
291.412467491233
  0
ARC
  5
D5
330
90
100
AcDbEntity
  8
AM_9
100
AcDbCircle
 10
-0.0000000000024443
 20
11.16999999999307
 30
0.0
 40
24.83000000000736
100
AcDbArc
 50
68.58753250876748
 51
73.61226734547957
  0
ARC
  5
D6
330
90
100
AcDbEntity
  8
AM_9
100
AcDbCircle
 10
-0.0000000000000162
 20
11.17000000000057
 30
0.0
 40
24.82999999999943
100
AcDbArc
 50
82.60318044478946
 51
97.67622575748443
  0
LWPOLYLINE
  5
D7
330
90
100
AcDbEntity
  8
AM_9
100
AcDbPolyline
 90
       21
 70
     0
 43
0.0
 10
7.009999999554394
 20
34.98992443323633
 10
7.008541361323193
 20
34.99027405785844
 10
6.96925400518587
 20
34.99967798129933
 10
6.881852471032277
 20
35.02050919527312
 10
6.744129371201415
 20
35.05308473063103
 10
6.565481362806969
 20
35.09488897540632
 10
6.342761008642207
 20
35.14629917251977
 10
6.087775552677685
 20
35.20420401820159
 10
5.79872848793137
 20
35.26862872190367
 10
5.491717631624116
 20
35.33566176898074
 10
5.164767973520275
 20
35.40548926794494
 10
4.841037990545498
 20
35.47306633228409
 10
4.515123405498039
 20
35.53954937268368
 10
4.215871099908391
 20
35.59924076336375
 10
3.933529508234266
 20
35.65438483339059
 10
3.69625651478118
 20
35.69985345538529
 10
3.492936577427506
 20
35.73818641839978
 10
3.344061806178909
 20
35.76588860316811
 10
3.241395004723813
 20
35.78481316135287
 10
3.194392724369465
 20
35.79342837108586
 10
3.190000000069099
 20
35.79423196770567
  0
ARC
  5
D9
330
90
100
AcDbEntity
  8
AM_5
100
AcDbCircle
 10
-17.975
 20
-0.0000000000000023
 30
0.0
 40
4.0
100
AcDbArc
 50
75.00000000000001
 51
14.99999999999997
  0
ARC
  5
DA
330
90
100
AcDbEntity
  8
AM_5
100
AcDbCircle
 10
-18.4
 20
-0.0000000000000049
 30
0.0
 40
4.000000000000003
100
AcDbArc
 50
75.00000000000006
 51
15.00000000000002
  0
LINE
  5
DD
330
90
100
AcDbEntity
  8
AM_7
100
AcDbLine
 10
-28.57
 20
0.0
 30
0.0
 11
19.17
 21
0.0
 31
0.0
  0
LINE
  5
DE
330
90
100
AcDbEntity
  8
AM_7
100
AcDbLine
 10
5.1
 20
38.47
 30
0.0
 11
5.1
 21
22.63000000000001
 31
0.0
  0
LINE
  5
DF
330
90
100
AcDbEntity
  8
AM_7
100
AcDbLine
 10
-17.975
 20
-3.489675000000007
 30
0.0
 11
-17.975
 21
3.489674999999999
 31
0.0
  0
ELLIPSE
  5
E1
330
90
100
AcDbEntity
  8
AM_4
100
AcDbEllipse
 10
-17.975
 20
-20.84946241234215
 30
0.0
 11
-3.323499999999999
 21
4.070113636966227E-16
 31
0.0
210
0.0
220
0.0
230
1.0
 40
0.4226182617406997
 41
5.852059858084333
 42
9.813638883547396
  0
LWPOLYLINE
  5
E2
330
90
100
AcDbEntity
  8
AM_4
100
AcDbPolyline
 90
       14
 70
     0
 43
0.0
 10
-21.16630558505143
 20
-20.3959470504049
 10
-21.05770557316677
 20
-20.31387977296423
 10
-20.70636590286919
 20
-20.09833727426223
 10
-20.29248254046955
 20
-19.90719898471617
 10
-19.79224590149461
 20
-19.73696274812385
 10
-19.24752137027733
 20
-19.6078684440341
 10
-18.63644713197077
 20
-19.52169113703692
 10
-18.00782575749133
 20
-19.49031485539904
 10
-17.35912924714012
 20
-19.51754096141675
 10
-16.72777564588104
 20
-19.60312824356147
 10
-16.13142942876426
 20
-19.74466110072802
 10
-15.58926062579047
 20
-19.9351192188394
 10
-15.13300061807631
 20
-20.15981841719066
 10
-14.78336010359176
 20
-20.39621501267133
  0
LWPOLYLINE
  5
E3
330
90
100
AcDbEntity
  8
AM_4
100
AcDbPolyline
 90
        6
 70
     0
 43
0.0
 10
-14.78336010359176
 20
-20.39621501267133
 10
-14.76210582234991
 20
-20.41346764236909
 10
-14.50776797447624
 20
-20.66759272085539
 10
-14.35303333342929
 20
-20.92732642640494
 10
-14.312111695034
 20
-21.08124073346006
 10
-14.31061673182301
 20
-21.23136535795739
  0
LINE
  5
E4
330
90
100
AcDbEntity
  8
AM_4
100
AcDbLine
 10
17.0
 20
-11.72273432267404
 30
0.0
 11
17.0
 21
-22.41599999999996
 31
0.0
  0
LINE
  5
E5
330
90
100
AcDbEntity
  8
AM_4
100
AcDbLine
 10
17.0
 20
22.41599999999996
 30
0.0
 11
17.0
 21
11.72273432267404
 31
0.0
  0
LINE
  5
E6
330
90
100
AcDbEntity
  8
AM_4
100
AcDbLine
 10
17.0
 20
22.41599999999996
 30
0.0
 11
16.066
 21
23.34999999999999
 31
0.0
  0
LINE
  5
E7
330
90
100
AcDbEntity
  8
AM_4
100
AcDbLine
 10
16.066
 20
-23.34999999999999
 30
0.0
 11
17.0
 21
-22.41599999999996
 31
0.0
  0
LINE
  5
E8
330
90
100
AcDbEntity
  8
AM_4
100
AcDbLine
 10
-26.4
 20
22.41599999999996
 30
0.0
 11
-26.4
 21
-22.41599999999996
 31
0.0
  0
LINE
  5
E9
330
90
100
AcDbEntity
  8
AM_4
100
AcDbLine
 10
-26.4
 20
-22.41599999999996
 30
0.0
 11
-25.466
 21
-23.34999999999999
 31
0.0
  0
LINE
  5
EA
330
90
100
AcDbEntity
  8
AM_4
100
AcDbLine
 10
-25.466
 20
23.34999999999999
 30
0.0
 11
-26.4
 21
22.41599999999996
 31
0.0
  0
LINE
  5
EB
330
90
100
AcDbEntity
  8
AM_4
100
AcDbLine
 10
16.066
 20
-12.97328578271518
 30
0.0
 11
16.066
 21
-23.34999999999999
 31
0.0
  0
LINE
  5
EC
330
90
100
AcDbEntity
  8
AM_4
100
AcDbLine
 10
16.066
 20
23.34999999999999
 30
0.0
 11
16.066
 21
12.97328578271518
 31
0.0
  0
LINE
  5
ED
330
90
100
AcDbEntity
  8
AM_4
100
AcDbLine
 10
11.46650000000001
 20
-23.34999999999999
 30
0.0
 11
16.066
 21
-23.34999999999999
 31
0.0
  0
LINE
  5
EE
330
90
100
AcDbEntity
  8
AM_4
100
AcDbLine
 10
16.066
 20
23.34999999999999
 30
0.0
 11
11.46649999999999
 21
23.34999999999999
 31
0.0
  0
ARC
  5
EF
330
90
100
AcDbEntity
  8
AM_4
100
AcDbCircle
 10
-17.975
 20
-0.0000000000000038
 30
0.0
 40
3.323500000000003
100
AcDbArc
 50
140.5623534803004
 51
219.4376465196996
  0
LINE
  5
F0
330
90
100
AcDbEntity
  8
AM_4
100
AcDbLine
 10
-25.466
 20
23.34999999999999
 30
0.0
 11
-25.466
 21
-23.35
 31
0.0
  0
LWPOLYLINE
  5
F1
330
90
100
AcDbEntity
  8
AM_4
100
AcDbPolyline
 90
       12
 70
     0
 43
0.0
 10
-20.49540319093115
 20
-2.480810868397902
 10
-20.50445744722111
 20
-2.472239750265257
 10
-20.94305778760549
 20
-2.005941563358945
 10
-21.27176240060001
 20
-1.495750943171053
 10
-21.5033058180606
 20
-0.9344754738792882
 10
-21.61978795942153
 20
-0.384761262156168
 10
-21.63872078452294
 20
0.1769788963718018
 10
-21.56420649308926
 20
0.7044433838597893
 10
-21.40418492351399
 20
1.212313719630857
 10
-21.16178801380872
 20
1.68993387340444
 10
-20.84733555149543
 20
2.123284263915825
 10
-20.49803450359398
 20
2.478488641820321
  0
LWPOLYLINE
  5
F2
330
90
100
AcDbEntity
  8
AM_4
100
AcDbPolyline
 90
       23
 70
     0
 43
0.0
 10
-14.31061673182301
 20
-21.23136535795739
 10
-14.38631995982567
 20
-21.45113294827052
 10
-14.55216880699327
 20
-21.65188205273954
 10
-14.7969963402778
 20
-21.8260367580317
 10
-15.11361090859613
 20
-21.9762886456688
 10
-15.51662964739761
 20
-22.1081893921506
 10
-15.9769422088651
 20
-22.21296188785826
 10
-16.52016981000758
 20
-22.29585678812313
 10
-17.10001114571638
 20
-22.34986608225532
 10
-17.73308631147314
 20
-22.37643180500938
 10
-18.37272608920635
 20
-22.37278343286688
 10
-19.01415818856304
 20
-22.33763756080146
 10
-19.62587401150046
 20
-22.27010758097727
 10
-20.18477260175674
 20
-22.16942947583521
 10
-20.67799398311965
 20
-22.03406596119904
 10
-21.07148873663401
 20
-21.8702467217405
 10
-21.3724585346324
 20
-21.6741293619156
 10
-21.5554894151108
 20
-21.4647992233282
 10
-21.63903630977716
 20
-21.23408714037493
 10
-21.62194416948445
 20
-21.0043714169463
 10
-21.51505454084274
 20
-20.76838726843186
 10
-21.324519326748
 20
-20.53676393223932
 10
-21.16630558505143
 20
-20.3959470504049
  0
LINE
  5
F3
330
90
100
AcDbEntity
  8
AM_4
100
AcDbLine
 10
-25.466
 20
-23.35
 30
0.0
 11
-11.4665
 21
-23.35
 31
0.0
  0
LINE
  5
F4
330
90
100
AcDbEntity
  8
AM_4
100
AcDbLine
 10
-11.4665
 20
23.35
 30
0.0
 11
-25.466
 21
23.35
 31
0.0
  0
ARC
  5
F5
330
90
100
AcDbEntity
  8
AM_5
100
AcDbCircle
 10
-17.975
 20
-0.0000000000000016
 30
0.0
 40
4.000000000000003
100
AcDbArc
 50
345.0
 51
285.0
  0
ARC
  5
F6
330
90
100
AcDbEntity
  8
AM_5
100
AcDbCircle
 10
-18.4
 20
-0.0000000000000017
 30
0.0
 40
4.000000000000003
100
AcDbArc
 50
345.0
 51
285.0
  0
ENDBLK
  5
93
330
90
100
AcDbEntity
  8
0
100
AcDbBlockEnd
  0
BLOCK
  5
F9
330
F7
100
AcDbEntity
  8
0
100
AcDbBlockBegin
  2
3_405016_Metric_0_in_125913_2
 70
     2
 10
0.0
 20
0.0
 30
0.0
  3
3_405016_Metric_0_in_125913_2
  1

  0
ATTDEF
  5
FB
330
F7
100
AcDbEntity
  8
AM_6
100
AcDbText
 10
10.55625000000005
 20
-17.71490184921518
 30
0.0
 40
0.5
  1
405016 -Metric
100
AcDbAttributeDefinition
  3

  2
NN
 70
     8
280
     0
  0
ATTDEF
  5
FC
330
F7
100
AcDbEntity
  8
AM_6
100
AcDbText
 10
10.55625000000005
 20
-18.21490184921518
 30
0.0
 40
0.5
  1
Grease Fitting
100
AcDbAttributeDefinition
  3

  2
NT
 70
     8
280
     0
  0
ATTDEF
  5
FD
330
F7
100
AcDbEntity
  8
AM_6
100
AcDbText
 10
10.55625000000005
 20
-18.71490184921518
 30
0.0
 40
0.5
  1
405016-Metric
100
AcDbAttributeDefinition
  3

  2
NB
 70
     8
280
     0
  0
ATTDEF
  5
FE
330
F7
100
AcDbEntity
  8
AM_6
100
AcDbText
 10
10.55625000000005
 20
-19.21490184921518
 30
0.0
 40
0.5
  1
$MN.-Metric
100
AcDbAttributeDefinition
  3

  2
NBSYN
 70
     8
280
     0
  0
ATTDEF
  5
FF
330
F7
100
AcDbEntity
  8
AM_6
100
AcDbText
 10
10.55625000000005
 20
-19.71490184921518
 30
0.0
 40
0.5
  1
405016
100
AcDbAttributeDefinition
  3

  2
LINA
 70
     8
280
     0
  0
ATTDEF
  5
100
330
F7
100
AcDbEntity
  8
AM_6
100
AcDbText
 10
10.55625000000005
 20
-20.21490184921518
 30
0.0
 40
0.5
  1
405016
100
AcDbAttributeDefinition
  3

  2
MN
 70
     8
280
     0
  0
ATTDEF
  5
101
330
F7
100
AcDbEntity
  8
AM_6
100
AcDbText
 10
10.55625000000005
 20
-20.71490184921518
 30
0.0
 40
0.5
  1
7/16 HEX
100
AcDbAttributeDefinition
  3

  2
H
 70
     8
280
     0
  0
ATTDEF
  5
102
330
F7
100
AcDbEntity
  8
AM_6
100
AcDbText
 10
10.55625000000005
 20
-21.21490184921518
 30
0.0
 40
0.5
  1
9.728
100
AcDbAttributeDefinition
  3

  2
NDR
 70
     8
280
     0
  0
ATTDEF
  5
103
330
F7
100
AcDbEntity
  8
AM_6
100
AcDbText
 10
10.55625000000005
 20
-21.71490184921518
 30
0.0
 40
0.5
  1
8.560
100
AcDbAttributeDefinition
  3

  2
KDR
 70
     8
280
     0
  0
ATTDEF
  5
104
330
F7
100
AcDbEntity
  8
AM_6
100
AcDbText
 10
10.55625000000005
 20
-22.21490184921518
 30
0.0
 40
0.5
  1
4.0005
100
AcDbAttributeDefinition
  3

  2
BZE
 70
     8
280
     0
  0
ATTDEF
  5
105
330
F7
100
AcDbEntity
  8
AM_6
100
AcDbText
 10
10.55625000000005
 20
-22.71490184921518
 30
0.0
 40
0.5
  1
11.1125
100
AcDbAttributeDefinition
  3

  2
HEX
 70
     8
280
     0
  0
ATTDEF
  5
106
330
F7
100
AcDbEntity
  8
AM_6
100
AcDbText
 10
10.55625000000005
 20
-23.21490184921518
 30
0.0
 40
0.5
  1
7.143750
100
AcDbAttributeDefinition
  3

  2
HEX2
 70
     8
280
     0
  0
ATTDEF
  5
107
330
F7
100
AcDbEntity
  8
AM_6
100
AcDbText
 10
10.55625000000005
 20
-23.71490184921518
 30
0.0
 40
0.5
  1
baldor
100
AcDbAttributeDefinition
  3

  2
COMPANY
 70
     8
280
     0
  0
LWPOLYLINE
  5
108
330
F7
100
AcDbEntity
  8
AM_9
100
AcDbPolyline
 90
        5
 70
     0
 43
0.0
 10
-4.549376881905938
 20
-33.07716575011958
 10
-4.680053692952524
 20
-32.23722104716565
 10
-4.730040525586981
 20
-31.36453519314442
 10
-4.684077415975234
 20
-30.44541173564804
 10
-4.549376881905938
 20
-29.50529075011957
  0
LINE
  5
109
330
F7
100
AcDbEntity
  8
AM_9
100
AcDbLine
 10
-3.837282897828233
 20
-29.33926331106881
 30
0.0
 11
-4.549376881905938
 21
-29.50529075011957
 31
0.0
  0
LWPOLYLINE
  5
10A
330
F7
100
AcDbEntity
  8
AM_9
100
AcDbPolyline
 90
        5
 70
     0
 43
0.0
 10
-4.549376881905938
 20
-29.50529075011957
 10
-5.050422008373632
 20
-28.70708835050992
 10
-5.477080537076167
 20
-27.87674219793952
 10
-5.817773758536459
 20
-27.00065630374616
 10
-6.068998929608749
 20
-26.103094947145
  0
LINE
  5
10B
330
F7
100
AcDbEntity
  8
AM_9
100
AcDbLine
 10
-5.333905179049322
 20
-25.93170502447113
 30
0.0
 11
-6.068998929608749
 21
-26.103094947145
 31
0.0
  0
LINE
  5
10C
330
F7
100
AcDbEntity
  8
AM_9
100
AcDbLine
 10
-6.068998929608749
 20
-26.103094947145
 30
0.0
 11
-6.887292896806424
 21
-26.21610033531011
 31
0.0
  0
LWPOLYLINE
  5
10D
330
F7
100
AcDbEntity
  8
AM_9
100
AcDbPolyline
 90
        3
 70
     0
 43
0.0
 10
-7.147354260923541
 20
-26.24492744350231
 10
-7.395910919975461
 20
-26.26531207475421
 10
-7.588696252319891
 20
-26.27279169482685
  0
LWPOLYLINE
  5
10E
330
F7
100
AcDbEntity
  8
AM_9
100
AcDbPolyline
 90
        5
 70
     0
 43
0.0
 10
-6.068998929608749
 20
-33.246844947145
 10
-5.830160733401208
 20
-33.23615077826177
 10
-5.50385277445766
 20
-33.20578491330026
 10
-5.070861224918889
 20
-33.15179039060552
 10
-4.549376881905938
 20
-33.07716575011958
  0
LINE
  5
10F
330
F7
100
AcDbEntity
  8
AM_9
100
AcDbLine
 10
-3.837282897828233
 20
-32.9111383110688
 30
0.0
 11
-4.549376881905938
 21
-33.07716575011958
 31
0.0
  0
ELLIPSE
  5
110
330
F7
100
AcDbEntity
  8
AM_9
100
AcDbEllipse
 10
-11.90625
 20
-31.01640353648
 30
0.0
 11
-0.5968279661269398
 21
2.559803407425751
 31
0.0
210
0.0
220
0.0
230
1.0
 40
0.3659981507706664
 41
2.957156468664756
 42
6.467621492104628
  0
LINE
  5
111
330
F7
100
AcDbEntity
  8
AM_9
100
AcDbLine
 10
-11.4665
 20
-33.57899751638475
 30
0.0
 11
-9.587647916362409
 21
-34.04342881516681
 31
0.0
  0
LINE
  5
112
330
F7
100
AcDbEntity
  8
AM_9
100
AcDbLine
 10
-11.16548248281835
 20
-27.27607452079886
 30
0.0
 11
-11.4665
 21
-27.52985205053633
 31
0.0
  0
ELLIPSE
  5
113
330
F7
100
AcDbEntity
  8
AM_9
100
AcDbEllipse
 10
-10.1455301732858
 20
-30.60588496720217
 30
0.0
 11
-0.8025283188439062
 21
3.442055067920706
 31
0.0
210
0.0
220
0.0
230
1.0
 40
0.3659981507768812
 41
1.489250501698736
 42
4.145181672196555
  0
LWPOLYLINE
  5
114
330
F7
100
AcDbEntity
  8
AM_9
100
AcDbPolyline
 90
        3
 70
     0
 43
0.0
 10
-6.830431020205952
 20
-26.09599925250315
 10
-6.382400080731244
 20
-26.02866661256951
 10
-5.996343371387015
 20
-25.97656484729697
  0
LWPOLYLINE
  5
115
330
F7
100
AcDbEntity
  8
AM_9
100
AcDbPolyline
 90
       11
 70
     0
 43
0.0
 10
-9.611009673255829
 20
-27.3860276965717
 10
-9.617360652423773
 20
-27.38054473766759
 10
-9.798351343383503
 20
-27.24316095169902
 10
-9.978182418197678
 20
-27.14107017966688
 10
-10.15715162004788
 20
-27.0713942120956
 10
-10.33622867306555
 20
-27.03207767610797
 10
-10.5149151887494
 20
-27.02263382713272
 10
-10.70743441883588
 20
-27.04669959796003
 10
-10.88614856047482
 20
-27.10376703916093
 10
-11.04825193995001
 20
-27.18941891321519
 10
-11.17331922867466
 20
-27.28274060697817
  0
LWPOLYLINE
  5
116
330
F7
100
AcDbEntity
  8
AM_9
100
AcDbPolyline
 90
        3
 70
     0
 43
0.0
 10
-8.31989607417028
 20
-33.42020431051641
 10
-8.244159085816602
 20
-33.26221011550847
 10
-8.232275761015758
 20
-33.23358113495242
  0
LWPOLYLINE
  5
117
330
F7
100
AcDbEntity
  8
AM_9
100
AcDbPolyline
 90
       11
 70
     0
 43
0.0
 10
-9.604587982185395
 20
-34.03910696962277
 10
-9.596468875887577
 20
-34.04121193124447
 10
-9.41737514415806
 20
-34.07201484704468
 10
-9.239129235703105
 20
-34.07292248674683
 10
-9.049957329995102
 20
-34.04000753905171
 10
-8.875261666930333
 20
-33.97518218366076
 10
-8.717649646806386
 20
-33.88287253013943
 10
-8.577072854961397
 20
-33.76608350357184
 10
-8.452178355788941
 20
-33.62542005536151
 10
-8.34144278100452
 20
-33.45884172974959
 10
-8.31989607417028
 20
-33.42020431051641
  0
ELLIPSE
  5
118
330
F7
100
AcDbEntity
  8
AM_9
100
AcDbEllipse
 10
-10.14553017344002
 20
-30.60588496698488
 30
0.0
 11
-0.8025283190312111
 21
3.442055068134852
 31
0.0
210
0.0
220
0.0
230
1.0
 40
0.3659981507706643
 41
0.188280836198512
 42
0.5179275353666335
  0
LWPOLYLINE
  5
119
330
F7
100
AcDbEntity
  8
AM_9
100
AcDbPolyline
 90
        3
 70
     0
 43
0.0
 10
-2.778125000000002
 20
-22.36499999999999
 10
-1.389062500000002
 20
-21.64007281403006
 10
-0.0000000000000021
 20
-20.86077898385299
  0
LWPOLYLINE
  5
11A
330
F7
100
AcDbEntity
  8
AM_9
100
AcDbPolyline
 90
        3
 70
     0
 43
0.0
 10
-0.0000000000000021
 20
-20.86077898385299
 10
1.382816900963396
 20
-21.63668148362152
 10
2.778124999999996
 20
-22.36499999999999
  0
LWPOLYLINE
  5
11B
330
F7
100
AcDbEntity
  8
AM_9
100
AcDbPolyline
 90
        6
 70
     0
 43
0.0
 10
-3.837282897828233
 20
-32.9111383110688
 10
-3.97312485653969
 20
-32.90971497347935
 10
-4.165448524257249
 20
-32.92086209670618
 10
-4.429920560679956
 20
-32.94781574339292
 10
-4.766969289547204
 20
-32.99142327771371
 10
-5.333905179049322
 20
-33.07545502447113
  0
LWPOLYLINE
  5
11C
330
F7
100
AcDbEntity
  8
AM_9
100
AcDbPolyline
 90
        4
 70
     0
 43
0.0
 10
-3.837282897828233
 20
-29.33926331106881
 10
-3.705296695971726
 20
-29.94716981401241
 10
-3.624930539193418
 20
-30.57852718757702
 10
-3.605746149316372
 20
-31.0713429823555
  0
LINE
  5
11D
330
F7
100
AcDbEntity
  8
AM_9
100
AcDbLine
 10
-4.532426308985704
 20
-27.20363183833434
 30
0.0
 11
-4.485106171058626
 21
-27.29782873077597
 31
0.0
  0
LWPOLYLINE
  5
11E
330
F7
100
AcDbEntity
  8
AM_9
100
AcDbPolyline
 90
        3
 70
     0
 43
0.0
 10
-5.333905179049323
 20
-25.93170502447113
 10
-4.936675458173815
 20
-26.50501849892114
 10
-4.739912851845695
 20
-26.82517171519132
  0
LWPOLYLINE
  5
11F
330
F7
100
AcDbEntity
  8
AM_9
100
AcDbPolyline
 90
        4
 70
     0
 43
0.0
 10
-5.736282007269861
 20
-25.94773773910476
 10
-5.560509266840904
 20
-25.93396339412863
 10
-5.432128708591389
 20
-25.92940516129987
 10
-5.333905179049322
 20
-25.93170502447113
  0
LINE
  5
120
330
F7
100
AcDbEntity
  8
AM_9
100
AcDbLine
 10
-4.477259168340677
 20
-27.3137418757499
 30
0.0
 11
-4.485689043732695
 21
-27.29664667849584
 31
0.0
  0
LINE
  5
121
330
F7
100
AcDbEntity
  8
AM_9
100
AcDbLine
 10
-3.605746148079324
 20
-31.0727681062321
 30
0.0
 11
-3.605746148079324
 21
-31.05167328227922
 31
0.0
  0
LWPOLYLINE
  5
122
330
F7
100
AcDbEntity
  8
AM_9
100
AcDbPolyline
 90
        4
 70
     0
 43
0.0
 10
-3.607609831116172
 20
-31.22617047312889
 10
-3.608061141866098
 20
-31.24398433551977
 10
-3.660719790057629
 20
-31.93052124034201
 10
-3.837282897828232
 20
-32.9111383110688
  0
LINE
  5
123
330
F7
100
AcDbEntity
  8
AM_9
100
AcDbLine
 10
-3.605746149316372
 20
-31.0713429823555
 30
0.0
 11
-3.607609831116172
 21
-31.22617047312889
 31
0.0
  0
LWPOLYLINE
  5
124
330
F7
100
AcDbEntity
  8
AM_9
100
AcDbPolyline
 90
        3
 70
     0
 43
0.0
 10
-4.279595738453243
 20
-27.75535408311565
 10
-4.060772684155617
 20
-28.37892471870115
 10
-3.837282897828232
 20
-29.33926331106881
  0
LINE
  5
125
330
F7
100
AcDbEntity
  8
AM_9
100
AcDbLine
 10
-4.485106171058626
 20
-27.29782873077597
 30
0.0
 11
-4.369165662915798
 21
-27.54489610432913
 31
0.0
  0
ELLIPSE
  5
126
330
F7
100
AcDbEntity
  8
AM_9
100
AcDbEllipse
 10
-5.115285751734364
 20
-29.43306421886845
 30
0.0
 11
-0.8110435929053129
 21
3.478577195640761
 31
0.0
210
0.0
220
0.0
230
1.0
 40
0.3659981507706658
 41
2.150416404658199
 42
6.139946939636904
  0
LWPOLYLINE
  5
127
330
F7
100
AcDbEntity
  8
AM_9
100
AcDbPolyline
 90
        3
 70
     0
 43
0.0
 10
-7.760864787992071
 20
-28.53345337203564
 10
-7.698114323064441
 20
-29.19564052161344
 10
-7.588696252319891
 20
-29.84466669482685
  0
LWPOLYLINE
  5
128
330
F7
100
AcDbEntity
  8
AM_9
100
AcDbPolyline
 90
        4
 70
     0
 43
0.0
 10
-6.609853898455277
 20
-27.39592592808983
 10
-6.646959991776584
 20
-27.02364633553604
 10
-6.724401268817783
 20
-26.55485116086409
 10
-6.830431020205952
 20
-26.09599925250315
  0
LINE
  5
129
330
F7
100
AcDbEntity
  8
AM_9
100
AcDbLine
 10
-6.830431020205952
 20
-26.09599925250315
 30
0.0
 11
-7.588696252319891
 21
-26.27279169482685
 31
0.0
  0
LWPOLYLINE
  5
12A
330
F7
100
AcDbEntity
  8
AM_9
100
AcDbPolyline
 90
        3
 70
     0
 43
0.0
 10
-7.588696252319891
 20
-26.27279169482685
 10
-7.697739397127514
 20
-26.96987070916351
 10
-7.760864787992071
 20
-27.66428852429533
  0
LINE
  5
12B
330
F7
100
AcDbEntity
  8
AM_9
100
AcDbLine
 10
-6.887292896806424
 20
-26.21610033531011
 30
0.0
 11
-7.147354260923541
 21
-26.24492744350231
 31
0.0
  0
ELLIPSE
  5
12C
330
F7
100
AcDbEntity
  8
AM_9
100
AcDbEllipse
 10
-6.266296641270929
 20
-29.70142681507381
 30
0.0
 11
-0.8110435929053204
 21
3.478577195640792
 31
0.0
210
0.0
220
0.0
230
1.0
 40
0.365998150770667
 41
2.249276850671166
 42
6.139946939636901
  0
ELLIPSE
  5
12D
330
F7
100
AcDbEntity
  8
AM_9
100
AcDbEllipse
 10
-6.266296641270952
 20
-29.7014268150738
 30
0.0
 11
-0.8110435929053114
 21
3.478577195640764
 31
0.0
210
0.0
220
0.0
230
1.0
 40
0.3659981507706661
 41
1.144545279139728
 42
1.951156734850516
  0
LWPOLYLINE
  5
12E
330
F7
100
AcDbEntity
  8
AM_9
100
AcDbPolyline
 90
        3
 70
     0
 43
0.0
 10
-7.760864787992071
 20
-27.66428852429533
 10
-7.784509761460652
 20
-28.10209309386889
 10
-7.760864787992071
 20
-28.53345337203564
  0
ELLIPSE
  5
12F
330
F7
100
AcDbEntity
  8
AM_9
100
AcDbEllipse
 10
-6.266296641270809
 20
-29.70142681507391
 30
0.0
 11
-0.8110435929053962
 21
3.478577195640974
 31
0.0
210
0.0
220
0.0
230
1.0
 40
0.365998150770677
 41
0.05602130226504
 42
0.862632757975766
  0
LWPOLYLINE
  5
130
330
F7
100
AcDbEntity
  8
AM_9
100
AcDbPolyline
 90
       17
 70
     0
 43
0.0
 10
-8.255128209247676
 20
-33.28759500754274
 10
-8.2443105153896
 20
-33.2661467615106
 10
-8.212689369459735
 20
-33.21406346961388
 10
-8.155260284282871
 20
-33.13665589415479
 10
-8.066671332278553
 20
-33.03992627104387
 10
-7.942144549993579
 20
-32.93178130914108
 10
-7.779423768333444
 20
-32.82288661213455
 10
-7.581829984848183
 20
-32.72634147202882
 10
-7.360145563189678
 20
-32.65473138225811
 10
-7.130347323865214
 20
-32.61572377697991
 10
-6.909510302968005
 20
-32.60992239099618
 10
-6.712234882517472
 20
-32.63153295007763
 10
-6.548089423607461
 20
-32.67082051826696
 10
-6.421268049522055
 20
-32.71701636981813
 10
-6.330979757070017
 20
-32.76082089597092
 10
-6.273775639402413
 20
-32.79531398373995
 10
-6.245720513244382
 20
-32.81543940117897
  0
LWPOLYLINE
  5
131
330
F7
100
AcDbEntity
  8
AM_9
100
AcDbPolyline
 90
        4
 70
     0
 43
0.0
 10
-6.241414701572782
 20
-32.81892780726908
 10
-6.243360303924247
 20
-32.81719437539611
 10
-6.263745304124659
 20
-32.79721079947999
 10
-6.275967250393677
 20
-32.78431210653131
  0
LWPOLYLINE
  5
132
330
F7
100
AcDbEntity
  8
AM_9
100
AcDbPolyline
 90
        3
 70
     0
 43
0.0
 10
-7.637931136792298
 20
-26.93906514335035
 10
-7.625307414389324
 20
-26.90093190565412
 10
-7.622744426414251
 20
-26.89438549841288
  0
LWPOLYLINE
  5
133
330
F7
100
AcDbEntity
  8
AM_9
100
AcDbPolyline
 90
       18
 70
     0
 43
0.0
 10
-7.623861628904933
 20
-26.89686592973617
 10
-7.638888544434304
 20
-26.92562095011506
 10
-7.675636026210285
 20
-26.9836182610479
 10
-7.739347254277806
 20
-27.0657602201221
 10
-7.835344187536439
 20
-27.1657105727584
 10
-7.968074830715613
 20
-27.27502403602259
 10
-8.138861922097343
 20
-27.3824069016863
 10
-8.34281964428514
 20
-27.47452444463594
 10
-8.567696529026938
 20
-27.53950334934289
 10
-8.797027705360794
 20
-27.57114659934633
 10
-9.013810651058627
 20
-27.57034941680537
 10
-9.204566705924439
 20
-27.54401334080325
 10
-9.360805091803666
 20
-27.50233999879243
 10
-9.479530346432236
 20
-27.45595418422457
 10
-9.562333635458478
 20
-27.41365314633121
 10
-9.612913557869865
 20
-27.38188451854993
 10
-9.635144724979062
 20
-27.36541433199275
 10
-9.636294081869787
 20
-27.36447052287672
  0
LINE
  5
134
330
F7
100
AcDbEntity
  8
AM_9
100
AcDbLine
 10
-4.498867597488413
 20
-26.42040698714611
 30
0.0
 11
-5.749702073295883
 21
-26.71204383472276
 31
0.0
  0
LINE
  5
135
330
F7
100
AcDbEntity
  8
AM_9
100
AcDbLine
 10
-4.48086943017289
 20
-32.15408460301416
 30
0.0
 11
-3.412724916061097
 21
-31.90504261954086
 31
0.0
  0
LWPOLYLINE
  5
136
330
F7
100
AcDbEntity
  8
AM_9
100
AcDbPolyline
 90
       20
 70
     0
 43
0.0
 10
-3.412894494842747
 20
-31.9050821492517
 10
-3.284291520882656
 20
-31.83897056608313
 10
-3.167739146394209
 20
-31.69739677942888
 10
-3.070557447853724
 20
-31.47844987254282
 10
-3.001126812430813
 20
-31.20117718386942
 10
-2.957268343506166
 20
-30.8571398014376
 10
-2.942714645652547
 20
-30.47598889147063
 10
-2.956956816676947
 20
-30.04617048344425
 10
-2.998748603033095
 20
-29.60411945689948
 10
-3.069253891791884
 20
-29.13682779519101
 10
-3.162573084305299
 20
-28.68318536004807
 10
-3.28128033679263
 20
-28.23043103280826
 10
-3.415613668153261
 20
-27.81573983368014
 10
-3.569173128090978
 20
-27.42795336822162
 10
-3.729407788863488
 20
-27.09881015362551
 10
-3.900563582124102
 20
-26.81968684955892
 10
-4.068570560479345
 20
-26.61363114871167
 10
-4.237973131810884
 20
-26.47524012688494
 10
-4.397035613753722
 20
-26.41581586980424
 10
-4.49865979044059
 20
-26.42035854774171
  0
LINE
  5
137
330
F7
100
AcDbEntity
  8
AM_9
100
AcDbLine
 10
-4.49865979044059
 20
-26.42035854774171
 30
0.0
 11
-4.547549295795374
 21
-26.43672297245753
 31
0.0
  0
LWPOLYLINE
  5
138
330
F7
100
AcDbEntity
  8
AM_9
100
AcDbPolyline
 90
        3
 70
     0
 43
0.0
 10
-6.830431020205952
 20
-29.66787425250315
 10
-6.691143549353729
 20
-28.96623035747345
 10
-6.609853898455523
 20
-28.26509077583033
  0
LWPOLYLINE
  5
139
330
F7
100
AcDbEntity
  8
AM_9
100
AcDbPolyline
 90
        5
 70
     0
 43
0.0
 10
-4.547549295794521
 20
-30.35827702754265
 10
-4.404185730898369
 20
-30.7523333905603
 10
-4.243653641815981
 20
-31.11169258101901
 10
-4.079360450144663
 20
-31.40628096276114
 10
-3.926377318106566
 20
-31.62084532071621
  0
ARC
  5
13A
330
F7
100
AcDbEntity
  8
AM_9
100
AcDbCircle
 10
-0.0000000000000009
 20
-28.39749999999999
 30
0.0
 40
5.079999999999996
100
AcDbArc
 50
219.3518953946591
 51
0.0000008537736463
  0
LWPOLYLINE
  5
13B
330
F7
100
AcDbEntity
  8
AM_9
100
AcDbPolyline
 90
        6
 70
     0
 43
0.0
 10
-3.926377318106566
 20
-31.62084532071621
 10
-3.906600444275936
 20
-31.64450398452264
 10
-3.73973362729044
 20
-31.8064851037963
 10
-3.574110867010546
 20
-31.89664742480979
 10
-3.423743718108896
 20
-31.90738010504424
 10
-3.412894494842747
 20
-31.9050821492517
  0
LINE
  5
13C
330
F7
100
AcDbEntity
  8
AM_9
100
AcDbLine
 10
-5.996343371387015
 20
-25.97656484729697
 30
0.0
 11
-5.736282007269861
 21
-25.94773773910476
 31
0.0
  0
ELLIPSE
  5
13D
330
F7
100
AcDbEntity
  8
AM_9
100
AcDbEllipse
 10
-5.115285751734348
 20
-29.43306421886859
 30
0.0
 11
-0.8110435929053746
 21
3.478577195640938
 31
0.0
210
0.0
220
0.0
230
1.0
 40
0.3659981507705669
 41
0.056021302265016
 42
0.8626327579757173
  0
LINE
  5
13E
330
F7
100
AcDbEntity
  8
AM_9
100
AcDbLine
 10
-6.609853898455523
 20
-28.26509077583033
 30
0.0
 11
-6.609853898455277
 21
-27.39592592808983
 31
0.0
  0
ELLIPSE
  5
13F
330
F7
100
AcDbEntity
  8
AM_9
100
AcDbEllipse
 10
-5.11528575173435
 20
-29.43306421886845
 30
0.0
 11
-0.8110435929053346
 21
3.478577195640874
 31
0.0
210
0.0
220
0.0
230
1.0
 40
0.3659981507706693
 41
1.14454527913975
 42
1.951156734850491
  0
LWPOLYLINE
  5
140
330
F7
100
AcDbEntity
  8
AM_9
100
AcDbPolyline
 90
        3
 70
     0
 43
0.0
 10
-5.333905179049322
 20
-33.07545502447113
 10
-5.495237602967162
 20
-32.33041542538192
 10
-5.736282007269852
 20
-31.58665993102581
  0
LINE
  5
141
330
F7
100
AcDbEntity
  8
AM_9
100
AcDbLine
 10
-5.736282007269852
 20
-31.58665993102581
 30
0.0
 11
-5.996343371387009
 21
-31.00012942772721
 31
0.0
  0
LWPOLYLINE
  5
142
330
F7
100
AcDbEntity
  8
AM_9
100
AcDbPolyline
 90
        3
 70
     0
 43
0.0
 10
-5.996343371387009
 20
-31.00012942772721
 10
-6.253713524124906
 20
-30.52910892482294
 10
-6.830431020205952
 20
-29.66787425250315
  0
LINE
  5
143
330
F7
100
AcDbEntity
  8
AM_9
100
AcDbLine
 10
-6.830431020205952
 20
-29.66787425250315
 30
0.0
 11
-7.588696252319891
 21
-29.84466669482685
 31
0.0
  0
LWPOLYLINE
  5
144
330
F7
100
AcDbEntity
  8
AM_9
100
AcDbPolyline
 90
        3
 70
     0
 43
0.0
 10
-7.588696252319891
 20
-29.84466669482685
 10
-7.397029361446426
 20
-30.55843506077802
 10
-7.147354260923541
 20
-31.26849202393259
  0
LINE
  5
145
330
F7
100
AcDbEntity
  8
AM_9
100
AcDbLine
 10
-7.147354260923541
 20
-31.26849202393259
 30
0.0
 11
-6.887292896806424
 21
-31.85502252723111
 31
0.0
  0
LWPOLYLINE
  5
146
330
F7
100
AcDbEntity
  8
AM_9
100
AcDbPolyline
 90
        3
 70
     0
 43
0.0
 10
-6.887292896806424
 20
-31.85502252723111
 10
-6.50701144007841
 20
-32.5587295930775
 10
-6.068998929608749
 20
-33.246844947145
  0
LINE
  5
147
330
F7
100
AcDbEntity
  8
AM_9
100
AcDbLine
 10
-5.333905179049322
 20
-33.07545502447113
 30
0.0
 11
-6.068998929608749
 21
-33.246844947145
 31
0.0
  0
LWPOLYLINE
  5
148
330
F7
100
AcDbEntity
  8
AM_9
100
AcDbPolyline
 90
        3
 70
     0
 43
0.0
 10
-0.000000000000002
 20
-19.821096016147
 10
-1.382816900963402
 20
-20.42801041734187
 10
-2.778125000000002
 20
-21.095
  0
LWPOLYLINE
  5
149
330
F7
100
AcDbEntity
  8
AM_9
100
AcDbPolyline
 90
        3
 70
     0
 43
0.0
 10
2.778124999999998
 20
-21.095
 10
1.389062499999997
 20
-20.43086468596994
 10
-0.000000000000002
 20
-19.821096016147
  0
LWPOLYLINE
  5
14A
330
F7
100
AcDbEntity
  8
AM_9
100
AcDbPolyline
 90
        3
 70
     0
 43
0.0
 10
2.778124999999996
 20
-22.36499999999999
 10
4.167187499999997
 20
-23.02913531403005
 10
5.556249999999999
 20
-23.63890398385299
  0
LWPOLYLINE
  5
14B
330
F7
100
AcDbEntity
  8
AM_9
100
AcDbPolyline
 90
        3
 70
     0
 43
0.0
 10
-5.556250000000003
 20
-23.63890398385299
 10
-4.173433099036603
 20
-23.03198958265812
 10
-2.778125000000002
 20
-22.36499999999999
  0
LINE
  5
14C
330
F7
100
AcDbEntity
  8
AM_9
100
AcDbLine
 10
-0.0000000000000021
 20
-20.86077898385299
 30
0.0
 11
-0.000000000000002
 21
-19.821096016147
 31
0.0
  0
LWPOLYLINE
  5
14D
330
F7
100
AcDbEntity
  8
AM_9
100
AcDbPolyline
 90
        3
 70
     0
 43
0.0
 10
5.556249999999999
 20
-22.599221016147
 10
4.173433099036598
 20
-21.82331851637847
 10
2.778124999999998
 20
-21.095
  0
LWPOLYLINE
  5
14E
330
F7
100
AcDbEntity
  8
AM_9
100
AcDbPolyline
 90
        3
 70
     0
 43
0.0
 10
-2.778125000000002
 20
-21.095
 10
-4.167187500000002
 20
-21.81992718596994
 10
-5.556250000000003
 20
-22.599221016147
  0
LWPOLYLINE
  5
14F
330
F7
100
AcDbEntity
  8
AM_9
100
AcDbPolyline
 90
        7
 70
     0
 43
0.0
 10
-4.547549295794531
 20
-30.35827702754266
 10
-4.680277139818006
 20
-29.95201089390837
 10
-4.804994146739737
 20
-29.54416923971288
 10
-4.917691338485697
 20
-29.11829675767451
 10
-5.008516140987743
 20
-28.67511714162145
 10
-5.065126856945113
 20
-28.23132388347286
 10
-5.079999999236803
 20
-27.88334199862463
  0
LINE
  5
150
330
F7
100
AcDbEntity
  8
AM_9
100
AcDbLine
 10
-5.080000000000002
 20
-26.5321875
 30
0.0
 11
-5.080000000000002
 21
-27.88561088939235
 31
0.0
  0
LINE
  5
151
330
F7
100
AcDbEntity
  8
AM_9
100
AcDbLine
 10
5.079999999999996
 20
-28.3975
 30
0.0
 11
5.079999999999997
 21
-26.5321875
 31
0.0
  0
ELLIPSE
  5
152
330
F7
100
AcDbEntity
  8
AM_9
100
AcDbEllipse
 10
0.0000000000000018
 20
-28.39750000000001
 30
0.0
 11
-5.079999999999989
 21
6.221205739668541E-16
 31
0.0
210
0.0
220
0.0
230
1.0
 40
0.8660254037844388
 41
0.4619460205669643
 42
5.821239286612617
  0
LWPOLYLINE
  5
153
330
F7
100
AcDbEntity
  8
AM_9
100
AcDbPolyline
 90
        8
 70
     0
 43
0.0
 10
-5.079999999236803
 20
-27.88334199862463
 10
-5.079458245572025
 20
-27.81958631698212
 10
-5.050335633392995
 20
-27.43171697599753
 10
-4.98258955216002
 20
-27.10331484601791
 10
-4.878563523460395
 20
-26.82259458609682
 10
-4.75220799763814
 20
-26.61256082294766
 10
-4.610115106939385
 20
-26.47226857346145
 10
-4.54754929579453
 20
-26.43672297245734
  0
LINE
  5
154
330
F7
100
AcDbEntity
  8
AM_9
100
AcDbLine
 10
-5.556250000000004
 20
-29.19515398385299
 30
0.0
 11
-5.556250000000003
 21
-22.599221016147
 31
0.0
  0
LWPOLYLINE
  5
155
330
F7
100
AcDbEntity
  8
AM_9
100
AcDbPolyline
 90
        3
 70
     0
 43
0.0
 10
-2.778125000000002
 20
-30.69937499999999
 10
-4.167187500000002
 20
-29.97444781403006
 10
-5.556250000000004
 20
-29.19515398385299
  0
LWPOLYLINE
  5
156
330
F7
100
AcDbEntity
  8
AM_9
100
AcDbPolyline
 90
        3
 70
     0
 43
0.0
 10
-0.0000000000000032
 20
-31.97327898385299
 10
-1.382816900963402
 20
-31.36636458265813
 10
-2.778125000000002
 20
-30.69937499999999
  0
LWPOLYLINE
  5
157
330
F7
100
AcDbEntity
  8
AM_9
100
AcDbPolyline
 90
        3
 70
     0
 43
0.0
 10
-2.778125000000003
 20
-29.429375
 10
-1.389062500000003
 20
-30.15430218596994
 10
-0.0000000000000034
 20
-30.933596016147
  0
LWPOLYLINE
  5
158
330
F7
100
AcDbEntity
  8
AM_9
100
AcDbPolyline
 90
        3
 70
     0
 43
0.0
 10
-5.556250000000004
 20
-28.155471016147
 10
-4.173433099036603
 20
-28.76238541734187
 10
-2.778125000000003
 20
-29.429375
  0
LINE
  5
159
330
F7
100
AcDbEntity
  8
AM_9
100
AcDbLine
 10
-0.0000000000000032
 20
-31.97327898385299
 30
0.0
 11
-0.0000000000000034
 21
-30.933596016147
 31
0.0
  0
LWPOLYLINE
  5
15A
330
F7
100
AcDbEntity
  8
AM_9
100
AcDbPolyline
 90
        3
 70
     0
 43
0.0
 10
2.778124999999996
 20
-30.699375
 10
1.389062499999996
 20
-31.36351031403006
 10
-0.0000000000000032
 20
-31.97327898385299
  0
LWPOLYLINE
  5
15B
330
F7
100
AcDbEntity
  8
AM_9
100
AcDbPolyline
 90
        3
 70
     0
 43
0.0
 10
5.556249999999998
 20
-29.19515398385299
 10
4.173433099036598
 20
-29.97105648362152
 10
2.778124999999996
 20
-30.699375
  0
LINE
  5
15C
330
F7
100
AcDbEntity
  8
AM_9
100
AcDbLine
 10
5.556249999999998
 20
-29.19515398385299
 30
0.0
 11
5.556249999999999
 21
-22.599221016147
 31
0.0
  0
LWPOLYLINE
  5
15D
330
F7
100
AcDbEntity
  8
AM_9
100
AcDbPolyline
 90
        3
 70
     0
 43
0.0
 10
2.778124999999997
 20
-29.429375
 10
4.167187499999997
 20
-28.76523968596994
 10
5.556249999999998
 20
-28.155471016147
  0
LWPOLYLINE
  5
15E
330
F7
100
AcDbEntity
  8
AM_9
100
AcDbPolyline
 90
        3
 70
     0
 43
0.0
 10
-0.0000000000000034
 20
-30.933596016147
 10
1.382816900963396
 20
-30.15769351637847
 10
2.778124999999997
 20
-29.429375
  0
LINE
  5
15F
330
F7
100
AcDbEntity
  8
AM_9
100
AcDbLine
 10
-5.080000000000002
 20
-24.27
 30
0.0
 11
-5.080000000000002
 21
-25.2621875
 31
0.0
  0
LINE
  5
160
330
F7
100
AcDbEntity
  8
AM_9
100
AcDbLine
 10
5.079999999999997
 20
-25.2621875
 30
0.0
 11
5.079999999999997
 21
-24.27
 31
0.0
  0
LINE
  5
161
330
F7
100
AcDbEntity
  8
AM_9
100
AcDbLine
 10
-4.702588083318102
 20
-21.57267350379018
 30
0.0
 11
-4.857153757791754
 21
-24.04197524036601
 31
0.0
  0
LINE
  5
162
330
F7
100
AcDbEntity
  8
AM_9
100
AcDbLine
 10
4.857153757791749
 20
-24.04197524036601
 30
0.0
 11
4.702588083318097
 21
-21.57267350379018
 31
0.0
  0
ELLIPSE
  5
163
330
F7
100
AcDbEntity
  8
AM_9
100
AcDbEllipse
 10
-0.0000000000000023
 20
-21.491875
 30
0.0
 11
4.106358510281482
 21
0.0
 31
0.0
210
0.0
220
0.0
230
1.0
 40
0.8660254037844384
 41
0.0
 42
6.283185307179586
  0
ELLIPSE
  5
164
330
F7
100
AcDbEntity
  8
AM_9
100
AcDbEllipse
 10
-9.474104895899874
 20
-30.44933959258695
 30
0.0
 11
-0.7681852811307888
 21
3.294757303237123
 31
0.0
210
0.0
220
0.0
230
1.0
 40
0.3659981507706671
 41
0.0
 42
6.283185307179586
  0
ELLIPSE
  5
165
330
F7
100
AcDbEntity
  8
AM_9
100
AcDbEllipse
 10
-5.115285751734382
 20
-29.43306421886846
 30
0.0
 11
-0.634416321561498
 21
2.721020384145707
 31
0.0
210
0.0
220
0.0
230
1.0
 40
0.3659981507706669
 41
0.0
 42
6.283185307179586
  0
ELLIPSE
  5
166
330
F7
100
AcDbEntity
  8
AM_9
100
AcDbEllipse
 10
0.0000000000000107
 20
-26.53218749999998
 30
0.0
 11
-5.080000000000012
 21
6.221205739668568E-16
 31
0.0
210
0.0
220
0.0
230
1.0
 40
0.8660254037844398
 41
0.0
 42
6.283185307179586
  0
ELLIPSE
  5
167
330
F7
100
AcDbEntity
  8
AM_9
100
AcDbEllipse
 10
-0.0000000000000007
 20
-26.53218749999994
 30
0.0
 11
-5.556250000000048
 21
6.804443777762540E-16
 31
0.0
210
0.0
220
0.0
230
1.0
 40
0.86602540378444
 41
0.0
 42
6.283185307179586
  0
ELLIPSE
  5
168
330
F7
100
AcDbEntity
  8
AM_9
100
AcDbEllipse
 10
-0.0000000000000027
 20
-25.26218749999997
 30
0.0
 11
-5.556250000000008
 21
6.804443777762491E-16
 31
0.0
210
0.0
220
0.0
230
1.0
 40
0.8660254037844418
 41
0.0
 42
6.283185307179586
  0
ELLIPSE
  5
169
330
F7
100
AcDbEntity
  8
AM_9
100
AcDbEllipse
 10
0.0
 20
-25.26218749999999
 30
0.0
 11
-5.080000000000002
 21
6.221205739668556E-16
 31
0.0
210
0.0
220
0.0
230
1.0
 40
0.8660254037844394
 41
0.0
 42
6.283185307179586
  0
ELLIPSE
  5
16A
330
F7
100
AcDbEntity
  8
AM_9
100
AcDbEllipse
 10
0.0000000000000098
 20
-24.26999999999998
 30
0.0
 11
-5.080000000000013
 21
6.221205739668570E-16
 31
0.0
210
0.0
220
0.0
230
1.0
 40
0.8660254037844396
 41
0.0
 42
6.283185307179586
  0
ELLIPSE
  5
16B
330
F7
100
AcDbEntity
  8
AM_9
100
AcDbEllipse
 10
0.0000000000000018
 20
-24.26999999999999
 30
0.0
 11
-4.86428511515366
 21
5.957031196413044E-16
 31
0.0
210
0.0
220
0.0
230
1.0
 40
0.8660254037844385
 41
0.0
 42
6.283185307179586
  0
ELLIPSE
  5
16C
330
F7
100
AcDbEntity
  8
AM_9
100
AcDbEllipse
 10
-0.0000000000000022
 20
-21.79344199719767
 30
0.0
 11
-4.709492504676831
 21
5.767464921460932E-16
 31
0.0
210
0.0
220
0.0
230
1.0
 40
0.8660254037844282
 41
0.0
 42
6.283185307179586
  0
LINE
  5
16D
330
F7
100
AcDbEntity
  8
AM_4
100
AcDbLine
 10
-11.49136154692728
 20
-33.57285201901978
 30
0.0
 11
-11.4665
 21
-33.57899751638475
 31
0.0
  0
LINE
  5
16E
330
F7
100
AcDbEntity
  8
AM_4
100
AcDbLine
 10
-11.4665
 20
-27.52985205053633
 30
0.0
 11
-12.66477284326564
 21
-28.54007472781638
 31
0.0
  0
ELLIPSE
  5
16F
330
F7
100
AcDbEntity
  8
AM_4
100
AcDbEllipse
 10
-11.90625000000001
 20
-31.01640353647998
 30
0.0
 11
-0.5968279661269472
 21
2.559803407425765
 31
0.0
210
0.0
220
0.0
230
1.0
 40
0.3659981507706701
 41
0.184436184925036
 42
2.957156468664758
  0
ELLIPSE
  5
170
330
F7
100
AcDbEntity
  8
AM_4
100
AcDbEllipse
 10
-10.14553017343998
 20
-30.60588496698486
 30
0.0
 11
-0.8025283190312538
 21
3.442055068134841
 31
0.0
210
0.0
220
0.0
230
1.0
 40
0.3659981507706681
 41
0.5179275353666304
 42
1.489250501748862
  0
ENDBLK
  5
FA
330
F7
100
AcDbEntity
  8
0
100
AcDbBlockEnd
  0
BLOCK
  5
173
330
171
100
AcDbEntity
  8
0
100
AcDbBlockBegin
  2
4_125913H_0_in_125913_2
 70
     2
 10
0.0
 20
0.0
 30
0.0
  3
4_125913H_0_in_125913_2
  1

  0
ATTDEF
  5
175
330
171
100
AcDbEntity
  8
AM_6
100
AcDbText
 10
25.63117744508228
 20
52.45
 30
0.0
 40
0.5
  1
WSTU-SC -Metric - housing
100
AcDbAttributeDefinition
  3

  2
NN
 70
     8
280
     0
  0
ATTDEF
  5
176
330
171
100
AcDbEntity
  8
AM_6
100
AcDbText
 10
25.63117744508228
 20
51.95
 30
0.0
 40
0.5
  1
SC Take-Up Bearings -Wide Slot -(Normal Duty)
100
AcDbAttributeDefinition
  3

  2
NT
 70
     8
280
     0
  0
ATTDEF
  5
177
330
171
100
AcDbEntity
  8
AM_6
100
AcDbText
 10
25.63117744508228
 20
51.45
 30
0.0
 40
0.5
  1
125913H
100
AcDbAttributeDefinition
  3

  2
NB
 70
     8
280
     0
  0
ATTDEF
  5
178
330
171
100
AcDbEntity
  8
AM_6
100
AcDbText
 10
25.63117744508228
 20
50.95
 30
0.0
 40
0.5
  1
$PN.H
100
AcDbAttributeDefinition
  3

  2
NBSYN
 70
     8
280
     0
  0
ATTDEF
  5
179
330
171
100
AcDbEntity
  8
AM_6
100
AcDbText
 10
25.63117744508228
 20
50.45
 30
0.0
 40
0.5
  1
125913
100
AcDbAttributeDefinition
  3

  2
LINA
 70
     8
280
     0
  0
ATTDEF
  5
17A
330
171
100
AcDbEntity
  8
AM_6
100
AcDbText
 10
25.63117744508228
 20
49.95
 30
0.0
 40
0.5
  1
207
100
AcDbAttributeDefinition
  3

  2
SERIES
 70
     8
280
     0
  0
ATTDEF
  5
17B
330
171
100
AcDbEntity
  8
AM_6
100
AcDbText
 10
25.63117744508228
 20
49.45
 30
0.0
 40
0.5
  1
35
100
AcDbAttributeDefinition
  3

  2
SS
 70
     8
280
     0
  0
ATTDEF
  5
17C
330
171
100
AcDbEntity
  8
AM_6
100
AcDbText
 10
25.63117744508228
 20
48.95
 30
0.0
 40
0.5
  1
125913
100
AcDbAttributeDefinition
  3

  2
PN
 70
     8
280
     0
  0
ATTDEF
  5
17D
330
171
100
AcDbEntity
  8
AM_6
100
AcDbText
 10
25.63117744508228
 20
48.45
 30
0.0
 40
0.5
  1
WSTU-SC-35M
100
AcDbAttributeDefinition
  3

  2
DESCRIPTION
 70
     8
280
     0
  0
ATTDEF
  5
17E
330
171
100
AcDbEntity
  8
AM_6
100
AcDbText
 10
25.63117744508228
 20
47.95
 30
0.0
 40
0.5
  1
1.6
100
AcDbAttributeDefinition
  3

  2
W
 70
     8
280
     0
  0
ATTDEF
  5
17F
330
171
100
AcDbEntity
  8
AM_6
100
AcDbText
 10
25.63117744508228
 20
47.45
 30
0.0
 40
0.5
  1
WS308
100
AcDbAttributeDefinition
  3

  2
FS
 70
     8
280
     0
  0
ATTDEF
  5
180
330
171
100
AcDbEntity
  8
AM_6
100
AcDbText
 10
25.63117744508228
 20
46.95
 30
0.0
 40
0.5
  1
43.4
100
AcDbAttributeDefinition
  3

  2
A
 70
     8
280
     0
  0
ATTDEF
  5
181
330
171
100
AcDbEntity
  8
AM_6
100
AcDbText
 10
25.63117744508228
 20
46.45
 30
0.0
 40
0.5
  1
123.7
100
AcDbAttributeDefinition
  3

  2
B
 70
     8
280
     0
  0
ATTDEF
  5
182
330
171
100
AcDbEntity
  8
AM_6
100
AcDbText
 10
25.63117744508228
 20
45.95
 30
0.0
 40
0.5
  1
13.49
100
AcDbAttributeDefinition
  3

  2
C
 70
     8
280
     0
  0
ATTDEF
  5
183
330
171
100
AcDbEntity
  8
AM_6
100
AcDbText
 10
25.63117744508228
 20
45.45
 30
0.0
 40
0.5
  1
63.5
100
AcDbAttributeDefinition
  3

  2
D
 70
     8
280
     0
  0
ATTDEF
  5
184
330
171
100
AcDbEntity
  8
AM_6
100
AcDbText
 10
25.63117744508228
 20
44.95
 30
0.0
 40
0.5
  1
77.7
100
AcDbAttributeDefinition
  3

  2
E
 70
     8
280
     0
  0
ATTDEF
  5
185
330
171
100
AcDbEntity
  8
AM_6
100
AcDbText
 10
25.63117744508228
 20
44.45
 30
0.0
 40
0.5
  1
19.1
100
AcDbAttributeDefinition
  3

  2
F
 70
     8
280
     0
  0
ATTDEF
  5
186
330
171
100
AcDbEntity
  8
AM_6
100
AcDbText
 10
25.63117744508228
 20
43.95
 30
0.0
 40
0.5
  1
12.7
100
AcDbAttributeDefinition
  3

  2
G
 70
     8
280
     0
  0
ATTDEF
  5
187
330
171
100
AcDbEntity
  8
AM_6
100
AcDbText
 10
25.63117744508228
 20
43.45
 30
0.0
 40
0.5
  1
16.0
100
AcDbAttributeDefinition
  3

  2
H
 70
     8
280
     0
  0
ATTDEF
  5
188
330
171
100
AcDbEntity
  8
AM_6
100
AcDbText
 10
25.63117744508228
 20
42.95
 30
0.0
 40
0.5
  1
63.5
100
AcDbAttributeDefinition
  3

  2
J
 70
     8
280
     0
  0
ATTDEF
  5
189
330
171
100
AcDbEntity
  8
AM_6
100
AcDbText
 10
25.63117744508228
 20
42.45
 30
0.0
 40
0.5
  1
36.6
100
AcDbAttributeDefinition
  3

  2
K
 70
     8
280
     0
  0
ATTDEF
  5
18A
330
171
100
AcDbEntity
  8
AM_6
100
AcDbText
 10
25.63117744508228
 20
41.95
 30
0.0
 40
0.5
  1
46.7
100
AcDbAttributeDefinition
  3

  2
L
 70
     8
280
     0
  0
ATTDEF
  5
18B
330
171
100
AcDbEntity
  8
AM_6
100
AcDbText
 10
25.63117744508228
 20
41.45
 30
0.0
 40
0.5
  1
88.39/89.15
100
AcDbAttributeDefinition
  3

  2
M
 70
     8
280
     0
  0
ATTDEF
  5
18C
330
171
100
AcDbEntity
  8
AM_6
100
AcDbText
 10
25.63117744508228
 20
40.95
 30
0.0
 40
0.5
  1
104.9
100
AcDbAttributeDefinition
  3

  2
N
 70
     8
280
     0
  0
ATTDEF
  5
18D
330
171
100
AcDbEntity
  8
AM_6
100
AcDbText
 10
25.63117744508228
 20
40.45
 30
0.0
 40
0.5
  1
17.0
100
AcDbAttributeDefinition
  3

  2
R
 70
     8
280
     0
  0
ATTDEF
  5
18E
330
171
100
AcDbEntity
  8
AM_6
100
AcDbText
 10
25.63117744508228
 20
39.95
 30
0.0
 40
0.5
  1
26.4
100
AcDbAttributeDefinition
  3

  2
S
 70
     8
280
     0
  0
ATTDEF
  5
18F
330
171
100
AcDbEntity
  8
AM_6
100
AcDbText
 10
25.63117744508228
 20
39.45
 30
0.0
 40
0.5
  1
41.3
100
AcDbAttributeDefinition
  3

  2
T
 70
     8
280
     0
  0
ATTDEF
  5
190
330
171
100
AcDbEntity
  8
AM_6
100
AcDbText
 10
25.63117744508228
 20
38.95
 30
0.0
 40
0.5
  1
3065
100
AcDbAttributeDefinition
  3

  2
CAPS
 70
     8
280
     0
  0
ATTDEF
  5
191
330
171
100
AcDbEntity
  8
AM_6
100
AcDbText
 10
25.63117744508228
 20
38.45
 30
0.0
 40
0.5
  1
5759
100
AcDbAttributeDefinition
  3

  2
CAPD
 70
     8
280
     0
  0
ATTDEF
  5
192
330
171
100
AcDbEntity
  8
AM_6
100
AcDbText
 10
25.63117744508228
 20
37.95
 30
0.0
 40
0.5
  1
baldor
100
AcDbAttributeDefinition
  3

  2
COMPANY
 70
     8
280
     0
  0
LWPOLYLINE
  5
193
330
171
100
AcDbEntity
  8
AM_9
100
AcDbPolyline
 90
       11
 70
     0
 43
0.0
 10
-0.0000000000000026
 20
-19.44877685964144
 10
-0.6700528341432863
 20
-19.50056276426685
 10
-1.321184069479055
 20
-19.65271191308901
 10
-1.934466667156999
 20
-19.90164083629955
 10
-2.493378139680951
 20
-20.23802463983063
 10
-2.98245551544694
 20
-20.65347396480907
 10
-3.387608232213524
 20
-21.1333670261943
 10
-3.696537895167653
 20
-21.66469311097897
 10
-3.901076922371431
 20
-22.23011536349406
 10
-3.993692262884512
 20
-22.81163115914379
 10
-3.999999982596401
 20
-22.99967685592189
  0
ELLIPSE
  5
194
330
171
100
AcDbEntity
  8
AM_9
100
AcDbEllipse
 10
-0.0000000000000067
 20
-24.26999999999999
 30
0.0
 11
4.0
 21
0.0
 31
0.0
210
0.0
220
0.0
230
1.0
 40
0.8660254037844375
 41
1.570796326794897
 42
3.141592653589793
  0
LINE
  5
195
330
171
100
AcDbEntity
  8
AM_9
100
AcDbLine
 10
3.999999999999997
 20
-24.27
 30
0.0
 11
3.999999999999997
 21
-22.9999311844491
 31
0.0
  0
LINE
  5
196
330
171
100
AcDbEntity
  8
AM_9
100
AcDbLine
 10
-4.000000000000003
 20
-22.99943891592523
 30
0.0
 11
-4.000000000000003
 21
-24.27
 31
0.0
  0
ELLIPSE
  5
197
330
171
100
AcDbEntity
  8
AM_9
100
AcDbEllipse
 10
0.0000000000000058
 20
-24.27
 30
0.0
 11
4.0
 21
0.0
 31
0.0
210
0.0
220
0.0
230
1.0
 40
0.8660254037844394
 41
3.141592653589793
 42
7.853981633974483
  0
LWPOLYLINE
  5
198
330
171
100
AcDbEntity
  8
AM_9
100
AcDbPolyline
 90
       20
 70
     0
 43
0.0
 10
-3.999999982596401
 20
-22.99967685592189
 10
-3.973936106826748
 20
-23.39367909394717
 10
-3.841303959800124
 20
-23.95804941043594
 10
-3.60126134155061
 20
-24.49123109942584
 10
-3.258681210456055
 20
-24.97906412471867
 10
-2.82485247421819
 20
-25.40895210262869
 10
-2.308946155173205
 20
-25.77024271587051
 10
-1.727809795018145
 20
-26.05341969311346
 10
-1.096949937234696
 20
-26.25040116377104
 10
-0.4349419946296945
 20
-26.35747246120575
 10
0.2374001441368385
 20
-26.37086434907091
 10
0.9030329653148693
 20
-26.29199693506823
 10
1.541823684309648
 20
-26.12191505936203
 10
2.137326050179633
 20
-25.86590481823816
 10
2.673424544962421
 20
-25.52812931401396
 10
3.134411714576949
 20
-25.11852781172478
 10
3.507075457119849
 20
-24.64507670111085
 10
3.780754092130422
 20
-24.1218431490361
 10
3.945977714726873
 20
-23.5628916905076
 10
3.999999997977881
 20
-22.99988985015484
  0
LWPOLYLINE
  5
199
330
171
100
AcDbEntity
  8
AM_9
100
AcDbPolyline
 90
       12
 70
     0
 43
0.0
 10
3.999999997977881
 20
-22.99988985015484
 10
3.999953662702118
 20
-22.98332398831759
 10
3.939903641580615
 20
-22.40119120082069
 10
3.769509703513121
 20
-21.83134453866092
 10
3.492184352149302
 20
-21.29078420362417
 10
3.117228884057676
 20
-20.79507677856253
 10
2.652277608455079
 20
-20.35861400266148
 10
2.112627753081561
 20
-19.99568356070885
 10
1.511536047582013
 20
-19.71849782277961
 10
0.8675487245389087
 20
-19.53533961629778
 10
0.4363894709229221
 20
-19.47056181176148
 10
-0.0000000000000026
 20
-19.44877685964144
  0
ELLIPSE
  5
19A
330
171
100
AcDbEntity
  8
AM_9
100
AcDbEllipse
 10
-0.0000000000000026
 20
-24.27
 30
0.0
 11
-8.128000000000002
 21
9.953929183469688E-16
 31
0.0
210
0.0
220
0.0
230
1.0
 40
0.8660254037844387
 41
0.0
 42
6.283185307179586
  0
LINE
  5
19B
330
171
100
AcDbEntity
  8
AM_9
100
AcDbLine
 10
10.66779282169079
 20
-23.05981929795868
 30
0.0
 11
10.66798086503684
 21
-22.98182037453592
 31
0.0
  0
LWPOLYLINE
  5
19C
330
171
100
AcDbEntity
  8
AM_9
100
AcDbPolyline
 90
        3
 70
     0
 43
0.0
 10
10.6608982017928
 20
-23.35017242042149
 10
10.66616790390765
 20
-23.17787973318241
 10
10.66779282169079
 20
-23.05981929795868
  0
LWPOLYLINE
  5
19D
330
171
100
AcDbEntity
  8
AM_9
100
AcDbPolyline
 90
        9
 70
     0
 43
0.0
 10
9.552291806517536
 20
-27.27169491073382
 10
9.761745794678962
 20
-26.87008275527367
 10
9.9904564286607
 20
-26.36525393635378
 10
10.18668532483965
 20
-25.85002623655416
 10
10.34990806380856
 20
-25.32611369913841
 10
10.47971553704368
 20
-24.7952337528041
 10
10.57580849579013
 20
-24.25910024706953
 10
10.63799166293176
 20
-23.71941813288253
 10
10.6608982017928
 20
-23.35017242042149
  0
LWPOLYLINE
  5
19E
330
171
100
AcDbEntity
  8
AM_9
100
AcDbPolyline
 90
       14
 70
     0
 43
0.0
 10
4.34482552737839
 20
-31.75134886938133
 10
4.837223298732581
 20
-31.54105683371437
 10
5.372127920350501
 20
-31.27984881738406
 10
5.88965891389528
 20
-30.99155276435568
 10
6.388070163424024
 20
-30.67709366772936
 10
6.865673154327398
 20
-30.3374990506808
 10
7.320847023653666
 20
-29.97389721196915
 10
7.75204899215996
 20
-29.58751389476839
 10
8.15782476688703
 20
-29.17966720277563
 10
8.536818425002478
 20
-28.75176071498285
 10
8.887781258593133
 20
-28.30527490425191
 10
9.209579088985764
 20
-27.84175712493475
 10
9.501197651132049
 20
-27.36281057699582
 10
9.552291806517536
 20
-27.27169491073382
  0
LWPOLYLINE
  5
19F
330
171
100
AcDbEntity
  8
AM_9
100
AcDbPolyline
 90
       15
 70
     0
 43
0.0
 10
-3.31737308217667
 20
-32.10579908390093
 10
-2.845233683643385
 20
-32.2333142456354
 10
-2.256302856681638
 20
-32.36313999488975
 10
-1.659939194904551
 20
-32.4628130532266
 10
-1.058061598952472
 20
-32.5319999345372
 10
-0.4526025768970188
 20
-32.5704618061431
 10
0.1544965305753138
 20
-32.57805365890946
 10
0.7612898384876705
 20
-32.55472367573583
 10
1.365819330398828
 20
-32.50051424187601
 10
1.96613763216435
 20
-32.41556183282768
 10
2.560307563974995
 20
-32.30009656269272
 10
3.146402407428817
 20
-32.15444330199539
 10
3.722510333161168
 20
-31.97902309100779
 10
4.286739402369248
 20
-31.77435479309784
 10
4.34482552737839
 20
-31.75134886938133
  0
LWPOLYLINE
  5
1A0
330
171
100
AcDbEntity
  8
AM_9
100
AcDbPolyline
 90
        4
 70
     0
 43
0.0
 10
-4.339713998425136
 20
-31.75338826514706
 10
-3.993222258890455
 20
-31.88501702990126
 10
-3.424831765017649
 20
-32.07376482473992
 10
-3.31737308217667
 20
-32.10579908390093
  0
LWPOLYLINE
  5
1A1
330
171
100
AcDbEntity
  8
AM_9
100
AcDbPolyline
 90
        5
 70
     0
 43
0.0
 10
-5.865490963528105
 20
-31.00584884492499
 10
-5.612923952456639
 20
-31.15028450797695
 10
-5.089048089851197
 20
-31.42251068602524
 10
-4.548562210447071
 20
-31.66769283246398
 10
-4.339713998425136
 20
-31.75338826514706
  0
LWPOLYLINE
  5
1A2
330
171
100
AcDbEntity
  8
AM_9
100
AcDbPolyline
 90
       11
 70
     0
 43
0.0
 10
-9.552233396560306
 20
-27.27180046789664
 10
-9.324876252142083
 20
-27.66007065289078
 10
-9.017620288215811
 20
-28.12529080430382
 10
-8.68139078796111
 20
-28.57435859272925
 10
-8.317187257516116
 20
-29.00582925468491
 10
-7.926109402500303
 20
-29.418298157323
 10
-7.509356848549753
 20
-29.81040874954087
 10
-7.068227071806019
 20
-30.18086093944299
 10
-6.604111515656928
 20
-30.52841943675396
 10
-6.118490035550338
 20
-30.85192161409292
 10
-5.865490963528105
 20
-31.00584884492499
  0
LWPOLYLINE
  5
1A3
330
171
100
AcDbEntity
  8
AM_9
100
AcDbPolyline
 90
        9
 70
     0
 43
0.0
 10
-10.62466502296602
 20
-23.86425420036833
 10
-10.60045645732969
 20
-24.07835777106601
 10
-10.5160800458809
 20
-24.61398881526448
 10
-10.39832914639418
 20
-25.14427030330753
 10
-10.24757622502692
 20
-25.66760293289226
 10
-10.06427482421577
 20
-26.18240488781263
 10
-9.84896137816309
 20
-26.68711152373929
 10
-9.602258054999004
 20
-27.1801759288428
 10
-9.552233396560306
 20
-27.27180046789664
  0
LINE
  5
1A4
330
171
100
AcDbEntity
  8
AM_9
100
AcDbLine
 10
-10.64373377209385
 20
-23.64702501860539
 30
0.0
 11
-10.6269488528704
 21
-23.84121799075471
 31
0.0
  0
LWPOLYLINE
  5
1A5
330
171
100
AcDbEntity
  8
AM_9
100
AcDbPolyline
 90
        3
 70
     0
 43
0.0
 10
-10.66089999543519
 20
-23.35012821253075
 10
-10.65116646904448
 20
-23.53899479787635
 10
-10.64373377209385
 20
-23.64702501860539
  0
LWPOLYLINE
  5
1A6
330
171
100
AcDbEntity
  8
AM_9
100
AcDbPolyline
 90
        3
 70
     0
 43
0.0
 10
-10.6679969311023
 20
-22.99271947850306
 10
-10.66799965992589
 20
-22.99757641591378
 10
-10.66089999543519
 20
-23.35012821253075
  0
LINE
  5
1A7
330
171
100
AcDbEntity
  8
AM_9
100
AcDbLine
 10
-10.66793512163296
 20
-22.96652499904367
 30
0.0
 11
-10.6679969311023
 21
-22.99271947850306
 31
0.0
  0
ELLIPSE
  5
1A8
330
171
100
AcDbEntity
  8
AM_9
100
AcDbEllipse
 10
-0.0000000000000018
 20
-23.0
 30
0.0
 11
10.66799999999999
 21
0.0
 31
0.0
210
0.0
220
0.0
230
1.0
 40
0.8660254037844385
 41
0.0018239403679781
 42
1.570796326794897
  0
LWPOLYLINE
  5
1A9
330
171
100
AcDbEntity
  8
AM_9
100
AcDbPolyline
 90
        3
 70
     0
 43
0.0
 10
10.6405
 20
-22.33387631539468
 10
10.66799953582202
 20
-22.98352478360687
 10
10.66799999999923
 20
-22.98624650159915
  0
LWPOLYLINE
  5
1AA
330
171
100
AcDbEntity
  8
AM_9
100
AcDbPolyline
 90
        3
 70
     0
 43
0.0
 10
-10.6405
 20
-23.65975385498871
 10
-10.66799953582202
 20
-22.98897557285777
 10
-10.66799999999923
 20
-22.98625349840143
  0
LWPOLYLINE
  5
1AB
330
171
100
AcDbEntity
  8
AM_9
100
AcDbPolyline
 90
       37
 70
     0
 43
0.0
 10
-10.6405
 20
-22.33387631539466
 10
-10.54160312465527
 20
-21.56782990357513
 10
-10.37172376194836
 20
-20.80388100069239
 10
-10.12382103110527
 20
-20.02556566231336
 10
-9.804133748594577
 20
-19.261720932621
 10
-9.427152538100186
 20
-18.53969218821266
 10
-8.987546650246566
 20
-17.84256655207976
 10
-8.473277912345154
 20
-17.1574901275441
 10
-7.89963677894546
 20
-16.50994085978683
 10
-7.277798934546851
 20
-15.91201876411082
 10
-6.605813232376921
 20
-15.36097593136683
 10
-5.866635669028311
 20
-14.84817144071063
 10
-5.084057146601495
 20
-14.39476381861079
 10
-4.282417250628846
 20
-14.01354363096694
 10
-3.449913494819246
 20
-13.6970139949736
 10
-2.565812598548765
 20
-13.44222009210921
 10
-1.661711746611943
 20
-13.26237172590362
 10
-0.7911221202716535
 20
-13.16319067973082
 10
0.0850890826585586
 20
-13.13451531992855
 10
0.9869046039108866
 20
-13.17932379801893
 10
1.881286619156588
 20
-13.29873822288258
 10
2.723546285766163
 20
-13.48180928325221
 10
3.547252605266062
 20
-13.73007229987697
 10
4.369069572099424
 20
-14.05099878377986
 10
5.16000000969491
 20
-14.4350806432738
 10
5.905646760402506
 20
-14.87305380402292
 10
6.611337051516449
 20
-15.36515446320542
 10
7.290210226837985
 20
-15.92306414160224
 10
7.917721940021053
 20
-16.52881576701785
 10
8.48628033252492
 20
-17.17345015387039
 10
8.996106579140957
 20
-17.85502157481212
 10
9.455590231703773
 20
-18.58947104691638
 10
9.845594619823256
 20
-19.3510420655426
 10
10.14110188402003
 20
-20.0728725377945
 10
10.37262800984639
 20
-20.80723881400673
 10
10.54190039255754
 20
-21.56951968678326
 10
10.6405
 20
-22.33387631539468
  0
LWPOLYLINE
  5
1AC
330
171
100
AcDbEntity
  8
AM_9
100
AcDbPolyline
 90
       37
 70
     0
 43
0.0
 10
10.64049999999999
 20
-23.65975385498869
 10
10.54160312465527
 20
-24.40300906710978
 10
10.37172376194837
 20
-25.12831282666753
 10
10.12382103110528
 20
-25.85127558916805
 10
9.804133748594584
 20
-26.54564544616493
 10
9.427152538100193
 20
-27.18846688039611
 10
8.987546650246577
 20
-27.79699710479973
 10
8.473277912345164
 20
-28.38359310262232
 10
7.899636778945474
 20
-28.92790721028868
 10
7.277798934546869
 20
-29.42186233181232
 10
6.605813232376941
 20
-29.86988238970688
 10
5.866635669028335
 20
-30.28067359529518
 10
5.084057146601521
 20
-30.6390169805838
 10
4.282417250628872
 20
-30.93681696512845
 10
3.449913494819272
 20
-31.18166333760532
 10
2.565812598548793
 20
-31.3771973120899
 10
1.661711746611971
 20
-31.5143528297048
 10
0.7911221202716816
 20
-31.58971339393508
 10
-0.0850890826585304
 20
-31.6114455721116
 10
-0.9869046039108584
 20
-31.57747294225092
 10
-1.88128661915656
 20
-31.48667251927113
 10
-2.723546285766135
 20
-31.34690629722754
 10
-3.547252605266034
 20
-31.15619260427345
 10
-4.369069572099396
 20
-30.90769871465359
 10
-5.160000009694885
 20
-30.60733687732617
 10
-5.905646760402481
 20
-30.26087631721759
 10
-6.611337051516424
 20
-29.86651092299006
 10
-7.290210226837964
 20
-29.41281134489724
 10
-7.917721940021035
 20
-28.91218000463631
 10
-8.486280332524904
 20
-28.37005398220413
 10
-8.99610657914094
 20
-27.78622851305537
 10
-9.455590231703763
 20
-27.14455779525293
 10
-9.845594619823247
 20
-26.46521606863826
 10
-10.14110188402002
 20
-25.80778733145582
 10
-10.37262800984638
 20
-25.12515920558998
 10
-10.54190039255754
 20
-24.40138755776466
 10
-10.6405
 20
-23.65975385498871
  0
ELLIPSE
  5
1AD
330
171
100
AcDbEntity
  8
AM_9
100
AcDbEllipse
 10
-0.0000000000000195
 20
-22.99999999999999
 30
0.0
 11
10.66799999999999
 21
0.0
 31
0.0
210
0.0
220
0.0
230
1.0
 40
0.8660254037844382
 41
1.570796326794897
 42
3.138227174278622
  0
LINE
  5
1AE
330
171
100
AcDbEntity
  8
AM_9
100
AcDbLine
 10
10.668
 20
-23.0
 30
0.0
 11
10.668
 21
-22.9862933780657
 31
0.0
  0
LINE
  5
1AF
330
171
100
AcDbEntity
  8
AM_9
100
AcDbLine
 10
-10.668
 20
-22.9862933780657
 30
0.0
 11
-10.668
 21
-23.0
 31
0.0
  0
LINE
  5
1B0
330
171
100
AcDbEntity
  8
AM_9
100
AcDbLine
 10
-10.66799999999923
 20
-22.98625349840143
 30
0.0
 11
-10.6405
 21
-22.33387631539465
 31
0.0
  0
LINE
  5
1B1
330
171
100
AcDbEntity
  8
AM_9
100
AcDbLine
 10
10.66799999999923
 20
-22.98624650159915
 30
0.0
 11
10.6405
 21
-23.65975385498869
 31
0.0
  0
ELLIPSE
  5
1B2
330
171
100
AcDbEntity
  8
AM_9
100
AcDbEllipse
 10
-0.0000000000024638
 20
-22.9999999999956
 30
0.0
 11
10.66800000000246
 21
0.0
 31
0.0
210
0.0
220
0.0
230
1.0
 40
0.8660254037844439
 41
5.821270095174521
 42
6.283185307179586
  0
ELLIPSE
  5
1B3
330
171
100
AcDbEntity
  8
AM_9
100
AcDbEllipse
 10
0.0000000000000036
 20
-23.00000000000003
 30
0.0
 11
10.66799999999998
 21
0.0
 31
0.0
210
0.0
220
0.0
230
1.0
 40
0.866025403784437
 41
5.039118999398094
 42
5.821270095174844
  0
ELLIPSE
  5
1B4
330
171
100
AcDbEntity
  8
AM_9
100
AcDbEllipse
 10
0.0000000000000064
 20
-23.00000000000008
 30
0.0
 11
10.6679999999999
 21
0.0
 31
0.0
210
0.0
220
0.0
230
1.0
 40
0.8660254037844374
 41
4.396250600551351
 42
5.039118999398097
  0
ELLIPSE
  5
1B5
330
171
100
AcDbEntity
  8
AM_9
100
AcDbEllipse
 10
0.0000000000404654
 20
-22.99999999984091
 30
0.0
 11
10.66800000012878
 21
0.0
 31
0.0
210
0.0
220
0.0
230
1.0
 40
0.8660254037891683
 41
4.385658961371558
 42
4.396250600551488
  0
ELLIPSE
  5
1B6
330
171
100
AcDbEntity
  8
AM_9
100
AcDbEllipse
 10
-0.0000000000000018
 20
-22.99999999999996
 30
0.0
 11
10.66799999999999
 21
0.0
 31
0.0
210
0.0
220
0.0
230
1.0
 40
0.8660254037844415
 41
4.13048111370621
 42
4.385658961371283
  0
ELLIPSE
  5
1B7
330
171
100
AcDbEntity
  8
AM_9
100
AcDbEllipse
 10
-0.0000000000000613
 20
-23.00000000000012
 30
0.0
 11
10.66799999999991
 21
0.0
 31
0.0
210
0.0
220
0.0
230
1.0
 40
0.8660254037844333
 41
3.603507865594532
 42
4.130481113706209
  0
ELLIPSE
  5
1B8
330
171
100
AcDbEntity
  8
AM_9
100
AcDbEllipse
 10
-0.0000000000001155
 20
-22.99999999999994
 30
0.0
 11
10.66799999999987
 21
0.0
 31
0.0
210
0.0
220
0.0
230
1.0
 40
0.8660254037844413
 41
3.141592653589793
 42
3.603507865594548
  0
LINE
  5
1B9
330
171
100
AcDbEntity
  8
AM_9
100
AcDbLine
 10
11.4665
 20
-32.13452622958676
 30
0.0
 11
10.6405
 21
-33.28569512568424
 31
0.0
  0
LINE
  5
1BA
330
171
100
AcDbEntity
  8
AM_9
100
AcDbLine
 10
-10.6405
 20
-33.28569512568424
 30
0.0
 11
-11.4665
 21
-32.13452622958675
 31
0.0
  0
LINE
  5
1BB
330
171
100
AcDbEntity
  8
AM_9
100
AcDbLine
 10
10.6405
 20
-33.28569512568424
 30
0.0
 11
-10.6405
 21
-33.28569512568424
 31
0.0
  0
LINE
  5
1BC
330
171
100
AcDbEntity
  8
AM_9
100
AcDbLine
 10
10.6405
 20
-33.28569512568424
 30
0.0
 11
10.64049999999999
 21
-23.65975385498869
 31
0.0
  0
LINE
  5
1BD
330
171
100
AcDbEntity
  8
AM_9
100
AcDbLine
 10
-10.6405
 20
-33.28569512568424
 30
0.0
 11
-10.6405
 21
-23.65975385498871
 31
0.0
  0
LINE
  5
1BE
330
171
100
AcDbEntity
  8
AM_9
100
AcDbLine
 10
10.6405
 20
33.28569512568424
 30
0.0
 11
11.4665
 21
32.13452622958675
 31
0.0
  0
LINE
  5
1BF
330
171
100
AcDbEntity
  8
AM_9
100
AcDbLine
 10
-11.4665
 20
32.13452622958676
 30
0.0
 11
-10.6405
 21
33.28569512568424
 31
0.0
  0
LINE
  5
1C0
330
171
100
AcDbEntity
  8
AM_9
100
AcDbLine
 10
-10.6405
 20
33.28569512568424
 30
0.0
 11
10.6405
 21
33.28569512568424
 31
0.0
  0
LINE
  5
1C1
330
171
100
AcDbEntity
  8
AM_9
100
AcDbLine
 10
10.64049999999999
 20
-22.33387631539468
 30
0.0
 11
10.6405
 21
33.28569512568424
 31
0.0
  0
LINE
  5
1C2
330
171
100
AcDbEntity
  8
AM_9
100
AcDbLine
 10
-10.6405
 20
-22.33387631539465
 30
0.0
 11
-10.6405
 21
33.28569512568424
 31
0.0
  0
LINE
  5
1C3
330
171
100
AcDbEntity
  8
AM_9
100
AcDbLine
 10
-6.070500000000002
 20
-35.90196918848759
 30
0.0
 11
11.4665
 21
-35.90196918848759
 31
0.0
  0
LINE
  5
1C4
330
171
100
AcDbEntity
  8
AM_9
100
AcDbLine
 10
-6.070500000000003
 20
-37.75000000000001
 30
0.0
 11
11.46649999999999
 21
-37.75000000000001
 31
0.0
  0
LINE
  5
1C5
330
171
100
AcDbEntity
  8
AM_9
100
AcDbLine
 10
-6.070500000000003
 20
-37.75000000000001
 30
0.0
 11
-6.070500000000002
 21
-34.0571415654795
 31
0.0
  0
LINE
  5
1C6
330
171
100
AcDbEntity
  8
AM_9
100
AcDbLine
 10
-6.070500000000002
 20
34.0571415654795
 30
0.0
 11
-6.070500000000003
 21
37.75000000000001
 31
0.0
  0
LINE
  5
1C7
330
171
100
AcDbEntity
  8
AM_9
100
AcDbLine
 10
-6.070500000000002
 20
35.90196918848758
 30
0.0
 11
11.4665
 21
35.90196918848758
 31
0.0
  0
LINE
  5
1C8
330
171
100
AcDbEntity
  8
AM_9
100
AcDbLine
 10
4.926363636363638
 20
37.75000000000001
 30
0.0
 11
-6.070500000000003
 21
37.75000000000001
 31
0.0
  0
LINE
  5
1C9
330
171
100
AcDbEntity
  8
AM_9
100
AcDbLine
 10
11.4665
 20
37.75000000000001
 30
0.0
 11
5.273636363636359
 21
37.75000000000001
 31
0.0
  0
LINE
  5
1CA
330
171
100
AcDbEntity
  8
AM_9
100
AcDbLine
 10
-6.070500000000002
 20
34.0571415654795
 30
0.0
 11
11.46649999999999
 21
34.0571415654795
 31
0.0
  0
LINE
  5
1CB
330
171
100
AcDbEntity
  8
AM_9
100
AcDbLine
 10
11.46649999999999
 20
-34.0571415654795
 30
0.0
 11
-6.070500000000002
 21
-34.0571415654795
 31
0.0
  0
LINE
  5
1CC
330
171
100
AcDbEntity
  8
AM_9
100
AcDbLine
 10
-11.46650000000001
 20
-36.00000000000001
 30
0.0
 11
-6.070500000000003
 21
-36.00000000000001
 31
0.0
  0
LINE
  5
1CD
330
171
100
AcDbEntity
  8
AM_9
100
AcDbLine
 10
-6.070500000000003
 20
36.00000000000001
 30
0.0
 11
-11.4665
 21
36.00000000000001
 31
0.0
  0
LINE
  5
1CE
330
171
100
AcDbEntity
  8
AM_9
100
AcDbLine
 10
-11.4665
 20
16.95100000000001
 30
0.0
 11
11.4665
 21
16.95100000000001
 31
0.0
  0
LINE
  5
1CF
330
171
100
AcDbEntity
  8
AM_9
100
AcDbLine
 10
-11.4665
 20
18.29999999999999
 30
0.0
 11
11.4665
 21
18.29999999999999
 31
0.0
  0
LINE
  5
1D0
330
171
100
AcDbEntity
  8
AM_9
100
AcDbLine
 10
-11.4665
 20
-16.95099997989835
 30
0.0
 11
11.4665
 21
-16.95100000000001
 31
0.0
  0
LINE
  5
1D1
330
171
100
AcDbEntity
  8
AM_9
100
AcDbLine
 10
-11.4665
 20
-18.3
 30
0.0
 11
11.4665
 21
-18.3
 31
0.0
  0
LINE
  5
1D2
330
171
100
AcDbEntity
  8
AM_9
100
AcDbLine
 10
11.4665
 20
-17.17387194985453
 30
0.0
 11
11.4665
 21
17.17387194985453
 31
0.0
  0
LINE
  5
1D3
330
171
100
AcDbEntity
  8
AM_9
100
AcDbLine
 10
-11.4665
 20
17.17387194985452
 30
0.0
 11
-11.4665
 21
-17.17387194985452
 31
0.0
  0
LINE
  5
1D4
330
171
100
AcDbEntity
  8
AM_7
100
AcDbLine
 10
0.0000000000000048
 20
-10.0275
 30
0.0
 11
0.0000000000000048
 21
10.0275
 31
0.0
  0
LWPOLYLINE
  5
1D5
330
171
100
AcDbEntity
  8
AM_4
100
AcDbPolyline
 90
       19
 70
     0
 43
0.0
 10
-13.49
 20
51.10099999999999
 10
-13.48486664772576
 20
51.21857309696659
 10
-13.46950565881347
 20
51.33525139167268
 10
-13.44403393966395
 20
51.4501468918433
 10
-13.40864534544019
 20
51.56238517334633
 10
-13.36360920471244
 20
51.6711120350882
 10
-13.30926826970521
 20
51.77549999999999
 10
-13.24603610774585
 20
51.87475461263756
 10
-13.1743939537675
 20
51.96812048546714
 10
-13.09488704782065
 20
52.05488704782065
 10
-13.00812048546714
 20
52.13439395376751
 10
-12.91475461263756
 20
52.20603610774585
 10
-12.8155
 20
52.26926826970521
 10
-12.7111120350882
 20
52.32360920471244
 10
-12.60238517334632
 20
52.36864534544019
 10
-12.4901468918433
 20
52.40403393966395
 10
-12.37525139167268
 20
52.42950565881347
 10
-12.25857309696658
 20
52.44486664772577
 10
-12.14099999999999
 20
52.45
  0
LINE
  5
1D6
330
171
100
AcDbEntity
  8
AM_4
100
AcDbLine
 10
-6.744999999999999
 20
52.45
 30
0.0
 11
-6.744999999999998
 21
44.195
 31
0.0
  0
LINE
  5
1D7
330
171
100
AcDbEntity
  8
AM_4
100
AcDbLine
 10
-12.14099999999999
 20
52.45
 30
0.0
 11
-6.744999999999999
 21
52.45
 31
0.0
  0
LINE
  5
1D8
330
171
100
AcDbEntity
  8
AM_4
100
AcDbLine
 10
6.744999999999996
 20
-52.45
 30
0.0
 11
6.744999999999997
 21
-44.195
 31
0.0
  0
LINE
  5
1D9
330
171
100
AcDbEntity
  8
AM_4
100
AcDbLine
 10
6.744999999999996
 20
-52.45
 30
0.0
 11
12.14099999999999
 21
-52.45
 31
0.0
  0
LWPOLYLINE
  5
1DA
330
171
100
AcDbEntity
  8
AM_4
100
AcDbPolyline
 90
       19
 70
     0
 43
0.0
 10
13.48999999999999
 20
-51.1009999550513
 10
13.48486665164329
 20
-51.21857305218894
 10
13.46950566661872
 20
-51.33525134740687
 10
13.44403395129752
 20
-51.45014684842619
 10
13.40864536081354
 20
-51.56238513110837
 10
13.36360922370857
 20
-51.67111199435085
 10
13.30926829217955
 20
-51.77549996107329
 10
13.24603613352735
 20
-51.87475457581774
 10
13.17439398265996
 20
-51.96812045103444
 10
13.09488707960417
 20
-52.05488701603712
 10
13.00812051989983
 20
-52.13439392487504
 10
12.91475464945736
 20
-52.20603608196433
 10
12.8155000389267
 20
-52.26926824723086
 10
12.71111207582554
 20
-52.3236091857163
 10
12.60238521558427
 20
-52.36864533006683
 10
12.49014693526039
 20
-52.40403392803038
 10
12.3752514359385
 20
-52.42950565100821
 10
12.25857314174423
 20
-52.44486664380823
 10
12.14100004494868
 20
-52.45
  0
LINE
  5
1DB
330
171
100
AcDbEntity
  8
AM_4
100
AcDbLine
 10
11.46650000000001
 20
17.17387194985453
 30
0.0
 11
11.4665
 21
40.06749999999997
 31
0.0
  0
LINE
  5
1DC
330
171
100
AcDbEntity
  8
AM_4
100
AcDbLine
 10
-11.4665
 20
40.06749999999999
 30
0.0
 11
-11.4665
 21
17.17387194985452
 31
0.0
  0
LINE
  5
1DD
330
171
100
AcDbEntity
  8
AM_4
100
AcDbLine
 10
-13.49
 20
42.09099999999999
 30
0.0
 11
-11.4665
 21
40.06749999999999
 31
0.0
  0
LINE
  5
1DE
330
171
100
AcDbEntity
  8
AM_4
100
AcDbLine
 10
-13.48999999999999
 20
51.10100002010167
 30
0.0
 11
-13.49
 21
42.09099999999999
 31
0.0
  0
LINE
  5
1DF
330
171
100
AcDbEntity
  8
AM_4
100
AcDbLine
 10
13.49
 20
42.09099999999999
 30
0.0
 11
13.49
 21
51.10099999999998
 31
0.0
  0
LINE
  5
1E0
330
171
100
AcDbEntity
  8
AM_4
100
AcDbLine
 10
11.4665
 20
40.06749999999997
 30
0.0
 11
13.49
 21
42.09099999999999
 31
0.0
  0
LINE
  5
1E1
330
171
100
AcDbEntity
  8
AM_4
100
AcDbLine
 10
6.745000000000002
 20
44.195
 30
0.0
 11
6.745000000000003
 21
52.45
 31
0.0
  0
LINE
  5
1E2
330
171
100
AcDbEntity
  8
AM_4
100
AcDbLine
 10
-6.744999999999998
 20
44.195
 30
0.0
 11
6.745000000000002
 21
44.195
 31
0.0
  0
LINE
  5
1E3
330
171
100
AcDbEntity
  8
AM_4
100
AcDbLine
 10
-6.744999999999998
 20
51.10099999999998
 30
0.0
 11
-13.48999999999999
 21
51.10100002010167
 31
0.0
  0
LINE
  5
1E4
330
171
100
AcDbEntity
  8
AM_4
100
AcDbLine
 10
11.4665
 20
-40.06749999999999
 30
0.0
 11
11.4665
 21
-17.17387194985453
 31
0.0
  0
LINE
  5
1E5
330
171
100
AcDbEntity
  8
AM_4
100
AcDbLine
 10
-11.4665
 20
-17.17387194985452
 30
0.0
 11
-11.46650000000001
 21
-40.06749999999997
 31
0.0
  0
LINE
  5
1E6
330
171
100
AcDbEntity
  8
AM_4
100
AcDbLine
 10
-11.46650000000001
 20
-40.06749999999997
 30
0.0
 11
-13.49
 21
-42.09099999999999
 31
0.0
  0
LINE
  5
1E7
330
171
100
AcDbEntity
  8
AM_4
100
AcDbLine
 10
-13.49
 20
-42.09099999999999
 30
0.0
 11
-13.49000000000001
 21
-51.10099997989833
 31
0.0
  0
LINE
  5
1E8
330
171
100
AcDbEntity
  8
AM_4
100
AcDbLine
 10
-6.745000000000004
 20
-44.195
 30
0.0
 11
-6.745000000000003
 21
-52.45
 31
0.0
  0
LINE
  5
1E9
330
171
100
AcDbEntity
  8
AM_4
100
AcDbLine
 10
6.744999999999997
 20
-44.195
 30
0.0
 11
-6.745000000000004
 21
-44.195
 31
0.0
  0
LINE
  5
1EA
330
171
100
AcDbEntity
  8
AM_4
100
AcDbLine
 10
13.48999999999999
 20
-51.10099997989833
 30
0.0
 11
6.744999999999996
 21
-51.10099999999999
 31
0.0
  0
LINE
  5
1EB
330
171
100
AcDbEntity
  8
AM_4
100
AcDbLine
 10
13.48999999999999
 20
-51.10099997989833
 30
0.0
 11
13.49
 21
-42.09099999999999
 31
0.0
  0
LINE
  5
1EC
330
171
100
AcDbEntity
  8
AM_4
100
AcDbLine
 10
13.49
 20
-42.09099999999999
 30
0.0
 11
11.4665
 21
-40.06749999999999
 31
0.0
  0
LINE
  5
1ED
330
171
100
AcDbEntity
  8
AM_4
100
AcDbLine
 10
-6.745000000000005
 20
-51.10099999999999
 30
0.0
 11
-13.49000000000001
 21
-51.10099997989833
 31
0.0
  0
LWPOLYLINE
  5
1EE
330
171
100
AcDbEntity
  8
AM_4
100
AcDbPolyline
 90
       19
 70
     0
 43
0.0
 10
-12.14100000000001
 20
-52.45
 10
-12.25857309696661
 20
-52.44486664772577
 10
-12.3752513916727
 20
-52.42950565881347
 10
-12.49014689184331
 20
-52.40403393966395
 10
-12.60238517334634
 20
-52.36864534544019
 10
-12.71111203508822
 20
-52.32360920471244
 10
-12.81550000000001
 20
-52.26926826970521
 10
-12.91475461263758
 20
-52.20603610774585
 10
-13.00812048546716
 20
-52.13439395376751
 10
-13.09488704782067
 20
-52.05488704782065
 10
-13.17439395376752
 20
-51.96812048546714
 10
-13.24603610774586
 20
-51.87475461263756
 10
-13.30926826970522
 20
-51.77549999999999
 10
-13.36360920471245
 20
-51.6711120350882
 10
-13.4086453454402
 20
-51.56238517334633
 10
-13.44403393966397
 20
-51.4501468918433
 10
-13.46950565881348
 20
-51.33525139167268
 10
-13.48486664772578
 20
-51.21857309696659
 10
-13.49000000000001
 20
-51.10099999999999
  0
LINE
  5
1EF
330
171
100
AcDbEntity
  8
AM_4
100
AcDbLine
 10
-12.14100000000001
 20
-52.45
 30
0.0
 11
-6.745000000000003
 21
-52.45
 31
0.0
  0
LINE
  5
1F0
330
171
100
AcDbEntity
  8
AM_4
100
AcDbLine
 10
13.49
 20
51.10099999999998
 30
0.0
 11
6.745000000000003
 21
51.10099999999998
 31
0.0
  0
LWPOLYLINE
  5
1F1
330
171
100
AcDbEntity
  8
AM_4
100
AcDbPolyline
 90
       19
 70
     0
 43
0.0
 10
12.14100000000001
 20
52.45
 10
12.25857309696661
 20
52.44486664772577
 10
12.3752513916727
 20
52.42950565881347
 10
12.49014689184331
 20
52.40403393966396
 10
12.60238517334634
 20
52.36864534544019
 10
12.71111203508822
 20
52.32360920471244
 10
12.81550000000001
 20
52.26926826970521
 10
12.91475461263758
 20
52.20603610774585
 10
13.00812048546716
 20
52.13439395376751
 10
13.09488704782067
 20
52.05488704782066
 10
13.17439395376752
 20
51.96812048546715
 10
13.24603610774587
 20
51.87475461263756
 10
13.30926826970522
 20
51.7755
 10
13.36360920471246
 20
51.67111203508821
 10
13.40864534544021
 20
51.56238517334634
 10
13.44403393966397
 20
51.4501468918433
 10
13.46950565881348
 20
51.33525139167269
 10
13.48486664772578
 20
51.21857309696659
 10
13.49000000000002
 20
51.101
  0
LINE
  5
1F2
330
171
100
AcDbEntity
  8
AM_4
100
AcDbLine
 10
6.745000000000003
 20
52.45
 30
0.0
 11
12.14100000000001
 21
52.45
 31
0.0
  0
LWPOLYLINE
  5
1F3
330
171
100
AcDbEntity
  8
AM_4
100
AcDbPolyline
 90
       19
 70
     0
 43
0.0
 10
10.1175
 20
31.75
 10
10.23507309696659
 20
31.74486664772576
 10
10.35175139167269
 20
31.72950565881347
 10
10.4666468918433
 20
31.70403393966395
 10
10.57888517334633
 20
31.66864534544019
 10
10.68761203508821
 20
31.62360920471244
 10
10.79200000000001
 20
31.56926826970521
 10
10.89125461263757
 20
31.50603610774585
 10
10.98462048546715
 20
31.4343939537675
 10
11.07138704782066
 20
31.35488704782065
 10
11.15089395376751
 20
31.26812048546714
 10
11.22253610774585
 20
31.17475461263755
 10
11.28576826970521
 20
31.07549999999999
 10
11.34010920471245
 20
30.9711120350882
 10
11.3851453454402
 20
30.86238517334632
 10
11.42053393966396
 20
30.75014689184329
 10
11.44600565881347
 20
30.63525139167268
 10
11.46136664772577
 20
30.51857309696658
 10
11.46650000000001
 20
30.40099999999999
  0
LWPOLYLINE
  5
1F4
330
171
100
AcDbEntity
  8
AM_4
100
AcDbPolyline
 90
       19
 70
     0
 43
0.0
 10
-11.4665
 20
30.401
 10
-11.46136664772577
 20
30.51857309696659
 10
-11.44600565881347
 20
30.63525139167269
 10
-11.42053393966396
 20
30.7501468918433
 10
-11.38514534544019
 20
30.86238517334633
 10
-11.34010920471244
 20
30.9711120350882
 10
-11.28576826970521
 20
31.0755
 10
-11.22253610774585
 20
31.17475461263756
 10
-11.1508939537675
 20
31.26812048546714
 10
-11.07138704782066
 20
31.35488704782065
 10
-10.98462048546715
 20
31.4343939537675
 10
-10.89125461263756
 20
31.50603610774585
 10
-10.792
 20
31.56926826970521
 10
-10.68761203508821
 20
31.62360920471244
 10
-10.57888517334633
 20
31.66864534544019
 10
-10.4666468918433
 20
31.70403393966395
 10
-10.35175139167269
 20
31.72950565881347
 10
-10.23507309696659
 20
31.74486664772576
 10
-10.11750000000001
 20
31.75
  0
LINE
  5
1F5
330
171
100
AcDbEntity
  8
AM_4
100
AcDbLine
 10
-10.11750000000001
 20
31.75
 30
0.0
 11
10.11749999999999
 21
31.75
 31
0.0
  0
LINE
  5
1F6
330
171
100
AcDbEntity
  8
AM_4
100
AcDbLine
 10
-10.1175
 20
-31.75
 30
0.0
 11
10.1175
 21
-31.75
 31
0.0
  0
LWPOLYLINE
  5
1F7
330
171
100
AcDbEntity
  8
AM_4
100
AcDbPolyline
 90
       19
 70
     0
 43
0.0
 10
11.46650000000001
 20
-30.40099999999999
 10
11.46136664772578
 20
-30.51857309696658
 10
11.44600565881348
 20
-30.63525139167268
 10
11.42053393966396
 20
-30.75014689184329
 10
11.3851453454402
 20
-30.86238517334632
 10
11.34010920471245
 20
-30.9711120350882
 10
11.28576826970522
 20
-31.07549999999999
 10
11.22253610774586
 20
-31.17475461263756
 10
11.15089395376751
 20
-31.26812048546714
 10
11.07138704782066
 20
-31.35488704782065
 10
10.98462048546715
 20
-31.4343939537675
 10
10.89125461263757
 20
-31.50603610774585
 10
10.79200000000001
 20
-31.56926826970521
 10
10.68761203508821
 20
-31.62360920471244
 10
10.57888517334633
 20
-31.66864534544019
 10
10.46664689184331
 20
-31.70403393966395
 10
10.35175139167269
 20
-31.72950565881347
 10
10.23507309696659
 20
-31.74486664772576
 10
10.1175
 20
-31.75
  0
LWPOLYLINE
  5
1F8
330
171
100
AcDbEntity
  8
AM_4
100
AcDbPolyline
 90
       19
 70
     0
 43
0.0
 10
-10.1175
 20
-31.75
 10
-10.23507309696659
 20
-31.74486664772576
 10
-10.35175139167269
 20
-31.72950565881347
 10
-10.4666468918433
 20
-31.70403393966395
 10
-10.57888517334633
 20
-31.66864534544019
 10
-10.68761203508821
 20
-31.62360920471244
 10
-10.792
 20
-31.56926826970521
 10
-10.89125461263756
 20
-31.50603610774585
 10
-10.98462048546715
 20
-31.4343939537675
 10
-11.07138704782066
 20
-31.35488704782065
 10
-11.1508939537675
 20
-31.26812048546714
 10
-11.22253610774585
 20
-31.17475461263755
 10
-11.28576826970521
 20
-31.07549999999999
 10
-11.34010920471245
 20
-30.9711120350882
 10
-11.3851453454402
 20
-30.86238517334632
 10
-11.42053393966396
 20
-30.75014689184329
 10
-11.44600565881347
 20
-30.63525139167268
 10
-11.46136664772577
 20
-30.51857309696658
 10
-11.46650000000001
 20
-30.40099999999999
  0
ARC
  5
1F9
330
171
100
AcDbEntity
  8
AM_4
100
AcDbCircle
 10
-0.0000000000000071
 20
0.0000000000000018
 30
0.0
 40
20.65000000000001
100
AcDbArc
 50
303.7298958912094
 51
56.27010410879059
  0
CIRCLE
  5
1FA
330
171
100
AcDbEntity
  8
AM_4
100
AcDbCircle
 10
0.0000000000000048
 20
0.0
 30
0.0
 40
9.55
  0
LINE
  5
1FB
330
171
100
AcDbEntity
  8
AM_4
100
AcDbLine
 10
11.46649999999998
 20
30.40099999999999
 30
0.0
 11
-11.46649999999999
 21
30.40100002010167
 31
0.0
  0
ARC
  5
1FC
330
171
100
AcDbEntity
  8
AM_4
100
AcDbCircle
 10
-0.0000000000000107
 20
0.0000000000000036
 30
0.0
 40
20.64999999999999
100
AcDbArc
 50
123.7298958912094
 51
236.2701041087906
  0
LINE
  5
1FD
330
171
100
AcDbEntity
  8
AM_4
100
AcDbLine
 10
11.46650000000001
 20
-30.401
 30
0.0
 11
-11.4665
 21
-30.40100000000001
 31
0.0
  0
ENDBLK
  5
174
330
171
100
AcDbEntity
  8
0
100
AcDbBlockEnd
  0
ENDSEC
  0
SECTION
  2
ENTITIES
  0
INSERT
  5
6F
330
1F
100
AcDbEntity
  8
0
100
AcDbBlockReference
  2
1_125913_2
 10
0.0
 20
0.0
 30
0.0
  0
POINT
  5
1FF
330
1F
100
AcDbEntity
  8
ConnectionPoints
100
AcDbPoint
 10
-0.0000000000000026
 20
-24.27
 30
-42.03687309969666
  0
POINT
  5
200
330
1F
100
AcDbEntity
  8
ConnectionPoints
100
AcDbPoint
 10
-0.0000000000000026
 20
-24.27
 30
-42.03687309969666
  0
POINT
  5
201
330
1F
100
AcDbEntity
  8
ConnectionPoints
100
AcDbPoint
 10
-26.4
 20
0.0
 30
0.0000000000000016
  0
ENDSEC
  0
SECTION
  2
OBJECTS
  0
DICTIONARY
  5
C
330
0
100
AcDbDictionary
281
     1
  3
ACAD_DETAILVIEWSTYLE
350
209
  3
ACAD_GROUP
350
D
  3
ACAD_LAYOUT
350
1A
  3
ACAD_MATERIAL
350
43
  3
ACAD_MLEADERSTYLE
350
6B
  3
ACAD_MLINESTYLE
350
17
  3
ACAD_PLOTSETTINGS
350
19
  3
ACAD_PLOTSTYLENAME
350
E
  3
ACAD_SCALELIST
350
47
  3
ACAD_SECTIONVIEWSTYLE
350
20A
  3
ACAD_TABLESTYLE
350
69
  3
ACAD_VISUALSTYLE
350
2A
  3
ACDB_RECOMPOSE_DATA
350
206
  3
AcDbVariableDictionary
350
202
  0
SUN
  5
6D
330
29
100
AcDbSun
 90
        1
290
     0
 63
     7
421
 16777215
 40
1.0
291
     1
 91
  2455826
 92
 54000000
292
     0
 70
     2
 71
   256
280
     1
  0
DICTIONARY
  5
209
102
{ACAD_REACTORS
330
C
102
}
330
C
100
AcDbDictionary
281
     1
  0
DICTIONARY
  5
D
102
{ACAD_REACTORS
330
C
102
}
330
C
100
AcDbDictionary
281
     1
  0
DICTIONARY
  5
1A
102
{ACAD_REACTORS
330
C
102
}
330
C
100
AcDbDictionary
281
     1
  3
Layout1
350
1E
  3
Layout2
350
26
  3
Model
350
22
  0
DICTIONARY
  5
43
102
{ACAD_REACTORS
330
C
102
}
330
C
100
AcDbDictionary
281
     1
  3
ByBlock
350
45
  3
ByLayer
350
44
  3
Global
350
46
  0
DICTIONARY
  5
6B
102
{ACAD_REACTORS
330
C
102
}
330
C
100
AcDbDictionary
281
     1
  3
Standard
350
6C
  0
DICTIONARY
  5
17
102
{ACAD_REACTORS
330
C
102
}
330
C
100
AcDbDictionary
281
     1
  3
Standard
350
18
  0
DICTIONARY
  5
19
102
{ACAD_REACTORS
330
C
102
}
330
C
100
AcDbDictionary
281
     1
  0
ACDBDICTIONARYWDFLT
  5
E
102
{ACAD_REACTORS
330
C
102
}
330
C
100
AcDbDictionary
281
     1
  3
Normal
350
F
100
AcDbDictionaryWithDefault
340
F
  0
DICTIONARY
  5
47
102
{ACAD_REACTORS
330
C
102
}
330
C
100
AcDbDictionary
281
     1
  3
A0
350
48
  3
A1
350
49
  3
A2
350
4A
  3
A3
350
4B
  3
A4
350
4C
  3
A5
350
4D
  3
A6
350
4E
  3
A7
350
4F
  3
A8
350
50
  3
A9
350
51
  3
B0
350
52
  3
B1
350
53
  3
B2
350
54
  3
B3
350
55
  3
B4
350
56
  3
B5
350
57
  3
B6
350
58
  3
B7
350
59
  3
B8
350
5A
  3
B9
350
5B
  3
C0
350
5C
  3
C1
350
5D
  3
C2
350
5E
  3
C3
350
5F
  3
C4
350
60
  3
C5
350
61
  3
C6
350
62
  3
C7
350
63
  3
C8
350
64
  3
C9
350
65
  3
D0
350
66
  3
D1
350
67
  3
D2
350
68
  0
DICTIONARY
  5
20A
102
{ACAD_REACTORS
330
C
102
}
330
C
100
AcDbDictionary
281
     1
  0
DICTIONARY
  5
69
102
{ACAD_REACTORS
330
C
102
}
330
C
100
AcDbDictionary
281
     1
  3
Standard
350
6A
  0
DICTIONARY
  5
2A
102
{ACAD_REACTORS
330
C
102
}
330
C
100
AcDbDictionary
281
     1
  3
2dWireframe
350
2F
  3
Basic
350
32
  3
Brighten
350
36
  3
ColorChange
350
3A
  3
Conceptual
350
34
  3
Dim
350
35
  3
EdgeColorOff
350
3D
  3
Facepattern
350
39
  3
Flat
350
2B
  3
FlatWithEdges
350
2C
  3
Gouraud
350
2D
  3
GouraudWithEdges
350
2E
  3
Hidden
350
31
  3
JitterOff
350
3B
  3
Linepattern
350
38
  3
OverhangOff
350
3C
  3
Realistic
350
33
  3
Shaded
350
42
  3
Shaded with edges
350
41
  3
Shades of Gray
350
3E
  3
Sketchy
350
3F
  3
Thicken
350
37
  3
Wireframe
350
30
  3
X-Ray
350
40
  0
XRECORD
  5
206
102
{ACAD_REACTORS
330
C
102
}
330
C
100
AcDbXrecord
280
     1
 90
        1
330
6A
  0
DICTIONARY
  5
202
102
{ACAD_REACTORS
330
C
102
}
330
C
100
AcDbDictionary
281
     1
  3
CANNOSCALE
350
203
  3
CMLEADERSTYLE
350
208
  3
CTABLESTYLE
350
207
  0
LAYOUT
  5
1E
102
{ACAD_REACTORS
330
1A
102
}
330
1A
100
AcDbPlotSettings
  1

  2
none_device
  4

  6

 40
0.0
 41
0.0
 42
0.0
 43
0.0
 44
0.0
 45
0.0
 46
0.0
 47
0.0
 48
0.0
 49
0.0
140
0.0
141
0.0
142
1.0
143
1.0
 70
   688
 72
     1
 73
     0
 74
     5
  7

 75
    16
 76
     0
 77
     2
 78
   300
147
1.0
148
0.0
149
0.0
100
AcDbLayout
  1
Layout1
 70
     1
 71
     1
 10
0.0
 20
0.0
 11
420.0
 21
297.0
 12
0.0
 22
0.0
 32
0.0
 14
1.000000000000000E+20
 24
1.000000000000000E+20
 34
1.000000000000000E+20
 15
-1.000000000000000E+20
 25
-1.000000000000000E+20
 35
-1.000000000000000E+20
146
0.0
 13
0.0
 23
0.0
 33
0.0
 16
1.0
 26
0.0
 36
0.0
 17
0.0
 27
1.0
 37
0.0
 76
     0
330
1B
  0
LAYOUT
  5
26
102
{ACAD_REACTORS
330
1A
102
}
330
1A
100
AcDbPlotSettings
  1

  2
none_device
  4

  6

 40
0.0
 41
0.0
 42
0.0
 43
0.0
 44
0.0
 45
0.0
 46
0.0
 47
0.0
 48
0.0
 49
0.0
140
0.0
141
0.0
142
1.0
143
1.0
 70
   688
 72
     1
 73
     0
 74
     5
  7

 75
    16
 76
     0
 77
     2
 78
   300
147
1.0
148
0.0
149
0.0
100
AcDbLayout
  1
Layout2
 70
     1
 71
     2
 10
0.0
 20
0.0
 11
0.0
 21
0.0
 12
0.0
 22
0.0
 32
0.0
 14
0.0
 24
0.0
 34
0.0
 15
0.0
 25
0.0
 35
0.0
146
0.0
 13
0.0
 23
0.0
 33
0.0
 16
1.0
 26
0.0
 36
0.0
 17
0.0
 27
1.0
 37
0.0
 76
     0
330
23
  0
LAYOUT
  5
22
102
{ACAD_REACTORS
330
1A
102
}
330
1A
100
AcDbPlotSettings
  1

  2
none_device
  4
Letter_(8.50_x_11.00_Inches)
  6

 40
6.35
 41
6.35
 42
6.35000508
 43
6.35000508
 44
215.9
 45
279.4
 46
0.0
 47
0.0
 48
0.0
 49
0.0
140
0.0
141
0.0
142
1.0
143
1.0
 70
  1712
 72
     1
 73
     0
 74
     0
  7

 75
     0
 76
     0
 77
     2
 78
   300
147
1.0
148
0.0
149
0.0
100
AcDbLayout
  1
Model
 70
     1
 71
     0
 10
0.0
 20
0.0
 11
420.0
 21
297.0
 12
0.0
 22
0.0
 32
0.0
 14
1.000000000000000E+20
 24
1.000000000000000E+20
 34
1.000000000000000E+20
 15
-1.000000000000000E+20
 25
-1.000000000000000E+20
 35
-1.000000000000000E+20
146
0.0
 13
0.0
 23
0.0
 33
0.0
 16
1.0
 26
0.0
 36
0.0
 17
0.0
 27
1.0
 37
0.0
 76
     0
330
1F
331
29
  0
MATERIAL
  5
45
102
{ACAD_REACTORS
330
43
102
}
330
43
100
AcDbMaterial
  1
ByBlock
 72
     1
 94
      127
  0
MATERIAL
  5
44
102
{ACAD_REACTORS
330
43
102
}
330
43
100
AcDbMaterial
  1
ByLayer
 72
     1
 94
      127
  0
MATERIAL
  5
46
102
{ACAD_REACTORS
330
43
102
}
330
43
100
AcDbMaterial
  1
Global
 72
     1
 94
      127
  0
MLEADERSTYLE
  5
6C
102
{ACAD_REACTORS
330
6B
102
}
330
6B
100
AcDbMLeaderStyle
179
     2
170
     2
171
     1
172
     0
 90
        2
 40
0.0
 41
0.0
173
     1
 91
-1056964608
340
14
 92
       -2
290
     1
 42
2.0
291
     1
 43
8.0
  3
Standard
341
0
 44
4.0
300

342
11
174
     1
178
     6
175
     1
176
     0
 93
-1056964608
 45
4.0
292
     0
297
     0
 46
4.0
343
0
 94
-1056964608
 47
1.0
 49
1.0
140
1.0
293
     1
141
0.0
294
     1
177
     0
142
1.0
295
     0
296
     0
143
3.75
271
     0
272
     9
273
     9
298
     0
  0
MLINESTYLE
  5
18
102
{ACAD_REACTORS
330
17
102
}
330
17
100
AcDbMlineStyle
  2
Standard
 70
     0
  3

 62
   256
 51
90.0
 52
90.0
 71
     2
 49
0.5
 62
   256
  6
BYLAYER
 49
-0.5
 62
   256
  6
BYLAYER
  0
ACDBPLACEHOLDER
  5
F
102
{ACAD_REACTORS
330
E
102
}
330
E
  0
SCALE
  5
48
102
{ACAD_REACTORS
330
47
102
}
330
47
100
AcDbScale
 70
     0
300
1:1
140
1.0
141
1.0
290
     1
  0
SCALE
  5
49
102
{ACAD_REACTORS
330
47
102
}
330
47
100
AcDbScale
 70
     0
300
1:2
140
1.0
141
2.0
290
     0
  0
SCALE
  5
4A
102
{ACAD_REACTORS
330
47
102
}
330
47
100
AcDbScale
 70
     0
300
1:4
140
1.0
141
4.0
290
     0
  0
SCALE
  5
4B
102
{ACAD_REACTORS
330
47
102
}
330
47
100
AcDbScale
 70
     0
300
1:5
140
1.0
141
5.0
290
     0
  0
SCALE
  5
4C
102
{ACAD_REACTORS
330
47
102
}
330
47
100
AcDbScale
 70
     0
300
1:8
140
1.0
141
8.0
290
     0
  0
SCALE
  5
4D
102
{ACAD_REACTORS
330
47
102
}
330
47
100
AcDbScale
 70
     0
300
1:10
140
1.0
141
10.0
290
     0
  0
SCALE
  5
4E
102
{ACAD_REACTORS
330
47
102
}
330
47
100
AcDbScale
 70
     0
300
1:16
140
1.0
141
16.0
290
     0
  0
SCALE
  5
4F
102
{ACAD_REACTORS
330
47
102
}
330
47
100
AcDbScale
 70
     0
300
1:20
140
1.0
141
20.0
290
     0
  0
SCALE
  5
50
102
{ACAD_REACTORS
330
47
102
}
330
47
100
AcDbScale
 70
     0
300
1:30
140
1.0
141
30.0
290
     0
  0
SCALE
  5
51
102
{ACAD_REACTORS
330
47
102
}
330
47
100
AcDbScale
 70
     0
300
1:40
140
1.0
141
40.0
290
     0
  0
SCALE
  5
52
102
{ACAD_REACTORS
330
47
102
}
330
47
100
AcDbScale
 70
     0
300
1:50
140
1.0
141
50.0
290
     0
  0
SCALE
  5
53
102
{ACAD_REACTORS
330
47
102
}
330
47
100
AcDbScale
 70
     0
300
1:100
140
1.0
141
100.0
290
     0
  0
SCALE
  5
54
102
{ACAD_REACTORS
330
47
102
}
330
47
100
AcDbScale
 70
     0
300
2:1
140
2.0
141
1.0
290
     0
  0
SCALE
  5
55
102
{ACAD_REACTORS
330
47
102
}
330
47
100
AcDbScale
 70
     0
300
4:1
140
4.0
141
1.0
290
     0
  0
SCALE
  5
56
102
{ACAD_REACTORS
330
47
102
}
330
47
100
AcDbScale
 70
     0
300
8:1
140
8.0
141
1.0
290
     0
  0
SCALE
  5
57
102
{ACAD_REACTORS
330
47
102
}
330
47
100
AcDbScale
 70
     0
300
10:1
140
10.0
141
1.0
290
     0
  0
SCALE
  5
58
102
{ACAD_REACTORS
330
47
102
}
330
47
100
AcDbScale
 70
     0
300
100:1
140
100.0
141
1.0
290
     0
  0
SCALE
  5
59
102
{ACAD_REACTORS
330
47
102
}
330
47
100
AcDbScale
 70
     0
300
1/128" = 1'-0"
140
0.0078125
141
12.0
290
     0
  0
SCALE
  5
5A
102
{ACAD_REACTORS
330
47
102
}
330
47
100
AcDbScale
 70
     0
300
1/64" = 1'-0"
140
0.015625
141
12.0
290
     0
  0
SCALE
  5
5B
102
{ACAD_REACTORS
330
47
102
}
330
47
100
AcDbScale
 70
     0
300
1/32" = 1'-0"
140
0.03125
141
12.0
290
     0
  0
SCALE
  5
5C
102
{ACAD_REACTORS
330
47
102
}
330
47
100
AcDbScale
 70
     0
300
1/16" = 1'-0"
140
0.0625
141
12.0
290
     0
  0
SCALE
  5
5D
102
{ACAD_REACTORS
330
47
102
}
330
47
100
AcDbScale
 70
     0
300
3/32" = 1'-0"
140
0.09375
141
12.0
290
     0
  0
SCALE
  5
5E
102
{ACAD_REACTORS
330
47
102
}
330
47
100
AcDbScale
 70
     0
300
1/8" = 1'-0"
140
0.125
141
12.0
290
     0
  0
SCALE
  5
5F
102
{ACAD_REACTORS
330
47
102
}
330
47
100
AcDbScale
 70
     0
300
3/16" = 1'-0"
140
0.1875
141
12.0
290
     0
  0
SCALE
  5
60
102
{ACAD_REACTORS
330
47
102
}
330
47
100
AcDbScale
 70
     0
300
1/4" = 1'-0"
140
0.25
141
12.0
290
     0
  0
SCALE
  5
61
102
{ACAD_REACTORS
330
47
102
}
330
47
100
AcDbScale
 70
     0
300
3/8" = 1'-0"
140
0.375
141
12.0
290
     0
  0
SCALE
  5
62
102
{ACAD_REACTORS
330
47
102
}
330
47
100
AcDbScale
 70
     0
300
1/2" = 1'-0"
140
0.5
141
12.0
290
     0
  0
SCALE
  5
63
102
{ACAD_REACTORS
330
47
102
}
330
47
100
AcDbScale
 70
     0
300
3/4" = 1'-0"
140
0.75
141
12.0
290
     0
  0
SCALE
  5
64
102
{ACAD_REACTORS
330
47
102
}
330
47
100
AcDbScale
 70
     0
300
1" = 1'-0"
140
1.0
141
12.0
290
     0
  0
SCALE
  5
65
102
{ACAD_REACTORS
330
47
102
}
330
47
100
AcDbScale
 70
     0
300
1-1/2" = 1'-0"
140
1.5
141
12.0
290
     0
  0
SCALE
  5
66
102
{ACAD_REACTORS
330
47
102
}
330
47
100
AcDbScale
 70
     0
300
3" = 1'-0"
140
3.0
141
12.0
290
     0
  0
SCALE
  5
67
102
{ACAD_REACTORS
330
47
102
}
330
47
100
AcDbScale
 70
     0
300
6" = 1'-0"
140
6.0
141
12.0
290
     0
  0
SCALE
  5
68
102
{ACAD_REACTORS
330
47
102
}
330
47
100
AcDbScale
 70
     0
300
1'-0" = 1'-0"
140
12.0
141
12.0
290
     0
  0
TABLESTYLE
  5
6A
102
{ACAD_REACTORS
330
69
102
}
102
{ACAD_XDICTIONARY
360
204
102
}
330
69
100
AcDbTableStyle
  3
Standard
 70
     0
 71
     0
 40
0.06
 41
0.06
280
     0
281
     0
  7
Standard
140
4.5
170
     2
 62
     0
 63
   257
283
     0
 90
        4
 91
        0
  1

274
    -2
284
     1
 64
     0
275
    -2
285
     1
 65
     0
276
    -2
286
     1
 66
     0
277
    -2
287
     1
 67
     0
278
    -2
288
     1
 68
     0
279
    -2
289
     1
 69
     0
  7
Standard
140
6.0
170
     5
 62
     0
 63
   257
283
     0
 90
        4
 91
        0
  1

274
    -2
284
     1
 64
     0
275
    -2
285
     1
 65
     0
276
    -2
286
     1
 66
     0
277
    -2
287
     1
 67
     0
278
    -2
288
     1
 68
     0
279
    -2
289
     1
 69
     0
  7
Standard
140
4.5
170
     5
 62
     0
 63
   257
283
     0
 90
        4
 91
        0
  1

274
    -2
284
     1
 64
     0
275
    -2
285
     1
 65
     0
276
    -2
286
     1
 66
     0
277
    -2
287
     1
 67
     0
278
    -2
288
     1
 68
     0
279
    -2
289
     1
 69
     0
  0
VISUALSTYLE
  5
2F
102
{ACAD_REACTORS
330
2A
102
}
330
2A
100
AcDbVisualStyle
  2
2dWireframe
 70
     4
177
     3
291
     0
 70
    58
 90
        0
176
     1
 90
        2
176
     1
 90
        0
176
     1
 90
        0
176
     1
 40
0.6
176
     1
 40
30.0
176
     1
 62
     7
420
 16777215
176
     1
 90
        1
176
     1
 90
        4
176
     1
 62
     7
176
     1
 62
   257
176
     1
 90
        1
176
     1
 90
        1
176
     1
 40
1.0
176
     1
 90
        0
176
     1
 62
   257
176
     1
 40
1.0
176
     1
 90
        1
176
     1
 90
        6
176
     1
 90
        2
176
     1
 62
     7
176
     1
 90
        5
176
     1
 90
        0
176
     1
 90
        0
176
     1
290
     0
176
     1
 90
        1
176
     1
 40
0.0
176
     1
 90
        0
176
     1
290
     1
176
     1
290
     1
176
     1
290
     0
176
     1
290
     0
176
     1
290
     0
176
     1
290
     0
176
     1
290
     0
176
     1
290
     0
176
     1
290
     0
176
     1
 90
       50
176
     1
 40
0.0
176
     1
 40
1.0
176
     1
 90
        0
176
     1
 62
    18
420
        0
176
     1
 90
       50
176
     1
 90
        3
176
     1
 62
     5
420
      255
176
     1
290
     0
176
     1
 90
       50
176
     1
 90
       50
176
     1
 90
       50
176
     1
290
     0
176
     1
 90
       50
176
     1
 62
   256
176
     0
 40
1.0
176
     0
 90
        2
176
     1
  1
strokes_ogs.tif
176
     1
290
     0
176
     1
 40
1.0
176
     1
 40
1.0
176
     1
  0
VISUALSTYLE
  5
32
102
{ACAD_REACTORS
330
2A
102
}
330
2A
100
AcDbVisualStyle
  2
Basic
 70
     7
177
     3
291
     1
 70
    58
 90
        1
176
     1
 90
        0
176
     1
 90
        1
176
     1
 90
        0
176
     1
 40
0.6
176
     1
 40
30.0
176
     1
 62
     7
420
 16777215
176
     1
 90
        0
176
     1
 90
        4
176
     1
 62
     7
176
     1
 62
   257
176
     1
 90
        1
176
     1
 90
        1
176
     1
 40
1.0
176
     1
 90
        8
176
     1
 62
     7
176
     1
 40
1.0
176
     1
 90
        1
176
     1
 90
        6
176
     1
 90
        2
176
     1
 62
     7
176
     1
 90
        5
176
     1
 90
        0
176
     1
 90
        0
176
     1
290
     0
176
     1
 90
        1
176
     1
 40
0.0
176
     1
 90
        0
176
     1
290
     0
176
     1
290
     1
176
     1
290
     1
176
     1
290
     0
176
     1
290
     0
176
     1
290
     0
176
     1
290
     0
176
     1
290
     0
176
     1
290
     0
176
     1
 90
       50
176
     1
 40
0.0
176
     1
 40
1.0
176
     1
 90
        0
176
     1
 62
    18
420
        0
176
     1
 90
       50
176
     1
 90
        3
176
     1
 62
     5
420
      255
176
     1
290
     0
176
     1
 90
       50
176
     1
 90
       50
176
     1
 90
       50
176
     1
290
     0
176
     1
 90
       50
176
     1
 62
   256
176
     0
 40
1.0
176
     0
 90
        2
176
     1
  1
strokes_ogs.tif
176
     1
290
     0
176
     1
 40
1.0
176
     1
 40
1.0
176
     1
  0
VISUALSTYLE
  5
36
102
{ACAD_REACTORS
330
2A
102
}
330
2A
100
AcDbVisualStyle
  2
Brighten
 70
    12
177
     3
291
     1
 70
    58
 90
        2
176
     1
 90
        2
176
     1
 90
        0
176
     1
 90
        0
176
     1
 40
0.6
176
     1
 40
30.0
176
     1
 62
     7
420
 16777215
176
     1
 90
        1
176
     1
 90
        4
176
     1
 62
     7
176
     1
 62
   257
176
     1
 90
        1
176
     1
 90
        1
176
     1
 40
1.0
176
     1
 90
        8
176
     1
 62
     7
176
     1
 40
1.0
176
     1
 90
        1
176
     1
 90
        6
176
     1
 90
        2
176
     1
 62
     7
176
     1
 90
        5
176
     1
 90
        0
176
     1
 90
        0
176
     1
290
     0
176
     1
 90
        1
176
     1
 40
50.0
176
     1
 90
        0
176
     1
290
     0
176
     1
290
     1
176
     1
290
     1
176
     1
290
     0
176
     1
290
     0
176
     1
290
     0
176
     1
290
     0
176
     1
290
     0
176
     1
290
     0
176
     1
 90
       50
176
     1
 40
0.0
176
     1
 40
1.0
176
     1
 90
        0
176
     1
 62
    18
420
        0
176
     1
 90
       50
176
     1
 90
        3
176
     1
 62
     5
420
      255
176
     1
290
     0
176
     1
 90
       50
176
     1
 90
       50
176
     1
 90
       50
176
     1
290
     0
176
     1
 90
       50
176
     1
 62
   256
176
     0
 40
1.0
176
     0
 90
        2
176
     1
  1
strokes_ogs.tif
176
     1
290
     0
176
     1
 40
1.0
176
     1
 40
1.0
176
     1
  0
VISUALSTYLE
  5
3A
102
{ACAD_REACTORS
330
2A
102
}
330
2A
100
AcDbVisualStyle
  2
ColorChange
 70
    16
177
     3
291
     1
 70
    58
 90
        2
176
     1
 90
        2
176
     1
 90
        3
176
     1
 90
        0
176
     1
 40
0.6
176
     1
 40
30.0
176
     1
 62
     8
420
  8421504
176
     1
 90
        1
176
     1
 90
        4
176
     1
 62
     7
176
     1
 62
   257
176
     1
 90
        1
176
     1
 90
        1
176
     1
 40
1.0
176
     1
 90
        8
176
     1
 62
     8
420
  8421504
176
     1
 40
1.0
176
     1
 90
        1
176
     1
 90
        6
176
     1
 90
        2
176
     1
 62
     7
176
     1
 90
        5
176
     1
 90
        0
176
     1
 90
        0
176
     1
290
     0
176
     1
 90
        1
176
     1
 40
0.0
176
     1
 90
        0
176
     1
290
     0
176
     1
290
     1
176
     1
290
     1
176
     1
290
     0
176
     1
290
     0
176
     1
290
     0
176
     1
290
     0
176
     1
290
     0
176
     1
290
     0
176
     1
 90
       50
176
     1
 40
0.0
176
     1
 40
1.0
176
     1
 90
        0
176
     1
 62
    18
420
        0
176
     1
 90
       50
176
     1
 90
        3
176
     1
 62
     5
420
      255
176
     1
290
     0
176
     1
 90
       50
176
     1
 90
       50
176
     1
 90
       50
176
     1
290
     0
176
     1
 90
       50
176
     1
 62
   256
176
     0
 40
1.0
176
     0
 90
        2
176
     1
  1
strokes_ogs.tif
176
     1
290
     0
176
     1
 40
1.0
176
     1
 40
1.0
176
     1
  0
VISUALSTYLE
  5
34
102
{ACAD_REACTORS
330
2A
102
}
330
2A
100
AcDbVisualStyle
  2
Conceptual
 70
     9
177
     3
291
     0
 70
    58
 90
        3
176
     1
 90
        2
176
     1
 90
        0
176
     1
 90
        0
176
     1
 40
0.6
176
     1
 40
30.0
176
     1
 62
     7
420
 16777215
176
     1
 90
        2
176
     1
 90
        2
176
     1
 62
     7
176
     1
 62
   257
176
     1
 90
        1
176
     1
 90
        1
176
     1
 40
179.0
176
     1
 90
        8
176
     1
 62
     7
176
     1
 40
1.0
176
     1
 90
        1
176
     1
 90
        6
176
     1
 90
        2
176
     1
 62
     7
176
     1
 90
        3
176
     1
 90
        0
176
     1
 90
        0
176
     1
290
     0
176
     1
 90
        1
176
     1
 40
0.0
176
     1
 90
        0
176
     1
290
     0
176
     1
290
     1
176
     1
290
     1
176
     1
290
     0
176
     1
290
     0
176
     1
290
     0
176
     1
290
     0
176
     1
290
     0
176
     1
290
     0
176
     1
 90
       50
176
     1
 40
0.0
176
     1
 40
1.0
176
     1
 90
        0
176
     1
 62
    18
420
        0
176
     1
 90
       50
176
     1
 90
        3
176
     1
 62
     5
420
      255
176
     1
290
     0
176
     1
 90
       50
176
     1
 90
       50
176
     1
 90
       50
176
     1
290
     0
176
     1
 90
       50
176
     1
 62
   256
176
     0
 40
1.0
176
     0
 90
        2
176
     1
  1
strokes_ogs.tif
176
     1
290
     0
176
     1
 40
1.0
176
     1
 40
1.0
176
     1
  0
VISUALSTYLE
  5
35
102
{ACAD_REACTORS
330
2A
102
}
330
2A
100
AcDbVisualStyle
  2
Dim
 70
    11
177
     3
291
     1
 70
    58
 90
        2
176
     1
 90
        2
176
     1
 90
        0
176
     1
 90
        0
176
     1
 40
0.6
176
     1
 40
30.0
176
     1
 62
     7
420
 16777215
176
     1
 90
        1
176
     1
 90
        4
176
     1
 62
     7
176
     1
 62
   257
176
     1
 90
        1
176
     1
 90
        1
176
     1
 40
1.0
176
     1
 90
        8
176
     1
 62
     7
176
     1
 40
1.0
176
     1
 90
        1
176
     1
 90
        6
176
     1
 90
        2
176
     1
 62
     7
176
     1
 90
        5
176
     1
 90
        0
176
     1
 90
        0
176
     1
290
     0
176
     1
 90
        1
176
     1
 40
-50.0
176
     1
 90
        0
176
     1
290
     0
176
     1
290
     1
176
     1
290
     1
176
     1
290
     0
176
     1
290
     0
176
     1
290
     0
176
     1
290
     0
176
     1
290
     0
176
     1
290
     0
176
     1
 90
       50
176
     1
 40
0.0
176
     1
 40
1.0
176
     1
 90
        0
176
     1
 62
    18
420
        0
176
     1
 90
       50
176
     1
 90
        3
176
     1
 62
     5
420
      255
176
     1
290
     0
176
     1
 90
       50
176
     1
 90
       50
176
     1
 90
       50
176
     1
290
     0
176
     1
 90
       50
176
     1
 62
   256
176
     0
 40
1.0
176
     0
 90
        2
176
     1
  1
strokes_ogs.tif
176
     1
290
     0
176
     1
 40
1.0
176
     1
 40
1.0
176
     1
  0
VISUALSTYLE
  5
3D
102
{ACAD_REACTORS
330
2A
102
}
330
2A
100
AcDbVisualStyle
  2
EdgeColorOff
 70
    22
177
     3
291
     1
 70
    58
 90
        2
176
     0
 90
        2
176
     0
 90
        0
176
     0
 90
        0
176
     0
 40
0.6
176
     0
 40
30.0
176
     0
 62
     7
420
 16777215
176
     0
 90
        1
176
     0
 90
        4
176
     0
 62
     7
176
     0
 62
   257
176
     0
 90
        1
176
     0
 90
        1
176
     0
 40
1.0
176
     0
 90
        8
176
     2
 62
     7
176
     0
 40
1.0
176
     0
 90
        1
176
     0
 90
        6
176
     0
 90
        2
176
     0
 62
     7
176
     0
 90
        5
176
     0
 90
        0
176
     0
 90
        0
176
     0
290
     0
176
     0
 90
        1
176
     0
 40
0.0
176
     0
 90
        0
176
     0
290
     0
176
     0
290
     1
176
     0
290
     1
176
     0
290
     0
176
     0
290
     0
176
     0
290
     0
176
     0
290
     0
176
     0
290
     0
176
     0
290
     0
176
     0
 90
       50
176
     0
 40
0.0
176
     0
 40
1.0
176
     0
 90
        0
176
     0
 62
    18
420
        0
176
     0
 90
       50
176
     0
 90
        3
176
     0
 62
     5
420
      255
176
     0
290
     0
176
     0
 90
       50
176
     0
 90
       50
176
     0
 90
       50
176
     0
290
     0
176
     0
 90
       50
176
     0
 62
   256
176
     0
 40
1.0
176
     0
 90
        2
176
     0
  1
strokes_ogs.tif
176
     0
290
     0
176
     0
 40
1.0
176
     0
 40
1.0
176
     0
  0
VISUALSTYLE
  5
39
102
{ACAD_REACTORS
330
2A
102
}
330
2A
100
AcDbVisualStyle
  2
Facepattern
 70
    15
177
     3
291
     1
 70
    58
 90
        2
176
     1
 90
        2
176
     1
 90
        0
176
     1
 90
        0
176
     1
 40
0.6
176
     1
 40
30.0
176
     1
 62
     7
420
 16777215
176
     1
 90
        1
176
     1
 90
        4
176
     1
 62
     7
176
     1
 62
   257
176
     1
 90
        1
176
     1
 90
        1
176
     1
 40
1.0
176
     1
 90
        8
176
     1
 62
     7
176
     1
 40
1.0
176
     1
 90
        1
176
     1
 90
        6
176
     1
 90
        2
176
     1
 62
     7
176
     1
 90
        5
176
     1
 90
        0
176
     1
 90
        0
176
     1
290
     0
176
     1
 90
        1
176
     1
 40
0.0
176
     1
 90
        0
176
     1
290
     0
176
     1
290
     1
176
     1
290
     1
176
     1
290
     0
176
     1
290
     0
176
     1
290
     0
176
     1
290
     0
176
     1
290
     0
176
     1
290
     0
176
     1
 90
       50
176
     1
 40
0.0
176
     1
 40
1.0
176
     1
 90
        0
176
     1
 62
    18
420
        0
176
     1
 90
       50
176
     1
 90
        3
176
     1
 62
     5
420
      255
176
     1
290
     0
176
     1
 90
       50
176
     1
 90
       50
176
     1
 90
       50
176
     1
290
     0
176
     1
 90
       50
176
     1
 62
   256
176
     0
 40
1.0
176
     0
 90
        2
176
     1
  1
strokes_ogs.tif
176
     1
290
     0
176
     1
 40
1.0
176
     1
 40
1.0
176
     1
  0
VISUALSTYLE
  5
2B
102
{ACAD_REACTORS
330
2A
102
}
330
2A
100
AcDbVisualStyle
  2
Flat
 70
     0
177
     3
291
     1
 70
    58
 90
        2
176
     1
 90
        1
176
     1
 90
        1
176
     1
 90
        2
176
     1
 40
0.6
176
     1
 40
30.0
176
     1
 62
     7
420
 16777215
176
     1
 90
        0
176
     1
 90
        0
176
     1
 62
     7
176
     1
 62
   257
176
     1
 90
        1
176
     1
 90
        1
176
     1
 40
1.0
176
     1
 90
        8
176
     1
 62
     7
176
     1
 40
1.0
176
     1
 90
        1
176
     1
 90
        6
176
     1
 90
        2
176
     1
 62
     7
176
     1
 90
        5
176
     1
 90
        0
176
     1
 90
        0
176
     1
290
     0
176
     1
 90
       13
176
     1
 40
0.0
176
     1
 90
        0
176
     1
290
     0
176
     1
290
     1
176
     1
290
     1
176
     1
290
     0
176
     1
290
     0
176
     1
290
     0
176
     1
290
     0
176
     1
290
     0
176
     1
290
     0
176
     1
 90
       50
176
     1
 40
0.0
176
     1
 40
1.0
176
     1
 90
        0
176
     1
 62
    18
420
        0
176
     1
 90
       50
176
     1
 90
        3
176
     1
 62
     5
420
      255
176
     1
290
     0
176
     1
 90
       50
176
     1
 90
       50
176
     1
 90
       50
176
     1
290
     0
176
     1
 90
       50
176
     1
 62
   256
176
     0
 40
1.0
176
     0
 90
        2
176
     1
  1
strokes_ogs.tif
176
     1
290
     0
176
     1
 40
1.0
176
     1
 40
1.0
176
     1
  0
VISUALSTYLE
  5
2C
102
{ACAD_REACTORS
330
2A
102
}
330
2A
100
AcDbVisualStyle
  2
FlatWithEdges
 70
     1
177
     3
291
     1
 70
    58
 90
        2
176
     1
 90
        1
176
     1
 90
        1
176
     1
 90
        2
176
     1
 40
0.6
176
     1
 40
30.0
176
     1
 62
     7
420
 16777215
176
     1
 90
        1
176
     1
 90
        0
176
     1
 62
     7
176
     1
 62
   257
176
     1
 90
        1
176
     1
 90
        1
176
     1
 40
1.0
176
     1
 90
        0
176
     1
 62
   257
176
     1
 40
1.0
176
     1
 90
        1
176
     1
 90
        6
176
     1
 90
        2
176
     1
 62
     7
176
     1
 90
        5
176
     1
 90
        0
176
     1
 90
        0
176
     1
290
     0
176
     1
 90
       13
176
     1
 40
0.0
176
     1
 90
        0
176
     1
290
     0
176
     1
290
     1
176
     1
290
     1
176
     1
290
     0
176
     1
290
     0
176
     1
290
     0
176
     1
290
     0
176
     1
290
     0
176
     1
290
     0
176
     1
 90
       50
176
     1
 40
0.0
176
     1
 40
1.0
176
     1
 90
        0
176
     1
 62
    18
420
        0
176
     1
 90
       50
176
     1
 90
        3
176
     1
 62
     5
420
      255
176
     1
290
     0
176
     1
 90
       50
176
     1
 90
       50
176
     1
 90
       50
176
     1
290
     0
176
     1
 90
       50
176
     1
 62
   256
176
     0
 40
1.0
176
     0
 90
        2
176
     1
  1
strokes_ogs.tif
176
     1
290
     0
176
     1
 40
1.0
176
     1
 40
1.0
176
     1
  0
VISUALSTYLE
  5
2D
102
{ACAD_REACTORS
330
2A
102
}
330
2A
100
AcDbVisualStyle
  2
Gouraud
 70
     2
177
     3
291
     1
 70
    58
 90
        2
176
     1
 90
        2
176
     1
 90
        1
176
     1
 90
        2
176
     1
 40
0.6
176
     1
 40
30.0
176
     1
 62
     7
420
 16777215
176
     1
 90
        0
176
     1
 90
        0
176
     1
 62
     7
176
     1
 62
   257
176
     1
 90
        1
176
     1
 90
        1
176
     1
 40
1.0
176
     1
 90
        0
176
     1
 62
     7
176
     1
 40
1.0
176
     1
 90
        1
176
     1
 90
        6
176
     1
 90
        2
176
     1
 62
     7
176
     1
 90
        5
176
     1
 90
        0
176
     1
 90
        0
176
     1
290
     0
176
     1
 90
       13
176
     1
 40
0.0
176
     1
 90
        0
176
     1
290
     0
176
     1
290
     1
176
     1
290
     1
176
     1
290
     0
176
     1
290
     0
176
     1
290
     0
176
     1
290
     0
176
     1
290
     0
176
     1
290
     0
176
     1
 90
       50
176
     1
 40
0.0
176
     1
 40
1.0
176
     1
 90
        0
176
     1
 62
    18
420
        0
176
     1
 90
       50
176
     1
 90
        3
176
     1
 62
     5
420
      255
176
     1
290
     0
176
     1
 90
       50
176
     1
 90
       50
176
     1
 90
       50
176
     1
290
     0
176
     1
 90
       50
176
     1
 62
   256
176
     0
 40
1.0
176
     0
 90
        2
176
     1
  1
strokes_ogs.tif
176
     1
290
     0
176
     1
 40
1.0
176
     1
 40
1.0
176
     1
  0
VISUALSTYLE
  5
2E
102
{ACAD_REACTORS
330
2A
102
}
330
2A
100
AcDbVisualStyle
  2
GouraudWithEdges
 70
     3
177
     3
291
     1
 70
    58
 90
        2
176
     1
 90
        2
176
     1
 90
        1
176
     1
 90
        2
176
     1
 40
0.6
176
     1
 40
30.0
176
     1
 62
     7
420
 16777215
176
     1
 90
        1
176
     1
 90
        0
176
     1
 62
     7
176
     1
 62
   257
176
     1
 90
        1
176
     1
 90
        1
176
     1
 40
1.0
176
     1
 90
        0
176
     1
 62
   257
176
     1
 40
1.0
176
     1
 90
        1
176
     1
 90
        6
176
     1
 90
        2
176
     1
 62
     7
176
     1
 90
        5
176
     1
 90
        0
176
     1
 90
        0
176
     1
290
     0
176
     1
 90
       13
176
     1
 40
0.0
176
     1
 90
        0
176
     1
290
     0
176
     1
290
     1
176
     1
290
     1
176
     1
290
     0
176
     1
290
     0
176
     1
290
     0
176
     1
290
     0
176
     1
290
     0
176
     1
290
     0
176
     1
 90
       50
176
     1
 40
0.0
176
     1
 40
1.0
176
     1
 90
        0
176
     1
 62
    18
420
        0
176
     1
 90
       50
176
     1
 90
        3
176
     1
 62
     5
420
      255
176
     1
290
     0
176
     1
 90
       50
176
     1
 90
       50
176
     1
 90
       50
176
     1
290
     0
176
     1
 90
       50
176
     1
 62
   256
176
     0
 40
1.0
176
     0
 90
        2
176
     1
  1
strokes_ogs.tif
176
     1
290
     0
176
     1
 40
1.0
176
     1
 40
1.0
176
     1
  0
VISUALSTYLE
  5
31
102
{ACAD_REACTORS
330
2A
102
}
330
2A
100
AcDbVisualStyle
  2
Hidden
 70
     6
177
     3
291
     0
 70
    58
 90
        1
176
     1
 90
        2
176
     1
 90
        2
176
     1
 90
        0
176
     1
 40
0.6
176
     1
 40
30.0
176
     1
 62
     7
420
 16777215
176
     1
 90
        2
176
     1
 90
        2
176
     1
 62
     7
176
     1
 62
   257
176
     1
 90
        2
176
     1
 90
        1
176
     1
 40
40.0
176
     1
 90
        0
176
     1
 62
   257
176
     1
 40
1.0
176
     1
 90
        1
176
     1
 90
        6
176
     1
 90
        2
176
     1
 62
     7
176
     1
 90
        3
176
     1
 90
        0
176
     1
 90
        0
176
     1
290
     0
176
     1
 90
        1
176
     1
 40
0.0
176
     1
 90
        0
176
     1
290
     0
176
     1
290
     1
176
     1
290
     1
176
     1
290
     0
176
     1
290
     0
176
     1
290
     0
176
     1
290
     0
176
     1
290
     0
176
     1
290
     0
176
     1
 90
       50
176
     1
 40
0.0
176
     1
 40
1.0
176
     1
 90
        0
176
     1
 62
    18
420
        0
176
     1
 90
       50
176
     1
 90
        3
176
     1
 62
     5
420
      255
176
     1
290
     0
176
     1
 90
       50
176
     1
 90
       50
176
     1
 90
       50
176
     1
290
     0
176
     1
 90
       50
176
     1
 62
   256
176
     0
 40
1.0
176
     0
 90
        2
176
     1
  1
strokes_ogs.tif
176
     1
290
     0
176
     1
 40
1.0
176
     1
 40
1.0
176
     1
  0
VISUALSTYLE
  5
3B
102
{ACAD_REACTORS
330
2A
102
}
330
2A
100
AcDbVisualStyle
  2
JitterOff
 70
    20
177
     3
291
     1
 70
    58
 90
        2
176
     0
 90
        2
176
     0
 90
        0
176
     0
 90
        0
176
     0
 40
0.6
176
     0
 40
30.0
176
     0
 62
     7
420
 16777215
176
     0
 90
        1
176
     0
 90
        4
176
     0
 62
     7
176
     0
 62
   257
176
     0
 90
        1
176
     0
 90
        1
176
     0
 40
1.0
176
     0
 90
       10
176
     2
 62
     7
176
     0
 40
1.0
176
     0
 90
        1
176
     0
 90
        6
176
     0
 90
        2
176
     0
 62
     7
176
     0
 90
        5
176
     0
 90
        0
176
     0
 90
        0
176
     0
290
     0
176
     0
 90
        1
176
     0
 40
0.0
176
     0
 90
        0
176
     0
290
     0
176
     0
290
     1
176
     0
290
     1
176
     0
290
     0
176
     0
290
     0
176
     0
290
     0
176
     0
290
     0
176
     0
290
     0
176
     0
290
     0
176
     0
 90
       50
176
     0
 40
0.0
176
     0
 40
1.0
176
     0
 90
        0
176
     0
 62
    18
420
        0
176
     0
 90
       50
176
     0
 90
        3
176
     0
 62
     5
420
      255
176
     0
290
     0
176
     0
 90
       50
176
     0
 90
       50
176
     0
 90
       50
176
     0
290
     0
176
     0
 90
       50
176
     0
 62
   256
176
     0
 40
1.0
176
     0
 90
        2
176
     0
  1
strokes_ogs.tif
176
     0
290
     0
176
     0
 40
1.0
176
     0
 40
1.0
176
     0
  0
VISUALSTYLE
  5
38
102
{ACAD_REACTORS
330
2A
102
}
330
2A
100
AcDbVisualStyle
  2
Linepattern
 70
    14
177
     3
291
     1
 70
    58
 90
        2
176
     1
 90
        2
176
     1
 90
        0
176
     1
 90
        0
176
     1
 40
0.6
176
     1
 40
30.0
176
     1
 62
     7
420
 16777215
176
     1
 90
        1
176
     1
 90
        4
176
     1
 62
     7
176
     1
 62
   257
176
     1
 90
        7
176
     1
 90
        7
176
     1
 40
1.0
176
     1
 90
        8
176
     1
 62
     7
176
     1
 40
1.0
176
     1
 90
        1
176
     1
 90
        6
176
     1
 90
        2
176
     1
 62
     7
176
     1
 90
        5
176
     1
 90
        0
176
     1
 90
        0
176
     1
290
     0
176
     1
 90
        1
176
     1
 40
0.0
176
     1
 90
        0
176
     1
290
     0
176
     1
290
     1
176
     1
290
     1
176
     1
290
     0
176
     1
290
     0
176
     1
290
     0
176
     1
290
     0
176
     1
290
     0
176
     1
290
     0
176
     1
 90
       50
176
     1
 40
0.0
176
     1
 40
1.0
176
     1
 90
        0
176
     1
 62
    18
420
        0
176
     1
 90
       50
176
     1
 90
        3
176
     1
 62
     5
420
      255
176
     1
290
     0
176
     1
 90
       50
176
     1
 90
       50
176
     1
 90
       50
176
     1
290
     0
176
     1
 90
       50
176
     1
 62
   256
176
     0
 40
1.0
176
     0
 90
        2
176
     1
  1
strokes_ogs.tif
176
     1
290
     0
176
     1
 40
1.0
176
     1
 40
1.0
176
     1
  0
VISUALSTYLE
  5
3C
102
{ACAD_REACTORS
330
2A
102
}
330
2A
100
AcDbVisualStyle
  2
OverhangOff
 70
    21
177
     3
291
     1
 70
    58
 90
        2
176
     0
 90
        2
176
     0
 90
        0
176
     0
 90
        0
176
     0
 40
0.6
176
     0
 40
30.0
176
     0
 62
     7
420
 16777215
176
     0
 90
        1
176
     0
 90
        4
176
     0
 62
     7
176
     0
 62
   257
176
     0
 90
        1
176
     0
 90
        1
176
     0
 40
1.0
176
     0
 90
        9
176
     2
 62
     7
176
     0
 40
1.0
176
     0
 90
        1
176
     0
 90
        6
176
     0
 90
        2
176
     0
 62
     7
176
     0
 90
        5
176
     0
 90
        0
176
     0
 90
        0
176
     0
290
     0
176
     0
 90
        1
176
     0
 40
0.0
176
     0
 90
        0
176
     0
290
     0
176
     0
290
     1
176
     0
290
     1
176
     0
290
     0
176
     0
290
     0
176
     0
290
     0
176
     0
290
     0
176
     0
290
     0
176
     0
290
     0
176
     0
 90
       50
176
     0
 40
0.0
176
     0
 40
1.0
176
     0
 90
        0
176
     0
 62
    18
420
        0
176
     0
 90
       50
176
     0
 90
        3
176
     0
 62
     5
420
      255
176
     0
290
     0
176
     0
 90
       50
176
     0
 90
       50
176
     0
 90
       50
176
     0
290
     0
176
     0
 90
       50
176
     0
 62
   256
176
     0
 40
1.0
176
     0
 90
        2
176
     0
  1
strokes_ogs.tif
176
     0
290
     0
176
     0
 40
1.0
176
     0
 40
1.0
176
     0
  0
VISUALSTYLE
  5
33
102
{ACAD_REACTORS
330
2A
102
}
330
2A
100
AcDbVisualStyle
  2
Realistic
 70
     8
177
     3
291
     0
 70
    58
 90
        2
176
     1
 90
        3
176
     1
 90
        0
176
     1
 90
        2
176
     1
 40
0.6
176
     1
 40
30.0
176
     1
 62
     7
420
 16777215
176
     1
 90
        0
176
     1
 90
        0
176
     1
 62
     7
176
     1
 62
   257
176
     1
 90
        1
176
     1
 90
        1
176
     1
 40
1.0
176
     1
 90
        8
176
     1
 62
   257
176
     1
 40
1.0
176
     1
 90
        1
176
     1
 90
        6
176
     1
 90
        2
176
     1
 62
     7
176
     1
 90
        3
176
     1
 90
        0
176
     1
 90
        0
176
     1
290
     0
176
     1
 90
       13
176
     1
 40
0.0
176
     1
 90
        0
176
     1
290
     0
176
     1
290
     1
176
     1
290
     1
176
     1
290
     0
176
     1
290
     0
176
     1
290
     0
176
     1
290
     0
176
     1
290
     0
176
     1
290
     0
176
     1
 90
       50
176
     1
 40
0.0
176
     1
 40
1.0
176
     1
 90
        0
176
     1
 62
    18
420
        0
176
     1
 90
       50
176
     1
 90
        3
176
     1
 62
     5
420
      255
176
     1
290
     0
176
     1
 90
       50
176
     1
 90
       50
176
     1
 90
       50
176
     1
290
     0
176
     1
 90
       50
176
     1
 62
   256
176
     0
 40
1.0
176
     0
 90
        2
176
     1
  1
strokes_ogs.tif
176
     1
290
     0
176
     1
 40
1.0
176
     1
 40
1.0
176
     1
  0
VISUALSTYLE
  5
42
102
{ACAD_REACTORS
330
2A
102
}
330
2A
100
AcDbVisualStyle
  2
Shaded
 70
    27
177
     3
291
     0
 70
    58
 90
        2
176
     1
 90
        2
176
     1
 90
        1
176
     1
 90
        2
176
     1
 40
0.6
176
     1
 40
30.0
176
     1
 62
     7
420
 16777215
176
     1
 90
        0
176
     1
 90
        4
176
     1
 62
     7
176
     1
 62
   257
176
     1
 90
        1
176
     1
 90
        1
176
     1
 40
1.0
176
     1
 90
        8
176
     1
 62
   257
176
     1
 40
1.0
176
     1
 90
        1
176
     1
 90
        6
176
     1
 90
        2
176
     1
 62
     8
420
  7895160
176
     1
 90
        3
176
     1
 90
        0
176
     1
 90
        0
176
     1
290
     0
176
     1
 90
        5
176
     1
 40
0.0
176
     1
 90
        0
176
     1
290
     0
176
     1
290
     1
176
     1
290
     1
176
     1
290
     0
176
     1
290
     0
176
     1
290
     0
176
     1
290
     0
176
     1
290
     0
176
     1
290
     0
176
     1
 90
       50
176
     1
 40
0.0
176
     1
 40
1.0
176
     1
 90
        0
176
     1
 62
    18
420
        0
176
     1
 90
       50
176
     1
 90
        3
176
     1
 62
     5
420
      255
176
     1
290
     0
176
     1
 90
       50
176
     1
 90
       50
176
     1
 90
       50
176
     1
290
     0
176
     1
 90
       50
176
     1
 62
   256
176
     0
 40
1.0
176
     0
 90
        2
176
     1
  1
strokes_ogs.tif
176
     1
290
     0
176
     1
 40
1.0
176
     1
 40
1.0
176
     1
  0
VISUALSTYLE
  5
41
102
{ACAD_REACTORS
330
2A
102
}
330
2A
100
AcDbVisualStyle
  2
Shaded with edges
 70
    26
177
     3
291
     0
 70
    58
 90
        2
176
     1
 90
        2
176
     1
 90
        1
176
     1
 90
        2
176
     1
 40
0.6
176
     1
 40
30.0
176
     1
 62
     7
420
 16777215
176
     1
 90
        1
176
     1
 90
       10
176
     1
 62
     7
176
     1
 62
   257
176
     1
 90
        2
176
     1
 90
        1
176
     1
 40
1.0
176
     1
 90
        8
176
     1
 62
   257
176
     1
 40
1.0
176
     1
 90
        1
176
     1
 90
        6
176
     1
 90
        2
176
     1
 62
     7
176
     1
 90
        3
176
     1
 90
        0
176
     1
 90
        0
176
     1
290
     0
176
     1
 90
        5
176
     1
 40
0.0
176
     1
 90
        0
176
     1
290
     0
176
     1
290
     1
176
     1
290
     1
176
     1
290
     0
176
     1
290
     0
176
     1
290
     0
176
     1
290
     0
176
     1
290
     0
176
     1
290
     0
176
     1
 90
       50
176
     1
 40
0.0
176
     1
 40
1.0
176
     1
 90
        0
176
     1
 62
    18
420
        0
176
     1
 90
       50
176
     1
 90
        3
176
     1
 62
     5
420
      255
176
     1
290
     0
176
     1
 90
       50
176
     1
 90
       50
176
     1
 90
       50
176
     1
290
     0
176
     1
 90
       50
176
     1
 62
   256
176
     0
 40
1.0
176
     0
 90
        2
176
     1
  1
strokes_ogs.tif
176
     1
290
     0
176
     1
 40
1.0
176
     1
 40
1.0
176
     1
  0
VISUALSTYLE
  5
3E
102
{ACAD_REACTORS
330
2A
102
}
330
2A
100
AcDbVisualStyle
  2
Shades of Gray
 70
    23
177
     3
291
     0
 70
    58
 90
        2
176
     1
 90
        2
176
     1
 90
        3
176
     1
 90
        0
176
     1
 40
0.6
176
     1
 40
30.0
176
     1
 62
     7
420
 16777215
176
     1
 90
        2
176
     1
 90
        2
176
     1
 62
     7
176
     1
 62
     7
176
     1
 90
        1
176
     1
 90
        1
176
     1
 40
40.0
176
     1
 90
        8
176
     1
 62
     7
176
     1
 40
1.0
176
     1
 90
        1
176
     1
 90
        6
176
     1
 90
        2
176
     1
 62
     7
176
     1
 90
        3
176
     1
 90
        0
176
     1
 90
        0
176
     1
290
     0
176
     1
 90
        1
176
     1
 40
0.0
176
     1
 90
        0
176
     1
290
     0
176
     1
290
     1
176
     1
290
     1
176
     1
290
     0
176
     1
290
     0
176
     1
290
     0
176
     1
290
     0
176
     1
290
     0
176
     1
290
     0
176
     1
 90
       50
176
     1
 40
0.0
176
     1
 40
1.0
176
     1
 90
        0
176
     1
 62
    18
420
        0
176
     1
 90
       50
176
     1
 90
        3
176
     1
 62
     5
420
      255
176
     1
290
     0
176
     1
 90
       50
176
     1
 90
       50
176
     1
 90
       50
176
     1
290
     0
176
     1
 90
       50
176
     1
 62
   256
176
     0
 40
1.0
176
     0
 90
        2
176
     1
  1
strokes_ogs.tif
176
     1
290
     0
176
     1
 40
1.0
176
     1
 40
1.0
176
     1
  0
VISUALSTYLE
  5
3F
102
{ACAD_REACTORS
330
2A
102
}
330
2A
100
AcDbVisualStyle
  2
Sketchy
 70
    24
177
     3
291
     0
 70
    58
 90
        1
176
     1
 90
        2
176
     1
 90
        2
176
     1
 90
        0
176
     1
 40
0.6
176
     1
 40
30.0
176
     1
 62
     7
420
 16777215
176
     1
 90
        2
176
     1
 90
        2
176
     1
 62
     7
176
     1
 62
     7
176
     1
 90
        1
176
     1
 90
        1
176
     1
 40
40.0
176
     1
 90
       11
176
     1
 62
     7
176
     1
 40
1.0
176
     1
 90
        1
176
     1
 90
        6
176
     1
 90
        2
176
     1
 62
     7
176
     1
 90
        6
176
     1
 90
        0
176
     1
 90
        0
176
     1
290
     0
176
     1
 90
        1
176
     1
 40
0.0
176
     1
 90
        0
176
     1
290
     0
176
     1
290
     1
176
     1
290
     1
176
     1
290
     0
176
     1
290
     0
176
     1
290
     0
176
     1
290
     0
176
     1
290
     0
176
     1
290
     0
176
     1
 90
       50
176
     1
 40
0.0
176
     1
 40
1.0
176
     1
 90
        0
176
     1
 62
    18
420
        0
176
     1
 90
       50
176
     1
 90
        3
176
     1
 62
     5
420
      255
176
     1
290
     0
176
     1
 90
       50
176
     1
 90
       50
176
     1
 90
       50
176
     1
290
     0
176
     1
 90
       50
176
     1
 62
   256
176
     0
 40
1.0
176
     0
 90
        2
176
     1
  1
strokes_ogs.tif
176
     1
290
     0
176
     1
 40
1.0
176
     1
 40
1.0
176
     1
  0
VISUALSTYLE
  5
37
102
{ACAD_REACTORS
330
2A
102
}
330
2A
100
AcDbVisualStyle
  2
Thicken
 70
    13
177
     3
291
     1
 70
    58
 90
        2
176
     1
 90
        2
176
     1
 90
        0
176
     1
 90
        0
176
     1
 40
0.6
176
     1
 40
30.0
176
     1
 62
     7
420
 16777215
176
     1
 90
        1
176
     1
 90
        4
176
     1
 62
     7
176
     1
 62
   257
176
     1
 90
        1
176
     1
 90
        1
176
     1
 40
1.0
176
     1
 90
       12
176
     1
 62
     7
176
     1
 40
1.0
176
     1
 90
        1
176
     1
 90
        6
176
     1
 90
        2
176
     1
 62
     7
176
     1
 90
        5
176
     1
 90
        0
176
     1
 90
        0
176
     1
290
     0
176
     1
 90
        1
176
     1
 40
0.0
176
     1
 90
        0
176
     1
290
     0
176
     1
290
     1
176
     1
290
     1
176
     1
290
     0
176
     1
290
     0
176
     1
290
     0
176
     1
290
     0
176
     1
290
     0
176
     1
290
     0
176
     1
 90
       50
176
     1
 40
0.0
176
     1
 40
1.0
176
     1
 90
        0
176
     1
 62
    18
420
        0
176
     1
 90
       50
176
     1
 90
        3
176
     1
 62
     5
420
      255
176
     1
290
     0
176
     1
 90
       50
176
     1
 90
       50
176
     1
 90
       50
176
     1
290
     0
176
     1
 90
       50
176
     1
 62
   256
176
     0
 40
1.0
176
     0
 90
        2
176
     1
  1
strokes_ogs.tif
176
     1
290
     0
176
     1
 40
1.0
176
     1
 40
1.0
176
     1
  0
VISUALSTYLE
  5
30
102
{ACAD_REACTORS
330
2A
102
}
330
2A
100
AcDbVisualStyle
  2
Wireframe
 70
     5
177
     3
291
     0
 70
    58
 90
        0
176
     1
 90
        2
176
     1
 90
        0
176
     1
 90
        0
176
     1
 40
0.6
176
     1
 40
30.0
176
     1
 62
     7
420
 16777215
176
     1
 90
        1
176
     1
 90
        4
176
     1
 62
     7
176
     1
 62
   257
176
     1
 90
        1
176
     1
 90
        1
176
     1
 40
1.0
176
     1
 90
        0
176
     1
 62
   257
176
     1
 40
1.0
176
     1
 90
        1
176
     1
 90
        6
176
     1
 90
        2
176
     1
 62
     7
176
     1
 90
        3
176
     1
 90
        0
176
     1
 90
        0
176
     1
290
     0
176
     1
 90
        1
176
     1
 40
0.0
176
     1
 90
        0
176
     1
290
     0
176
     1
290
     1
176
     1
290
     1
176
     1
290
     0
176
     1
290
     0
176
     1
290
     0
176
     1
290
     0
176
     1
290
     0
176
     1
290
     0
176
     1
 90
       50
176
     1
 40
0.0
176
     1
 40
1.0
176
     1
 90
        0
176
     1
 62
    18
420
        0
176
     1
 90
       50
176
     1
 90
        3
176
     1
 62
     5
420
      255
176
     1
290
     0
176
     1
 90
       50
176
     1
 90
       50
176
     1
 90
       50
176
     1
290
     0
176
     1
 90
       50
176
     1
 62
   256
176
     0
 40
1.0
176
     0
 90
        2
176
     1
  1
strokes_ogs.tif
176
     1
290
     0
176
     1
 40
1.0
176
     1
 40
1.0
176
     1
  0
VISUALSTYLE
  5
40
102
{ACAD_REACTORS
330
2A
102
}
330
2A
100
AcDbVisualStyle
  2
X-Ray
 70
    25
177
     3
291
     0
 70
    58
 90
        2
176
     1
 90
        2
176
     1
 90
        1
176
     1
 90
        1
176
     1
 40
0.5
176
     1
 40
30.0
176
     1
 62
     7
420
 16777215
176
     1
 90
        1
176
     1
 90
        0
176
     1
 62
     7
176
     1
 62
   257
176
     1
 90
        1
176
     1
 90
        1
176
     1
 40
1.0
176
     1
 90
        8
176
     1
 62
     7
176
     1
 40
1.0
176
     1
 90
        1
176
     1
 90
        6
176
     1
 90
        2
176
     1
 62
     7
176
     1
 90
        3
176
     1
 90
        0
176
     1
 90
        0
176
     1
290
     0
176
     1
 90
       13
176
     1
 40
0.0
176
     1
 90
        0
176
     1
290
     0
176
     1
290
     1
176
     1
290
     1
176
     1
290
     0
176
     1
290
     0
176
     1
290
     0
176
     1
290
     0
176
     1
290
     0
176
     1
290
     0
176
     1
 90
       50
176
     1
 40
0.0
176
     1
 40
1.0
176
     1
 90
        0
176
     1
 62
    18
420
        0
176
     1
 90
       50
176
     1
 90
        3
176
     1
 62
     5
420
      255
176
     1
290
     0
176
     1
 90
       50
176
     1
 90
       50
176
     1
 90
       50
176
     1
290
     0
176
     1
 90
       50
176
     1
 62
   256
176
     0
 40
1.0
176
     0
 90
        2
176
     1
  1
strokes_ogs.tif
176
     1
290
     0
176
     1
 40
1.0
176
     1
 40
1.0
176
     1
  0
DICTIONARYVAR
  5
203
102
{ACAD_REACTORS
330
202
102
}
330
202
100
DictionaryVariables
280
     0
  1
1:1
  0
DICTIONARYVAR
  5
208
102
{ACAD_REACTORS
330
202
102
}
330
202
100
DictionaryVariables
280
     0
  1
Standard
  0
DICTIONARYVAR
  5
207
102
{ACAD_REACTORS
330
202
102
}
330
202
100
DictionaryVariables
280
     0
  1
Standard
  0
DICTIONARY
  5
204
330
6A
100
AcDbDictionary
280
     1
281
     1
  3
ACAD_ROUNDTRIP_2008_TABLESTYLE_CELLSTYLEMAP
360
205
  0
CELLSTYLEMAP
  5
205
102
{ACAD_REACTORS
330
204
102
}
330
204
100
AcDbCellStyleMap
 90
        3
300
CELLSTYLE
  1
TABLEFORMAT_BEGIN
 90
        5
170
     1
 91
        0
 92
    32768
 62
   257
 93
        1
300
CONTENTFORMAT
  1
CONTENTFORMAT_BEGIN
 90
        0
 91
        0
 92
        4
 93
        0
300

 40
0.0
140
1.0
 94
        5
 62
     0
340
11
144
6.0
309
CONTENTFORMAT_END
171
     1
301
MARGIN
  1
CELLMARGIN_BEGIN
 40
1.5
 40
1.5
 40
1.5
 40
1.5
 40
1.5
 40
1.5
309
CELLMARGIN_END
 94
        6
 95
        1
302
GRIDFORMAT
  1
GRIDFORMAT_BEGIN
 90
        0
 91
        1
 62
     0
 92
       -2
340
14
 93
        0
 40
0.045
309
GRIDFORMAT_END
 95
        2
302
GRIDFORMAT
  1
GRIDFORMAT_BEGIN
 90
        0
 91
        1
 62
     0
 92
       -2
340
14
 93
        0
 40
0.045
309
GRIDFORMAT_END
 95
        4
302
GRIDFORMAT
  1
GRIDFORMAT_BEGIN
 90
        0
 91
        1
 62
     0
 92
       -2
340
14
 93
        0
 40
0.045
309
GRIDFORMAT_END
 95
        8
302
GRIDFORMAT
  1
GRIDFORMAT_BEGIN
 90
        0
 91
        1
 62
     0
 92
       -2
340
14
 93
        0
 40
0.045
309
GRIDFORMAT_END
 95
       16
302
GRIDFORMAT
  1
GRIDFORMAT_BEGIN
 90
        0
 91
        1
 62
     0
 92
       -2
340
14
 93
        0
 40
0.045
309
GRIDFORMAT_END
 95
       32
302
GRIDFORMAT
  1
GRIDFORMAT_BEGIN
 90
        0
 91
        1
 62
     0
 92
       -2
340
14
 93
        0
 40
0.045
309
GRIDFORMAT_END
309
TABLEFORMAT_END
  1
CELLSTYLE_BEGIN
 90
        1
 91
        1
300
_TITLE
309
CELLSTYLE_END
300
CELLSTYLE
  1
TABLEFORMAT_BEGIN
 90
        5
170
     1
 91
        0
 92
        0
 62
   257
 93
        1
300
CONTENTFORMAT
  1
CONTENTFORMAT_BEGIN
 90
        0
 91
        0
 92
        4
 93
        0
300

 40
0.0
140
1.0
 94
        5
 62
     0
340
11
144
4.5
309
CONTENTFORMAT_END
171
     1
301
MARGIN
  1
CELLMARGIN_BEGIN
 40
1.5
 40
1.5
 40
1.5
 40
1.5
 40
1.5
 40
1.5
309
CELLMARGIN_END
 94
        6
 95
        1
302
GRIDFORMAT
  1
GRIDFORMAT_BEGIN
 90
        0
 91
        1
 62
     0
 92
       -2
340
14
 93
        0
 40
0.045
309
GRIDFORMAT_END
 95
        2
302
GRIDFORMAT
  1
GRIDFORMAT_BEGIN
 90
        0
 91
        1
 62
     0
 92
       -2
340
14
 93
        0
 40
0.045
309
GRIDFORMAT_END
 95
        4
302
GRIDFORMAT
  1
GRIDFORMAT_BEGIN
 90
        0
 91
        1
 62
     0
 92
       -2
340
14
 93
        0
 40
0.045
309
GRIDFORMAT_END
 95
        8
302
GRIDFORMAT
  1
GRIDFORMAT_BEGIN
 90
        0
 91
        1
 62
     0
 92
       -2
340
14
 93
        0
 40
0.045
309
GRIDFORMAT_END
 95
       16
302
GRIDFORMAT
  1
GRIDFORMAT_BEGIN
 90
        0
 91
        1
 62
     0
 92
       -2
340
14
 93
        0
 40
0.045
309
GRIDFORMAT_END
 95
       32
302
GRIDFORMAT
  1
GRIDFORMAT_BEGIN
 90
        0
 91
        1
 62
     0
 92
       -2
340
14
 93
        0
 40
0.045
309
GRIDFORMAT_END
309
TABLEFORMAT_END
  1
CELLSTYLE_BEGIN
 90
        2
 91
        1
300
_HEADER
309
CELLSTYLE_END
300
CELLSTYLE
  1
TABLEFORMAT_BEGIN
 90
        5
170
     1
 91
        0
 92
        0
 62
   257
 93
        1
300
CONTENTFORMAT
  1
CONTENTFORMAT_BEGIN
 90
        0
 91
        0
 92
        4
 93
        0
300

 40
0.0
140
1.0
 94
        2
 62
     0
340
11
144
4.5
309
CONTENTFORMAT_END
171
     1
301
MARGIN
  1
CELLMARGIN_BEGIN
 40
1.5
 40
1.5
 40
1.5
 40
1.5
 40
1.5
 40
1.5
309
CELLMARGIN_END
 94
        6
 95
        1
302
GRIDFORMAT
  1
GRIDFORMAT_BEGIN
 90
        0
 91
        1
 62
     0
 92
       -2
340
14
 93
        0
 40
0.045
309
GRIDFORMAT_END
 95
        2
302
GRIDFORMAT
  1
GRIDFORMAT_BEGIN
 90
        0
 91
        1
 62
     0
 92
       -2
340
14
 93
        0
 40
0.045
309
GRIDFORMAT_END
 95
        4
302
GRIDFORMAT
  1
GRIDFORMAT_BEGIN
 90
        0
 91
        1
 62
     0
 92
       -2
340
14
 93
        0
 40
0.045
309
GRIDFORMAT_END
 95
        8
302
GRIDFORMAT
  1
GRIDFORMAT_BEGIN
 90
        0
 91
        1
 62
     0
 92
       -2
340
14
 93
        0
 40
0.045
309
GRIDFORMAT_END
 95
       16
302
GRIDFORMAT
  1
GRIDFORMAT_BEGIN
 90
        0
 91
        1
 62
     0
 92
       -2
340
14
 93
        0
 40
0.045
309
GRIDFORMAT_END
 95
       32
302
GRIDFORMAT
  1
GRIDFORMAT_BEGIN
 90
        0
 91
        1
 62
     0
 92
       -2
340
14
 93
        0
 40
0.045
309
GRIDFORMAT_END
309
TABLEFORMAT_END
  1
CELLSTYLE_BEGIN
 90
        3
 91
        2
300
_DATA
309
CELLSTYLE_END
  0
ENDSEC
  0
EOF