0
SECTION
  2
HEADER
  9
$ACADVER
  1
AC1027
  9
$ACADMAINTVER
 70
     8
  9
$DWGCODEPAGE
  3
ANSI_1252
  9
$REQUIREDVERSIONS
160
                 0
  9
$COMMENTS
  1
File was created by Cadenas
  9
$CUSTOMPROPERTYTAG
  1
NN
  9
$CUSTOMPROPERTY
  1
Set Screw Wide Slot Take Up Metric Bore
  9
$CUSTOMPROPERTYTAG
  1
NT
  9
$CUSTOMPROPERTY
  1
SC Take-Up Bearings -Wide Slot -(Normal Duty)
  9
$CUSTOMPROPERTYTAG
  1
NB
  9
$CUSTOMPROPERTY
  1
125912
  9
$CUSTOMPROPERTYTAG
  1
NBSYN
  9
$CUSTOMPROPERTY
  1
$PN.
  9
$CUSTOMPROPERTYTAG
  1
LINA
  9
$CUSTOMPROPERTY
  1
125912
  9
$CUSTOMPROPERTYTAG
  1
SERIES
  9
$CUSTOMPROPERTY
  1
206
  9
$CUSTOMPROPERTYTAG
  1
SS
  9
$CUSTOMPROPERTY
  1
30
  9
$CUSTOMPROPERTYTAG
  1
PN
  9
$CUSTOMPROPERTY
  1
125912
  9
$CUSTOMPROPERTYTAG
  1
DESCRIPTION
  9
$CUSTOMPROPERTY
  1
WSTU-SC-30M
  9
$CUSTOMPROPERTYTAG
  1
W
  9
$CUSTOMPROPERTY
  1
1.3
  9
$CUSTOMPROPERTYTAG
  1
FS
  9
$CUSTOMPROPERTY
  1
WS308
  9
$CUSTOMPROPERTYTAG
  1
LF
  9
$CUSTOMPROPERTY
  1
RE-LUBE
  9
$CUSTOMPROPERTYTAG
  1
A
  9
$CUSTOMPROPERTY
  1
38.6
  9
$CUSTOMPROPERTYTAG
  1
B
  9
$CUSTOMPROPERTY
  1
111.3
  9
$CUSTOMPROPERTYTAG
  1
C
  9
$CUSTOMPROPERTY
  1
13.49
  9
$CUSTOMPROPERTYTAG
  1
D
  9
$CUSTOMPROPERTY
  1
57.2
  9
$CUSTOMPROPERTYTAG
  1
E
  9
$CUSTOMPROPERTY
  1
69.9
  9
$CUSTOMPROPERTYTAG
  1
F
  9
$CUSTOMPROPERTY
  1
19.1
  9
$CUSTOMPROPERTYTAG
  1
G
  9
$CUSTOMPROPERTY
  1
9.7
  9
$CUSTOMPROPERTYTAG
  1
H
  9
$CUSTOMPROPERTY
  1
16.0
  9
$CUSTOMPROPERTYTAG
  1
J
  9
$CUSTOMPROPERTY
  1
55.6
  9
$CUSTOMPROPERTYTAG
  1
K
  9
$CUSTOMPROPERTY
  1
36.6
  9
$CUSTOMPROPERTYTAG
  1
L
  9
$CUSTOMPROPERTY
  1
39.9
  9
$CUSTOMPROPERTYTAG
  1
M
  9
$CUSTOMPROPERTY
  1
88.39/89.15
  9
$CUSTOMPROPERTYTAG
  1
N
  9
$CUSTOMPROPERTY
  1
104.9
  9
$CUSTOMPROPERTYTAG
  1
R
  9
$CUSTOMPROPERTY
  1
14.7
  9
$CUSTOMPROPERTYTAG
  1
S
  9
$CUSTOMPROPERTY
  1
23.9
  9
$CUSTOMPROPERTYTAG
  1
T
  9
$CUSTOMPROPERTY
  1
41.3
  9
$CUSTOMPROPERTYTAG
  1
COMPANY
  9
$CUSTOMPROPERTY
  1
baldor
  9
$INSBASE
 10
0.0
 20
0.0
 30
0.0
  9
$EXTMIN
 10
1.000000000000000E+20
 20
1.000000000000000E+20
 30
1.000000000000000E+20
  9
$EXTMAX
 10
-1.000000000000000E+20
 20
-1.000000000000000E+20
 30
-1.000000000000000E+20
  9
$LIMMIN
 10
0.0
 20
0.0
  9
$LIMMAX
 10
420.0
 20
297.0
  9
$ORTHOMODE
 70
     0
  9
$REGENMODE
 70
     1
  9
$FILLMODE
 70
     1
  9
$QTEXTMODE
 70
     0
  9
$MIRRTEXT
 70
     1
  9
$LTSCALE
 40
1.0
  9
$ATTMODE
 70
     1
  9
$TEXTSIZE
 40
2.5
  9
$TRACEWID
 40
1.0
  9
$TEXTSTYLE
  7
Standard
  9
$CLAYER
  8
0
  9
$CELTYPE
  6
ByLayer
  9
$CECOLOR
 62
   256
  9
$CELTSCALE
 40
1.0
  9
$DISPSILH
 70
     0
  9
$DIMSCALE
 40
1.0
  9
$DIMASZ
 40
2.5
  9
$DIMEXO
 40
0.625
  9
$DIMDLI
 40
3.75
  9
$DIMRND
 40
0.0
  9
$DIMDLE
 40
0.0
  9
$DIMEXE
 40
1.25
  9
$DIMTP
 40
0.0
  9
$DIMTM
 40
0.0
  9
$DIMTXT
 40
2.5
  9
$DIMCEN
 40
2.5
  9
$DIMTSZ
 40
0.0
  9
$DIMTOL
 70
     0
  9
$DIMLIM
 70
     0
  9
$DIMTIH
 70
     0
  9
$DIMTOH
 70
     0
  9
$DIMSE1
 70
     0
  9
$DIMSE2
 70
     0
  9
$DIMTAD
 70
     1
  9
$DIMZIN
 70
     8
  9
$DIMBLK
  1

  9
$DIMASO
 70
     1
  9
$DIMSHO
 70
     1
  9
$DIMPOST
  1

  9
$DIMAPOST
  1

  9
$DIMALT
 70
     0
  9
$DIMALTD
 70
     3
  9
$DIMALTF
 40
0.03937007874016
  9
$DIMLFAC
 40
1.0
  9
$DIMTOFL
 70
     1
  9
$DIMTVP
 40
0.0
  9
$DIMTIX
 70
     0
  9
$DIMSOXD
 70
     0
  9
$DIMSAH
 70
     0
  9
$DIMBLK1
  1

  9
$DIMBLK2
  1

  9
$DIMSTYLE
  2
ISO-25
  9
$DIMCLRD
 70
     0
  9
$DIMCLRE
 70
     0
  9
$DIMCLRT
 70
     0
  9
$DIMTFAC
 40
1.0
  9
$DIMGAP
 40
0.625
  9
$DIMJUST
 70
     0
  9
$DIMSD1
 70
     0
  9
$DIMSD2
 70
     0
  9
$DIMTOLJ
 70
     0
  9
$DIMTZIN
 70
     8
  9
$DIMALTZ
 70
     0
  9
$DIMALTTZ
 70
     0
  9
$DIMUPT
 70
     0
  9
$DIMDEC
 70
     2
  9
$DIMTDEC
 70
     2
  9
$DIMALTU
 70
     2
  9
$DIMALTTD
 70
     3
  9
$DIMTXSTY
  7
Standard
  9
$DIMAUNIT
 70
     0
  9
$DIMADEC
 70
     0
  9
$DIMALTRND
 40
0.0
  9
$DIMAZIN
 70
     0
  9
$DIMDSEP
 70
    44
  9
$DIMATFIT
 70
     3
  9
$DIMFRAC
 70
     0
  9
$DIMLDRBLK
  1

  9
$DIMLUNIT
 70
     2
  9
$DIMLWD
 70
    -2
  9
$DIMLWE
 70
    -2
  9
$DIMTMOVE
 70
     0
  9
$DIMFXL
 40
1.0
  9
$DIMFXLON
 70
     0
  9
$DIMJOGANG
 40
0.7853981633974483
  9
$DIMTFILL
 70
     0
  9
$DIMTFILLCLR
 70
     0
  9
$DIMARCSYM
 70
     0
  9
$DIMLTYPE
  6

  9
$DIMLTEX1
  6

  9
$DIMLTEX2
  6

  9
$DIMTXTDIRECTION
 70
     0
  9
$LUNITS
 70
     2
  9
$LUPREC
 70
     4
  9
$SKETCHINC
 40
1.0
  9
$FILLETRAD
 40
10.0
  9
$AUNITS
 70
     0
  9
$AUPREC
 70
     0
  9
$MENU
  1
.
  9
$ELEVATION
 40
0.0
  9
$PELEVATION
 40
0.0
  9
$THICKNESS
 40
0.0
  9
$LIMCHECK
 70
     0
  9
$CHAMFERA
 40
0.0
  9
$CHAMFERB
 40
0.0
  9
$CHAMFERC
 40
0.0
  9
$CHAMFERD
 40
0.0
  9
$SKPOLY
 70
     0
  9
$TDCREATE
 40
2458168.986037511
  9
$TDUCREATE
 40
2458168.944370845
  9
$TDUPDATE
 40
2458168.986037685
  9
$TDUUPDATE
 40
2458168.944371019
  9
$TDINDWG
 40
0.0000000116
  9
$TDUSRTIMER
 40
0.0000000116
  9
$USRTIMER
 70
     1
  9
$ANGBASE
 50
0.0
  9
$ANGDIR
 70
     0
  9
$PDMODE
 70
     0
  9
$PDSIZE
 40
0.0
  9
$PLINEWID
 40
0.0
  9
$SPLFRAME
 70
     0
  9
$SPLINETYPE
 70
     6
  9
$SPLINESEGS
 70
     8
  9
$HANDSEED
  5
1F2
  9
$SURFTAB1
 70
     6
  9
$SURFTAB2
 70
     6
  9
$SURFTYPE
 70
     6
  9
$SURFU
 70
     6
  9
$SURFV
 70
     6
  9
$UCSBASE
  2

  9
$UCSNAME
  2

  9
$UCSORG
 10
0.0
 20
0.0
 30
0.0
  9
$UCSXDIR
 10
1.0
 20
0.0
 30
0.0
  9
$UCSYDIR
 10
0.0
 20
1.0
 30
0.0
  9
$UCSORTHOREF
  2

  9
$UCSORTHOVIEW
 70
     0
  9
$UCSORGTOP
 10
0.0
 20
0.0
 30
0.0
  9
$UCSORGBOTTOM
 10
0.0
 20
0.0
 30
0.0
  9
$UCSORGLEFT
 10
0.0
 20
0.0
 30
0.0
  9
$UCSORGRIGHT
 10
0.0
 20
0.0
 30
0.0
  9
$UCSORGFRONT
 10
0.0
 20
0.0
 30
0.0
  9
$UCSORGBACK
 10
0.0
 20
0.0
 30
0.0
  9
$PUCSBASE
  2

  9
$PUCSNAME
  2

  9
$PUCSORG
 10
0.0
 20
0.0
 30
0.0
  9
$PUCSXDIR
 10
1.0
 20
0.0
 30
0.0
  9
$PUCSYDIR
 10
0.0
 20
1.0
 30
0.0
  9
$PUCSORTHOREF
  2

  9
$PUCSORTHOVIEW
 70
     0
  9
$PUCSORGTOP
 10
0.0
 20
0.0
 30
0.0
  9
$PUCSORGBOTTOM
 10
0.0
 20
0.0
 30
0.0
  9
$PUCSORGLEFT
 10
0.0
 20
0.0
 30
0.0
  9
$PUCSORGRIGHT
 10
0.0
 20
0.0
 30
0.0
  9
$PUCSORGFRONT
 10
0.0
 20
0.0
 30
0.0
  9
$PUCSORGBACK
 10
0.0
 20
0.0
 30
0.0
  9
$USERI1
 70
     0
  9
$USERI2
 70
     0
  9
$USERI3
 70
     0
  9
$USERI4
 70
     0
  9
$USERI5
 70
     0
  9
$USERR1
 40
0.0
  9
$USERR2
 40
0.0
  9
$USERR3
 40
0.0
  9
$USERR4
 40
0.0
  9
$USERR5
 40
0.0
  9
$WORLDVIEW
 70
     1
  9
$SHADEDGE
 70
     3
  9
$SHADEDIF
 70
    70
  9
$TILEMODE
 70
     1
  9
$MAXACTVP
 70
    64
  9
$PINSBASE
 10
0.0
 20
0.0
 30
0.0
  9
$PLIMCHECK
 70
     0
  9
$PEXTMIN
 10
1.000000000000000E+20
 20
1.000000000000000E+20
 30
1.000000000000000E+20
  9
$PEXTMAX
 10
-1.000000000000000E+20
 20
-1.000000000000000E+20
 30
-1.000000000000000E+20
  9
$PLIMMIN
 10
0.0
 20
0.0
  9
$PLIMMAX
 10
420.0
 20
297.0
  9
$UNITMODE
 70
     0
  9
$VISRETAIN
 70
     1
  9
$PLINEGEN
 70
     0
  9
$PSLTSCALE
 70
     1
  9
$TREEDEPTH
 70
  3020
  9
$CMLSTYLE
  2
Standard
  9
$CMLJUST
 70
     0
  9
$CMLSCALE
 40
20.0
  9
$PROXYGRAPHICS
 70
     1
  9
$MEASUREMENT
 70
     1
  9
$CELWEIGHT
370
    -1
  9
$ENDCAPS
280
     0
  9
$JOINSTYLE
280
     0
  9
$LWDISPLAY
290
     0
  9
$INSUNITS
 70
     4
  9
$HYPERLINKBASE
  1

  9
$STYLESHEET
  1

  9
$XEDIT
290
     1
  9
$CEPSNTYPE
380
     0
  9
$PSTYLEMODE
290
     1
  9
$FINGERPRINTGUID
  2
{8B3422C8-D77A-40FA-ABEE-D22A39F31A7F}
  9
$VERSIONGUID
  2
{FAEB1C32-E019-11D5-929B-00C0DF256EC4}
  9
$EXTNAMES
290
     1
  9
$PSVPSCALE
 40
0.0
  9
$OLESTARTUP
290
     0
  9
$SORTENTS
280
   127
  9
$INDEXCTL
280
     0
  9
$HIDETEXT
280
     1
  9
$XCLIPFRAME
280
     2
  9
$HALOGAP
280
     0
  9
$OBSCOLOR
 70
   257
  9
$OBSLTYPE
280
     0
  9
$INTERSECTIONDISPLAY
280
     0
  9
$INTERSECTIONCOLOR
 70
   257
  9
$DIMASSOC
280
     2
  9
$PROJECTNAME
  1

  9
$CAMERADISPLAY
290
     0
  9
$LENSLENGTH
 40
50.0
  9
$CAMERAHEIGHT
 40
0.0
  9
$STEPSPERSEC
 40
2.0
  9
$STEPSIZE
 40
6.0
  9
$3DDWFPREC
 40
2.0
  9
$PSOLWIDTH
 40
5.0
  9
$PSOLHEIGHT
 40
80.0
  9
$LOFTANG1
 40
1.570796326794897
  9
$LOFTANG2
 40
1.570796326794897
  9
$LOFTMAG1
 40
0.0
  9
$LOFTMAG2
 40
0.0
  9
$LOFTPARAM
 70
     7
  9
$LOFTNORMALS
280
     1
  9
$LATITUDE
 40
37.795
  9
$LONGITUDE
 40
-122.394
  9
$NORTHDIRECTION
 40
0.0
  9
$TIMEZONE
 70
 -8000
  9
$LIGHTGLYPHDISPLAY
280
     1
  9
$TILEMODELIGHTSYNCH
280
     1
  9
$CMATERIAL
347
44
  9
$SOLIDHIST
280
     0
  9
$SHOWHIST
280
     1
  9
$DWFFRAME
280
     2
  9
$DGNFRAME
280
     2
  9
$REALWORLDSCALE
290
     1
  9
$INTERFERECOLOR
 62
   256
  9
$CSHADOW
280
     0
  9
$SHADOWPLANELOCATION
 40
0.0
  0
ENDSEC
  0
SECTION
  2
CLASSES
  0
CLASS
  1
ACDBDICTIONARYWDFLT
  2
AcDbDictionaryWithDefault
  3
ObjectDBX Classes
 90
        0
 91
        4
280
     0
281
     0
  0
CLASS
  1
VISUALSTYLE
  2
AcDbVisualStyle
  3
ObjectDBX Classes
 90
     4095
 91
        4
280
     0
281
     0
  0
CLASS
  1
MATERIAL
  2
AcDbMaterial
  3
ObjectDBX Classes
 90
     1153
 91
        4
280
     0
281
     0
  0
CLASS
  1
SCALE
  2
AcDbScale
  3
ObjectDBX Classes
 90
     1153
 91
        4
280
     0
281
     0
  0
CLASS
  1
TABLESTYLE
  2
AcDbTableStyle
  3
ObjectDBX Classes
 90
     4095
 91
        4
280
     0
281
     0
  0
CLASS
  1
MLEADERSTYLE
  2
AcDbMLeaderStyle
  3
ACDB_MLEADERSTYLE_CLASS
 90
     4095
 91
        4
280
     0
281
     0
  0
CLASS
  1
SUN
  2
AcDbSun
  3
SCENEOE
 90
     1153
 91
        4
280
     0
281
     0
  0
CLASS
  1
DICTIONARYVAR
  2
AcDbDictionaryVar
  3
ObjectDBX Classes
 90
        0
 91
        4
280
     0
281
     0
  0
CLASS
  1
CELLSTYLEMAP
  2
AcDbCellStyleMap
  3
ObjectDBX Classes
 90
     1152
 91
        4
280
     0
281
     0
  0
ENDSEC
  0
SECTION
  2
TABLES
  0
TABLE
  2
VPORT
  5
8
330
0
100
AcDbSymbolTable
 70
     1
  0
VPORT
  5
29
330
8
100
AcDbSymbolTableRecord
100
AcDbViewportTableRecord
  2
*Active
 70
     0
 10
0.0
 20
0.0
 11
1.0
 21
1.0
 12
9.033747520248482
 22
-2.590000000000003
 13
0.0
 23
0.0
 14
10.0
 24
10.0
 15
10.0
 25
10.0
 16
0.0
 26
0.0
 36
1.0
 17
0.0
 27
0.0
 37
0.0
 40
47.40959999999998
 41
2.639898987941119
 42
50.0
 43
0.0
 44
0.0
 50
0.0
 51
0.0
 71
     0
 72
   100
 73
     1
 74
     3
 75
     0
 76
     0
 77
     0
 78
     0
281
     0
 65
     1
110
0.0
120
0.0
130
0.0
111
1.0
121
0.0
131
0.0
112
0.0
122
1.0
132
0.0
 79
     0
146
0.0
348
2F
 60
     3
 61
     5
292
     1
282
     1
141
0.0
142
0.0
 63
   250
361
6D
  0
ENDTAB
  0
TABLE
  2
LTYPE
  5
5
330
0
100
AcDbSymbolTable
 70
     3
  0
LTYPE
  5
14
330
5
100
AcDbSymbolTableRecord
100
AcDbLinetypeTableRecord
  2
ByBlock
 70
     0
  3

 72
    65
 73
     0
 40
0.0
  0
LTYPE
  5
15
330
5
100
AcDbSymbolTableRecord
100
AcDbLinetypeTableRecord
  2
ByLayer
 70
     0
  3

 72
    65
 73
     0
 40
0.0
  0
LTYPE
  5
16
330
5
100
AcDbSymbolTableRecord
100
AcDbLinetypeTableRecord
  2
Continuous
 70
     0
  3
Solid line
 72
    65
 73
     0
 40
0.0
  0
LTYPE
  5
A7
330
5
100
AcDbSymbolTableRecord
100
AcDbLinetypeTableRecord
  2
Dashed
 70
     0
  3

 72
    65
 73
     2
 40
2.0
 49
1.0
 74
     0
 49
-1.0
 74
     0
  0
LTYPE
  5
DE
330
5
100
AcDbSymbolTableRecord
100
AcDbLinetypeTableRecord
  2
Center
 70
     0
  3

 72
    65
 73
     4
 40
1.5
 49
0.45
 74
     0
 49
-0.5
 74
     0
 49
0.05
 74
     0
 49
-0.5
 74
     0
  0
ENDTAB
  0
TABLE
  2
LAYER
  5
2
330
0
100
AcDbSymbolTable
 70
     7
  0
LAYER
  5
10
330
2
100
AcDbSymbolTableRecord
100
AcDbLayerTableRecord
  2
0
 70
     0
 62
     7
  6
Continuous
370
    -3
390
F
347
46
348
0
  0
LAYER
  5
72
330
2
100
AcDbSymbolTableRecord
100
AcDbLayerTableRecord
  2
AM_6
 70
     0
 62
    -2
  6
Continuous
370
    35
390
F
347
46
348
0
  0
LAYER
  5
A8
330
2
100
AcDbSymbolTableRecord
100
AcDbLayerTableRecord
  2
AM_9
 70
     0
 62
     6
  6
Dashed
370
    25
390
F
347
46
348
0
  0
LAYER
  5
D9
330
2
100
AcDbSymbolTableRecord
100
AcDbLayerTableRecord
  2
AM_5
 70
     0
 62
     3
  6
Continuous
370
    25
390
F
347
46
348
0
  0
LAYER
  5
DF
330
2
100
AcDbSymbolTableRecord
100
AcDbLayerTableRecord
  2
AM_7
 70
     0
 62
     7
  6
Center
370
    25
390
F
347
46
348
0
  0
LAYER
  5
E3
330
2
100
AcDbSymbolTableRecord
100
AcDbLayerTableRecord
  2
AM_4
 70
     0
 62
     7
  6
Continuous
370
    50
390
F
347
46
348
0
  0
LAYER
  5
1E5
330
2
100
AcDbSymbolTableRecord
100
AcDbLayerTableRecord
  2
ConnectionPoints
 70
     0
 62
     7
  6
Continuous
370
    50
390
F
347
46
348
0
  0
ENDTAB
  0
TABLE
  2
STYLE
  5
3
330
0
100
AcDbSymbolTable
 70
     1
  0
STYLE
  5
11
330
3
100
AcDbSymbolTableRecord
100
AcDbTextStyleTableRecord
  2
Standard
 70
     0
 40
0.0
 41
1.0
 50
0.0
 71
     0
 42
2.5
  3
txt
  4

  0
ENDTAB
  0
TABLE
  2
VIEW
  5
6
330
0
100
AcDbSymbolTable
 70
     0
  0
ENDTAB
  0
TABLE
  2
UCS
  5
7
330
0
100
AcDbSymbolTable
 70
     0
  0
ENDTAB
  0
TABLE
  2
APPID
  5
9
330
0
100
AcDbSymbolTable
 70
     1
  0
APPID
  5
12
330
9
100
AcDbSymbolTableRecord
100
AcDbRegAppTableRecord
  2
ACAD
 70
     0
  0
ENDTAB
  0
TABLE
  2
DIMSTYLE
  5
A
330
0
100
AcDbSymbolTable
 70
     1
100
AcDbDimStyleTable
  0
DIMSTYLE
105
27
330
A
100
AcDbSymbolTableRecord
100
AcDbDimStyleTableRecord
  2
ISO-25
 70
     0
 41
2.5
 42
0.625
 43
3.75
 44
1.25
 73
     0
 74
     0
 77
     1
 78
     8
140
2.5
141
2.5
143
0.03937007874016
147
0.625
171
     3
172
     1
178
     0
271
     2
272
     2
274
     3
278
    44
283
     0
284
     8
340
11
  0
ENDTAB
  0
TABLE
  2
BLOCK_RECORD
  5
1
330
0
100
AcDbSymbolTable
 70
     5
  0
BLOCK_RECORD
  5
1F
330
1
100
AcDbSymbolTableRecord
100
AcDbBlockTableRecord
  2
*Model_Space
340
22
 70
     0
280
     1
281
     0
  0
BLOCK_RECORD
  5
1B
330
1
100
AcDbSymbolTableRecord
100
AcDbBlockTableRecord
  2
*Paper_Space
340
1E
 70
     0
280
     1
281
     0
  0
BLOCK_RECORD
  5
23
330
1
100
AcDbSymbolTableRecord
100
AcDbBlockTableRecord
  2
*Paper_Space0
340
26
 70
     0
280
     1
281
     0
  0
BLOCK_RECORD
  5
6E
330
1
100
AcDbSymbolTableRecord
100
AcDbBlockTableRecord
  2
1_125912_4
340
0
102
{BLKREFS
331
6F
102
}
 70
     0
280
     1
281
     0
  0
BLOCK_RECORD
  5
90
330
1
100
AcDbSymbolTableRecord
100
AcDbBlockTableRecord
  2
2_125806_0_in_125912_4
340
0
102
{BLKREFS
331
91
102
}
 70
     0
280
     1
281
     0
  0
BLOCK_RECORD
  5
F2
330
1
100
AcDbSymbolTableRecord
100
AcDbBlockTableRecord
  2
3_405016_Metric_0_in_125912_4
340
0
102
{BLKREFS
331
F3
102
}
 70
     0
280
     1
281
     0
  0
BLOCK_RECORD
  5
17F
330
1
100
AcDbSymbolTableRecord
100
AcDbBlockTableRecord
  2
4_125912H_0_in_125912_4
340
0
102
{BLKREFS
331
180
102
}
 70
     0
280
     1
281
     0
  0
ENDTAB
  0
ENDSEC
  0
SECTION
  2
BLOCKS
  0
BLOCK
  5
20
330
1F
100
AcDbEntity
  8
0
100
AcDbBlockBegin
  2
*Model_Space
 70
     0
 10
0.0
 20
0.0
 30
0.0
  3
*Model_Space
  1

  0
ENDBLK
  5
21
330
1F
100
AcDbEntity
  8
0
100
AcDbBlockEnd
  0
BLOCK
  5
1C
330
1B
100
AcDbEntity
 67
     1
  8
0
100
AcDbBlockBegin
  2
*Paper_Space
 70
     0
 10
0.0
 20
0.0
 30
0.0
  3
*Paper_Space
  1

  0
ENDBLK
  5
1D
330
1B
100
AcDbEntity
 67
     1
  8
0
100
AcDbBlockEnd
  0
BLOCK
  5
24
330
23
100
AcDbEntity
  8
0
100
AcDbBlockBegin
  2
*Paper_Space0
 70
     0
 10
0.0
 20
0.0
 30
0.0
  3
*Paper_Space0
  1

  0
ENDBLK
  5
25
330
23
100
AcDbEntity
  8
0
100
AcDbBlockEnd
  0
BLOCK
  5
70
330
6E
100
AcDbEntity
  8
0
100
AcDbBlockBegin
  2
1_125912_4
 70
     2
 10
0.0
 20
0.0
 30
0.0
  3
1_125912_4
  1

  0
ATTDEF
  5
73
330
6E
100
AcDbEntity
  8
AM_6
100
AcDbText
 10
75.385
 20
20.65
 30
0.0
 40
0.5
  1
Set Screw Wide Slot Take Up Metric Bore
100
AcDbAttributeDefinition
  3

  2
NN
 70
     8
280
     0
  0
ATTDEF
  5
74
330
6E
100
AcDbEntity
  8
AM_6
100
AcDbText
 10
75.385
 20
20.15
 30
0.0
 40
0.5
  1
SC Take-Up Bearings -Wide Slot -(Normal Duty)
100
AcDbAttributeDefinition
  3

  2
NT
 70
     8
280
     0
  0
ATTDEF
  5
75
330
6E
100
AcDbEntity
  8
AM_6
100
AcDbText
 10
75.385
 20
19.65
 30
0.0
 40
0.5
  1
125912
100
AcDbAttributeDefinition
  3

  2
NB
 70
     8
280
     0
  0
ATTDEF
  5
76
330
6E
100
AcDbEntity
  8
AM_6
100
AcDbText
 10
75.385
 20
19.15
 30
0.0
 40
0.5
  1
$PN.
100
AcDbAttributeDefinition
  3

  2
NBSYN
 70
     8
280
     0
  0
ATTDEF
  5
77
330
6E
100
AcDbEntity
  8
AM_6
100
AcDbText
 10
75.385
 20
18.65
 30
0.0
 40
0.5
  1
125912
100
AcDbAttributeDefinition
  3

  2
LINA
 70
     8
280
     0
  0
ATTDEF
  5
78
330
6E
100
AcDbEntity
  8
AM_6
100
AcDbText
 10
75.385
 20
18.15
 30
0.0
 40
0.5
  1
206
100
AcDbAttributeDefinition
  3

  2
SERIES
 70
     8
280
     0
  0
ATTDEF
  5
79
330
6E
100
AcDbEntity
  8
AM_6
100
AcDbText
 10
75.385
 20
17.65
 30
0.0
 40
0.5
  1
30
100
AcDbAttributeDefinition
  3

  2
SS
 70
     8
280
     0
  0
ATTDEF
  5
7A
330
6E
100
AcDbEntity
  8
AM_6
100
AcDbText
 10
75.385
 20
17.15
 30
0.0
 40
0.5
  1
125912
100
AcDbAttributeDefinition
  3

  2
PN
 70
     8
280
     0
  0
ATTDEF
  5
7B
330
6E
100
AcDbEntity
  8
AM_6
100
AcDbText
 10
75.385
 20
16.65
 30
0.0
 40
0.5
  1
WSTU-SC-30M
100
AcDbAttributeDefinition
  3

  2
DESCRIPTION
 70
     8
280
     0
  0
ATTDEF
  5
7C
330
6E
100
AcDbEntity
  8
AM_6
100
AcDbText
 10
75.385
 20
16.15
 30
0.0
 40
0.5
  1
1.3
100
AcDbAttributeDefinition
  3

  2
W
 70
     8
280
     0
  0
ATTDEF
  5
7D
330
6E
100
AcDbEntity
  8
AM_6
100
AcDbText
 10
75.385
 20
15.65
 30
0.0
 40
0.5
  1
WS308
100
AcDbAttributeDefinition
  3

  2
FS
 70
     8
280
     0
  0
ATTDEF
  5
7E
330
6E
100
AcDbEntity
  8
AM_6
100
AcDbText
 10
75.385
 20
15.15
 30
0.0
 40
0.5
  1
RE-LUBE
100
AcDbAttributeDefinition
  3

  2
LF
 70
     8
280
     0
  0
ATTDEF
  5
7F
330
6E
100
AcDbEntity
  8
AM_6
100
AcDbText
 10
75.385
 20
14.65
 30
0.0
 40
0.5
  1
38.6
100
AcDbAttributeDefinition
  3

  2
A
 70
     8
280
     0
  0
ATTDEF
  5
80
330
6E
100
AcDbEntity
  8
AM_6
100
AcDbText
 10
75.385
 20
14.15
 30
0.0
 40
0.5
  1
111.3
100
AcDbAttributeDefinition
  3

  2
B
 70
     8
280
     0
  0
ATTDEF
  5
81
330
6E
100
AcDbEntity
  8
AM_6
100
AcDbText
 10
75.385
 20
13.65
 30
0.0
 40
0.5
  1
13.49
100
AcDbAttributeDefinition
  3

  2
C
 70
     8
280
     0
  0
ATTDEF
  5
82
330
6E
100
AcDbEntity
  8
AM_6
100
AcDbText
 10
75.385
 20
13.15
 30
0.0
 40
0.5
  1
57.2
100
AcDbAttributeDefinition
  3

  2
D
 70
     8
280
     0
  0
ATTDEF
  5
83
330
6E
100
AcDbEntity
  8
AM_6
100
AcDbText
 10
75.385
 20
12.65
 30
0.0
 40
0.5
  1
69.9
100
AcDbAttributeDefinition
  3

  2
E
 70
     8
280
     0
  0
ATTDEF
  5
84
330
6E
100
AcDbEntity
  8
AM_6
100
AcDbText
 10
75.385
 20
12.15
 30
0.0
 40
0.5
  1
19.1
100
AcDbAttributeDefinition
  3

  2
F
 70
     8
280
     0
  0
ATTDEF
  5
85
330
6E
100
AcDbEntity
  8
AM_6
100
AcDbText
 10
75.385
 20
11.65
 30
0.0
 40
0.5
  1
9.7
100
AcDbAttributeDefinition
  3

  2
G
 70
     8
280
     0
  0
ATTDEF
  5
86
330
6E
100
AcDbEntity
  8
AM_6
100
AcDbText
 10
75.385
 20
11.15
 30
0.0
 40
0.5
  1
16.0
100
AcDbAttributeDefinition
  3

  2
H
 70
     8
280
     0
  0
ATTDEF
  5
87
330
6E
100
AcDbEntity
  8
AM_6
100
AcDbText
 10
75.385
 20
10.65
 30
0.0
 40
0.5
  1
55.6
100
AcDbAttributeDefinition
  3

  2
J
 70
     8
280
     0
  0
ATTDEF
  5
88
330
6E
100
AcDbEntity
  8
AM_6
100
AcDbText
 10
75.385
 20
10.15
 30
0.0
 40
0.5
  1
36.6
100
AcDbAttributeDefinition
  3

  2
K
 70
     8
280
     0
  0
ATTDEF
  5
89
330
6E
100
AcDbEntity
  8
AM_6
100
AcDbText
 10
75.385
 20
9.649999999999999
 30
0.0
 40
0.5
  1
39.9
100
AcDbAttributeDefinition
  3

  2
L
 70
     8
280
     0
  0
ATTDEF
  5
8A
330
6E
100
AcDbEntity
  8
AM_6
100
AcDbText
 10
75.385
 20
9.149999999999999
 30
0.0
 40
0.5
  1
88.39/89.15
100
AcDbAttributeDefinition
  3

  2
M
 70
     8
280
     0
  0
ATTDEF
  5
8B
330
6E
100
AcDbEntity
  8
AM_6
100
AcDbText
 10
75.385
 20
8.649999999999999
 30
0.0
 40
0.5
  1
104.9
100
AcDbAttributeDefinition
  3

  2
N
 70
     8
280
     0
  0
ATTDEF
  5
8C
330
6E
100
AcDbEntity
  8
AM_6
100
AcDbText
 10
75.385
 20
8.149999999999999
 30
0.0
 40
0.5
  1
14.7
100
AcDbAttributeDefinition
  3

  2
R
 70
     8
280
     0
  0
ATTDEF
  5
8D
330
6E
100
AcDbEntity
  8
AM_6
100
AcDbText
 10
75.385
 20
7.649999999999999
 30
0.0
 40
0.5
  1
23.9
100
AcDbAttributeDefinition
  3

  2
S
 70
     8
280
     0
  0
ATTDEF
  5
8E
330
6E
100
AcDbEntity
  8
AM_6
100
AcDbText
 10
75.385
 20
7.149999999999999
 30
0.0
 40
0.5
  1
41.3
100
AcDbAttributeDefinition
  3

  2
T
 70
     8
280
     0
  0
ATTDEF
  5
8F
330
6E
100
AcDbEntity
  8
AM_6
100
AcDbText
 10
75.385
 20
6.649999999999999
 30
0.0
 40
0.5
  1
baldor
100
AcDbAttributeDefinition
  3

  2
COMPANY
 70
     8
280
     0
  0
INSERT
  5
91
330
6E
100
AcDbEntity
  8
0
100
AcDbBlockReference
  2
2_125806_0_in_125912_4
 10
0.0
 20
0.0
 30
0.0
  0
INSERT
  5
F3
330
6E
100
AcDbEntity
  8
0
100
AcDbBlockReference
  2
3_405016_Metric_0_in_125912_4
 10
0.0
 20
0.0
 30
0.0
  0
INSERT
  5
180
330
6E
100
AcDbEntity
  8
0
100
AcDbBlockReference
  2
4_125912H_0_in_125912_4
 10
0.0
 20
0.0
 30
0.0
  0
ENDBLK
  5
71
330
6E
100
AcDbEntity
  8
0
100
AcDbBlockEnd
  0
BLOCK
  5
92
330
90
100
AcDbEntity
  8
0
100
AcDbBlockBegin
  2
2_125806_0_in_125912_4
 70
     2
 10
0.0
 20
0.0
 30
0.0
  3
2_125806_0_in_125912_4
  1

  0
ATTDEF
  5
94
330
90
100
AcDbEntity
  8
AM_6
100
AcDbText
 10
35.98953406218504
 20
16.63000000000001
 30
0.0
 40
0.5
  1
Set Screw Insert Metric Bore - Stainless Steel
100
AcDbAttributeDefinition
  3

  2
NN
 70
     8
280
     0
  0
ATTDEF
  5
95
330
90
100
AcDbEntity
  8
AM_6
100
AcDbText
 10
35.98953406218504
 20
16.13000000000001
 30
0.0
 40
0.5
  1
SC Bearing Insert -Metric
100
AcDbAttributeDefinition
  3

  2
NT
 70
     8
280
     0
  0
ATTDEF
  5
96
330
90
100
AcDbEntity
  8
AM_6
100
AcDbText
 10
35.98953406218504
 20
15.63000000000001
 30
0.0
 40
0.5
  1
125806
100
AcDbAttributeDefinition
  3

  2
NB
 70
     8
280
     0
  0
ATTDEF
  5
97
330
90
100
AcDbEntity
  8
AM_6
100
AcDbText
 10
35.98953406218504
 20
15.13000000000001
 30
0.0
 40
0.5
  1
$PN.
100
AcDbAttributeDefinition
  3

  2
NBSYN
 70
     8
280
     0
  0
ATTDEF
  5
98
330
90
100
AcDbEntity
  8
AM_6
100
AcDbText
 10
35.98953406218504
 20
14.63000000000001
 30
0.0
 40
0.5
  1
125806
100
AcDbAttributeDefinition
  3

  2
LINA
 70
     8
280
     0
  0
ATTDEF
  5
99
330
90
100
AcDbEntity
  8
AM_6
100
AcDbText
 10
35.98953406218504
 20
14.13000000000001
 30
0.0
 40
0.5
  1
206
100
AcDbAttributeDefinition
  3

  2
SERIES
 70
     8
280
     0
  0
ATTDEF
  5
9A
330
90
100
AcDbEntity
  8
AM_6
100
AcDbText
 10
35.98953406218504
 20
13.63000000000001
 30
0.0
 40
0.5
  1
30
100
AcDbAttributeDefinition
  3

  2
SS
 70
     8
280
     0
  0
ATTDEF
  5
9B
330
90
100
AcDbEntity
  8
AM_6
100
AcDbText
 10
35.98953406218504
 20
13.13000000000001
 30
0.0
 40
0.5
  1
125806
100
AcDbAttributeDefinition
  3

  2
PN
 70
     8
280
     0
  0
ATTDEF
  5
9C
330
90
100
AcDbEntity
  8
AM_6
100
AcDbText
 10
35.98953406218504
 20
12.63000000000001
 30
0.0
 40
0.5
  1
INS-SC-30
100
AcDbAttributeDefinition
  3

  2
DESCRIPTION
 70
     8
280
     0
  0
ATTDEF
  5
9D
330
90
100
AcDbEntity
  8
AM_6
100
AcDbText
 10
35.98953406218504
 20
12.13000000000001
 30
0.0
 40
0.5
  1
0.27
100
AcDbAttributeDefinition
  3

  2
WEIGHT
 70
     8
280
     0
  0
ATTDEF
  5
9E
330
90
100
AcDbEntity
  8
AM_6
100
AcDbText
 10
35.98953406218504
 20
11.63000000000001
 30
0.0
 40
0.5
  1
38.6
100
AcDbAttributeDefinition
  3

  2
A
 70
     8
280
     0
  0
ATTDEF
  5
9F
330
90
100
AcDbEntity
  8
AM_6
100
AcDbText
 10
35.98953406218504
 20
11.13000000000001
 30
0.0
 40
0.5
  1
17.5
100
AcDbAttributeDefinition
  3

  2
C
 70
     8
280
     0
  0
ATTDEF
  5
A0
330
90
100
AcDbEntity
  8
AM_6
100
AcDbText
 10
35.98953406218504
 20
10.63000000000001
 30
0.0
 40
0.5
  1
62
100
AcDbAttributeDefinition
  3

  2
D
 70
     8
280
     0
  0
ATTDEF
  5
A1
330
90
100
AcDbEntity
  8
AM_6
100
AcDbText
 10
35.98953406218504
 20
10.13000000000001
 30
0.0
 40
0.5
  1
4.1
100
AcDbAttributeDefinition
  3

  2
J
 70
     8
280
     0
  0
ATTDEF
  5
A2
330
90
100
AcDbEntity
  8
AM_6
100
AcDbText
 10
35.98953406218504
 20
9.630000000000006
 30
0.0
 40
0.5
  1
39.9
100
AcDbAttributeDefinition
  3

  2
L
 70
     8
280
     0
  0
ATTDEF
  5
A3
330
90
100
AcDbEntity
  8
AM_6
100
AcDbText
 10
35.98953406218504
 20
9.130000000000006
 30
0.0
 40
0.5
  1
M8 x 1.25
100
AcDbAttributeDefinition
  3

  2
N
 70
     8
280
     0
  0
ATTDEF
  5
A4
330
90
100
AcDbEntity
  8
AM_6
100
AcDbText
 10
35.98953406218504
 20
8.630000000000006
 30
0.0
 40
0.5
  1
14.7
100
AcDbAttributeDefinition
  3

  2
W
 70
     8
280
     0
  0
ATTDEF
  5
A5
330
90
100
AcDbEntity
  8
AM_6
100
AcDbText
 10
35.98953406218504
 20
8.130000000000006
 30
0.0
 40
0.5
  1
23.9
100
AcDbAttributeDefinition
  3

  2
Y
 70
     8
280
     0
  0
ATTDEF
  5
A6
330
90
100
AcDbEntity
  8
AM_6
100
AcDbText
 10
35.98953406218504
 20
7.630000000000006
 30
0.0
 40
0.5
  1
baldor
100
AcDbAttributeDefinition
  3

  2
COMPANY
 70
     8
280
     0
  0
LINE
  5
A9
330
90
100
AcDbEntity
  8
AM_9
100
AcDbLine
 10
6.338206366268621
 20
-19.6485
 30
0.0
 11
8.260025003918502
 21
-19.6485
 31
0.0
  0
LINE
  5
AA
330
90
100
AcDbEntity
  8
AM_9
100
AcDbLine
 10
8.260025003918502
 20
-13.0015
 30
0.0
 11
6.338675458635917
 21
-13.0015
 31
0.0
  0
LWPOLYLINE
  5
AB
330
90
100
AcDbEntity
  8
AM_9
100
AcDbPolyline
 90
        6
 70
     0
 43
0.0
 10
4.729229725658485
 20
-13.48715357568098
 10
4.760863013196337
 20
-13.46758606369773
 10
5.241409186260298
 20
-13.22159432395996
 10
5.744107456603776
 20
-13.06606311370235
 10
6.256121063657874
 20
-13.00276305937174
 10
6.338950204966026
 20
-13.00150001919377
  0
LWPOLYLINE
  5
AC
330
90
100
AcDbEntity
  8
AM_9
100
AcDbPolyline
 90
       17
 70
     0
 43
0.0
 10
6.33947546406371
 20
-19.64849999256057
 10
6.023967387847518
 20
-19.63043613398176
 10
5.527427998600152
 20
-19.52856504216058
 10
5.046069428434897
 20
-19.34085849840967
 10
4.591192822129574
 20
-19.06944275541383
 10
4.179758564849341
 20
-18.72405210779429
 10
3.818170811244061
 20
-18.30351717529626
 10
3.527073492022791
 20
-17.82663534627722
 10
3.317463136872524
 20
-17.3039621947945
 10
3.197238203244996
 20
-16.75232580328374
 10
3.172355457315847
 20
-16.19955193798013
 10
3.238874726954611
 20
-15.65038861546432
 10
3.393073437443583
 20
-15.12715943233926
 10
3.628123671309627
 20
-14.63687854138425
 10
3.942198716685286
 20
-14.18632595573133
 10
4.320640990566843
 20
-13.79465991440366
 10
4.729229725658485
 20
-13.48715357568098
  0
LWPOLYLINE
  5
AD
330
90
100
AcDbEntity
  8
AM_9
100
AcDbPolyline
 90
        8
 70
     0
 43
0.0
 10
7.85517486916319
 20
-13.48039062247941
 10
8.065961117405712
 20
-13.64498557855351
 10
8.419627322304956
 20
-14.01016918047404
 10
8.713429721143594
 20
-14.43969233292535
 10
8.943336426692957
 20
-14.92984509221867
 10
9.101024858324188
 20
-15.46094250526743
 10
9.170447454992372
 20
-15.88905303774196
 10
9.193826636972215
 20
-16.325
  0
LWPOLYLINE
  5
AE
330
90
100
AcDbEntity
  8
AM_9
100
AcDbPolyline
 90
        5
 70
     0
 43
0.0
 10
6.338950204966026
 20
-13.00150001919377
 10
6.751032373230303
 20
-13.03349965767009
 10
7.226163797550695
 20
-13.15360907198765
 10
7.667163272432336
 20
-13.35973151512371
 10
7.85517486916319
 20
-13.48039062247941
  0
LINE
  5
AF
330
90
100
AcDbEntity
  8
AM_9
100
AcDbLine
 10
15.0
 20
-19.6485
 30
0.0
 11
19.54488424115118
 21
-19.6485
 31
0.0
  0
LINE
  5
B0
330
90
100
AcDbEntity
  8
AM_9
100
AcDbLine
 10
19.54488424115118
 20
-13.0015
 30
0.0
 11
14.99833831255523
 21
-13.0015
 31
0.0
  0
LINE
  5
B1
330
90
100
AcDbEntity
  8
AM_9
100
AcDbLine
 10
19.54488424115118
 20
-19.6485
 30
0.0
 11
19.95000000000003
 21
-20.05361575884885
 31
0.0
  0
LINE
  5
B2
330
90
100
AcDbEntity
  8
AM_9
100
AcDbLine
 10
19.95000000000003
 20
-12.59638424115115
 30
0.0
 11
19.54488424115118
 21
-13.0015
 31
0.0
  0
LINE
  5
B3
330
90
100
AcDbEntity
  8
AM_9
100
AcDbLine
 10
19.54488424115118
 20
-13.0015
 30
0.0
 11
19.54488424115118
 21
-19.6485
 31
0.0
  0
LWPOLYLINE
  5
B4
330
90
100
AcDbEntity
  8
AM_9
100
AcDbPolyline
 90
       11
 70
     0
 43
0.0
 10
9.193826636972215
 20
-16.325
 10
9.156384316364594
 20
-16.87519628773038
 10
9.045862555988162
 20
-17.40969293294464
 10
8.863912639338205
 20
-17.91273012240863
 10
8.615033057992875
 20
-18.37184005419093
 10
8.297951101590998
 20
-18.78017346697117
 10
7.923167830151892
 20
-19.12010313810921
 10
7.492918434779533
 20
-19.38364036522198
 10
7.021875319123311
 20
-19.55991861708143
 10
6.529955946716895
 20
-19.64142641511376
 10
6.33947546406371
 20
-19.64849999256057
  0
LINE
  5
B5
330
90
100
AcDbEntity
  8
AM_9
100
AcDbLine
 10
15.0
 20
-23.102
 30
0.0
 11
15.0
 21
-19.6485
 31
0.0
  0
LINE
  5
B6
330
90
100
AcDbEntity
  8
AM_9
100
AcDbLine
 10
15.0
 20
-13.0090394582465
 30
0.0
 11
15.0
 21
13.90200000000001
 31
0.0
  0
LINE
  5
B7
330
90
100
AcDbEntity
  8
AM_9
100
AcDbLine
 10
-15.0
 20
13.90200000000001
 30
0.0
 11
-15.0
 21
-23.102
 31
0.0
  0
LWPOLYLINE
  5
B8
330
90
100
AcDbEntity
  8
AM_9
100
AcDbPolyline
 90
       21
 70
     0
 43
0.0
 10
14.99999999998999
 20
-13.00150000004518
 10
14.99954608471824
 20
-13.00354926311011
 10
14.98484659126469
 20
-13.07057537900523
 10
14.9526456783838
 20
-13.22221656680818
 10
14.90463191810177
 20
-13.46253517679293
 10
14.84748084570144
 20
-13.77679676762796
 10
14.78495806651787
 20
-14.17078615762225
 10
14.72603017814951
 20
-14.62158664506529
 10
14.67542945507008
 20
-15.13593232289392
 10
14.64196629269082
 20
-15.66710246520143
 10
14.62746037182034
 20
-16.23417500798545
 10
14.63410728000645
 20
-16.77527561863562
 10
14.66091474924592
 20
-17.31901888043265
 10
14.70320740362623
 20
-17.81830512757751
 10
14.75853248444211
 20
-18.289671306945
 10
14.81931234904409
 20
-18.70358587159068
 10
14.88098745381348
 20
-19.06168409769089
 10
14.93420760724844
 20
-19.33767474288166
 10
14.97506493766876
 20
-19.53408431447293
 10
14.9935410908473
 20
-19.61922626620063
 10
15.0
 20
-19.6485
  0
LINE
  5
B9
330
90
100
AcDbEntity
  8
AM_9
100
AcDbLine
 10
15.0
 20
13.90200000000001
 30
0.0
 11
15.79800000000003
 21
14.7
 31
0.0
  0
LINE
  5
BA
330
90
100
AcDbEntity
  8
AM_9
100
AcDbLine
 10
-15.79800000000003
 20
14.7
 30
0.0
 11
-15.0
 21
13.90200000000001
 31
0.0
  0
LINE
  5
BB
330
90
100
AcDbEntity
  8
AM_9
100
AcDbLine
 10
-15.0
 20
-23.102
 30
0.0
 11
-15.79800000000003
 21
-23.9
 31
0.0
  0
LINE
  5
BC
330
90
100
AcDbEntity
  8
AM_9
100
AcDbLine
 10
15.79800000000003
 20
-23.9
 30
0.0
 11
15.0
 21
-23.102
 31
0.0
  0
LINE
  5
BD
330
90
100
AcDbEntity
  8
AM_9
100
AcDbLine
 10
19.95000000000003
 20
8.75
 30
0.0
 11
19.95000000000003
 21
13.48999999999999
 31
0.0
  0
LINE
  5
BE
330
90
100
AcDbEntity
  8
AM_9
100
AcDbLine
 10
-19.95000000000003
 20
13.48999999999999
 30
0.0
 11
-19.95000000000003
 21
8.75
 31
0.0
  0
LWPOLYLINE
  5
BF
330
90
100
AcDbEntity
  8
AM_9
100
AcDbPolyline
 90
        7
 70
     0
 43
0.0
 10
19.82617482854873
 20
-13.48436212952651
 10
19.83795682019354
 20
-13.38873910911458
 10
19.87929427643837
 20
-13.07474666287556
 10
19.91651572585336
 20
-12.81514311582363
 10
19.94173160626331
 20
-12.64924919596874
 10
19.94996342308338
 20
-12.59661653014316
 10
19.94999999999915
 20
-12.59638424115674
  0
LWPOLYLINE
  5
C0
330
90
100
AcDbEntity
  8
AM_9
100
AcDbPolyline
 90
       39
 70
     0
 43
0.0
 10
8.286040920741444
 20
-12.60045649090516
 10
7.781392073169839
 20
-12.67817389743711
 10
7.290874429496673
 20
-12.84964879935463
 10
6.849888162467108
 20
-13.09511257559725
 10
6.446178424608347
 20
-13.41051147436191
 10
6.066003547826849
 20
-13.81531959209562
 10
5.747263655471307
 20
-14.27683360967444
 10
5.479587782400036
 20
-14.82748048162749
 10
5.297787144495894
 20
-15.41527320830424
 10
5.20455168378192
 20
-16.06158056203153
 10
5.214303082181679
 20
-16.71501428604106
 10
5.331848783103093
 20
-17.37176147046599
 10
5.553660232085674
 20
-17.99857343467135
 10
5.872610329505389
 20
-18.57182260820242
 10
6.280031383206383
 20
-19.07791572382653
 10
6.742150628643886
 20
-19.47980514109821
 10
7.260319148293089
 20
-19.78628676663876
 10
7.769388474994903
 20
-19.96871218797882
 10
8.294118970449901
 20
-20.04998387378208
 10
8.776215330413164
 20
-20.02987875378984
 10
9.242577956795362
 20
-19.92100720780646
 10
9.674065947521335
 20
-19.73024310719348
 10
10.0689186603623
 20
-19.46503620520829
 10
10.43693499296289
 20
-19.11403646738096
 10
10.75082702262396
 20
-18.70143133505937
 10
11.0250198881431
 20
-18.19702753967451
 10
11.22818207740439
 20
-17.64773544082929
 10
11.3639968698852
 20
-17.02565493883886
 10
11.4150436754254
 20
-16.38510458409557
 10
11.37725625479259
 20
-15.72135645969158
 10
11.24875708542797
 20
-15.07458974485658
 10
11.0291784253122
 20
-14.46246974379193
 10
10.72228906917873
 20
-13.90523098598545
 10
10.34419075071775
 20
-13.43650759889238
 10
9.894517288661191
 20
-13.05551170839292
 10
9.421916609526876
 20
-12.79744861201907
 10
8.908949259681199
 20
-12.64142463471791
 10
8.599786276535188
 20
-12.60198820862049
 10
8.286040548128035
 20
-12.600456084342
  0
LINE
  5
C1
330
90
100
AcDbEntity
  8
AM_9
100
AcDbLine
 10
19.95000000000003
 20
-12.59953741004708
 30
0.0
 11
19.95000000000003
 21
-8.750000000000002
 31
0.0
  0
LINE
  5
C2
330
90
100
AcDbEntity
  8
AM_9
100
AcDbLine
 10
-19.95000000000003
 20
-8.750000000000002
 30
0.0
 11
-19.95000000000003
 21
-13.49000000000001
 31
0.0
  0
LINE
  5
C3
330
90
100
AcDbEntity
  8
AM_9
100
AcDbLine
 10
19.803662243829
 20
-13.67636753094616
 30
0.0
 11
19.78037871976759
 21
-13.89039038113861
 31
0.0
  0
LINE
  5
C4
330
90
100
AcDbEntity
  8
AM_9
100
AcDbLine
 10
29.25
 20
-4.856666666666664
 30
0.0
 11
29.25
 21
-2.523333333333331
 31
0.0
  0
LINE
  5
C5
330
90
100
AcDbEntity
  8
AM_9
100
AcDbLine
 10
-29.25
 20
-2.523333333333331
 30
0.0
 11
-29.25
 21
-4.856666666666664
 31
0.0
  0
LINE
  5
C6
330
90
100
AcDbEntity
  8
AM_9
100
AcDbLine
 10
-28.77802961806125
 20
8.75
 30
0.0
 11
28.77802961806125
 21
8.75
 31
0.0
  0
ARC
  5
C7
330
90
100
AcDbEntity
  8
AM_9
100
AcDbCircle
 10
28.77802961806125
 20
8.04999999999999
 30
0.0
 40
0.7000000000000096
100
AcDbArc
 50
21.41247027384557
 51
90.0
  0
ARC
  5
C8
330
90
100
AcDbEntity
  8
AM_9
100
AcDbCircle
 10
-28.77802961806125
 20
8.04999999999999
 30
0.0
 40
0.70000000000001
100
AcDbArc
 50
90.0
 51
158.5875297261544
  0
LINE
  5
C9
330
90
100
AcDbEntity
  8
AM_9
100
AcDbLine
 10
-28.77802961806126
 20
-8.749999999999998
 30
0.0
 11
28.77802961806126
 21
-8.749999999999998
 31
0.0
  0
ARC
  5
CA
330
90
100
AcDbEntity
  8
AM_9
100
AcDbCircle
 10
28.77802961806126
 20
-8.050000000000011
 30
0.0
 40
0.6999999999999869
100
AcDbArc
 50
270.0
 51
338.5875329531167
  0
ARC
  5
CB
330
90
100
AcDbEntity
  8
AM_9
100
AcDbCircle
 10
-28.77802961806126
 20
-8.05000000000001
 30
0.0
 40
0.6999999999999886
100
AcDbArc
 50
201.4124670468834
 51
270.0
  0
ARC
  5
CC
330
90
100
AcDbEntity
  8
AM_9
100
AcDbCircle
 10
8.250000000001894
 20
-0.0000000000006093
 30
0.0
 40
22.74999999999802
100
AcDbArc
 50
338.5875329531156
 51
347.6736410797011
  0
ARC
  5
CD
330
90
100
AcDbEntity
  8
AM_9
100
AcDbCircle
 10
-8.250000000002082
 20
-0.0000000000006661
 30
0.0
 40
22.74999999999782
100
AcDbArc
 50
192.3263589202988
 51
201.4124670468844
  0
LINE
  5
CE
330
90
100
AcDbEntity
  8
AM_9
100
AcDbLine
 10
-29.42971309799971
 20
-8.305555555555555
 30
0.0
 11
29.42971309799971
 21
-8.305555555555555
 31
0.0
  0
LINE
  5
CF
330
90
100
AcDbEntity
  8
AM_9
100
AcDbLine
 10
-30.47555486121525
 20
-4.856666666666664
 30
0.0
 11
30.47555486121525
 21
-4.856666666666664
 31
0.0
  0
LINE
  5
D0
330
90
100
AcDbEntity
  8
AM_9
100
AcDbLine
 10
-1.463379052569933
 20
5.059698780086513
 30
0.0
 11
-1.22589234835216
 21
5.348874673556815
 31
0.0
  0
LWPOLYLINE
  5
D1
330
90
100
AcDbEntity
  8
AM_9
100
AcDbPolyline
 90
        4
 70
     0
 43
0.0
 10
0.2047858773249205
 20
2.362023376322839
 10
0.0859649737410275
 20
2.352112697199929
 10
-0.2107210544802442
 20
2.362732997723512
 10
-0.2361095117097267
 20
2.366001067335912
  0
LINE
  5
D2
330
90
100
AcDbEntity
  8
AM_9
100
AcDbLine
 10
1.749988675214863
 20
4.106295762044972
 30
0.0
 11
1.749886791935927
 21
4.080094839659313
 31
0.0
  0
LINE
  5
D3
330
90
100
AcDbEntity
  8
AM_9
100
AcDbLine
 10
-1.22589234835216
 20
5.348874673556815
 30
0.0
 11
-1.170692458785473
 21
5.400760995318864
 31
0.0
  0
ARC
  5
D4
330
90
100
AcDbEntity
  8
AM_9
100
AcDbCircle
 10
8.250000000000007
 20
0.0000000000000057
 30
0.0
 40
22.74999999999999
100
AcDbArc
 50
353.6318927234946
 51
21.41246714617516
  0
ARC
  5
D5
330
90
100
AcDbEntity
  8
AM_9
100
AcDbCircle
 10
-8.25000000000082
 20
0.0000000000001128
 30
0.0
 40
22.7499999999992
100
AcDbArc
 50
158.5875328538243
 51
186.3681072765059
  0
LINE
  5
D6
330
90
100
AcDbEntity
  8
AM_9
100
AcDbLine
 10
-30.85962823420343
 20
-2.523333333333331
 30
0.0
 11
30.85962823420343
 21
-2.523333333333331
 31
0.0
  0
LINE
  5
D7
330
90
100
AcDbEntity
  8
AM_9
100
AcDbLine
 10
-29.42971308360654
 20
8.305555592259081
 30
0.0
 11
29.42971308360654
 21
8.305555592259081
 31
0.0
  0
CIRCLE
  5
D8
330
90
100
AcDbEntity
  8
AM_9
100
AcDbCircle
 10
-0.000000000000002
 20
4.100000000000001
 30
0.0
 40
0.1590909090909108
  0
LINE
  5
DA
330
90
100
AcDbEntity
  8
AM_5
100
AcDbLine
 10
15.0
 20
-12.325
 30
0.0
 11
19.95000000000003
 21
-12.325
 31
0.0
  0
LINE
  5
DB
330
90
100
AcDbEntity
  8
AM_5
100
AcDbLine
 10
15.0
 20
-20.325
 30
0.0
 11
19.95000000000003
 21
-20.325
 31
0.0
  0
ELLIPSE
  5
DC
330
90
100
AcDbEntity
  8
AM_9
100
AcDbEllipse
 10
8.260025003918503
 20
-16.325
 30
0.0
 11
-6.105170455449347E-16
 21
-3.323500000000003
 31
0.0
210
0.0
220
0.0
230
1.0
 40
0.90630778703665
 41
0.0
 42
6.283185307179586
  0
CIRCLE
  5
DD
330
90
100
AcDbEntity
  8
AM_9
100
AcDbCircle
 10
-0.0000000000000024
 20
4.100000000000002
 30
0.0
 40
1.750000000000004
  0
LINE
  5
E0
330
90
100
AcDbEntity
  8
AM_7
100
AcDbLine
 10
0.0
 20
-25.83
 30
0.0
 11
0.0
 21
16.63000000000001
 31
0.0
  0
LINE
  5
E1
330
90
100
AcDbEntity
  8
AM_7
100
AcDbLine
 10
21.0684368384687
 20
-16.325
 30
0.0
 11
13.43327969748343
 21
-16.325
 31
0.0
  0
LINE
  5
E2
330
90
100
AcDbEntity
  8
AM_7
100
AcDbLine
 10
-1.837500000000007
 20
4.100000000000002
 30
0.0
 11
1.837500000000002
 21
4.100000000000002
 31
0.0
  0
LINE
  5
E4
330
90
100
AcDbEntity
  8
AM_4
100
AcDbLine
 10
-19.152
 20
14.7
 30
0.0
 11
19.152
 21
14.7
 31
0.0
  0
LINE
  5
E5
330
90
100
AcDbEntity
  8
AM_4
100
AcDbLine
 10
-19.152
 20
14.7
 30
0.0
 11
-19.95000000000003
 21
13.902
 31
0.0
  0
LINE
  5
E6
330
90
100
AcDbEntity
  8
AM_4
100
AcDbLine
 10
19.95000000000003
 20
13.902
 30
0.0
 11
19.152
 21
14.7
 31
0.0
  0
LINE
  5
E7
330
90
100
AcDbEntity
  8
AM_4
100
AcDbLine
 10
-19.152
 20
-23.9
 30
0.0
 11
19.152
 21
-23.9
 31
0.0
  0
LINE
  5
E8
330
90
100
AcDbEntity
  8
AM_4
100
AcDbLine
 10
19.152
 20
-23.9
 30
0.0
 11
19.95000000000003
 21
-23.102
 31
0.0
  0
LINE
  5
E9
330
90
100
AcDbEntity
  8
AM_4
100
AcDbLine
 10
-19.95000000000003
 20
-23.102
 30
0.0
 11
-19.152
 21
-23.9
 31
0.0
  0
LINE
  5
EA
330
90
100
AcDbEntity
  8
AM_4
100
AcDbLine
 10
-19.95000000000003
 20
13.902
 30
0.0
 11
19.95000000000003
 21
13.902
 31
0.0
  0
LINE
  5
EB
330
90
100
AcDbEntity
  8
AM_4
100
AcDbLine
 10
19.95000000000003
 20
13.48999999999999
 30
0.0
 11
19.95000000000003
 21
13.902
 31
0.0
  0
LINE
  5
EC
330
90
100
AcDbEntity
  8
AM_4
100
AcDbLine
 10
-19.95000000000003
 20
13.902
 30
0.0
 11
-19.95000000000003
 21
13.48999999999999
 31
0.0
  0
LINE
  5
ED
330
90
100
AcDbEntity
  8
AM_4
100
AcDbLine
 10
-19.95000000000003
 20
-23.102
 30
0.0
 11
19.95000000000003
 21
-23.102
 31
0.0
  0
LINE
  5
EE
330
90
100
AcDbEntity
  8
AM_4
100
AcDbLine
 10
19.79478670954456
 20
-13.75589780711613
 30
0.0
 11
19.82617482854873
 21
-13.48436212952651
 31
0.0
  0
LINE
  5
EF
330
90
100
AcDbEntity
  8
AM_4
100
AcDbLine
 10
19.95000000000003
 20
-23.102
 30
0.0
 11
19.95000000000003
 21
-20.04331076682717
 31
0.0
  0
LINE
  5
F0
330
90
100
AcDbEntity
  8
AM_4
100
AcDbLine
 10
-19.95000000000003
 20
-13.49000000000001
 30
0.0
 11
-19.95000000000003
 21
-23.102
 31
0.0
  0
LWPOLYLINE
  5
F1
330
90
100
AcDbEntity
  8
AM_4
100
AcDbPolyline
 90
       16
 70
     0
 43
0.0
 10
19.94999999999715
 20
-20.05361575883055
 10
19.94940200390045
 20
-20.04981633810316
 10
19.93875127795399
 20
-19.98151749762243
 10
19.91502596092414
 20
-19.82482116376373
 10
19.88168893304854
 20
-19.59255034667098
 10
19.84058243837995
 20
-19.2821619984325
 10
19.7945752348274
 20
-18.8921779456302
 10
19.74863747145197
 20
-18.43395645509881
 10
19.7061979241763
 20
-17.89842398361278
 10
19.67368408575475
 20
-17.30974348087632
 10
19.65536616990178
 20
-16.67592899552997
 10
19.65477913334495
 20
-16.01509151945632
 10
19.67261757929734
 20
-15.36562834333658
 10
19.70800709401303
 20
-14.72513046289236
 10
19.74805554424172
 20
-14.22247574128217
 10
19.79478670954456
 20
-13.75589780711613
  0
ENDBLK
  5
93
330
90
100
AcDbEntity
  8
0
100
AcDbBlockEnd
  0
BLOCK
  5
F4
330
F2
100
AcDbEntity
  8
0
100
AcDbBlockBegin
  2
3_405016_Metric_0_in_125912_4
 70
     2
 10
0.0
 20
0.0
 30
0.0
  3
3_405016_Metric_0_in_125912_4
  1

  0
ATTDEF
  5
F6
330
F2
100
AcDbEntity
  8
AM_6
100
AcDbText
 10
-26.18812333737021
 20
5.556249999999999
 30
0.0
 40
0.5
  1
405016 -Metric
100
AcDbAttributeDefinition
  3

  2
NN
 70
     8
280
     0
  0
ATTDEF
  5
F7
330
F2
100
AcDbEntity
  8
AM_6
100
AcDbText
 10
-26.18812333737021
 20
5.056249999999999
 30
0.0
 40
0.5
  1
Grease Fitting
100
AcDbAttributeDefinition
  3

  2
NT
 70
     8
280
     0
  0
ATTDEF
  5
F8
330
F2
100
AcDbEntity
  8
AM_6
100
AcDbText
 10
-26.18812333737021
 20
4.556249999999999
 30
0.0
 40
0.5
  1
405016-Metric
100
AcDbAttributeDefinition
  3

  2
NB
 70
     8
280
     0
  0
ATTDEF
  5
F9
330
F2
100
AcDbEntity
  8
AM_6
100
AcDbText
 10
-26.18812333737021
 20
4.056249999999999
 30
0.0
 40
0.5
  1
$MN.-Metric
100
AcDbAttributeDefinition
  3

  2
NBSYN
 70
     8
280
     0
  0
ATTDEF
  5
FA
330
F2
100
AcDbEntity
  8
AM_6
100
AcDbText
 10
-26.18812333737021
 20
3.556249999999999
 30
0.0
 40
0.5
  1
405016
100
AcDbAttributeDefinition
  3

  2
LINA
 70
     8
280
     0
  0
ATTDEF
  5
FB
330
F2
100
AcDbEntity
  8
AM_6
100
AcDbText
 10
-26.18812333737021
 20
3.056249999999999
 30
0.0
 40
0.5
  1
405016
100
AcDbAttributeDefinition
  3

  2
MN
 70
     8
280
     0
  0
ATTDEF
  5
FC
330
F2
100
AcDbEntity
  8
AM_6
100
AcDbText
 10
-26.18812333737021
 20
2.556249999999999
 30
0.0
 40
0.5
  1
7/16 HEX
100
AcDbAttributeDefinition
  3

  2
H
 70
     8
280
     0
  0
ATTDEF
  5
FD
330
F2
100
AcDbEntity
  8
AM_6
100
AcDbText
 10
-26.18812333737021
 20
2.056249999999999
 30
0.0
 40
0.5
  1
9.728
100
AcDbAttributeDefinition
  3

  2
NDR
 70
     8
280
     0
  0
ATTDEF
  5
FE
330
F2
100
AcDbEntity
  8
AM_6
100
AcDbText
 10
-26.18812333737021
 20
1.556249999999999
 30
0.0
 40
0.5
  1
8.560
100
AcDbAttributeDefinition
  3

  2
KDR
 70
     8
280
     0
  0
ATTDEF
  5
FF
330
F2
100
AcDbEntity
  8
AM_6
100
AcDbText
 10
-26.18812333737021
 20
1.056249999999999
 30
0.0
 40
0.5
  1
4.0005
100
AcDbAttributeDefinition
  3

  2
BZE
 70
     8
280
     0
  0
ATTDEF
  5
100
330
F2
100
AcDbEntity
  8
AM_6
100
AcDbText
 10
-26.18812333737021
 20
0.5562499999999995
 30
0.0
 40
0.5
  1
11.1125
100
AcDbAttributeDefinition
  3

  2
HEX
 70
     8
280
     0
  0
ATTDEF
  5
101
330
F2
100
AcDbEntity
  8
AM_6
100
AcDbText
 10
-26.18812333737021
 20
0.0562499999999995
 30
0.0
 40
0.5
  1
7.143750
100
AcDbAttributeDefinition
  3

  2
HEX2
 70
     8
280
     0
  0
ATTDEF
  5
102
330
F2
100
AcDbEntity
  8
AM_6
100
AcDbText
 10
-26.18812333737021
 20
-0.4437500000000005
 30
0.0
 40
0.5
  1
baldor
100
AcDbAttributeDefinition
  3

  2
COMPANY
 70
     8
280
     0
  0
LINE
  5
103
330
F2
100
AcDbEntity
  8
AM_9
100
AcDbLine
 10
-48.89560084676594
 20
-3.837282897828231
 30
0.0
 11
-49.18316880665243
 21
-4.549376881905936
 31
0.0
  0
LINE
  5
104
330
F2
100
AcDbEntity
  8
AM_9
100
AcDbLine
 10
-45.05575975738812
 20
-5.333905179049321
 30
0.0
 11
-45.35261581136456
 21
-6.068998929608747
 31
0.0
  0
LWPOLYLINE
  5
105
330
F2
100
AcDbEntity
  8
AM_9
100
AcDbPolyline
 90
        3
 70
     0
 43
0.0
 10
-39.56545310364682
 20
2.778124999999998
 10
-39.11181799405516
 20
1.389062499999997
 10
-38.56401709445974
 20
-0.0000000000000024
  0
LWPOLYLINE
  5
106
330
F2
100
AcDbEntity
  8
AM_9
100
AcDbPolyline
 90
        3
 70
     0
 43
0.0
 10
-38.56401709445974
 20
-0.0000000000000024
 10
-39.10954993576736
 20
-1.382816900963401
 10
-39.56545310364682
 20
-2.778125000000001
  0
LWPOLYLINE
  5
107
330
F2
100
AcDbEntity
  8
AM_9
100
AcDbPolyline
 90
        3
 70
     0
 43
0.0
 10
-43.58431620746703
 20
-7.58869625231989
 10
-43.98785323536968
 20
-7.397029361446425
 10
-44.37418727849926
 20
-7.147354260923539
  0
LWPOLYLINE
  5
108
330
F2
100
AcDbEntity
  8
AM_9
100
AcDbPolyline
 90
        3
 70
     0
 43
0.0
 10
-36.76323337062898
 20
-0.0000000000000026
 10
-37.01607023933255
 20
1.382816900963397
 10
-37.36574857803434
 20
2.778124999999998
  0
LWPOLYLINE
  5
109
330
F2
100
AcDbEntity
  8
AM_9
100
AcDbPolyline
 90
        3
 70
     0
 43
0.0
 10
-37.36574857803434
 20
-2.778125000000002
 10
-37.01740807932978
 20
-1.389062500000002
 10
-36.76323337062898
 20
-0.0000000000000026
  0
LWPOLYLINE
  5
10A
330
F2
100
AcDbEntity
  8
AM_9
100
AcDbPolyline
 90
        3
 70
     0
 43
0.0
 10
-39.56545310364682
 20
-2.778125000000001
 10
-39.91379360235138
 20
-4.167187500000002
 10
-40.16796831105218
 20
-5.556250000000003
  0
LINE
  5
10B
330
F2
100
AcDbEntity
  8
AM_9
100
AcDbLine
 10
-38.56401709445974
 20
-0.0000000000000024
 30
0.0
 11
-36.76323337062898
 21
-0.0000000000000026
 31
0.0
  0
LWPOLYLINE
  5
10C
330
F2
100
AcDbEntity
  8
AM_9
100
AcDbPolyline
 90
        3
 70
     0
 43
0.0
 10
-40.16796831105218
 20
5.556249999999999
 10
-39.9151314423486
 20
4.173433099036599
 10
-39.56545310364682
 20
2.778124999999998
  0
ELLIPSE
  5
10D
330
F2
100
AcDbEntity
  8
AM_9
100
AcDbEllipse
 10
-49.73826993583393
 20
-11.90625
 30
0.0
 11
-2.437227270755869
 21
0.9842359150649297
 31
0.0
210
0.0
220
0.0
230
1.0
 40
0.2113091308703488
 41
3.040609649696543
 42
6.384168311072842
  0
ELLIPSE
  5
10E
330
F2
100
AcDbEntity
  8
AM_9
100
AcDbEllipse
 10
-49.02723091601786
 20
-10.14553017344
 30
0.0
 11
-3.277232327750504
 21
1.323458750723529
 31
0.0
210
0.0
220
0.0
230
1.0
 40
0.211309130870352
 41
3.037883024381581
 42
5.801105639492178
  0
ELLIPSE
  5
10F
330
F2
100
AcDbEntity
  8
AM_9
100
AcDbEllipse
 10
-48.75608637387126
 20
-9.474104895899357
 30
0.0
 11
-3.136987913476375
 21
1.266823248949546
 31
0.0
210
0.0
220
0.0
230
1.0
 40
0.2113091308703208
 41
3.38383438133763
 42
6.027837603101471
  0
LWPOLYLINE
  5
110
330
F2
100
AcDbEntity
  8
AM_9
100
AcDbPolyline
 90
        5
 70
     0
 43
0.0
 10
-49.18316880665243
 20
-4.549376881905936
 10
-49.73847347451751
 20
-4.680053692952522
 10
-50.26923408253935
 20
-4.730040525586979
 10
-50.77514161923404
 20
-4.684077415975232
 10
-51.24539179941412
 20
-4.549376881905936
  0
LWPOLYLINE
  5
111
330
F2
100
AcDbEntity
  8
AM_9
100
AcDbPolyline
 90
        5
 70
     0
 43
0.0
 10
-45.35261581136456
 20
-6.068998929608747
 10
-46.33918454402526
 20
-5.830160733401207
 10
-47.30781473050799
 20
-5.503852774457659
 10
-48.26333210728205
 20
-5.070861224918887
 10
-49.18316880665243
 20
-4.549376881905936
  0
LWPOLYLINE
  5
112
330
F2
100
AcDbEntity
  8
AM_9
100
AcDbPolyline
 90
        3
 70
     0
 43
0.0
 10
-44.67953414511712
 20
-6.887292896806422
 10
-45.02840766033728
 20
-6.507011440078409
 10
-45.35261581136456
 20
-6.068998929608747
  0
ELLIPSE
  5
113
330
F2
100
AcDbEntity
  8
AM_9
100
AcDbEllipse
 10
-47.460663443588
 20
-6.266296641270977
 30
0.0
 11
-3.312005593887122
 21
1.337501387545502
 31
0.0
210
0.0
220
0.0
230
1.0
 40
0.2113091308703447
 41
3.806340372002886
 42
6.919181903097269
  0
LINE
  5
114
330
F2
100
AcDbEntity
  8
AM_9
100
AcDbLine
 10
-38.17060082985161
 20
5.081049061129095
 30
0.0
 11
-38.3671845872214
 21
5.556249999999999
 31
0.0
  0
LWPOLYLINE
  5
115
330
F2
100
AcDbEntity
  8
AM_9
100
AcDbPolyline
 90
        3
 70
     0
 43
0.0
 10
-37.73985285624328
 20
3.944680467593117
 10
-37.81938368762599
 20
4.167187499999998
 10
-38.17060082985161
 20
5.081049061129095
  0
LINE
  5
116
330
F2
100
AcDbEntity
  8
AM_9
100
AcDbLine
 10
-37.36574857803434
 20
2.778124999999998
 30
0.0
 11
-37.73985285624328
 21
3.944680467593117
 31
0.0
  0
LINE
  5
117
330
F2
100
AcDbEntity
  8
AM_9
100
AcDbLine
 10
-37.73992914664665
 20
-3.944897317610786
 30
0.0
 11
-37.36574857803434
 21
-2.778125000000002
 31
0.0
  0
LWPOLYLINE
  5
118
330
F2
100
AcDbEntity
  8
AM_9
100
AcDbPolyline
 90
        3
 70
     0
 43
0.0
 10
-38.17059772896969
 20
-5.081041392296854
 10
-37.82165174591379
 20
-4.173433099036602
 10
-37.73992914664665
 20
-3.944897317610786
  0
LINE
  5
119
330
F2
100
AcDbEntity
  8
AM_9
100
AcDbLine
 10
-38.3671845872214
 20
-5.556250000000003
 30
0.0
 11
-38.17059772896969
 21
-5.081041392296854
 31
0.0
  0
LINE
  5
11A
330
F2
100
AcDbEntity
  8
AM_9
100
AcDbLine
 10
-49.17842478840395
 20
-3.058387021916506
 30
0.0
 11
-49.20599509114264
 21
-3.126658350638856
 31
0.0
  0
LINE
  5
11B
330
F2
100
AcDbEntity
  8
AM_9
100
AcDbLine
 10
-43.96837098638673
 20
-5.080000000000001
 30
0.0
 11
-43.90059161103125
 21
-4.912160420603781
 31
0.0
  0
ELLIPSE
  5
11C
330
F2
100
AcDbEntity
  8
AM_9
100
AcDbEllipse
 10
-46.99584579210929
 20
-5.115285751734476
 30
0.0
 11
-2.590724375662794
 21
1.046223307591186
 31
0.0
210
0.0
220
0.0
230
1.0
 40
0.2113091308703563
 41
3.141592653589793
 42
6.283185307179586
  0
LWPOLYLINE
  5
11D
330
F2
100
AcDbEntity
  8
AM_9
100
AcDbPolyline
 90
        4
 70
     0
 43
0.0
 10
-49.17854492164145
 20
-3.058684545841783
 10
-49.18207973764849
 20
-3.069253891791882
 10
-49.16740910513748
 20
-3.162573084305297
 10
-49.11896331097725
 20
-3.235015772850819
  0
LWPOLYLINE
  5
11E
330
F2
100
AcDbEntity
  8
AM_9
100
AcDbPolyline
 90
        5
 70
     0
 43
0.0
 10
-43.90056762831345
 20
-4.912101024934069
 10
-43.90293836604469
 20
-4.917691338485696
 10
-43.98461300464171
 20
-5.008516140987742
 10
-44.13747943100838
 20
-5.065126856945112
 10
-44.31182428375163
 20
-5.079999999236803
  0
LWPOLYLINE
  5
11F
330
F2
100
AcDbEntity
  8
AM_9
100
AcDbPolyline
 90
        3
 70
     0
 43
0.0
 10
-46.68157141654758
 20
-4.434184386909876
 10
-45.98588890206243
 20
-4.766969289547203
 10
-45.05575975738812
 20
-5.333905179049321
  0
LWPOLYLINE
  5
120
330
F2
100
AcDbEntity
  8
AM_9
100
AcDbPolyline
 90
        3
 70
     0
 43
0.0
 10
-48.89560084676594
 20
-3.837282897828231
 10
-48.15380381627806
 20
-3.973124856539688
 10
-47.42557314314374
 20
-4.163853732670687
  0
LWPOLYLINE
  5
121
330
F2
100
AcDbEntity
  8
AM_9
100
AcDbPolyline
 90
        3
 70
     0
 43
0.0
 10
-45.05575975738812
 20
-5.333905179049321
 10
-44.62462822611664
 20
-5.49523760296716
 10
-44.2147164936384
 20
-5.736282007269851
  0
LWPOLYLINE
  5
122
330
F2
100
AcDbEntity
  8
AM_9
100
AcDbPolyline
 90
        4
 70
     0
 43
0.0
 10
-49.83313720751612
 20
-3.60574614931637
 10
-49.73470917358648
 20
-3.608061141866096
 10
-49.36669072967182
 20
-3.660719790057628
 10
-48.89560084676594
 20
-3.837282897828231
  0
ELLIPSE
  5
123
330
F2
100
AcDbEntity
  8
AM_9
100
AcDbEllipse
 10
-46.99584579210934
 20
-5.115285751734388
 30
0.0
 11
-3.312005593887044
 21
1.337501387545443
 31
0.0
210
0.0
220
0.0
230
1.0
 40
0.2113091308703518
 41
3.814164134970072
 42
4.693426540891999
  0
ELLIPSE
  5
124
330
F2
100
AcDbEntity
  8
AM_9
100
AcDbEllipse
 10
-46.99584579210933
 20
-5.115285751734351
 30
0.0
 11
-3.312005593887015
 21
1.337501387545419
 31
0.0
210
0.0
220
0.0
230
1.0
 40
0.2113091308703447
 41
-1.272581190551185
 42
-0.6725714813802801
  0
LINE
  5
125
330
F2
100
AcDbEntity
  8
AM_9
100
AcDbLine
 10
-44.37418727849926
 20
-7.147354260923539
 30
0.0
 11
-44.67953414511712
 21
-6.887292896806422
 31
0.0
  0
ELLIPSE
  5
126
330
F2
100
AcDbEntity
  8
AM_9
100
AcDbEllipse
 10
-47.46066344358808
 20
-6.266296641270937
 30
0.0
 11
-3.312005593887037
 21
1.337501387545436
 31
0.0
210
0.0
220
0.0
230
1.0
 40
0.2113091308703492
 41
2.800469246484361
 42
3.607080702195141
  0
ELLIPSE
  5
127
330
F2
100
AcDbEntity
  8
AM_9
100
AcDbEllipse
 10
-47.46066344356908
 20
-6.266296641280782
 30
0.0
 11
-3.312005593862174
 21
1.337501387536638
 31
0.0
210
0.0
220
0.0
230
1.0
 40
0.211309130870524
 41
-3.777589249507463
 42
-3.764628581859073
  0
LINE
  5
128
330
F2
100
AcDbEntity
  8
AM_9
100
AcDbLine
 10
-50.70556712645428
 20
-5.199377790603942
 30
0.0
 11
-50.6744558595027
 21
-5.247702945087307
 31
0.0
  0
LWPOLYLINE
  5
129
330
F2
100
AcDbEntity
  8
AM_9
100
AcDbPolyline
 90
       17
 70
     0
 43
0.0
 10
-44.07014080585619
 20
-4.54754929579452
 10
-44.27251441879149
 20
-4.404185730898368
 10
-44.54571868401969
 20
-4.243653641815979
 10
-44.86685219268976
 20
-4.079360450144661
 10
-45.24506894059413
 20
-3.906600444275934
 10
-45.6489766114889
 20
-3.739733627290439
 10
-46.08994524496055
 20
-3.574110867010544
 10
-46.53077436406876
 20
-3.423743718108895
 10
-46.98436023830969
 20
-3.284291520882655
 10
-47.41183618041159
 20
-3.167739146394208
 10
-47.82628147548949
 20
-3.070557447853723
 10
-48.19201736732927
 20
-3.001126812430812
 10
-48.52049913011925
 20
-2.957268343506164
 10
-48.78363622537564
 20
-2.942714645652545
 10
-48.98963466571975
 20
-2.956956816676945
 10
-49.12112135196712
 20
-2.998748603033093
 10
-49.17854492164145
 20
-3.058684545841783
  0
LWPOLYLINE
  5
12A
330
F2
100
AcDbEntity
  8
AM_9
100
AcDbPolyline
 90
        4
 70
     0
 43
0.0
 10
-44.0701408058562
 20
-4.547549295794528
 10
-43.94429242986567
 20
-4.680277139818005
 10
-43.89075216441039
 20
-4.804994146739736
 10
-43.90056762831345
 20
-4.912101024934069
  0
LINE
  5
12B
330
F2
100
AcDbEntity
  8
AM_9
100
AcDbLine
 10
-41.97137992853546
 20
5.079999999999997
 30
0.0
 11
-43.56368819552688
 21
5.079999999999997
 31
0.0
  0
LINE
  5
12C
330
F2
100
AcDbEntity
  8
AM_9
100
AcDbLine
 10
-43.56375535534624
 20
-5.080000000000001
 30
0.0
 11
-41.97137992853546
 21
-5.080000000000001
 31
0.0
  0
LINE
  5
12D
330
F2
100
AcDbEntity
  8
AM_9
100
AcDbLine
 10
-41.57508702040627
 20
-5.556250000000002
 30
0.0
 11
-38.3671845872214
 21
-5.556250000000003
 31
0.0
  0
LINE
  5
12E
330
F2
100
AcDbEntity
  8
AM_9
100
AcDbLine
 10
-38.3671845872214
 20
5.556249999999999
 30
0.0
 11
-41.57508702040627
 21
5.556249999999999
 31
0.0
  0
ELLIPSE
  5
12F
330
F2
100
AcDbEntity
  8
AM_9
100
AcDbEllipse
 10
-39.77167540292297
 20
-0.0000000000000551
 30
0.0
 11
3.402221888881206E-16
 21
5.556249999999943
 31
0.0
210
0.0
220
0.0
230
1.0
 40
0.4999999999999954
 41
1.960535629105172
 42
7.469578760167062
  0
LINE
  5
130
330
F2
100
AcDbEntity
  8
AM_9
100
AcDbLine
 10
-38.05315624228824
 20
5.079999999999997
 30
0.0
 11
-39.77167540292299
 21
5.079999999999997
 31
0.0
  0
LINE
  5
131
330
F2
100
AcDbEntity
  8
AM_9
100
AcDbLine
 10
-39.77167540292298
 20
-5.080000000000001
 30
0.0
 11
-38.05315624228824
 21
-5.080000000000001
 31
0.0
  0
LWPOLYLINE
  5
132
330
F2
100
AcDbEntity
  8
AM_9
100
AcDbPolyline
 90
        3
 70
     0
 43
0.0
 10
-41.58896303397222
 20
5.467482533688501
 10
-41.82792388910984
 20
4.173433099036599
 10
-42.17760222781163
 20
2.778124999999999
  0
LINE
  5
133
330
F2
100
AcDbEntity
  8
AM_9
100
AcDbLine
 10
-42.17760222781163
 20
2.778124999999999
 30
0.0
 11
-42.28872389735186
 21
2.406489392570451
 31
0.0
  0
LWPOLYLINE
  5
134
330
F2
100
AcDbEntity
  8
AM_9
100
AcDbPolyline
 90
        3
 70
     0
 43
0.0
 10
-42.17760222781163
 20
-2.778125000000001
 10
-41.82926172910707
 20
-4.167187500000002
 10
-41.59084713514451
 20
-5.455570699477752
  0
LINE
  5
135
330
F2
100
AcDbEntity
  8
AM_9
100
AcDbLine
 10
-42.28864467257416
 20
-2.406745533732407
 30
0.0
 11
-42.17760222781163
 21
-2.778125000000001
 31
0.0
  0
LINE
  5
136
330
F2
100
AcDbEntity
  8
AM_9
100
AcDbLine
 10
-33.72114503717751
 20
4.708725846697615
 30
0.0
 11
-38.00927285683604
 21
4.863493258495418
 31
0.0
  0
LINE
  5
137
330
F2
100
AcDbEntity
  8
AM_9
100
AcDbLine
 10
-38.00927285683604
 20
-4.863493258495422
 30
0.0
 11
-33.72114503717751
 21
-4.708725846697618
 31
0.0
  0
LINE
  5
138
330
F2
100
AcDbEntity
  8
AM_9
100
AcDbLine
 10
-32.05589899686088
 20
3.352827683708302
 30
0.0
 11
-32.40411857088246
 21
3.84528452797339
 31
0.0
  0
LINE
  5
139
330
F2
100
AcDbEntity
  8
AM_9
100
AcDbLine
 10
-32.40411857088246
 20
-3.845284527973392
 30
0.0
 11
-32.05589899686088
 21
-3.352827683708305
 31
0.0
  0
ELLIPSE
  5
13A
330
F2
100
AcDbEntity
  8
AM_9
100
AcDbEllipse
 10
-41.97137992853548
 20
-0.0000000000000002
 30
0.0
 11
3.402221888881227E-16
 21
5.556249999999978
 31
0.0
210
0.0
220
0.0
230
1.0
 40
0.4999999999999999
 41
0.0
 42
6.283185307179586
  0
ELLIPSE
  5
13B
330
F2
100
AcDbEntity
  8
AM_9
100
AcDbEllipse
 10
-41.97137992853545
 20
-0.0000000000000053
 30
0.0
 11
3.110602869834268E-16
 21
5.079999999999986
 31
0.0
210
0.0
220
0.0
230
1.0
 40
0.4999999999999997
 41
0.0
 42
6.283185307179586
  0
ELLIPSE
  5
13C
330
F2
100
AcDbEntity
  8
AM_9
100
AcDbEllipse
 10
-38.05315624228815
 20
-0.000000000000079
 30
0.0
 11
3.110602869834325E-16
 21
5.080000000000078
 31
0.0
210
0.0
220
0.0
230
1.0
 40
0.5000000000000006
 41
0.0
 42
6.283185307179586
  0
ELLIPSE
  5
13D
330
F2
100
AcDbEntity
  8
AM_9
100
AcDbEllipse
 10
-39.77167540292301
 20
-0.0000000000000338
 30
0.0
 11
3.110602869834298E-16
 21
5.080000000000034
 31
0.0
210
0.0
220
0.0
230
1.0
 40
0.4999999999999966
 41
0.0
 42
6.283185307179586
  0
ELLIPSE
  5
13E
330
F2
100
AcDbEntity
  8
AM_9
100
AcDbEllipse
 10
-38.05315624228825
 20
0.0000000000000009
 30
0.0
 11
2.978515598206525E-16
 21
4.864285115153665
 31
0.0
210
0.0
220
0.0
230
1.0
 40
0.4999999999999983
 41
0.0
 42
6.283185307179586
  0
ELLIPSE
  5
13F
330
F2
100
AcDbEntity
  8
AM_9
100
AcDbEllipse
 10
-33.76363195354328
 20
-0.0000000000000075
 30
0.0
 11
2.883732460730459E-16
 21
4.709492504676819
 31
0.0
210
0.0
220
0.0
230
1.0
 40
0.4999999999999983
 41
0.0
 42
6.283185307179586
  0
ELLIPSE
  5
140
330
F2
100
AcDbEntity
  8
AM_9
100
AcDbEllipse
 10
-33.24130259251097
 20
0.0000000000000155
 30
0.0
 11
2.514419402883878E-16
 21
4.106358510281519
 31
0.0
210
0.0
220
0.0
230
1.0
 40
0.5000000000000007
 41
0.0
 42
6.283185307179586
  0
LWPOLYLINE
  5
141
330
F2
100
AcDbEntity
  8
AM_4
100
AcDbPolyline
 90
        4
 70
     0
 43
0.0
 10
-43.90936962702049
 20
-5.996343371387007
 10
-43.67657896797592
 20
-6.253713524124906
 10
-43.47106069018966
 20
-6.529083721607241
 10
-43.27810271496818
 20
-6.830431020205951
  0
LWPOLYLINE
  5
142
330
F2
100
AcDbEntity
  8
AM_4
100
AcDbPolyline
 90
        3
 70
     0
 43
0.0
 10
-43.27810271496818
 20
-6.830431020205951
 10
-43.6081982663483
 20
-6.691143549353728
 10
-43.96923132925001
 20
-6.609853898455522
  0
LWPOLYLINE
  5
143
330
F2
100
AcDbEntity
  8
AM_4
100
AcDbPolyline
 90
        3
 70
     0
 43
0.0
 10
-44.43404898072878
 20
-7.76086478799207
 10
-44.01794733340673
 20
-7.69811432306444
 10
-43.58431620746703
 20
-7.58869625231989
  0
LINE
  5
144
330
F2
100
AcDbEntity
  8
AM_4
100
AcDbLine
 10
-43.27810271496818
 20
-6.830431020205951
 30
0.0
 11
-43.58431620746703
 21
-7.58869625231989
 31
0.0
  0
LINE
  5
145
330
F2
100
AcDbEntity
  8
AM_4
100
AcDbLine
 10
-47.33442557230175
 20
-12.93739051932093
 30
0.0
 11
-45.79488711551324
 21
-11.53205948275794
 31
0.0
  0
LINE
  5
146
330
F2
100
AcDbEntity
  8
AM_4
100
AcDbLine
 10
-52.31596036493006
 20
-8.898626575676335
 30
0.0
 11
-52.18404743874552
 21
-10.9789469745965
 31
0.0
  0
ELLIPSE
  5
147
330
F2
100
AcDbEntity
  8
AM_4
100
AcDbEllipse
 10
-49.73826993583393
 20
-11.90625
 30
0.0
 11
-2.437227270755869
 21
0.9842359150649287
 31
0.0
210
0.0
220
0.0
230
1.0
 40
0.2113091308703514
 41
0.1009830038932638
 42
3.040609649696531
  0
LINE
  5
148
330
F2
100
AcDbEntity
  8
AM_4
100
AcDbLine
 10
-50.95782383952764
 20
-3.837282897828231
 30
0.0
 11
-51.24539179941412
 21
-4.549376881905936
 31
0.0
  0
LWPOLYLINE
  5
149
330
F2
100
AcDbEntity
  8
AM_4
100
AcDbPolyline
 90
       10
 70
     0
 43
0.0
 10
-51.70996699704074
 20
-8.076528323770855
 10
-51.7208318375231
 20
-8.079908617561454
 10
-51.85807388768988
 20
-8.134398277815452
 10
-51.98214793196429
 20
-8.207502909335997
 10
-52.09267390713508
 20
-8.300931570517623
 10
-52.18578411235768
 20
-8.414375615750705
 10
-52.26278844406858
 20
-8.560013890939175
 10
-52.30563349967753
 20
-8.710822358492102
 10
-52.31750495950308
 20
-8.858557787278967
 10
-52.31505166931723
 20
-8.911371851996723
  0
LWPOLYLINE
  5
14A
330
F2
100
AcDbEntity
  8
AM_4
100
AcDbPolyline
 90
        9
 70
     0
 43
0.0
 10
-45.80145079294795
 20
-11.53798588727932
 10
-45.71931898043398
 20
-11.45299118111435
 10
-45.63606480742543
 20
-11.33105000873916
 10
-45.57349253713402
 20
-11.18235858632242
 10
-45.54399676101571
 20
-11.03198823157346
 10
-45.54349397877752
 20
-10.88694016210007
 10
-45.56706055404717
 20
-10.74976197526437
 10
-45.61099314943177
 20
-10.62018122018411
 10
-45.65616859437312
 20
-10.52675853185858
  0
ELLIPSE
  5
14B
330
F2
100
AcDbEntity
  8
AM_4
100
AcDbEllipse
 10
-49.02723091601786
 20
-10.14553017343999
 30
0.0
 11
-3.277232327750518
 21
1.323458750723534
 31
0.0
210
0.0
220
0.0
230
1.0
 40
0.2113091308703466
 41
0.1048988938847923
 42
3.037883024381576
  0
LWPOLYLINE
  5
14C
330
F2
100
AcDbEntity
  8
AM_4
100
AcDbPolyline
 90
        3
 70
     0
 43
0.0
 10
-45.64653920022872
 20
-7.58869625231989
 10
-45.30279425651882
 20
-7.697739397127513
 10
-44.9583884270442
 20
-7.758592464327529
  0
LINE
  5
14D
330
F2
100
AcDbEntity
  8
AM_4
100
AcDbLine
 10
-44.96409494119772
 20
-7.757990703186896
 30
0.0
 11
-44.9358615395418
 21
-7.76086478799207
 31
0.0
  0
ELLIPSE
  5
14E
330
F2
100
AcDbEntity
  8
AM_4
100
AcDbEllipse
 10
-47.46066344358807
 20
-6.266296641270931
 30
0.0
 11
-3.312005593887016
 21
1.337501387545438
 31
0.0
210
0.0
220
0.0
230
1.0
 40
0.211309130870352
 41
1.711945269609626
 42
2.505596057672115
  0
LWPOLYLINE
  5
14F
330
F2
100
AcDbEntity
  8
AM_4
100
AcDbPolyline
 90
        4
 70
     0
 43
0.0
 10
-51.24539179941412
 20
-4.549376881905936
 10
-50.86751300111999
 20
-5.05042200837363
 10
-50.45020948615606
 20
-5.477080537076166
 10
-50.31058521342795
 20
-5.592268783583251
  0
LINE
  5
150
330
F2
100
AcDbEntity
  8
AM_4
100
AcDbLine
 10
-50.31307814018943
 20
-5.590323799250987
 30
0.0
 11
-50.29298037884519
 21
-5.606004100241778
 31
0.0
  0
LWPOLYLINE
  5
151
330
F2
100
AcDbEntity
  8
AM_4
100
AcDbPolyline
 90
        3
 70
     0
 43
0.0
 10
-50.31058521342795
 20
-5.592268783583251
 10
-49.9818959648228
 20
-5.817773758536458
 10
-49.47706179688797
 20
-6.068998929608745
  0
LWPOLYLINE
  5
152
330
F2
100
AcDbEntity
  8
AM_4
100
AcDbPolyline
 90
        4
 70
     0
 43
0.0
 10
-44.47104388806302
 20
-6.609853898455276
 10
-44.70595922757593
 20
-6.646959991776583
 10
-45.01831617079664
 20
-6.724401268817782
 10
-45.34032570772987
 20
-6.830431020205951
  0
LINE
  5
153
330
F2
100
AcDbEntity
  8
AM_4
100
AcDbLine
 10
-49.20599509114264
 20
-3.126658350638856
 30
0.0
 11
-49.58657016777208
 21
-4.069062444143282
 31
0.0
  0
LINE
  5
154
330
F2
100
AcDbEntity
  8
AM_4
100
AcDbLine
 10
-44.40512141644658
 20
-6.161509059325487
 30
0.0
 11
-43.96837098638673
 21
-5.080000000000001
 31
0.0
  0
ELLIPSE
  5
155
330
F2
100
AcDbEntity
  8
AM_4
100
AcDbEllipse
 10
-46.99584579210933
 20
-5.115285751734383
 30
0.0
 11
-2.590724375662753
 21
1.046223307591101
 31
0.0
210
0.0
220
0.0
230
1.0
 40
0.2113091308703502
 41
0.0
 42
3.141592653589793
  0
LWPOLYLINE
  5
156
330
F2
100
AcDbEntity
  8
AM_4
100
AcDbPolyline
 90
        4
 70
     0
 43
0.0
 10
-50.95782383952764
 20
-3.837282897828231
 10
-50.53578145304441
 20
-3.705296695971724
 10
-50.12799429160403
 20
-3.624930539193417
 10
-49.83313720751612
 20
-3.60574614931637
  0
LWPOLYLINE
  5
157
330
F2
100
AcDbEntity
  8
AM_4
100
AcDbPolyline
 90
        7
 70
     0
 43
0.0
 10
-49.1802057429115
 20
-5.333905179049321
 10
-49.44205780638767
 20
-4.936675458173813
 10
-49.73019100797661
 20
-4.585948207644054
 10
-50.05312596222751
 20
-4.290054100087518
 10
-50.40608248744569
 20
-4.060772684155615
 10
-50.67718531431802
 20
-3.934543968436728
 10
-50.95782383952764
 20
-3.837282897828231
  0
LINE
  5
158
330
F2
100
AcDbEntity
  8
AM_4
100
AcDbLine
 10
-49.79935892752825
 20
-3.605746148079322
 30
0.0
 11
-49.83589623439135
 21
-3.605746148079322
 31
0.0
  0
ELLIPSE
  5
159
330
F2
100
AcDbEntity
  8
AM_4
100
AcDbEllipse
 10
-46.99584579235695
 20
-5.115285751711927
 30
0.0
 11
-3.312005594178969
 21
1.337501387634901
 31
0.0
210
0.0
220
0.0
230
1.0
 40
0.2113091308758185
 41
3.806340372001911
 42
3.81416413496848
  0
ELLIPSE
  5
15A
330
F2
100
AcDbEntity
  8
AM_4
100
AcDbEllipse
 10
-46.99584579211003
 20
-5.115285751733777
 30
0.0
 11
-3.312005593886134
 21
1.337501387544904
 31
0.0
210
0.0
220
0.0
230
1.0
 40
0.2113091308703215
 41
5.610613825799261
 42
7.795870906981785
  0
ELLIPSE
  5
15B
330
F2
100
AcDbEntity
  8
AM_4
100
AcDbEllipse
 10
-47.46066344358807
 20
-6.266296641270954
 30
0.0
 11
-3.312005593887044
 21
1.337501387545462
 31
0.0
210
0.0
220
0.0
230
1.0
 40
0.2113091308703443
 41
0.6359965959176828
 42
1.512685599801942
  0
LWPOLYLINE
  5
15C
330
F2
100
AcDbEntity
  8
AM_4
100
AcDbPolyline
 90
        3
 70
     0
 43
0.0
 10
-44.9358615395418
 20
-7.76086478799207
 10
-44.69582648782957
 20
-7.784509761460651
 10
-44.43404898072878
 20
-7.76086478799207
  0
LWPOLYLINE
  5
15D
330
F2
100
AcDbEntity
  8
AM_4
100
AcDbPolyline
 90
       19
 70
     0
 43
0.0
 10
-45.64882598441028
 20
-10.54041908859617
 10
-45.68498160838264
 20
-10.46608109064138
 10
-45.74152435897092
 20
-10.32559400290096
 10
-45.79236855478901
 20
-10.15542837477688
 10
-45.83018380007874
 20
-9.958405573306061
 10
-45.84806628586086
 20
-9.740678942248081
 10
-45.84098827056843
 20
-9.51010820282995
 10
-45.80050996086846
 20
-9.247794644431735
 10
-45.72664205960009
 20
-8.993485510506362
 10
-45.62334531424172
 20
-8.755932326072985
 10
-45.495553175272
 20
-8.540004821883244
 10
-45.34887752564362
 20
-8.349002258586225
 10
-45.1895782096081
 20
-8.185112284078418
 10
-45.02489987809071
 20
-8.04971700686218
 10
-44.86302959119898
 20
-7.943073479867675
 10
-44.71225370777847
 20
-7.863765256902978
 10
-44.57936755667735
 20
-7.808470235418774
 10
-44.46856159303395
 20
-7.772574519061807
 10
-44.38872799859251
 20
-7.752731352094409
  0
LWPOLYLINE
  5
15E
330
F2
100
AcDbEntity
  8
AM_4
100
AcDbPolyline
 90
       19
 70
     0
 43
0.0
 10
-50.6744558595027
 20
-5.247702945087307
 10
-50.67384863139623
 20
-5.248694599899465
 10
-50.62071074609661
 20
-5.343471188874892
 10
-50.56387007998789
 20
-5.466534951723117
 10
-50.50883185183784
 20
-5.619379429317118
 10
-50.46245965763614
 20
-5.801177133566666
 10
-50.43211486170968
 20
-6.007634045750458
 10
-50.42405564370092
 20
-6.231637187841503
 10
-50.44234739439692
 20
-6.465204394571368
 10
-50.49536045318396
 20
-6.725454562278758
 10
-50.58056241993589
 20
-6.974316022374826
 10
-50.69346886311918
 20
-7.204389323862826
 10
-50.82887271982337
 20
-7.411465478052024
 10
-50.98096005840731
 20
-7.592723469074277
 10
-51.14313380439096
 20
-7.746258683691867
 10
-51.30776598234764
 20
-7.871046391465025
 10
-51.46648205436237
 20
-7.967381270474425
 10
-51.61134854696514
 20
-8.037392631265016
 10
-51.72850190609773
 20
-8.082312754655613
  0
ELLIPSE
  5
15F
330
F2
100
AcDbEntity
  8
AM_4
100
AcDbEllipse
 10
-48.75608637387082
 20
-9.474104895899874
 30
0.0
 11
-3.136987913476887
 21
1.266823248950022
 31
0.0
210
0.0
220
0.0
230
1.0
 40
0.211309130870352
 41
6.042446171438606
 42
9.66701968851798
  0
ELLIPSE
  5
160
330
F2
100
AcDbEntity
  8
AM_4
100
AcDbEllipse
 10
-48.7560863739091
 20
-9.474104895938147
 30
0.0
 11
-3.136987913437266
 21
1.266823248989811
 31
0.0
210
0.0
220
0.0
230
1.0
 40
0.211309130874028
 41
-0.2553477040749446
 42
-0.2407391357377007
  0
ELLIPSE
  5
161
330
F2
100
AcDbEntity
  8
AM_4
100
AcDbEllipse
 10
-46.99584579210933
 20
-5.115285751734367
 30
0.0
 11
-3.312005593887222
 21
1.337501387545109
 31
0.0
210
0.0
220
0.0
230
1.0
 40
0.2113091308703646
 41
1.711945269609621
 42
2.518556725320338
  0
LINE
  5
162
330
F2
100
AcDbEntity
  8
AM_4
100
AcDbLine
 10
-43.96923132925001
 20
-6.609853898455522
 30
0.0
 11
-44.47104388806302
 21
-6.609853898455276
 31
0.0
  0
ELLIPSE
  5
163
330
F2
100
AcDbEntity
  8
AM_4
100
AcDbEllipse
 10
-46.99584579210941
 20
-5.115285751734351
 30
0.0
 11
-3.312005593887108
 21
1.337501387545476
 31
0.0
210
0.0
220
0.0
230
1.0
 40
0.2113091308703491
 41
2.800469246484381
 42
3.607080702195121
  0
LINE
  5
164
330
F2
100
AcDbEntity
  8
AM_4
100
AcDbLine
 10
-44.2147164936384
 20
-5.736282007269851
 30
0.0
 11
-43.90936962702049
 21
-5.996343371387007
 31
0.0
  0
LWPOLYLINE
  5
165
330
F2
100
AcDbEntity
  8
AM_4
100
AcDbPolyline
 90
        3
 70
     0
 43
0.0
 10
-45.34032570772987
 20
-6.830431020205951
 10
-46.05310812693851
 20
-6.382400080731244
 10
-46.80972598982334
 20
-5.996343371387013
  0
LINE
  5
166
330
F2
100
AcDbEntity
  8
AM_4
100
AcDbLine
 10
-46.80972598982334
 20
-5.996343371387013
 30
0.0
 11
-47.47034973908335
 21
-5.736282007269859
 31
0.0
  0
LWPOLYLINE
  5
167
330
F2
100
AcDbEntity
  8
AM_4
100
AcDbPolyline
 90
        4
 70
     0
 43
0.0
 10
-47.47034973908335
 20
-5.736282007269859
 10
-48.05429662026626
 20
-5.560509266840902
 10
-48.61324571472767
 20
-5.432128708591388
 10
-49.1802057429115
 20
-5.333905179049321
  0
LINE
  5
168
330
F2
100
AcDbEntity
  8
AM_4
100
AcDbLine
 10
-49.1802057429115
 20
-5.333905179049321
 30
0.0
 11
-49.47706179688794
 21
-6.068998929608747
 31
0.0
  0
LWPOLYLINE
  5
169
330
F2
100
AcDbEntity
  8
AM_4
100
AcDbPolyline
 90
        3
 70
     0
 43
0.0
 10
-49.47706179688794
 20
-6.068998929608747
 10
-48.72319433754937
 20
-6.504786871533986
 10
-47.93516739056207
 20
-6.887292896806422
  0
LINE
  5
16A
330
F2
100
AcDbEntity
  8
AM_4
100
AcDbLine
 10
-47.93516739056207
 20
-6.887292896806422
 30
0.0
 11
-47.27454364130215
 21
-7.14735426092354
 31
0.0
  0
LWPOLYLINE
  5
16B
330
F2
100
AcDbEntity
  8
AM_4
100
AcDbPolyline
 90
        3
 70
     0
 43
0.0
 10
-47.27454364130215
 20
-7.14735426092354
 10
-46.47061964960992
 20
-7.395910919975459
 10
-45.64653920022872
 20
-7.58869625231989
  0
LINE
  5
16C
330
F2
100
AcDbEntity
  8
AM_4
100
AcDbLine
 10
-45.34032570772987
 20
-6.830431020205951
 30
0.0
 11
-45.64653920022872
 21
-7.58869625231989
 31
0.0
  0
ARC
  5
16D
330
F2
100
AcDbEntity
  8
AM_4
100
AcDbCircle
 10
-45.20219595052877
 20
-0.0000000000000013
 30
0.0
 40
5.079999999999998
100
AcDbArc
 50
90.0
 51
219.6407979510576
  0
LWPOLYLINE
  5
16E
330
F2
100
AcDbEntity
  8
AM_4
100
AcDbPolyline
 90
       10
 70
     0
 43
0.0
 10
-49.11896331097725
 20
-3.235015772850819
 10
-49.07668782838573
 20
-3.281280336792628
 10
-48.91723812778708
 20
-3.41561366815326
 10
-48.68463511159397
 20
-3.569173128090976
 10
-48.39771190687889
 20
-3.729407788863487
 10
-48.04868666790384
 20
-3.900563582124101
 10
-47.666124828521
 20
-4.068570560479343
 10
-47.23957188890164
 20
-4.237973131810882
 10
-46.79762875059015
 20
-4.397035613753721
 10
-46.33425109520093
 20
-4.547549295795372
  0
ELLIPSE
  5
16F
330
F2
100
AcDbEntity
  8
AM_4
100
AcDbEllipse
 10
-45.20219595052876
 20
0.0000000000000018
 30
0.0
 11
3.110602869834279E-16
 21
5.080000000000003
 31
0.0
210
0.0
220
0.0
230
1.0
 40
0.4999999999999981
 41
0.0
 42
2.67964663302282
  0
LINE
  5
170
330
F2
100
AcDbEntity
  8
AM_4
100
AcDbLine
 10
-43.56368819552688
 20
5.079999999999997
 30
0.0
 11
-45.20219595052878
 21
5.079999999999997
 31
0.0
  0
LINE
  5
171
330
F2
100
AcDbEntity
  8
AM_4
100
AcDbLine
 10
-44.31557800311509
 20
-5.080000000000001
 30
0.0
 11
-43.56375535534624
 21
-5.080000000000001
 31
0.0
  0
LWPOLYLINE
  5
172
330
F2
100
AcDbEntity
  8
AM_4
100
AcDbPolyline
 90
        8
 70
     0
 43
0.0
 10
-44.31182428375163
 20
-5.079999999236803
 10
-44.34959706162994
 20
-5.079458245572024
 10
-44.62578651373937
 20
-5.050335633392995
 10
-44.94070388527452
 20
-4.982589552160019
 10
-45.30705901657071
 20
-4.878563523460394
 10
-45.70108870503548
 20
-4.752207997638139
 10
-46.13526116122454
 20
-4.610115106939384
 10
-46.33425109520137
 20
-4.547549295794528
  0
LINE
  5
173
330
F2
100
AcDbEntity
  8
AM_4
100
AcDbLine
 10
-43.37587074423703
 20
5.556249999999999
 30
0.0
 11
-41.57508702040627
 21
5.556249999999999
 31
0.0
  0
LWPOLYLINE
  5
174
330
F2
100
AcDbEntity
  8
AM_4
100
AcDbPolyline
 90
        3
 70
     0
 43
0.0
 10
-44.3773067534241
 20
2.778124999999998
 10
-43.92367164383244
 20
4.167187499999998
 10
-43.37587074423703
 20
5.556249999999999
  0
LWPOLYLINE
  5
175
330
F2
100
AcDbEntity
  8
AM_4
100
AcDbPolyline
 90
        3
 70
     0
 43
0.0
 10
-44.97982196082946
 20
-0.0000000000000003
 10
-44.72698509212589
 20
1.382816900963398
 10
-44.3773067534241
 20
2.778124999999998
  0
LINE
  5
176
330
F2
100
AcDbEntity
  8
AM_4
100
AcDbLine
 10
-41.57508702040627
 20
5.556249999999999
 30
0.0
 11
-41.58896303397222
 21
5.467482533688501
 31
0.0
  0
ELLIPSE
  5
177
330
F2
100
AcDbEntity
  8
AM_4
100
AcDbEllipse
 10
-39.771675402923
 20
0.000000000000002
 30
0.0
 11
3.402221888881271E-16
 21
5.556250000000049
 31
0.0
210
0.0
220
0.0
230
1.0
 40
0.4999999999999922
 41
1.186393452987484
 42
1.960535629105183
  0
LWPOLYLINE
  5
178
330
F2
100
AcDbEntity
  8
AM_4
100
AcDbPolyline
 90
        3
 70
     0
 43
0.0
 10
-42.28872389735186
 20
2.406489392570451
 10
-42.63123733740328
 20
1.389062499999999
 10
-43.17903823699869
 20
-0.0000000000000002
  0
LINE
  5
179
330
F2
100
AcDbEntity
  8
AM_4
100
AcDbLine
 10
-44.97982196082946
 20
-0.0000000000000003
 30
0.0
 11
-43.17903823699869
 21
-0.0000000000000002
 31
0.0
  0
LWPOLYLINE
  5
17A
330
F2
100
AcDbEntity
  8
AM_4
100
AcDbPolyline
 90
        3
 70
     0
 43
0.0
 10
-44.3773067534241
 20
-2.778125
 10
-44.72564725212866
 20
-1.389062500000001
 10
-44.97982196082946
 20
-0.0000000000000003
  0
LWPOLYLINE
  5
17B
330
F2
100
AcDbEntity
  8
AM_4
100
AcDbPolyline
 90
        3
 70
     0
 43
0.0
 10
-43.37587074423703
 20
-5.556250000000002
 10
-43.92140358554465
 20
-4.173433099036602
 10
-44.3773067534241
 20
-2.778125
  0
LINE
  5
17C
330
F2
100
AcDbEntity
  8
AM_4
100
AcDbLine
 10
-43.37587074423703
 20
-5.556250000000002
 30
0.0
 11
-41.57508702040627
 21
-5.556250000000002
 31
0.0
  0
LINE
  5
17D
330
F2
100
AcDbEntity
  8
AM_4
100
AcDbLine
 10
-41.59084713514451
 20
-5.455570699477752
 30
0.0
 11
-41.57508702040627
 21
-5.556250000000002
 31
0.0
  0
LWPOLYLINE
  5
17E
330
F2
100
AcDbEntity
  8
AM_4
100
AcDbPolyline
 90
        3
 70
     0
 43
0.0
 10
-43.17903823699869
 20
-0.0000000000000002
 10
-42.63350539569108
 20
-1.3828169009634
 10
-42.28864467257416
 20
-2.406745533732407
  0
ENDBLK
  5
F5
330
F2
100
AcDbEntity
  8
0
100
AcDbBlockEnd
  0
BLOCK
  5
181
330
17F
100
AcDbEntity
  8
0
100
AcDbBlockBegin
  2
4_125912H_0_in_125912_4
 70
     2
 10
0.0
 20
0.0
 30
0.0
  3
4_125912H_0_in_125912_4
  1

  0
ATTDEF
  5
183
330
17F
100
AcDbEntity
  8
AM_6
100
AcDbText
 10
75.385
 20
20.65
 30
0.0
 40
0.5
  1
WSTU-SC -Metric - housing
100
AcDbAttributeDefinition
  3

  2
NN
 70
     8
280
     0
  0
ATTDEF
  5
184
330
17F
100
AcDbEntity
  8
AM_6
100
AcDbText
 10
75.385
 20
20.15
 30
0.0
 40
0.5
  1
SC Take-Up Bearings -Wide Slot -(Normal Duty)
100
AcDbAttributeDefinition
  3

  2
NT
 70
     8
280
     0
  0
ATTDEF
  5
185
330
17F
100
AcDbEntity
  8
AM_6
100
AcDbText
 10
75.385
 20
19.65
 30
0.0
 40
0.5
  1
125912H
100
AcDbAttributeDefinition
  3

  2
NB
 70
     8
280
     0
  0
ATTDEF
  5
186
330
17F
100
AcDbEntity
  8
AM_6
100
AcDbText
 10
75.385
 20
19.15
 30
0.0
 40
0.5
  1
$PN.H
100
AcDbAttributeDefinition
  3

  2
NBSYN
 70
     8
280
     0
  0
ATTDEF
  5
187
330
17F
100
AcDbEntity
  8
AM_6
100
AcDbText
 10
75.385
 20
18.65
 30
0.0
 40
0.5
  1
125912
100
AcDbAttributeDefinition
  3

  2
LINA
 70
     8
280
     0
  0
ATTDEF
  5
188
330
17F
100
AcDbEntity
  8
AM_6
100
AcDbText
 10
75.385
 20
18.15
 30
0.0
 40
0.5
  1
206
100
AcDbAttributeDefinition
  3

  2
SERIES
 70
     8
280
     0
  0
ATTDEF
  5
189
330
17F
100
AcDbEntity
  8
AM_6
100
AcDbText
 10
75.385
 20
17.65
 30
0.0
 40
0.5
  1
30
100
AcDbAttributeDefinition
  3

  2
SS
 70
     8
280
     0
  0
ATTDEF
  5
18A
330
17F
100
AcDbEntity
  8
AM_6
100
AcDbText
 10
75.385
 20
17.15
 30
0.0
 40
0.5
  1
125912
100
AcDbAttributeDefinition
  3

  2
PN
 70
     8
280
     0
  0
ATTDEF
  5
18B
330
17F
100
AcDbEntity
  8
AM_6
100
AcDbText
 10
75.385
 20
16.65
 30
0.0
 40
0.5
  1
WSTU-SC-30M
100
AcDbAttributeDefinition
  3

  2
DESCRIPTION
 70
     8
280
     0
  0
ATTDEF
  5
18C
330
17F
100
AcDbEntity
  8
AM_6
100
AcDbText
 10
75.385
 20
16.15
 30
0.0
 40
0.5
  1
1.3
100
AcDbAttributeDefinition
  3

  2
W
 70
     8
280
     0
  0
ATTDEF
  5
18D
330
17F
100
AcDbEntity
  8
AM_6
100
AcDbText
 10
75.385
 20
15.65
 30
0.0
 40
0.5
  1
WS308
100
AcDbAttributeDefinition
  3

  2
FS
 70
     8
280
     0
  0
ATTDEF
  5
18E
330
17F
100
AcDbEntity
  8
AM_6
100
AcDbText
 10
75.385
 20
15.15
 30
0.0
 40
0.5
  1
38.6
100
AcDbAttributeDefinition
  3

  2
A
 70
     8
280
     0
  0
ATTDEF
  5
18F
330
17F
100
AcDbEntity
  8
AM_6
100
AcDbText
 10
75.385
 20
14.65
 30
0.0
 40
0.5
  1
111.3
100
AcDbAttributeDefinition
  3

  2
B
 70
     8
280
     0
  0
ATTDEF
  5
190
330
17F
100
AcDbEntity
  8
AM_6
100
AcDbText
 10
75.385
 20
14.15
 30
0.0
 40
0.5
  1
13.49
100
AcDbAttributeDefinition
  3

  2
C
 70
     8
280
     0
  0
ATTDEF
  5
191
330
17F
100
AcDbEntity
  8
AM_6
100
AcDbText
 10
75.385
 20
13.65
 30
0.0
 40
0.5
  1
57.2
100
AcDbAttributeDefinition
  3

  2
D
 70
     8
280
     0
  0
ATTDEF
  5
192
330
17F
100
AcDbEntity
  8
AM_6
100
AcDbText
 10
75.385
 20
13.15
 30
0.0
 40
0.5
  1
69.9
100
AcDbAttributeDefinition
  3

  2
E
 70
     8
280
     0
  0
ATTDEF
  5
193
330
17F
100
AcDbEntity
  8
AM_6
100
AcDbText
 10
75.385
 20
12.65
 30
0.0
 40
0.5
  1
19.1
100
AcDbAttributeDefinition
  3

  2
F
 70
     8
280
     0
  0
ATTDEF
  5
194
330
17F
100
AcDbEntity
  8
AM_6
100
AcDbText
 10
75.385
 20
12.15
 30
0.0
 40
0.5
  1
9.7
100
AcDbAttributeDefinition
  3

  2
G
 70
     8
280
     0
  0
ATTDEF
  5
195
330
17F
100
AcDbEntity
  8
AM_6
100
AcDbText
 10
75.385
 20
11.65
 30
0.0
 40
0.5
  1
16.0
100
AcDbAttributeDefinition
  3

  2
H
 70
     8
280
     0
  0
ATTDEF
  5
196
330
17F
100
AcDbEntity
  8
AM_6
100
AcDbText
 10
75.385
 20
11.15
 30
0.0
 40
0.5
  1
55.6
100
AcDbAttributeDefinition
  3

  2
J
 70
     8
280
     0
  0
ATTDEF
  5
197
330
17F
100
AcDbEntity
  8
AM_6
100
AcDbText
 10
75.385
 20
10.65
 30
0.0
 40
0.5
  1
36.6
100
AcDbAttributeDefinition
  3

  2
K
 70
     8
280
     0
  0
ATTDEF
  5
198
330
17F
100
AcDbEntity
  8
AM_6
100
AcDbText
 10
75.385
 20
10.15
 30
0.0
 40
0.5
  1
39.9
100
AcDbAttributeDefinition
  3

  2
L
 70
     8
280
     0
  0
ATTDEF
  5
199
330
17F
100
AcDbEntity
  8
AM_6
100
AcDbText
 10
75.385
 20
9.649999999999999
 30
0.0
 40
0.5
  1
88.39/89.15
100
AcDbAttributeDefinition
  3

  2
M
 70
     8
280
     0
  0
ATTDEF
  5
19A
330
17F
100
AcDbEntity
  8
AM_6
100
AcDbText
 10
75.385
 20
9.149999999999999
 30
0.0
 40
0.5
  1
104.9
100
AcDbAttributeDefinition
  3

  2
N
 70
     8
280
     0
  0
ATTDEF
  5
19B
330
17F
100
AcDbEntity
  8
AM_6
100
AcDbText
 10
75.385
 20
8.649999999999999
 30
0.0
 40
0.5
  1
14.7
100
AcDbAttributeDefinition
  3

  2
R
 70
     8
280
     0
  0
ATTDEF
  5
19C
330
17F
100
AcDbEntity
  8
AM_6
100
AcDbText
 10
75.385
 20
8.149999999999999
 30
0.0
 40
0.5
  1
23.9
100
AcDbAttributeDefinition
  3

  2
S
 70
     8
280
     0
  0
ATTDEF
  5
19D
330
17F
100
AcDbEntity
  8
AM_6
100
AcDbText
 10
75.385
 20
7.649999999999999
 30
0.0
 40
0.5
  1
41.3
100
AcDbAttributeDefinition
  3

  2
T
 70
     8
280
     0
  0
ATTDEF
  5
19E
330
17F
100
AcDbEntity
  8
AM_6
100
AcDbText
 10
75.385
 20
7.149999999999999
 30
0.0
 40
0.5
  1
2250
100
AcDbAttributeDefinition
  3

  2
CAPS
 70
     8
280
     0
  0
ATTDEF
  5
19F
330
17F
100
AcDbEntity
  8
AM_6
100
AcDbText
 10
75.385
 20
6.649999999999999
 30
0.0
 40
0.5
  1
4368
100
AcDbAttributeDefinition
  3

  2
CAPD
 70
     8
280
     0
  0
ATTDEF
  5
1A0
330
17F
100
AcDbEntity
  8
AM_6
100
AcDbText
 10
75.385
 20
6.149999999999999
 30
0.0
 40
0.5
  1
baldor
100
AcDbAttributeDefinition
  3

  2
COMPANY
 70
     8
280
     0
  0
LWPOLYLINE
  5
1A1
330
17F
100
AcDbEntity
  8
AM_9
100
AcDbPolyline
 90
       11
 70
     0
 43
0.0
 10
-37.68571142628377
 20
-0.000000000000001
 10
-37.66285767391998
 20
-0.6602586976601784
 10
-37.59190233764402
 20
-1.320517395320356
 10
-37.47773306530847
 20
-1.92527394404259
 10
-37.31531507849481
 20
-2.492110831606583
 10
-37.11542933875489
 20
-2.975167896281766
 10
-36.87031582020016
 20
-3.386620170596972
 10
-36.5976623270435
 20
-3.692535661250572
 10
-36.28799599323222
 20
-3.900756713250282
 10
-35.96714878238317
 20
-3.993468924656147
 10
-35.85363634744641
 20
-3.999999982955476
  0
LINE
  5
1A2
330
17F
100
AcDbEntity
  8
AM_9
100
AcDbLine
 10
-38.05315624228824
 20
-4.000000000000002
 30
0.0
 11
-35.85236715270097
 21
-4.000000000000001
 31
0.0
  0
LINE
  5
1A3
330
17F
100
AcDbEntity
  8
AM_9
100
AcDbLine
 10
-35.85335684713123
 20
3.999999999999999
 30
0.0
 11
-38.05315624228824
 21
3.999999999999998
 31
0.0
  0
LWPOLYLINE
  5
1A4
330
17F
100
AcDbEntity
  8
AM_9
100
AcDbPolyline
 90
       20
 70
     0
 43
0.0
 10
-35.85363634744641
 20
-3.999999982955476
 10
-35.62420153130804
 20
-3.974130836354898
 10
-35.28933601478207
 20
-3.844978625214346
 10
-34.95266448568078
 20
-3.602525741872074
 10
-34.64330507485275
 20
-3.266476197485787
 10
-34.3549951627633
 20
-2.827584461622386
 10
-34.1130697255313
 20
-2.320186673175638
 10
-33.91421468553516
 20
-1.731210198396939
 10
-33.77719400064468
 20
-1.109933155712183
 10
-33.69977727049989
 20
-0.4383656729687769
 10
-33.68937743347067
 20
0.2240085104594334
 10
-33.74537782928711
 20
0.8990553411898611
 10
-33.86210695344189
 20
1.528811179435587
 10
-34.04149535896002
 20
2.132781448064093
 10
-34.26746458047706
 20
2.662321403198396
 10
-34.54368617302895
 20
3.130683104926476
 10
-34.84588200639715
 20
3.49991787510638
 10
-35.17973028562523
 20
3.778899803776932
 10
-35.51481991689103
 20
3.943839336646338
 10
-35.85349874093441
 20
3.999999998894403
  0
LWPOLYLINE
  5
1A5
330
17F
100
AcDbEntity
  8
AM_9
100
AcDbPolyline
 90
       12
 70
     0
 43
0.0
 10
-35.85349874093441
 20
3.999999998894403
 10
-35.86028530574404
 20
3.99997663760166
 10
-36.18523865960897
 20
3.942968804261356
 10
-36.50090684631669
 20
3.771694606980768
 10
-36.78193796180662
 20
3.500621074033745
 10
-37.03826126177318
 20
3.122070482231165
 10
-37.25148651020591
 20
2.665606370461543
 10
-37.42906263485279
 20
2.119409776011977
 10
-37.55857454350822
 20
1.527931050885419
 10
-37.6453228422472
 20
0.8749471867451922
 10
-37.67547645061027
 20
0.4428658342972009
 10
-37.68571142628377
 20
-0.000000000000001
  0
ELLIPSE
  5
1A6
330
17F
100
AcDbEntity
  8
AM_9
100
AcDbEllipse
 10
-38.05315624228824
 20
-0.0000000000000013
 30
0.0
 11
4.976964591734842E-16
 21
8.127999999999998
 31
0.0
210
0.0
220
0.0
230
1.0
 40
0.4999999999999992
 41
0.0
 42
6.283185307179586
  0
LWPOLYLINE
  5
1A7
330
17F
100
AcDbEntity
  8
AM_9
100
AcDbPolyline
 90
        4
 70
     0
 43
0.0
 10
-36.34180119806027
 20
-10.6418692163117
 10
-36.30572893931217
 20
-10.64559306010037
 10
-35.91979672532376
 20
-10.66751861169521
 10
-35.8508245906999
 20
-10.66799924521092
  0
LWPOLYLINE
  5
1A8
330
17F
100
AcDbEntity
  8
AM_9
100
AcDbPolyline
 90
       17
 70
     0
 43
0.0
 10
-41.40201410116953
 20
-5.978675078115121
 10
-41.25711656751737
 20
-6.328688471589456
 10
-41.03567973566867
 20
-6.809164207243239
 10
-40.79405178880646
 20
-7.272204514564453
 10
-40.53197192516087
 20
-7.715674616767561
 10
-40.24973177301695
 20
-8.136677149349499
 10
-39.94823050362521
 20
-8.53195169399741
 10
-39.62891550187626
 20
-8.898319364698004
 10
-39.29382995500318
 20
-9.23287361712644
 10
-38.94536353640549
 20
-9.533378538938507
 10
-38.58592828396648
 20
-9.798482095081091
 10
-38.21772109759372
 20
-10.02766222763863
 10
-37.84265108415219
 20
-10.22099292811176
 10
-37.46239494228686
 20
-10.37888213819519
 10
-37.07849674104148
 20
-10.50188085591752
 10
-36.69244878666602
 20
-10.59058338151395
 10
-36.34180119806027
 20
-10.6418692163117
  0
LWPOLYLINE
  5
1A9
330
17F
100
AcDbEntity
  8
AM_9
100
AcDbPolyline
 90
       19
 70
     0
 43
0.0
 10
-36.31790179157904
 20
10.64436857310381
 10
-36.48100239042976
 20
10.62479551420398
 10
-36.85690433980086
 20
10.55698825303829
 10
-37.22681535023906
 20
10.45856298262462
 10
-37.58992151543318
 20
10.33004001958972
 10
-37.9455934092281
 20
10.17176832420607
 10
-38.29335692306539
 20
9.98388437387887
 10
-38.63283499502742
 20
9.766295716819425
 10
-38.96365984683248
 20
9.518709157477469
 10
-39.28536164568445
 20
9.240724947344521
 10
-39.59725101511233
 20
8.932011108941953
 10
-39.89832890874795
 20
8.592547754392033
 10
-40.18726984843542
 20
8.222887040565793
 10
-40.46251539115364
 20
7.824329105437807
 10
-40.7224697007358
 20
7.398914323742583
 10
-40.96572709675326
 20
6.949210900876126
 10
-41.19120879869022
 20
6.478051172090451
 10
-41.39811384356214
 20
5.988519086294534
 10
-41.40009532581395
 20
5.983521045613162
  0
LWPOLYLINE
  5
1AA
330
17F
100
AcDbEntity
  8
AM_9
100
AcDbPolyline
 90
        3
 70
     0
 43
0.0
 10
-36.0105713292873
 20
10.66529971204004
 10
-36.10011169594608
 20
10.66134310156631
 10
-36.31790179157904
 20
10.64436857310381
  0
LINE
  5
1AB
330
17F
100
AcDbEntity
  8
AM_9
100
AcDbLine
 10
-35.8553982448962
 20
10.66799958563295
 30
0.0
 11
-35.98344224017448
 21
10.66615181395426
 31
0.0
  0
LWPOLYLINE
  5
1AC
330
17F
100
AcDbEntity
  8
AM_9
100
AcDbPolyline
 90
       37
 70
     0
 43
0.0
 10
-35.46457436850762
 20
10.64049999999999
 10
-35.0097900388485
 20
10.54248841610336
 10
-34.54230524109993
 20
10.37279817073868
 10
-34.05882369988311
 20
10.12716910965305
 10
-33.5706363764697
 20
9.808011759689801
 10
-33.10345711153184
 20
9.434589962654115
 10
-32.64113642229768
 20
8.99621257736859
 10
-32.18222127103402
 20
8.487215465711845
 10
-31.73839134900285
 20
7.915490171595149
 10
-31.32369629068377
 20
7.297590358812664
 10
-30.93379764514208
 20
6.625002132892585
 10
-30.5689960342864
 20
5.890218709713221
 10
-30.24047306448025
 20
5.106168842552327
 10
-29.96297123982101
 20
4.307079016076784
 10
-29.72900847723093
 20
3.470695523472633
 10
-29.54052603890003
 20
2.58844530318028
 10
-29.40561259002523
 20
1.678589781810816
 10
-29.33137644436299
 20
0.813527689819552
 10
-29.30881946654869
 20
-0.0636235274734251
 10
-29.34030537055004
 20
-0.9601316863627286
 10
-29.42731513106851
 20
-1.856152775379315
 10
-29.5593841662296
 20
-2.690545387384731
 10
-29.73932655693394
 20
-3.512219977122452
 10
-29.96908460684446
 20
-4.326538055070296
 10
-30.24422952057854
 20
-5.11598518712088
 10
-30.55449405094765
 20
-5.858392384873042
 10
-30.90231461035262
 20
-6.566066611726789
 10
-31.28967791787236
 20
-7.242764311641819
 10
-31.70810048831649
 20
-7.873290046032844
 10
-32.1468671612658
 20
-8.444694259842947
 10
-32.60729148641364
 20
-8.961283399270133
 10
-33.09192741450605
 20
-9.424509282141813
 10
-33.58928319817367
 20
-9.82152150579434
 10
-34.05566764442875
 20
-10.12533529946379
 10
-34.52420848764328
 20
-10.36487469645293
 10
-34.99749679538259
 20
-10.53890250152561
 10
-35.46457436850761
 20
-10.6405
  0
LINE
  5
1AD
330
17F
100
AcDbEntity
  8
AM_9
100
AcDbLine
 10
-35.85345171667576
 20
-10.668
 30
0.0
 11
-35.82970686011191
 21
-10.668
 31
0.0
  0
LINE
  5
1AE
330
17F
100
AcDbEntity
  8
AM_9
100
AcDbLine
 10
-35.82970686011191
 20
10.668
 30
0.0
 11
-35.85345171667576
 21
10.668
 31
0.0
  0
LINE
  5
1AF
330
17F
100
AcDbEntity
  8
AM_9
100
AcDbLine
 10
60.2
 20
-9.55
 30
0.0
 11
69.9
 21
-9.55
 31
0.0
  0
LINE
  5
1B0
330
17F
100
AcDbEntity
  8
AM_9
100
AcDbLine
 10
69.9
 20
9.55
 30
0.0
 11
60.2
 21
9.55
 31
0.0
  0
LINE
  5
1B1
330
17F
100
AcDbEntity
  8
AM_9
100
AcDbLine
 10
58.851
 20
-11.4665
 30
0.0
 11
58.851
 21
11.4665
 31
0.0
  0
LINE
  5
1B2
330
17F
100
AcDbEntity
  8
AM_9
100
AcDbLine
 10
60.2
 20
-11.4665
 30
0.0
 11
60.2
 21
11.4665
 31
0.0
  0
LINE
  5
1B3
330
17F
100
AcDbEntity
  8
AM_9
100
AcDbLine
 10
45.54900000000001
 20
-11.4665
 30
0.0
 11
45.54900000000001
 21
11.4665
 31
0.0
  0
LINE
  5
1B4
330
17F
100
AcDbEntity
  8
AM_9
100
AcDbLine
 10
44.2
 20
-11.4665
 30
0.0
 11
44.2
 21
11.4665
 31
0.0
  0
LWPOLYLINE
  5
1B5
330
17F
100
AcDbEntity
  8
AM_9
100
AcDbPolyline
 90
       37
 70
     0
 43
0.0
 10
-36.23007012290472
 20
-10.6405
 10
-36.64280654769481
 20
-10.54194527907915
 10
-37.03454963303267
 20
-10.37279817073868
 10
-37.41374403550839
 20
-10.12606100151273
 10
-37.7669596864384
 20
-9.80801175968979
 10
-38.08388319615335
 20
-9.433171784899942
 10
-38.37475511059526
 20
-8.996212577368574
 10
-38.64632357155484
 20
-8.485290957587875
 10
-38.89040081092197
 20
-7.915490171595128
 10
-39.10584047413223
 20
-7.295360001613281
 10
-39.29535077474477
 20
-6.62500213289256
 10
-39.46401345842907
 20
-5.887413022033788
 10
-39.60707670461299
 20
-5.106168842552295
 10
-39.72321913156966
 20
-4.304105846536602
 10
-39.81664926104887
 20
-3.4706955234726
 10
-39.88997490299862
 20
-2.584877671656392
 10
-39.94072342686033
 20
-1.678589781810781
 10
-39.96837265814192
 20
-0.8103848459944563
 10
-39.9766297407686
 20
0.0636235274734606
 10
-39.96492290460118
 20
0.9635470545539986
 10
-39.93259574961705
 20
1.856152775379349
 10
-39.8823143243013
 20
2.693335609509353
 10
-39.81258495887626
 20
3.512219977122485
 10
-39.71998783897619
 20
4.329293183282899
 10
-39.60547514096259
 20
5.115985187120911
 10
-39.46945477353037
 20
5.860761010889244
 10
-39.31022714857318
 20
6.566066611726818
 10
-39.12149721675901
 20
7.244976136003935
 10
-38.90653975325719
 20
7.873290046032866
 10
-38.664649467122
 20
8.446533424046965
 10
-38.39535021434353
 20
8.96128339927015
 10
-38.08916946559263
 20
9.426067513824947
 10
-37.75388873906457
 20
9.821521505794351
 10
-37.4135723985879
 20
10.12620690962016
 10
-37.04920284938542
 20
10.36487469645294
 10
-36.6505619920162
 20
10.53934289554781
 10
-36.23007012290471
 20
10.6405
  0
LINE
  5
1B6
330
17F
100
AcDbEntity
  8
AM_9
100
AcDbLine
 10
-9.999999899999999
 20
-6.070500000000001
 30
0.0
 11
-9.999999899999999
 21
11.4665
 31
0.0
  0
LINE
  5
1B7
330
17F
100
AcDbEntity
  8
AM_9
100
AcDbLine
 10
9.999999899999999
 20
-6.070500000000001
 30
0.0
 11
9.999999899999999
 21
11.4665
 31
0.0
  0
LINE
  5
1B8
330
17F
100
AcDbEntity
  8
AM_9
100
AcDbLine
 10
31.0
 20
-11.46650000000001
 30
0.0
 11
31.0
 21
11.4665
 31
0.0
  0
LINE
  5
1B9
330
17F
100
AcDbEntity
  8
AM_9
100
AcDbLine
 10
-31.0
 20
11.4665
 30
0.0
 11
-31.0
 21
-11.46650000000001
 31
0.0
  0
LINE
  5
1BA
330
17F
100
AcDbEntity
  8
AM_9
100
AcDbLine
 10
9.999999899999999
 20
-6.070500000000001
 30
0.0
 11
-9.999999899999999
 21
-6.070500000000001
 31
0.0
  0
LINE
  5
1BB
330
17F
100
AcDbEntity
  8
AM_9
100
AcDbLine
 10
28.6
 20
11.4665
 30
0.0
 11
-28.6
 21
11.4665
 31
0.0
  0
LINE
  5
1BC
330
17F
100
AcDbEntity
  8
AM_9
100
AcDbLine
 10
28.6
 20
-11.4665
 30
0.0
 11
-28.6
 21
-11.4665
 31
0.0
  0
ELLIPSE
  5
1BD
330
17F
100
AcDbEntity
  8
AM_9
100
AcDbEllipse
 10
-38.05315624228824
 20
-0.0000000000000222
 30
0.0
 11
-7.347880794884158E-16
 21
-4.000000000000021
 31
0.0
210
0.0
220
0.0
230
1.0
 40
0.4999999999999973
 41
0.0
 42
6.283185307179586
  0
ELLIPSE
  5
1BE
330
17F
100
AcDbEntity
  8
AM_9
100
AcDbEllipse
 10
-35.85345171667579
 20
0.0000000000000036
 30
0.0
 11
-1.959679807995594E-15
 21
-10.668
 31
0.0
210
0.0
220
0.0
230
1.0
 40
0.4999999999999988
 41
0.0
 42
6.283185307179586
  0
LINE
  5
1BF
330
17F
100
AcDbEntity
  8
AM_7
100
AcDbLine
 10
70.385
 20
0.0
 30
0.0
 11
59.715
 21
0.0
 31
0.0
  0
LWPOLYLINE
  5
1C0
330
17F
100
AcDbEntity
  8
AM_4
100
AcDbPolyline
 90
       13
 70
     0
 43
0.0
 10
-42.45745171667576
 20
-0.0000000000000008
 10
-42.45487901253302
 20
-0.3109490362757137
 10
-42.43636421140974
 20
-0.889451274181218
 10
-42.39999072463698
 20
-1.465679289940516
 10
-42.34575013264416
 20
-2.038213473702815
 10
-42.27361287358604
 20
-2.605712622116674
 10
-42.18352267287167
 20
-3.166858687789779
 10
-42.07538796426577
 20
-3.720358429311581
 10
-41.94907169127361
 20
-4.264941000552512
 10
-41.80438043978348
 20
-4.799349279537934
 10
-41.6410548428894
 20
-5.322321910970929
 10
-41.45876490105253
 20
-5.832562092219542
 10
-41.40201410116953
 20
-5.978675078115121
  0
LWPOLYLINE
  5
1C1
330
17F
100
AcDbEntity
  8
AM_4
100
AcDbPolyline
 90
       12
 70
     0
 43
0.0
 10
-41.40009532581395
 20
5.983521045613162
 10
-41.58625346435561
 20
5.48288772641197
 10
-41.75563987901394
 20
4.963136679194342
 10
-41.90639049695411
 20
4.431005008038923
 10
-42.03866082888865
 20
3.888062111496613
 10
-42.15260534782278
 20
3.335770886877941
 10
-42.24835857342586
 20
2.775535278065337
 10
-42.32602866660343
 20
2.208732230350583
 10
-42.38569776221836
 20
1.636730960841415
 10
-42.42742526903439
 20
1.060902868975013
 10
-42.4512518610176
 20
0.4826249242048486
 10
-42.45745171667576
 20
-0.0000000000000008
  0
LINE
  5
1C2
330
17F
100
AcDbEntity
  8
AM_4
100
AcDbLine
 10
60.2
 20
-11.4665
 30
0.0
 11
60.2
 21
-20.65
 31
0.0
  0
LINE
  5
1C3
330
17F
100
AcDbEntity
  8
AM_4
100
AcDbLine
 10
60.2
 20
-20.65
 30
0.0
 11
69.9
 21
-20.65
 31
0.0
  0
LINE
  5
1C4
330
17F
100
AcDbEntity
  8
AM_4
100
AcDbLine
 10
69.9
 20
20.65
 30
0.0
 11
60.2
 21
20.65
 31
0.0
  0
LINE
  5
1C5
330
17F
100
AcDbEntity
  8
AM_4
100
AcDbLine
 10
60.2
 20
20.65
 30
0.0
 11
60.2
 21
11.4665
 31
0.0
  0
LINE
  5
1C6
330
17F
100
AcDbEntity
  8
AM_4
100
AcDbLine
 10
69.9
 20
20.65
 30
0.0
 11
69.9
 21
-20.65
 31
0.0
  0
LINE
  5
1C7
330
17F
100
AcDbEntity
  8
AM_4
100
AcDbLine
 10
69.9
 20
-11.4665
 30
0.0
 11
28.60000000000003
 21
-11.4665
 31
0.0
  0
LINE
  5
1C8
330
17F
100
AcDbEntity
  8
AM_4
100
AcDbLine
 10
69.9
 20
11.46649999999998
 30
0.0
 11
28.60000000000003
 21
11.4665
 31
0.0
  0
LINE
  5
1C9
330
17F
100
AcDbEntity
  8
AM_4
100
AcDbLine
 10
69.90000000000003
 20
-11.46649999999997
 30
0.0
 11
68.55100008288136
 21
-10.1175000828813
 31
0.0
  0
LINE
  5
1CA
330
17F
100
AcDbEntity
  8
AM_4
100
AcDbLine
 10
68.55100000000003
 20
10.11749999999997
 30
0.0
 11
69.90000000000002
 21
11.46649999999996
 31
0.0
  0
LINE
  5
1CB
330
17F
100
AcDbEntity
  8
AM_4
100
AcDbLine
 10
68.551
 20
10.1175
 30
0.0
 11
28.60000000000002
 21
10.11750000000001
 31
0.0
  0
LINE
  5
1CC
330
17F
100
AcDbEntity
  8
AM_4
100
AcDbLine
 10
68.551
 20
-10.11749999999995
 30
0.0
 11
28.6
 21
-10.1175
 31
0.0
  0
LINE
  5
1CD
330
17F
100
AcDbEntity
  8
AM_4
100
AcDbLine
 10
68.551
 20
-10.11749999999995
 30
0.0
 11
68.551
 21
10.1175
 31
0.0
  0
LINE
  5
1CE
330
17F
100
AcDbEntity
  8
AM_4
100
AcDbLine
 10
-41.39999999999999
 20
10.6405
 30
0.0
 11
-41.39999999999999
 21
-10.6405
 31
0.0
  0
LINE
  5
1CF
330
17F
100
AcDbEntity
  8
AM_4
100
AcDbLine
 10
-40.57399999999999
 20
11.46650000000001
 30
0.0
 11
-41.39999999999999
 21
10.6405
 31
0.0
  0
LINE
  5
1D0
330
17F
100
AcDbEntity
  8
AM_4
100
AcDbLine
 10
-41.39999999999999
 20
10.6405
 30
0.0
 11
-28.6
 21
10.6405
 31
0.0
  0
LINE
  5
1D1
330
17F
100
AcDbEntity
  8
AM_4
100
AcDbLine
 10
-40.57399999999999
 20
11.46650000000001
 30
0.0
 11
-28.6
 21
11.4665
 31
0.0
  0
LINE
  5
1D2
330
17F
100
AcDbEntity
  8
AM_4
100
AcDbLine
 10
-41.39999999999999
 20
-10.6405
 30
0.0
 11
-40.57399999999999
 21
-11.4665
 31
0.0
  0
LINE
  5
1D3
330
17F
100
AcDbEntity
  8
AM_4
100
AcDbLine
 10
-40.57399999999999
 20
-11.4665
 30
0.0
 11
-28.6
 21
-11.4665
 31
0.0
  0
LINE
  5
1D4
330
17F
100
AcDbEntity
  8
AM_4
100
AcDbLine
 10
-41.39999999999999
 20
-10.6405
 30
0.0
 11
-28.6
 21
-10.6405
 31
0.0
  0
LINE
  5
1D5
330
17F
100
AcDbEntity
  8
AM_4
100
AcDbLine
 10
-28.6
 20
13.49
 30
0.0
 11
-28.6
 21
-13.48999999999999
 31
0.0
  0
LINE
  5
1D6
330
17F
100
AcDbEntity
  8
AM_4
100
AcDbLine
 10
-27.251
 20
6.745000000000004
 30
0.0
 11
-27.25099999999999
 21
12.14100000000002
 31
0.0
  0
LINE
  5
1D7
330
17F
100
AcDbEntity
  8
AM_4
100
AcDbLine
 10
-27.25099999999999
 20
-12.14099999999999
 30
0.0
 11
-28.6
 21
-13.48999999999999
 31
0.0
  0
LINE
  5
1D8
330
17F
100
AcDbEntity
  8
AM_4
100
AcDbLine
 10
28.6
 20
-13.48999999999999
 30
0.0
 11
-28.6
 21
-13.48999999999999
 31
0.0
  0
LINE
  5
1D9
330
17F
100
AcDbEntity
  8
AM_4
100
AcDbLine
 10
-27.25099999999999
 20
-12.14099999999999
 30
0.0
 11
-27.251
 21
-6.744999999999996
 31
0.0
  0
LINE
  5
1DA
330
17F
100
AcDbEntity
  8
AM_4
100
AcDbLine
 10
27.251
 20
-12.14099999999999
 30
0.0
 11
-27.25099999999999
 21
-12.14099999999999
 31
0.0
  0
LINE
  5
1DB
330
17F
100
AcDbEntity
  8
AM_4
100
AcDbLine
 10
28.6
 20
13.49000000000001
 30
0.0
 11
-28.6
 21
13.49
 31
0.0
  0
LINE
  5
1DC
330
17F
100
AcDbEntity
  8
AM_4
100
AcDbLine
 10
-28.59999999999999
 20
13.49000000000001
 30
0.0
 11
-27.25100004923883
 21
12.14100004923884
 31
0.0
  0
LINE
  5
1DD
330
17F
100
AcDbEntity
  8
AM_4
100
AcDbLine
 10
27.251
 20
12.14100000000002
 30
0.0
 11
-27.25099999999999
 21
12.14100000000002
 31
0.0
  0
LINE
  5
1DE
330
17F
100
AcDbEntity
  8
AM_4
100
AcDbLine
 10
28.6
 20
6.745000000000005
 30
0.0
 11
-28.6
 21
6.745000000000004
 31
0.0
  0
LINE
  5
1DF
330
17F
100
AcDbEntity
  8
AM_4
100
AcDbLine
 10
28.6
 20
13.49000000000001
 30
0.0
 11
28.6
 21
-13.48999999999999
 31
0.0
  0
LINE
  5
1E0
330
17F
100
AcDbEntity
  8
AM_4
100
AcDbLine
 10
27.251
 20
12.14100000000001
 30
0.0
 11
28.59999999999999
 21
13.49000000000001
 31
0.0
  0
LINE
  5
1E1
330
17F
100
AcDbEntity
  8
AM_4
100
AcDbLine
 10
27.251
 20
6.745000000000005
 30
0.0
 11
27.251
 21
12.14100000000002
 31
0.0
  0
LINE
  5
1E2
330
17F
100
AcDbEntity
  8
AM_4
100
AcDbLine
 10
-28.6
 20
-6.744999999999997
 30
0.0
 11
28.6
 21
-6.744999999999997
 31
0.0
  0
LINE
  5
1E3
330
17F
100
AcDbEntity
  8
AM_4
100
AcDbLine
 10
27.251
 20
-12.14099999999999
 30
0.0
 11
27.251
 21
-6.744999999999997
 31
0.0
  0
LINE
  5
1E4
330
17F
100
AcDbEntity
  8
AM_4
100
AcDbLine
 10
28.6
 20
-13.48999999999999
 30
0.0
 11
27.251
 21
-12.14099999999999
 31
0.0
  0
ENDBLK
  5
182
330
17F
100
AcDbEntity
  8
0
100
AcDbBlockEnd
  0
ENDSEC
  0
SECTION
  2
ENTITIES
  0
INSERT
  5
6F
330
1F
100
AcDbEntity
  8
0
100
AcDbBlockReference
  2
1_125912_4
 10
0.0
 20
0.0
 30
0.0
  0
POINT
  5
1E6
330
1F
100
AcDbEntity
  8
ConnectionPoints
100
AcDbPoint
 10
-38.05315624228823
 20
-0.0000000000000013
 30
-21.96999999999999
  0
POINT
  5
1E7
330
1F
100
AcDbEntity
  8
ConnectionPoints
100
AcDbPoint
 10
-38.05315624228823
 20
-0.0000000000000013
 30
-21.96999999999999
  0
POINT
  5
1E8
330
1F
100
AcDbEntity
  8
ConnectionPoints
100
AcDbPoint
 10
0.0
 20
-23.9
 30
0.0000000000000015
  0
ENDSEC
  0
SECTION
  2
OBJECTS
  0
DICTIONARY
  5
C
330
0
100
AcDbDictionary
281
     1
  3
ACAD_DETAILVIEWSTYLE
350
1F0
  3
ACAD_GROUP
350
D
  3
ACAD_LAYOUT
350
1A
  3
ACAD_MATERIAL
350
43
  3
ACAD_MLEADERSTYLE
350
6B
  3
ACAD_MLINESTYLE
350
17
  3
ACAD_PLOTSETTINGS
350
19
  3
ACAD_PLOTSTYLENAME
350
E
  3
ACAD_SCALELIST
350
47
  3
ACAD_SECTIONVIEWSTYLE
350
1F1
  3
ACAD_TABLESTYLE
350
69
  3
ACAD_VISUALSTYLE
350
2A
  3
ACDB_RECOMPOSE_DATA
350
1ED
  3
AcDbVariableDictionary
350
1E9
  0
SUN
  5
6D
330
29
100
AcDbSun
 90
        1
290
     0
 63
     7
421
 16777215
 40
1.0
291
     1
 91
  2455826
 92
 54000000
292
     0
 70
     2
 71
   256
280
     1
  0
DICTIONARY
  5
1F0
102
{ACAD_REACTORS
330
C
102
}
330
C
100
AcDbDictionary
281
     1
  0
DICTIONARY
  5
D
102
{ACAD_REACTORS
330
C
102
}
330
C
100
AcDbDictionary
281
     1
  0
DICTIONARY
  5
1A
102
{ACAD_REACTORS
330
C
102
}
330
C
100
AcDbDictionary
281
     1
  3
Layout1
350
1E
  3
Layout2
350
26
  3
Model
350
22
  0
DICTIONARY
  5
43
102
{ACAD_REACTORS
330
C
102
}
330
C
100
AcDbDictionary
281
     1
  3
ByBlock
350
45
  3
ByLayer
350
44
  3
Global
350
46
  0
DICTIONARY
  5
6B
102
{ACAD_REACTORS
330
C
102
}
330
C
100
AcDbDictionary
281
     1
  3
Standard
350
6C
  0
DICTIONARY
  5
17
102
{ACAD_REACTORS
330
C
102
}
330
C
100
AcDbDictionary
281
     1
  3
Standard
350
18
  0
DICTIONARY
  5
19
102
{ACAD_REACTORS
330
C
102
}
330
C
100
AcDbDictionary
281
     1
  0
ACDBDICTIONARYWDFLT
  5
E
102
{ACAD_REACTORS
330
C
102
}
330
C
100
AcDbDictionary
281
     1
  3
Normal
350
F
100
AcDbDictionaryWithDefault
340
F
  0
DICTIONARY
  5
47
102
{ACAD_REACTORS
330
C
102
}
330
C
100
AcDbDictionary
281
     1
  3
A0
350
48
  3
A1
350
49
  3
A2
350
4A
  3
A3
350
4B
  3
A4
350
4C
  3
A5
350
4D
  3
A6
350
4E
  3
A7
350
4F
  3
A8
350
50
  3
A9
350
51
  3
B0
350
52
  3
B1
350
53
  3
B2
350
54
  3
B3
350
55
  3
B4
350
56
  3
B5
350
57
  3
B6
350
58
  3
B7
350
59
  3
B8
350
5A
  3
B9
350
5B
  3
C0
350
5C
  3
C1
350
5D
  3
C2
350
5E
  3
C3
350
5F
  3
C4
350
60
  3
C5
350
61
  3
C6
350
62
  3
C7
350
63
  3
C8
350
64
  3
C9
350
65
  3
D0
350
66
  3
D1
350
67
  3
D2
350
68
  0
DICTIONARY
  5
1F1
102
{ACAD_REACTORS
330
C
102
}
330
C
100
AcDbDictionary
281
     1
  0
DICTIONARY
  5
69
102
{ACAD_REACTORS
330
C
102
}
330
C
100
AcDbDictionary
281
     1
  3
Standard
350
6A
  0
DICTIONARY
  5
2A
102
{ACAD_REACTORS
330
C
102
}
330
C
100
AcDbDictionary
281
     1
  3
2dWireframe
350
2F
  3
Basic
350
32
  3
Brighten
350
36
  3
ColorChange
350
3A
  3
Conceptual
350
34
  3
Dim
350
35
  3
EdgeColorOff
350
3D
  3
Facepattern
350
39
  3
Flat
350
2B
  3
FlatWithEdges
350
2C
  3
Gouraud
350
2D
  3
GouraudWithEdges
350
2E
  3
Hidden
350
31
  3
JitterOff
350
3B
  3
Linepattern
350
38
  3
OverhangOff
350
3C
  3
Realistic
350
33
  3
Shaded
350
42
  3
Shaded with edges
350
41
  3
Shades of Gray
350
3E
  3
Sketchy
350
3F
  3
Thicken
350
37
  3
Wireframe
350
30
  3
X-Ray
350
40
  0
XRECORD
  5
1ED
102
{ACAD_REACTORS
330
C
102
}
330
C
100
AcDbXrecord
280
     1
 90
        1
330
6A
  0
DICTIONARY
  5
1E9
102
{ACAD_REACTORS
330
C
102
}
330
C
100
AcDbDictionary
281
     1
  3
CANNOSCALE
350
1EA
  3
CMLEADERSTYLE
350
1EF
  3
CTABLESTYLE
350
1EE
  0
LAYOUT
  5
1E
102
{ACAD_REACTORS
330
1A
102
}
330
1A
100
AcDbPlotSettings
  1

  2
none_device
  4

  6

 40
0.0
 41
0.0
 42
0.0
 43
0.0
 44
0.0
 45
0.0
 46
0.0
 47
0.0
 48
0.0
 49
0.0
140
0.0
141
0.0
142
1.0
143
1.0
 70
   688
 72
     1
 73
     0
 74
     5
  7

 75
    16
 76
     0
 77
     2
 78
   300
147
1.0
148
0.0
149
0.0
100
AcDbLayout
  1
Layout1
 70
     1
 71
     1
 10
0.0
 20
0.0
 11
420.0
 21
297.0
 12
0.0
 22
0.0
 32
0.0
 14
1.000000000000000E+20
 24
1.000000000000000E+20
 34
1.000000000000000E+20
 15
-1.000000000000000E+20
 25
-1.000000000000000E+20
 35
-1.000000000000000E+20
146
0.0
 13
0.0
 23
0.0
 33
0.0
 16
1.0
 26
0.0
 36
0.0
 17
0.0
 27
1.0
 37
0.0
 76
     0
330
1B
  0
LAYOUT
  5
26
102
{ACAD_REACTORS
330
1A
102
}
330
1A
100
AcDbPlotSettings
  1

  2
none_device
  4

  6

 40
0.0
 41
0.0
 42
0.0
 43
0.0
 44
0.0
 45
0.0
 46
0.0
 47
0.0
 48
0.0
 49
0.0
140
0.0
141
0.0
142
1.0
143
1.0
 70
   688
 72
     1
 73
     0
 74
     5
  7

 75
    16
 76
     0
 77
     2
 78
   300
147
1.0
148
0.0
149
0.0
100
AcDbLayout
  1
Layout2
 70
     1
 71
     2
 10
0.0
 20
0.0
 11
0.0
 21
0.0
 12
0.0
 22
0.0
 32
0.0
 14
0.0
 24
0.0
 34
0.0
 15
0.0
 25
0.0
 35
0.0
146
0.0
 13
0.0
 23
0.0
 33
0.0
 16
1.0
 26
0.0
 36
0.0
 17
0.0
 27
1.0
 37
0.0
 76
     0
330
23
  0
LAYOUT
  5
22
102
{ACAD_REACTORS
330
1A
102
}
330
1A
100
AcDbPlotSettings
  1

  2
none_device
  4
Letter_(8.50_x_11.00_Inches)
  6

 40
6.35
 41
6.35
 42
6.35000508
 43
6.35000508
 44
215.9
 45
279.4
 46
0.0
 47
0.0
 48
0.0
 49
0.0
140
0.0
141
0.0
142
1.0
143
1.0
 70
  1712
 72
     1
 73
     0
 74
     0
  7

 75
     0
 76
     0
 77
     2
 78
   300
147
1.0
148
0.0
149
0.0
100
AcDbLayout
  1
Model
 70
     1
 71
     0
 10
0.0
 20
0.0
 11
420.0
 21
297.0
 12
0.0
 22
0.0
 32
0.0
 14
1.000000000000000E+20
 24
1.000000000000000E+20
 34
1.000000000000000E+20
 15
-1.000000000000000E+20
 25
-1.000000000000000E+20
 35
-1.000000000000000E+20
146
0.0
 13
0.0
 23
0.0
 33
0.0
 16
1.0
 26
0.0
 36
0.0
 17
0.0
 27
1.0
 37
0.0
 76
     0
330
1F
331
29
  0
MATERIAL
  5
45
102
{ACAD_REACTORS
330
43
102
}
330
43
100
AcDbMaterial
  1
ByBlock
 72
     1
 94
      127
  0
MATERIAL
  5
44
102
{ACAD_REACTORS
330
43
102
}
330
43
100
AcDbMaterial
  1
ByLayer
 72
     1
 94
      127
  0
MATERIAL
  5
46
102
{ACAD_REACTORS
330
43
102
}
330
43
100
AcDbMaterial
  1
Global
 72
     1
 94
      127
  0
MLEADERSTYLE
  5
6C
102
{ACAD_REACTORS
330
6B
102
}
330
6B
100
AcDbMLeaderStyle
179
     2
170
     2
171
     1
172
     0
 90
        2
 40
0.0
 41
0.0
173
     1
 91
-1056964608
340
14
 92
       -2
290
     1
 42
2.0
291
     1
 43
8.0
  3
Standard
341
0
 44
4.0
300

342
11
174
     1
178
     6
175
     1
176
     0
 93
-1056964608
 45
4.0
292
     0
297
     0
 46
4.0
343
0
 94
-1056964608
 47
1.0
 49
1.0
140
1.0
293
     1
141
0.0
294
     1
177
     0
142
1.0
295
     0
296
     0
143
3.75
271
     0
272
     9
273
     9
298
     0
  0
MLINESTYLE
  5
18
102
{ACAD_REACTORS
330
17
102
}
330
17
100
AcDbMlineStyle
  2
Standard
 70
     0
  3

 62
   256
 51
90.0
 52
90.0
 71
     2
 49
0.5
 62
   256
  6
BYLAYER
 49
-0.5
 62
   256
  6
BYLAYER
  0
ACDBPLACEHOLDER
  5
F
102
{ACAD_REACTORS
330
E
102
}
330
E
  0
SCALE
  5
48
102
{ACAD_REACTORS
330
47
102
}
330
47
100
AcDbScale
 70
     0
300
1:1
140
1.0
141
1.0
290
     1
  0
SCALE
  5
49
102
{ACAD_REACTORS
330
47
102
}
330
47
100
AcDbScale
 70
     0
300
1:2
140
1.0
141
2.0
290
     0
  0
SCALE
  5
4A
102
{ACAD_REACTORS
330
47
102
}
330
47
100
AcDbScale
 70
     0
300
1:4
140
1.0
141
4.0
290
     0
  0
SCALE
  5
4B
102
{ACAD_REACTORS
330
47
102
}
330
47
100
AcDbScale
 70
     0
300
1:5
140
1.0
141
5.0
290
     0
  0
SCALE
  5
4C
102
{ACAD_REACTORS
330
47
102
}
330
47
100
AcDbScale
 70
     0
300
1:8
140
1.0
141
8.0
290
     0
  0
SCALE
  5
4D
102
{ACAD_REACTORS
330
47
102
}
330
47
100
AcDbScale
 70
     0
300
1:10
140
1.0
141
10.0
290
     0
  0
SCALE
  5
4E
102
{ACAD_REACTORS
330
47
102
}
330
47
100
AcDbScale
 70
     0
300
1:16
140
1.0
141
16.0
290
     0
  0
SCALE
  5
4F
102
{ACAD_REACTORS
330
47
102
}
330
47
100
AcDbScale
 70
     0
300
1:20
140
1.0
141
20.0
290
     0
  0
SCALE
  5
50
102
{ACAD_REACTORS
330
47
102
}
330
47
100
AcDbScale
 70
     0
300
1:30
140
1.0
141
30.0
290
     0
  0
SCALE
  5
51
102
{ACAD_REACTORS
330
47
102
}
330
47
100
AcDbScale
 70
     0
300
1:40
140
1.0
141
40.0
290
     0
  0
SCALE
  5
52
102
{ACAD_REACTORS
330
47
102
}
330
47
100
AcDbScale
 70
     0
300
1:50
140
1.0
141
50.0
290
     0
  0
SCALE
  5
53
102
{ACAD_REACTORS
330
47
102
}
330
47
100
AcDbScale
 70
     0
300
1:100
140
1.0
141
100.0
290
     0
  0
SCALE
  5
54
102
{ACAD_REACTORS
330
47
102
}
330
47
100
AcDbScale
 70
     0
300
2:1
140
2.0
141
1.0
290
     0
  0
SCALE
  5
55
102
{ACAD_REACTORS
330
47
102
}
330
47
100
AcDbScale
 70
     0
300
4:1
140
4.0
141
1.0
290
     0
  0
SCALE
  5
56
102
{ACAD_REACTORS
330
47
102
}
330
47
100
AcDbScale
 70
     0
300
8:1
140
8.0
141
1.0
290
     0
  0
SCALE
  5
57
102
{ACAD_REACTORS
330
47
102
}
330
47
100
AcDbScale
 70
     0
300
10:1
140
10.0
141
1.0
290
     0
  0
SCALE
  5
58
102
{ACAD_REACTORS
330
47
102
}
330
47
100
AcDbScale
 70
     0
300
100:1
140
100.0
141
1.0
290
     0
  0
SCALE
  5
59
102
{ACAD_REACTORS
330
47
102
}
330
47
100
AcDbScale
 70
     0
300
1/128" = 1'-0"
140
0.0078125
141
12.0
290
     0
  0
SCALE
  5
5A
102
{ACAD_REACTORS
330
47
102
}
330
47
100
AcDbScale
 70
     0
300
1/64" = 1'-0"
140
0.015625
141
12.0
290
     0
  0
SCALE
  5
5B
102
{ACAD_REACTORS
330
47
102
}
330
47
100
AcDbScale
 70
     0
300
1/32" = 1'-0"
140
0.03125
141
12.0
290
     0
  0
SCALE
  5
5C
102
{ACAD_REACTORS
330
47
102
}
330
47
100
AcDbScale
 70
     0
300
1/16" = 1'-0"
140
0.0625
141
12.0
290
     0
  0
SCALE
  5
5D
102
{ACAD_REACTORS
330
47
102
}
330
47
100
AcDbScale
 70
     0
300
3/32" = 1'-0"
140
0.09375
141
12.0
290
     0
  0
SCALE
  5
5E
102
{ACAD_REACTORS
330
47
102
}
330
47
100
AcDbScale
 70
     0
300
1/8" = 1'-0"
140
0.125
141
12.0
290
     0
  0
SCALE
  5
5F
102
{ACAD_REACTORS
330
47
102
}
330
47
100
AcDbScale
 70
     0
300
3/16" = 1'-0"
140
0.1875
141
12.0
290
     0
  0
SCALE
  5
60
102
{ACAD_REACTORS
330
47
102
}
330
47
100
AcDbScale
 70
     0
300
1/4" = 1'-0"
140
0.25
141
12.0
290
     0
  0
SCALE
  5
61
102
{ACAD_REACTORS
330
47
102
}
330
47
100
AcDbScale
 70
     0
300
3/8" = 1'-0"
140
0.375
141
12.0
290
     0
  0
SCALE
  5
62
102
{ACAD_REACTORS
330
47
102
}
330
47
100
AcDbScale
 70
     0
300
1/2" = 1'-0"
140
0.5
141
12.0
290
     0
  0
SCALE
  5
63
102
{ACAD_REACTORS
330
47
102
}
330
47
100
AcDbScale
 70
     0
300
3/4" = 1'-0"
140
0.75
141
12.0
290
     0
  0
SCALE
  5
64
102
{ACAD_REACTORS
330
47
102
}
330
47
100
AcDbScale
 70
     0
300
1" = 1'-0"
140
1.0
141
12.0
290
     0
  0
SCALE
  5
65
102
{ACAD_REACTORS
330
47
102
}
330
47
100
AcDbScale
 70
     0
300
1-1/2" = 1'-0"
140
1.5
141
12.0
290
     0
  0
SCALE
  5
66
102
{ACAD_REACTORS
330
47
102
}
330
47
100
AcDbScale
 70
     0
300
3" = 1'-0"
140
3.0
141
12.0
290
     0
  0
SCALE
  5
67
102
{ACAD_REACTORS
330
47
102
}
330
47
100
AcDbScale
 70
     0
300
6" = 1'-0"
140
6.0
141
12.0
290
     0
  0
SCALE
  5
68
102
{ACAD_REACTORS
330
47
102
}
330
47
100
AcDbScale
 70
     0
300
1'-0" = 1'-0"
140
12.0
141
12.0
290
     0
  0
TABLESTYLE
  5
6A
102
{ACAD_REACTORS
330
69
102
}
102
{ACAD_XDICTIONARY
360
1EB
102
}
330
69
100
AcDbTableStyle
  3
Standard
 70
     0
 71
     0
 40
0.06
 41
0.06
280
     0
281
     0
  7
Standard
140
4.5
170
     2
 62
     0
 63
   257
283
     0
 90
        4
 91
        0
  1

274
    -2
284
     1
 64
     0
275
    -2
285
     1
 65
     0
276
    -2
286
     1
 66
     0
277
    -2
287
     1
 67
     0
278
    -2
288
     1
 68
     0
279
    -2
289
     1
 69
     0
  7
Standard
140
6.0
170
     5
 62
     0
 63
   257
283
     0
 90
        4
 91
        0
  1

274
    -2
284
     1
 64
     0
275
    -2
285
     1
 65
     0
276
    -2
286
     1
 66
     0
277
    -2
287
     1
 67
     0
278
    -2
288
     1
 68
     0
279
    -2
289
     1
 69
     0
  7
Standard
140
4.5
170
     5
 62
     0
 63
   257
283
     0
 90
        4
 91
        0
  1

274
    -2
284
     1
 64
     0
275
    -2
285
     1
 65
     0
276
    -2
286
     1
 66
     0
277
    -2
287
     1
 67
     0
278
    -2
288
     1
 68
     0
279
    -2
289
     1
 69
     0
  0
VISUALSTYLE
  5
2F
102
{ACAD_REACTORS
330
2A
102
}
330
2A
100
AcDbVisualStyle
  2
2dWireframe
 70
     4
177
     3
291
     0
 70
    58
 90
        0
176
     1
 90
        2
176
     1
 90
        0
176
     1
 90
        0
176
     1
 40
0.6
176
     1
 40
30.0
176
     1
 62
     7
420
 16777215
176
     1
 90
        1
176
     1
 90
        4
176
     1
 62
     7
176
     1
 62
   257
176
     1
 90
        1
176
     1
 90
        1
176
     1
 40
1.0
176
     1
 90
        0
176
     1
 62
   257
176
     1
 40
1.0
176
     1
 90
        1
176
     1
 90
        6
176
     1
 90
        2
176
     1
 62
     7
176
     1
 90
        5
176
     1
 90
        0
176
     1
 90
        0
176
     1
290
     0
176
     1
 90
        1
176
     1
 40
0.0
176
     1
 90
        0
176
     1
290
     1
176
     1
290
     1
176
     1
290
     0
176
     1
290
     0
176
     1
290
     0
176
     1
290
     0
176
     1
290
     0
176
     1
290
     0
176
     1
290
     0
176
     1
 90
       50
176
     1
 40
0.0
176
     1
 40
1.0
176
     1
 90
        0
176
     1
 62
    18
420
        0
176
     1
 90
       50
176
     1
 90
        3
176
     1
 62
     5
420
      255
176
     1
290
     0
176
     1
 90
       50
176
     1
 90
       50
176
     1
 90
       50
176
     1
290
     0
176
     1
 90
       50
176
     1
 62
   256
176
     0
 40
1.0
176
     0
 90
        2
176
     1
  1
strokes_ogs.tif
176
     1
290
     0
176
     1
 40
1.0
176
     1
 40
1.0
176
     1
  0
VISUALSTYLE
  5
32
102
{ACAD_REACTORS
330
2A
102
}
330
2A
100
AcDbVisualStyle
  2
Basic
 70
     7
177
     3
291
     1
 70
    58
 90
        1
176
     1
 90
        0
176
     1
 90
        1
176
     1
 90
        0
176
     1
 40
0.6
176
     1
 40
30.0
176
     1
 62
     7
420
 16777215
176
     1
 90
        0
176
     1
 90
        4
176
     1
 62
     7
176
     1
 62
   257
176
     1
 90
        1
176
     1
 90
        1
176
     1
 40
1.0
176
     1
 90
        8
176
     1
 62
     7
176
     1
 40
1.0
176
     1
 90
        1
176
     1
 90
        6
176
     1
 90
        2
176
     1
 62
     7
176
     1
 90
        5
176
     1
 90
        0
176
     1
 90
        0
176
     1
290
     0
176
     1
 90
        1
176
     1
 40
0.0
176
     1
 90
        0
176
     1
290
     0
176
     1
290
     1
176
     1
290
     1
176
     1
290
     0
176
     1
290
     0
176
     1
290
     0
176
     1
290
     0
176
     1
290
     0
176
     1
290
     0
176
     1
 90
       50
176
     1
 40
0.0
176
     1
 40
1.0
176
     1
 90
        0
176
     1
 62
    18
420
        0
176
     1
 90
       50
176
     1
 90
        3
176
     1
 62
     5
420
      255
176
     1
290
     0
176
     1
 90
       50
176
     1
 90
       50
176
     1
 90
       50
176
     1
290
     0
176
     1
 90
       50
176
     1
 62
   256
176
     0
 40
1.0
176
     0
 90
        2
176
     1
  1
strokes_ogs.tif
176
     1
290
     0
176
     1
 40
1.0
176
     1
 40
1.0
176
     1
  0
VISUALSTYLE
  5
36
102
{ACAD_REACTORS
330
2A
102
}
330
2A
100
AcDbVisualStyle
  2
Brighten
 70
    12
177
     3
291
     1
 70
    58
 90
        2
176
     1
 90
        2
176
     1
 90
        0
176
     1
 90
        0
176
     1
 40
0.6
176
     1
 40
30.0
176
     1
 62
     7
420
 16777215
176
     1
 90
        1
176
     1
 90
        4
176
     1
 62
     7
176
     1
 62
   257
176
     1
 90
        1
176
     1
 90
        1
176
     1
 40
1.0
176
     1
 90
        8
176
     1
 62
     7
176
     1
 40
1.0
176
     1
 90
        1
176
     1
 90
        6
176
     1
 90
        2
176
     1
 62
     7
176
     1
 90
        5
176
     1
 90
        0
176
     1
 90
        0
176
     1
290
     0
176
     1
 90
        1
176
     1
 40
50.0
176
     1
 90
        0
176
     1
290
     0
176
     1
290
     1
176
     1
290
     1
176
     1
290
     0
176
     1
290
     0
176
     1
290
     0
176
     1
290
     0
176
     1
290
     0
176
     1
290
     0
176
     1
 90
       50
176
     1
 40
0.0
176
     1
 40
1.0
176
     1
 90
        0
176
     1
 62
    18
420
        0
176
     1
 90
       50
176
     1
 90
        3
176
     1
 62
     5
420
      255
176
     1
290
     0
176
     1
 90
       50
176
     1
 90
       50
176
     1
 90
       50
176
     1
290
     0
176
     1
 90
       50
176
     1
 62
   256
176
     0
 40
1.0
176
     0
 90
        2
176
     1
  1
strokes_ogs.tif
176
     1
290
     0
176
     1
 40
1.0
176
     1
 40
1.0
176
     1
  0
VISUALSTYLE
  5
3A
102
{ACAD_REACTORS
330
2A
102
}
330
2A
100
AcDbVisualStyle
  2
ColorChange
 70
    16
177
     3
291
     1
 70
    58
 90
        2
176
     1
 90
        2
176
     1
 90
        3
176
     1
 90
        0
176
     1
 40
0.6
176
     1
 40
30.0
176
     1
 62
     8
420
  8421504
176
     1
 90
        1
176
     1
 90
        4
176
     1
 62
     7
176
     1
 62
   257
176
     1
 90
        1
176
     1
 90
        1
176
     1
 40
1.0
176
     1
 90
        8
176
     1
 62
     8
420
  8421504
176
     1
 40
1.0
176
     1
 90
        1
176
     1
 90
        6
176
     1
 90
        2
176
     1
 62
     7
176
     1
 90
        5
176
     1
 90
        0
176
     1
 90
        0
176
     1
290
     0
176
     1
 90
        1
176
     1
 40
0.0
176
     1
 90
        0
176
     1
290
     0
176
     1
290
     1
176
     1
290
     1
176
     1
290
     0
176
     1
290
     0
176
     1
290
     0
176
     1
290
     0
176
     1
290
     0
176
     1
290
     0
176
     1
 90
       50
176
     1
 40
0.0
176
     1
 40
1.0
176
     1
 90
        0
176
     1
 62
    18
420
        0
176
     1
 90
       50
176
     1
 90
        3
176
     1
 62
     5
420
      255
176
     1
290
     0
176
     1
 90
       50
176
     1
 90
       50
176
     1
 90
       50
176
     1
290
     0
176
     1
 90
       50
176
     1
 62
   256
176
     0
 40
1.0
176
     0
 90
        2
176
     1
  1
strokes_ogs.tif
176
     1
290
     0
176
     1
 40
1.0
176
     1
 40
1.0
176
     1
  0
VISUALSTYLE
  5
34
102
{ACAD_REACTORS
330
2A
102
}
330
2A
100
AcDbVisualStyle
  2
Conceptual
 70
     9
177
     3
291
     0
 70
    58
 90
        3
176
     1
 90
        2
176
     1
 90
        0
176
     1
 90
        0
176
     1
 40
0.6
176
     1
 40
30.0
176
     1
 62
     7
420
 16777215
176
     1
 90
        2
176
     1
 90
        2
176
     1
 62
     7
176
     1
 62
   257
176
     1
 90
        1
176
     1
 90
        1
176
     1
 40
179.0
176
     1
 90
        8
176
     1
 62
     7
176
     1
 40
1.0
176
     1
 90
        1
176
     1
 90
        6
176
     1
 90
        2
176
     1
 62
     7
176
     1
 90
        3
176
     1
 90
        0
176
     1
 90
        0
176
     1
290
     0
176
     1
 90
        1
176
     1
 40
0.0
176
     1
 90
        0
176
     1
290
     0
176
     1
290
     1
176
     1
290
     1
176
     1
290
     0
176
     1
290
     0
176
     1
290
     0
176
     1
290
     0
176
     1
290
     0
176
     1
290
     0
176
     1
 90
       50
176
     1
 40
0.0
176
     1
 40
1.0
176
     1
 90
        0
176
     1
 62
    18
420
        0
176
     1
 90
       50
176
     1
 90
        3
176
     1
 62
     5
420
      255
176
     1
290
     0
176
     1
 90
       50
176
     1
 90
       50
176
     1
 90
       50
176
     1
290
     0
176
     1
 90
       50
176
     1
 62
   256
176
     0
 40
1.0
176
     0
 90
        2
176
     1
  1
strokes_ogs.tif
176
     1
290
     0
176
     1
 40
1.0
176
     1
 40
1.0
176
     1
  0
VISUALSTYLE
  5
35
102
{ACAD_REACTORS
330
2A
102
}
330
2A
100
AcDbVisualStyle
  2
Dim
 70
    11
177
     3
291
     1
 70
    58
 90
        2
176
     1
 90
        2
176
     1
 90
        0
176
     1
 90
        0
176
     1
 40
0.6
176
     1
 40
30.0
176
     1
 62
     7
420
 16777215
176
     1
 90
        1
176
     1
 90
        4
176
     1
 62
     7
176
     1
 62
   257
176
     1
 90
        1
176
     1
 90
        1
176
     1
 40
1.0
176
     1
 90
        8
176
     1
 62
     7
176
     1
 40
1.0
176
     1
 90
        1
176
     1
 90
        6
176
     1
 90
        2
176
     1
 62
     7
176
     1
 90
        5
176
     1
 90
        0
176
     1
 90
        0
176
     1
290
     0
176
     1
 90
        1
176
     1
 40
-50.0
176
     1
 90
        0
176
     1
290
     0
176
     1
290
     1
176
     1
290
     1
176
     1
290
     0
176
     1
290
     0
176
     1
290
     0
176
     1
290
     0
176
     1
290
     0
176
     1
290
     0
176
     1
 90
       50
176
     1
 40
0.0
176
     1
 40
1.0
176
     1
 90
        0
176
     1
 62
    18
420
        0
176
     1
 90
       50
176
     1
 90
        3
176
     1
 62
     5
420
      255
176
     1
290
     0
176
     1
 90
       50
176
     1
 90
       50
176
     1
 90
       50
176
     1
290
     0
176
     1
 90
       50
176
     1
 62
   256
176
     0
 40
1.0
176
     0
 90
        2
176
     1
  1
strokes_ogs.tif
176
     1
290
     0
176
     1
 40
1.0
176
     1
 40
1.0
176
     1
  0
VISUALSTYLE
  5
3D
102
{ACAD_REACTORS
330
2A
102
}
330
2A
100
AcDbVisualStyle
  2
EdgeColorOff
 70
    22
177
     3
291
     1
 70
    58
 90
        2
176
     0
 90
        2
176
     0
 90
        0
176
     0
 90
        0
176
     0
 40
0.6
176
     0
 40
30.0
176
     0
 62
     7
420
 16777215
176
     0
 90
        1
176
     0
 90
        4
176
     0
 62
     7
176
     0
 62
   257
176
     0
 90
        1
176
     0
 90
        1
176
     0
 40
1.0
176
     0
 90
        8
176
     2
 62
     7
176
     0
 40
1.0
176
     0
 90
        1
176
     0
 90
        6
176
     0
 90
        2
176
     0
 62
     7
176
     0
 90
        5
176
     0
 90
        0
176
     0
 90
        0
176
     0
290
     0
176
     0
 90
        1
176
     0
 40
0.0
176
     0
 90
        0
176
     0
290
     0
176
     0
290
     1
176
     0
290
     1
176
     0
290
     0
176
     0
290
     0
176
     0
290
     0
176
     0
290
     0
176
     0
290
     0
176
     0
290
     0
176
     0
 90
       50
176
     0
 40
0.0
176
     0
 40
1.0
176
     0
 90
        0
176
     0
 62
    18
420
        0
176
     0
 90
       50
176
     0
 90
        3
176
     0
 62
     5
420
      255
176
     0
290
     0
176
     0
 90
       50
176
     0
 90
       50
176
     0
 90
       50
176
     0
290
     0
176
     0
 90
       50
176
     0
 62
   256
176
     0
 40
1.0
176
     0
 90
        2
176
     0
  1
strokes_ogs.tif
176
     0
290
     0
176
     0
 40
1.0
176
     0
 40
1.0
176
     0
  0
VISUALSTYLE
  5
39
102
{ACAD_REACTORS
330
2A
102
}
330
2A
100
AcDbVisualStyle
  2
Facepattern
 70
    15
177
     3
291
     1
 70
    58
 90
        2
176
     1
 90
        2
176
     1
 90
        0
176
     1
 90
        0
176
     1
 40
0.6
176
     1
 40
30.0
176
     1
 62
     7
420
 16777215
176
     1
 90
        1
176
     1
 90
        4
176
     1
 62
     7
176
     1
 62
   257
176
     1
 90
        1
176
     1
 90
        1
176
     1
 40
1.0
176
     1
 90
        8
176
     1
 62
     7
176
     1
 40
1.0
176
     1
 90
        1
176
     1
 90
        6
176
     1
 90
        2
176
     1
 62
     7
176
     1
 90
        5
176
     1
 90
        0
176
     1
 90
        0
176
     1
290
     0
176
     1
 90
        1
176
     1
 40
0.0
176
     1
 90
        0
176
     1
290
     0
176
     1
290
     1
176
     1
290
     1
176
     1
290
     0
176
     1
290
     0
176
     1
290
     0
176
     1
290
     0
176
     1
290
     0
176
     1
290
     0
176
     1
 90
       50
176
     1
 40
0.0
176
     1
 40
1.0
176
     1
 90
        0
176
     1
 62
    18
420
        0
176
     1
 90
       50
176
     1
 90
        3
176
     1
 62
     5
420
      255
176
     1
290
     0
176
     1
 90
       50
176
     1
 90
       50
176
     1
 90
       50
176
     1
290
     0
176
     1
 90
       50
176
     1
 62
   256
176
     0
 40
1.0
176
     0
 90
        2
176
     1
  1
strokes_ogs.tif
176
     1
290
     0
176
     1
 40
1.0
176
     1
 40
1.0
176
     1
  0
VISUALSTYLE
  5
2B
102
{ACAD_REACTORS
330
2A
102
}
330
2A
100
AcDbVisualStyle
  2
Flat
 70
     0
177
     3
291
     1
 70
    58
 90
        2
176
     1
 90
        1
176
     1
 90
        1
176
     1
 90
        2
176
     1
 40
0.6
176
     1
 40
30.0
176
     1
 62
     7
420
 16777215
176
     1
 90
        0
176
     1
 90
        0
176
     1
 62
     7
176
     1
 62
   257
176
     1
 90
        1
176
     1
 90
        1
176
     1
 40
1.0
176
     1
 90
        8
176
     1
 62
     7
176
     1
 40
1.0
176
     1
 90
        1
176
     1
 90
        6
176
     1
 90
        2
176
     1
 62
     7
176
     1
 90
        5
176
     1
 90
        0
176
     1
 90
        0
176
     1
290
     0
176
     1
 90
       13
176
     1
 40
0.0
176
     1
 90
        0
176
     1
290
     0
176
     1
290
     1
176
     1
290
     1
176
     1
290
     0
176
     1
290
     0
176
     1
290
     0
176
     1
290
     0
176
     1
290
     0
176
     1
290
     0
176
     1
 90
       50
176
     1
 40
0.0
176
     1
 40
1.0
176
     1
 90
        0
176
     1
 62
    18
420
        0
176
     1
 90
       50
176
     1
 90
        3
176
     1
 62
     5
420
      255
176
     1
290
     0
176
     1
 90
       50
176
     1
 90
       50
176
     1
 90
       50
176
     1
290
     0
176
     1
 90
       50
176
     1
 62
   256
176
     0
 40
1.0
176
     0
 90
        2
176
     1
  1
strokes_ogs.tif
176
     1
290
     0
176
     1
 40
1.0
176
     1
 40
1.0
176
     1
  0
VISUALSTYLE
  5
2C
102
{ACAD_REACTORS
330
2A
102
}
330
2A
100
AcDbVisualStyle
  2
FlatWithEdges
 70
     1
177
     3
291
     1
 70
    58
 90
        2
176
     1
 90
        1
176
     1
 90
        1
176
     1
 90
        2
176
     1
 40
0.6
176
     1
 40
30.0
176
     1
 62
     7
420
 16777215
176
     1
 90
        1
176
     1
 90
        0
176
     1
 62
     7
176
     1
 62
   257
176
     1
 90
        1
176
     1
 90
        1
176
     1
 40
1.0
176
     1
 90
        0
176
     1
 62
   257
176
     1
 40
1.0
176
     1
 90
        1
176
     1
 90
        6
176
     1
 90
        2
176
     1
 62
     7
176
     1
 90
        5
176
     1
 90
        0
176
     1
 90
        0
176
     1
290
     0
176
     1
 90
       13
176
     1
 40
0.0
176
     1
 90
        0
176
     1
290
     0
176
     1
290
     1
176
     1
290
     1
176
     1
290
     0
176
     1
290
     0
176
     1
290
     0
176
     1
290
     0
176
     1
290
     0
176
     1
290
     0
176
     1
 90
       50
176
     1
 40
0.0
176
     1
 40
1.0
176
     1
 90
        0
176
     1
 62
    18
420
        0
176
     1
 90
       50
176
     1
 90
        3
176
     1
 62
     5
420
      255
176
     1
290
     0
176
     1
 90
       50
176
     1
 90
       50
176
     1
 90
       50
176
     1
290
     0
176
     1
 90
       50
176
     1
 62
   256
176
     0
 40
1.0
176
     0
 90
        2
176
     1
  1
strokes_ogs.tif
176
     1
290
     0
176
     1
 40
1.0
176
     1
 40
1.0
176
     1
  0
VISUALSTYLE
  5
2D
102
{ACAD_REACTORS
330
2A
102
}
330
2A
100
AcDbVisualStyle
  2
Gouraud
 70
     2
177
     3
291
     1
 70
    58
 90
        2
176
     1
 90
        2
176
     1
 90
        1
176
     1
 90
        2
176
     1
 40
0.6
176
     1
 40
30.0
176
     1
 62
     7
420
 16777215
176
     1
 90
        0
176
     1
 90
        0
176
     1
 62
     7
176
     1
 62
   257
176
     1
 90
        1
176
     1
 90
        1
176
     1
 40
1.0
176
     1
 90
        0
176
     1
 62
     7
176
     1
 40
1.0
176
     1
 90
        1
176
     1
 90
        6
176
     1
 90
        2
176
     1
 62
     7
176
     1
 90
        5
176
     1
 90
        0
176
     1
 90
        0
176
     1
290
     0
176
     1
 90
       13
176
     1
 40
0.0
176
     1
 90
        0
176
     1
290
     0
176
     1
290
     1
176
     1
290
     1
176
     1
290
     0
176
     1
290
     0
176
     1
290
     0
176
     1
290
     0
176
     1
290
     0
176
     1
290
     0
176
     1
 90
       50
176
     1
 40
0.0
176
     1
 40
1.0
176
     1
 90
        0
176
     1
 62
    18
420
        0
176
     1
 90
       50
176
     1
 90
        3
176
     1
 62
     5
420
      255
176
     1
290
     0
176
     1
 90
       50
176
     1
 90
       50
176
     1
 90
       50
176
     1
290
     0
176
     1
 90
       50
176
     1
 62
   256
176
     0
 40
1.0
176
     0
 90
        2
176
     1
  1
strokes_ogs.tif
176
     1
290
     0
176
     1
 40
1.0
176
     1
 40
1.0
176
     1
  0
VISUALSTYLE
  5
2E
102
{ACAD_REACTORS
330
2A
102
}
330
2A
100
AcDbVisualStyle
  2
GouraudWithEdges
 70
     3
177
     3
291
     1
 70
    58
 90
        2
176
     1
 90
        2
176
     1
 90
        1
176
     1
 90
        2
176
     1
 40
0.6
176
     1
 40
30.0
176
     1
 62
     7
420
 16777215
176
     1
 90
        1
176
     1
 90
        0
176
     1
 62
     7
176
     1
 62
   257
176
     1
 90
        1
176
     1
 90
        1
176
     1
 40
1.0
176
     1
 90
        0
176
     1
 62
   257
176
     1
 40
1.0
176
     1
 90
        1
176
     1
 90
        6
176
     1
 90
        2
176
     1
 62
     7
176
     1
 90
        5
176
     1
 90
        0
176
     1
 90
        0
176
     1
290
     0
176
     1
 90
       13
176
     1
 40
0.0
176
     1
 90
        0
176
     1
290
     0
176
     1
290
     1
176
     1
290
     1
176
     1
290
     0
176
     1
290
     0
176
     1
290
     0
176
     1
290
     0
176
     1
290
     0
176
     1
290
     0
176
     1
 90
       50
176
     1
 40
0.0
176
     1
 40
1.0
176
     1
 90
        0
176
     1
 62
    18
420
        0
176
     1
 90
       50
176
     1
 90
        3
176
     1
 62
     5
420
      255
176
     1
290
     0
176
     1
 90
       50
176
     1
 90
       50
176
     1
 90
       50
176
     1
290
     0
176
     1
 90
       50
176
     1
 62
   256
176
     0
 40
1.0
176
     0
 90
        2
176
     1
  1
strokes_ogs.tif
176
     1
290
     0
176
     1
 40
1.0
176
     1
 40
1.0
176
     1
  0
VISUALSTYLE
  5
31
102
{ACAD_REACTORS
330
2A
102
}
330
2A
100
AcDbVisualStyle
  2
Hidden
 70
     6
177
     3
291
     0
 70
    58
 90
        1
176
     1
 90
        2
176
     1
 90
        2
176
     1
 90
        0
176
     1
 40
0.6
176
     1
 40
30.0
176
     1
 62
     7
420
 16777215
176
     1
 90
        2
176
     1
 90
        2
176
     1
 62
     7
176
     1
 62
   257
176
     1
 90
        2
176
     1
 90
        1
176
     1
 40
40.0
176
     1
 90
        0
176
     1
 62
   257
176
     1
 40
1.0
176
     1
 90
        1
176
     1
 90
        6
176
     1
 90
        2
176
     1
 62
     7
176
     1
 90
        3
176
     1
 90
        0
176
     1
 90
        0
176
     1
290
     0
176
     1
 90
        1
176
     1
 40
0.0
176
     1
 90
        0
176
     1
290
     0
176
     1
290
     1
176
     1
290
     1
176
     1
290
     0
176
     1
290
     0
176
     1
290
     0
176
     1
290
     0
176
     1
290
     0
176
     1
290
     0
176
     1
 90
       50
176
     1
 40
0.0
176
     1
 40
1.0
176
     1
 90
        0
176
     1
 62
    18
420
        0
176
     1
 90
       50
176
     1
 90
        3
176
     1
 62
     5
420
      255
176
     1
290
     0
176
     1
 90
       50
176
     1
 90
       50
176
     1
 90
       50
176
     1
290
     0
176
     1
 90
       50
176
     1
 62
   256
176
     0
 40
1.0
176
     0
 90
        2
176
     1
  1
strokes_ogs.tif
176
     1
290
     0
176
     1
 40
1.0
176
     1
 40
1.0
176
     1
  0
VISUALSTYLE
  5
3B
102
{ACAD_REACTORS
330
2A
102
}
330
2A
100
AcDbVisualStyle
  2
JitterOff
 70
    20
177
     3
291
     1
 70
    58
 90
        2
176
     0
 90
        2
176
     0
 90
        0
176
     0
 90
        0
176
     0
 40
0.6
176
     0
 40
30.0
176
     0
 62
     7
420
 16777215
176
     0
 90
        1
176
     0
 90
        4
176
     0
 62
     7
176
     0
 62
   257
176
     0
 90
        1
176
     0
 90
        1
176
     0
 40
1.0
176
     0
 90
       10
176
     2
 62
     7
176
     0
 40
1.0
176
     0
 90
        1
176
     0
 90
        6
176
     0
 90
        2
176
     0
 62
     7
176
     0
 90
        5
176
     0
 90
        0
176
     0
 90
        0
176
     0
290
     0
176
     0
 90
        1
176
     0
 40
0.0
176
     0
 90
        0
176
     0
290
     0
176
     0
290
     1
176
     0
290
     1
176
     0
290
     0
176
     0
290
     0
176
     0
290
     0
176
     0
290
     0
176
     0
290
     0
176
     0
290
     0
176
     0
 90
       50
176
     0
 40
0.0
176
     0
 40
1.0
176
     0
 90
        0
176
     0
 62
    18
420
        0
176
     0
 90
       50
176
     0
 90
        3
176
     0
 62
     5
420
      255
176
     0
290
     0
176
     0
 90
       50
176
     0
 90
       50
176
     0
 90
       50
176
     0
290
     0
176
     0
 90
       50
176
     0
 62
   256
176
     0
 40
1.0
176
     0
 90
        2
176
     0
  1
strokes_ogs.tif
176
     0
290
     0
176
     0
 40
1.0
176
     0
 40
1.0
176
     0
  0
VISUALSTYLE
  5
38
102
{ACAD_REACTORS
330
2A
102
}
330
2A
100
AcDbVisualStyle
  2
Linepattern
 70
    14
177
     3
291
     1
 70
    58
 90
        2
176
     1
 90
        2
176
     1
 90
        0
176
     1
 90
        0
176
     1
 40
0.6
176
     1
 40
30.0
176
     1
 62
     7
420
 16777215
176
     1
 90
        1
176
     1
 90
        4
176
     1
 62
     7
176
     1
 62
   257
176
     1
 90
        7
176
     1
 90
        7
176
     1
 40
1.0
176
     1
 90
        8
176
     1
 62
     7
176
     1
 40
1.0
176
     1
 90
        1
176
     1
 90
        6
176
     1
 90
        2
176
     1
 62
     7
176
     1
 90
        5
176
     1
 90
        0
176
     1
 90
        0
176
     1
290
     0
176
     1
 90
        1
176
     1
 40
0.0
176
     1
 90
        0
176
     1
290
     0
176
     1
290
     1
176
     1
290
     1
176
     1
290
     0
176
     1
290
     0
176
     1
290
     0
176
     1
290
     0
176
     1
290
     0
176
     1
290
     0
176
     1
 90
       50
176
     1
 40
0.0
176
     1
 40
1.0
176
     1
 90
        0
176
     1
 62
    18
420
        0
176
     1
 90
       50
176
     1
 90
        3
176
     1
 62
     5
420
      255
176
     1
290
     0
176
     1
 90
       50
176
     1
 90
       50
176
     1
 90
       50
176
     1
290
     0
176
     1
 90
       50
176
     1
 62
   256
176
     0
 40
1.0
176
     0
 90
        2
176
     1
  1
strokes_ogs.tif
176
     1
290
     0
176
     1
 40
1.0
176
     1
 40
1.0
176
     1
  0
VISUALSTYLE
  5
3C
102
{ACAD_REACTORS
330
2A
102
}
330
2A
100
AcDbVisualStyle
  2
OverhangOff
 70
    21
177
     3
291
     1
 70
    58
 90
        2
176
     0
 90
        2
176
     0
 90
        0
176
     0
 90
        0
176
     0
 40
0.6
176
     0
 40
30.0
176
     0
 62
     7
420
 16777215
176
     0
 90
        1
176
     0
 90
        4
176
     0
 62
     7
176
     0
 62
   257
176
     0
 90
        1
176
     0
 90
        1
176
     0
 40
1.0
176
     0
 90
        9
176
     2
 62
     7
176
     0
 40
1.0
176
     0
 90
        1
176
     0
 90
        6
176
     0
 90
        2
176
     0
 62
     7
176
     0
 90
        5
176
     0
 90
        0
176
     0
 90
        0
176
     0
290
     0
176
     0
 90
        1
176
     0
 40
0.0
176
     0
 90
        0
176
     0
290
     0
176
     0
290
     1
176
     0
290
     1
176
     0
290
     0
176
     0
290
     0
176
     0
290
     0
176
     0
290
     0
176
     0
290
     0
176
     0
290
     0
176
     0
 90
       50
176
     0
 40
0.0
176
     0
 40
1.0
176
     0
 90
        0
176
     0
 62
    18
420
        0
176
     0
 90
       50
176
     0
 90
        3
176
     0
 62
     5
420
      255
176
     0
290
     0
176
     0
 90
       50
176
     0
 90
       50
176
     0
 90
       50
176
     0
290
     0
176
     0
 90
       50
176
     0
 62
   256
176
     0
 40
1.0
176
     0
 90
        2
176
     0
  1
strokes_ogs.tif
176
     0
290
     0
176
     0
 40
1.0
176
     0
 40
1.0
176
     0
  0
VISUALSTYLE
  5
33
102
{ACAD_REACTORS
330
2A
102
}
330
2A
100
AcDbVisualStyle
  2
Realistic
 70
     8
177
     3
291
     0
 70
    58
 90
        2
176
     1
 90
        3
176
     1
 90
        0
176
     1
 90
        2
176
     1
 40
0.6
176
     1
 40
30.0
176
     1
 62
     7
420
 16777215
176
     1
 90
        0
176
     1
 90
        0
176
     1
 62
     7
176
     1
 62
   257
176
     1
 90
        1
176
     1
 90
        1
176
     1
 40
1.0
176
     1
 90
        8
176
     1
 62
   257
176
     1
 40
1.0
176
     1
 90
        1
176
     1
 90
        6
176
     1
 90
        2
176
     1
 62
     7
176
     1
 90
        3
176
     1
 90
        0
176
     1
 90
        0
176
     1
290
     0
176
     1
 90
       13
176
     1
 40
0.0
176
     1
 90
        0
176
     1
290
     0
176
     1
290
     1
176
     1
290
     1
176
     1
290
     0
176
     1
290
     0
176
     1
290
     0
176
     1
290
     0
176
     1
290
     0
176
     1
290
     0
176
     1
 90
       50
176
     1
 40
0.0
176
     1
 40
1.0
176
     1
 90
        0
176
     1
 62
    18
420
        0
176
     1
 90
       50
176
     1
 90
        3
176
     1
 62
     5
420
      255
176
     1
290
     0
176
     1
 90
       50
176
     1
 90
       50
176
     1
 90
       50
176
     1
290
     0
176
     1
 90
       50
176
     1
 62
   256
176
     0
 40
1.0
176
     0
 90
        2
176
     1
  1
strokes_ogs.tif
176
     1
290
     0
176
     1
 40
1.0
176
     1
 40
1.0
176
     1
  0
VISUALSTYLE
  5
42
102
{ACAD_REACTORS
330
2A
102
}
330
2A
100
AcDbVisualStyle
  2
Shaded
 70
    27
177
     3
291
     0
 70
    58
 90
        2
176
     1
 90
        2
176
     1
 90
        1
176
     1
 90
        2
176
     1
 40
0.6
176
     1
 40
30.0
176
     1
 62
     7
420
 16777215
176
     1
 90
        0
176
     1
 90
        4
176
     1
 62
     7
176
     1
 62
   257
176
     1
 90
        1
176
     1
 90
        1
176
     1
 40
1.0
176
     1
 90
        8
176
     1
 62
   257
176
     1
 40
1.0
176
     1
 90
        1
176
     1
 90
        6
176
     1
 90
        2
176
     1
 62
     8
420
  7895160
176
     1
 90
        3
176
     1
 90
        0
176
     1
 90
        0
176
     1
290
     0
176
     1
 90
        5
176
     1
 40
0.0
176
     1
 90
        0
176
     1
290
     0
176
     1
290
     1
176
     1
290
     1
176
     1
290
     0
176
     1
290
     0
176
     1
290
     0
176
     1
290
     0
176
     1
290
     0
176
     1
290
     0
176
     1
 90
       50
176
     1
 40
0.0
176
     1
 40
1.0
176
     1
 90
        0
176
     1
 62
    18
420
        0
176
     1
 90
       50
176
     1
 90
        3
176
     1
 62
     5
420
      255
176
     1
290
     0
176
     1
 90
       50
176
     1
 90
       50
176
     1
 90
       50
176
     1
290
     0
176
     1
 90
       50
176
     1
 62
   256
176
     0
 40
1.0
176
     0
 90
        2
176
     1
  1
strokes_ogs.tif
176
     1
290
     0
176
     1
 40
1.0
176
     1
 40
1.0
176
     1
  0
VISUALSTYLE
  5
41
102
{ACAD_REACTORS
330
2A
102
}
330
2A
100
AcDbVisualStyle
  2
Shaded with edges
 70
    26
177
     3
291
     0
 70
    58
 90
        2
176
     1
 90
        2
176
     1
 90
        1
176
     1
 90
        2
176
     1
 40
0.6
176
     1
 40
30.0
176
     1
 62
     7
420
 16777215
176
     1
 90
        1
176
     1
 90
       10
176
     1
 62
     7
176
     1
 62
   257
176
     1
 90
        2
176
     1
 90
        1
176
     1
 40
1.0
176
     1
 90
        8
176
     1
 62
   257
176
     1
 40
1.0
176
     1
 90
        1
176
     1
 90
        6
176
     1
 90
        2
176
     1
 62
     7
176
     1
 90
        3
176
     1
 90
        0
176
     1
 90
        0
176
     1
290
     0
176
     1
 90
        5
176
     1
 40
0.0
176
     1
 90
        0
176
     1
290
     0
176
     1
290
     1
176
     1
290
     1
176
     1
290
     0
176
     1
290
     0
176
     1
290
     0
176
     1
290
     0
176
     1
290
     0
176
     1
290
     0
176
     1
 90
       50
176
     1
 40
0.0
176
     1
 40
1.0
176
     1
 90
        0
176
     1
 62
    18
420
        0
176
     1
 90
       50
176
     1
 90
        3
176
     1
 62
     5
420
      255
176
     1
290
     0
176
     1
 90
       50
176
     1
 90
       50
176
     1
 90
       50
176
     1
290
     0
176
     1
 90
       50
176
     1
 62
   256
176
     0
 40
1.0
176
     0
 90
        2
176
     1
  1
strokes_ogs.tif
176
     1
290
     0
176
     1
 40
1.0
176
     1
 40
1.0
176
     1
  0
VISUALSTYLE
  5
3E
102
{ACAD_REACTORS
330
2A
102
}
330
2A
100
AcDbVisualStyle
  2
Shades of Gray
 70
    23
177
     3
291
     0
 70
    58
 90
        2
176
     1
 90
        2
176
     1
 90
        3
176
     1
 90
        0
176
     1
 40
0.6
176
     1
 40
30.0
176
     1
 62
     7
420
 16777215
176
     1
 90
        2
176
     1
 90
        2
176
     1
 62
     7
176
     1
 62
     7
176
     1
 90
        1
176
     1
 90
        1
176
     1
 40
40.0
176
     1
 90
        8
176
     1
 62
     7
176
     1
 40
1.0
176
     1
 90
        1
176
     1
 90
        6
176
     1
 90
        2
176
     1
 62
     7
176
     1
 90
        3
176
     1
 90
        0
176
     1
 90
        0
176
     1
290
     0
176
     1
 90
        1
176
     1
 40
0.0
176
     1
 90
        0
176
     1
290
     0
176
     1
290
     1
176
     1
290
     1
176
     1
290
     0
176
     1
290
     0
176
     1
290
     0
176
     1
290
     0
176
     1
290
     0
176
     1
290
     0
176
     1
 90
       50
176
     1
 40
0.0
176
     1
 40
1.0
176
     1
 90
        0
176
     1
 62
    18
420
        0
176
     1
 90
       50
176
     1
 90
        3
176
     1
 62
     5
420
      255
176
     1
290
     0
176
     1
 90
       50
176
     1
 90
       50
176
     1
 90
       50
176
     1
290
     0
176
     1
 90
       50
176
     1
 62
   256
176
     0
 40
1.0
176
     0
 90
        2
176
     1
  1
strokes_ogs.tif
176
     1
290
     0
176
     1
 40
1.0
176
     1
 40
1.0
176
     1
  0
VISUALSTYLE
  5
3F
102
{ACAD_REACTORS
330
2A
102
}
330
2A
100
AcDbVisualStyle
  2
Sketchy
 70
    24
177
     3
291
     0
 70
    58
 90
        1
176
     1
 90
        2
176
     1
 90
        2
176
     1
 90
        0
176
     1
 40
0.6
176
     1
 40
30.0
176
     1
 62
     7
420
 16777215
176
     1
 90
        2
176
     1
 90
        2
176
     1
 62
     7
176
     1
 62
     7
176
     1
 90
        1
176
     1
 90
        1
176
     1
 40
40.0
176
     1
 90
       11
176
     1
 62
     7
176
     1
 40
1.0
176
     1
 90
        1
176
     1
 90
        6
176
     1
 90
        2
176
     1
 62
     7
176
     1
 90
        6
176
     1
 90
        0
176
     1
 90
        0
176
     1
290
     0
176
     1
 90
        1
176
     1
 40
0.0
176
     1
 90
        0
176
     1
290
     0
176
     1
290
     1
176
     1
290
     1
176
     1
290
     0
176
     1
290
     0
176
     1
290
     0
176
     1
290
     0
176
     1
290
     0
176
     1
290
     0
176
     1
 90
       50
176
     1
 40
0.0
176
     1
 40
1.0
176
     1
 90
        0
176
     1
 62
    18
420
        0
176
     1
 90
       50
176
     1
 90
        3
176
     1
 62
     5
420
      255
176
     1
290
     0
176
     1
 90
       50
176
     1
 90
       50
176
     1
 90
       50
176
     1
290
     0
176
     1
 90
       50
176
     1
 62
   256
176
     0
 40
1.0
176
     0
 90
        2
176
     1
  1
strokes_ogs.tif
176
     1
290
     0
176
     1
 40
1.0
176
     1
 40
1.0
176
     1
  0
VISUALSTYLE
  5
37
102
{ACAD_REACTORS
330
2A
102
}
330
2A
100
AcDbVisualStyle
  2
Thicken
 70
    13
177
     3
291
     1
 70
    58
 90
        2
176
     1
 90
        2
176
     1
 90
        0
176
     1
 90
        0
176
     1
 40
0.6
176
     1
 40
30.0
176
     1
 62
     7
420
 16777215
176
     1
 90
        1
176
     1
 90
        4
176
     1
 62
     7
176
     1
 62
   257
176
     1
 90
        1
176
     1
 90
        1
176
     1
 40
1.0
176
     1
 90
       12
176
     1
 62
     7
176
     1
 40
1.0
176
     1
 90
        1
176
     1
 90
        6
176
     1
 90
        2
176
     1
 62
     7
176
     1
 90
        5
176
     1
 90
        0
176
     1
 90
        0
176
     1
290
     0
176
     1
 90
        1
176
     1
 40
0.0
176
     1
 90
        0
176
     1
290
     0
176
     1
290
     1
176
     1
290
     1
176
     1
290
     0
176
     1
290
     0
176
     1
290
     0
176
     1
290
     0
176
     1
290
     0
176
     1
290
     0
176
     1
 90
       50
176
     1
 40
0.0
176
     1
 40
1.0
176
     1
 90
        0
176
     1
 62
    18
420
        0
176
     1
 90
       50
176
     1
 90
        3
176
     1
 62
     5
420
      255
176
     1
290
     0
176
     1
 90
       50
176
     1
 90
       50
176
     1
 90
       50
176
     1
290
     0
176
     1
 90
       50
176
     1
 62
   256
176
     0
 40
1.0
176
     0
 90
        2
176
     1
  1
strokes_ogs.tif
176
     1
290
     0
176
     1
 40
1.0
176
     1
 40
1.0
176
     1
  0
VISUALSTYLE
  5
30
102
{ACAD_REACTORS
330
2A
102
}
330
2A
100
AcDbVisualStyle
  2
Wireframe
 70
     5
177
     3
291
     0
 70
    58
 90
        0
176
     1
 90
        2
176
     1
 90
        0
176
     1
 90
        0
176
     1
 40
0.6
176
     1
 40
30.0
176
     1
 62
     7
420
 16777215
176
     1
 90
        1
176
     1
 90
        4
176
     1
 62
     7
176
     1
 62
   257
176
     1
 90
        1
176
     1
 90
        1
176
     1
 40
1.0
176
     1
 90
        0
176
     1
 62
   257
176
     1
 40
1.0
176
     1
 90
        1
176
     1
 90
        6
176
     1
 90
        2
176
     1
 62
     7
176
     1
 90
        3
176
     1
 90
        0
176
     1
 90
        0
176
     1
290
     0
176
     1
 90
        1
176
     1
 40
0.0
176
     1
 90
        0
176
     1
290
     0
176
     1
290
     1
176
     1
290
     1
176
     1
290
     0
176
     1
290
     0
176
     1
290
     0
176
     1
290
     0
176
     1
290
     0
176
     1
290
     0
176
     1
 90
       50
176
     1
 40
0.0
176
     1
 40
1.0
176
     1
 90
        0
176
     1
 62
    18
420
        0
176
     1
 90
       50
176
     1
 90
        3
176
     1
 62
     5
420
      255
176
     1
290
     0
176
     1
 90
       50
176
     1
 90
       50
176
     1
 90
       50
176
     1
290
     0
176
     1
 90
       50
176
     1
 62
   256
176
     0
 40
1.0
176
     0
 90
        2
176
     1
  1
strokes_ogs.tif
176
     1
290
     0
176
     1
 40
1.0
176
     1
 40
1.0
176
     1
  0
VISUALSTYLE
  5
40
102
{ACAD_REACTORS
330
2A
102
}
330
2A
100
AcDbVisualStyle
  2
X-Ray
 70
    25
177
     3
291
     0
 70
    58
 90
        2
176
     1
 90
        2
176
     1
 90
        1
176
     1
 90
        1
176
     1
 40
0.5
176
     1
 40
30.0
176
     1
 62
     7
420
 16777215
176
     1
 90
        1
176
     1
 90
        0
176
     1
 62
     7
176
     1
 62
   257
176
     1
 90
        1
176
     1
 90
        1
176
     1
 40
1.0
176
     1
 90
        8
176
     1
 62
     7
176
     1
 40
1.0
176
     1
 90
        1
176
     1
 90
        6
176
     1
 90
        2
176
     1
 62
     7
176
     1
 90
        3
176
     1
 90
        0
176
     1
 90
        0
176
     1
290
     0
176
     1
 90
       13
176
     1
 40
0.0
176
     1
 90
        0
176
     1
290
     0
176
     1
290
     1
176
     1
290
     1
176
     1
290
     0
176
     1
290
     0
176
     1
290
     0
176
     1
290
     0
176
     1
290
     0
176
     1
290
     0
176
     1
 90
       50
176
     1
 40
0.0
176
     1
 40
1.0
176
     1
 90
        0
176
     1
 62
    18
420
        0
176
     1
 90
       50
176
     1
 90
        3
176
     1
 62
     5
420
      255
176
     1
290
     0
176
     1
 90
       50
176
     1
 90
       50
176
     1
 90
       50
176
     1
290
     0
176
     1
 90
       50
176
     1
 62
   256
176
     0
 40
1.0
176
     0
 90
        2
176
     1
  1
strokes_ogs.tif
176
     1
290
     0
176
     1
 40
1.0
176
     1
 40
1.0
176
     1
  0
DICTIONARYVAR
  5
1EA
102
{ACAD_REACTORS
330
1E9
102
}
330
1E9
100
DictionaryVariables
280
     0
  1
1:1
  0
DICTIONARYVAR
  5
1EF
102
{ACAD_REACTORS
330
1E9
102
}
330
1E9
100
DictionaryVariables
280
     0
  1
Standard
  0
DICTIONARYVAR
  5
1EE
102
{ACAD_REACTORS
330
1E9
102
}
330
1E9
100
DictionaryVariables
280
     0
  1
Standard
  0
DICTIONARY
  5
1EB
330
6A
100
AcDbDictionary
280
     1
281
     1
  3
ACAD_ROUNDTRIP_2008_TABLESTYLE_CELLSTYLEMAP
360
1EC
  0
CELLSTYLEMAP
  5
1EC
102
{ACAD_REACTORS
330
1EB
102
}
330
1EB
100
AcDbCellStyleMap
 90
        3
300
CELLSTYLE
  1
TABLEFORMAT_BEGIN
 90
        5
170
     1
 91
        0
 92
    32768
 62
   257
 93
        1
300
CONTENTFORMAT
  1
CONTENTFORMAT_BEGIN
 90
        0
 91
        0
 92
        4
 93
        0
300

 40
0.0
140
1.0
 94
        5
 62
     0
340
11
144
6.0
309
CONTENTFORMAT_END
171
     1
301
MARGIN
  1
CELLMARGIN_BEGIN
 40
1.5
 40
1.5
 40
1.5
 40
1.5
 40
1.5
 40
1.5
309
CELLMARGIN_END
 94
        6
 95
        1
302
GRIDFORMAT
  1
GRIDFORMAT_BEGIN
 90
        0
 91
        1
 62
     0
 92
       -2
340
14
 93
        0
 40
0.045
309
GRIDFORMAT_END
 95
        2
302
GRIDFORMAT
  1
GRIDFORMAT_BEGIN
 90
        0
 91
        1
 62
     0
 92
       -2
340
14
 93
        0
 40
0.045
309
GRIDFORMAT_END
 95
        4
302
GRIDFORMAT
  1
GRIDFORMAT_BEGIN
 90
        0
 91
        1
 62
     0
 92
       -2
340
14
 93
        0
 40
0.045
309
GRIDFORMAT_END
 95
        8
302
GRIDFORMAT
  1
GRIDFORMAT_BEGIN
 90
        0
 91
        1
 62
     0
 92
       -2
340
14
 93
        0
 40
0.045
309
GRIDFORMAT_END
 95
       16
302
GRIDFORMAT
  1
GRIDFORMAT_BEGIN
 90
        0
 91
        1
 62
     0
 92
       -2
340
14
 93
        0
 40
0.045
309
GRIDFORMAT_END
 95
       32
302
GRIDFORMAT
  1
GRIDFORMAT_BEGIN
 90
        0
 91
        1
 62
     0
 92
       -2
340
14
 93
        0
 40
0.045
309
GRIDFORMAT_END
309
TABLEFORMAT_END
  1
CELLSTYLE_BEGIN
 90
        1
 91
        1
300
_TITLE
309
CELLSTYLE_END
300
CELLSTYLE
  1
TABLEFORMAT_BEGIN
 90
        5
170
     1
 91
        0
 92
        0
 62
   257
 93
        1
300
CONTENTFORMAT
  1
CONTENTFORMAT_BEGIN
 90
        0
 91
        0
 92
        4
 93
        0
300

 40
0.0
140
1.0
 94
        5
 62
     0
340
11
144
4.5
309
CONTENTFORMAT_END
171
     1
301
MARGIN
  1
CELLMARGIN_BEGIN
 40
1.5
 40
1.5
 40
1.5
 40
1.5
 40
1.5
 40
1.5
309
CELLMARGIN_END
 94
        6
 95
        1
302
GRIDFORMAT
  1
GRIDFORMAT_BEGIN
 90
        0
 91
        1
 62
     0
 92
       -2
340
14
 93
        0
 40
0.045
309
GRIDFORMAT_END
 95
        2
302
GRIDFORMAT
  1
GRIDFORMAT_BEGIN
 90
        0
 91
        1
 62
     0
 92
       -2
340
14
 93
        0
 40
0.045
309
GRIDFORMAT_END
 95
        4
302
GRIDFORMAT
  1
GRIDFORMAT_BEGIN
 90
        0
 91
        1
 62
     0
 92
       -2
340
14
 93
        0
 40
0.045
309
GRIDFORMAT_END
 95
        8
302
GRIDFORMAT
  1
GRIDFORMAT_BEGIN
 90
        0
 91
        1
 62
     0
 92
       -2
340
14
 93
        0
 40
0.045
309
GRIDFORMAT_END
 95
       16
302
GRIDFORMAT
  1
GRIDFORMAT_BEGIN
 90
        0
 91
        1
 62
     0
 92
       -2
340
14
 93
        0
 40
0.045
309
GRIDFORMAT_END
 95
       32
302
GRIDFORMAT
  1
GRIDFORMAT_BEGIN
 90
        0
 91
        1
 62
     0
 92
       -2
340
14
 93
        0
 40
0.045
309
GRIDFORMAT_END
309
TABLEFORMAT_END
  1
CELLSTYLE_BEGIN
 90
        2
 91
        1
300
_HEADER
309
CELLSTYLE_END
300
CELLSTYLE
  1
TABLEFORMAT_BEGIN
 90
        5
170
     1
 91
        0
 92
        0
 62
   257
 93
        1
300
CONTENTFORMAT
  1
CONTENTFORMAT_BEGIN
 90
        0
 91
        0
 92
        4
 93
        0
300

 40
0.0
140
1.0
 94
        2
 62
     0
340
11
144
4.5
309
CONTENTFORMAT_END
171
     1
301
MARGIN
  1
CELLMARGIN_BEGIN
 40
1.5
 40
1.5
 40
1.5
 40
1.5
 40
1.5
 40
1.5
309
CELLMARGIN_END
 94
        6
 95
        1
302
GRIDFORMAT
  1
GRIDFORMAT_BEGIN
 90
        0
 91
        1
 62
     0
 92
       -2
340
14
 93
        0
 40
0.045
309
GRIDFORMAT_END
 95
        2
302
GRIDFORMAT
  1
GRIDFORMAT_BEGIN
 90
        0
 91
        1
 62
     0
 92
       -2
340
14
 93
        0
 40
0.045
309
GRIDFORMAT_END
 95
        4
302
GRIDFORMAT
  1
GRIDFORMAT_BEGIN
 90
        0
 91
        1
 62
     0
 92
       -2
340
14
 93
        0
 40
0.045
309
GRIDFORMAT_END
 95
        8
302
GRIDFORMAT
  1
GRIDFORMAT_BEGIN
 90
        0
 91
        1
 62
     0
 92
       -2
340
14
 93
        0
 40
0.045
309
GRIDFORMAT_END
 95
       16
302
GRIDFORMAT
  1
GRIDFORMAT_BEGIN
 90
        0
 91
        1
 62
     0
 92
       -2
340
14
 93
        0
 40
0.045
309
GRIDFORMAT_END
 95
       32
302
GRIDFORMAT
  1
GRIDFORMAT_BEGIN
 90
        0
 91
        1
 62
     0
 92
       -2
340
14
 93
        0
 40
0.045
309
GRIDFORMAT_END
309
TABLEFORMAT_END
  1
CELLSTYLE_BEGIN
 90
        3
 91
        2
300
_DATA
309
CELLSTYLE_END
  0
ENDSEC
  0
EOF