0
SECTION
  2
HEADER
  9
$ACADVER
  1
AC1027
  9
$ACADMAINTVER
 70
     8
  9
$DWGCODEPAGE
  3
ANSI_1252
  9
$REQUIREDVERSIONS
160
                 0
  9
$COMMENTS
  1
File was created by Cadenas
  9
$CUSTOMPROPERTYTAG
  1
NN
  9
$CUSTOMPROPERTY
  1
Set Screw Four-Bolt Flange Metric Bore
  9
$CUSTOMPROPERTYTAG
  1
NT
  9
$CUSTOMPROPERTY
  1
SC 4 Bolt Flange Bearings -(Normal Duty)
  9
$CUSTOMPROPERTYTAG
  1
NB
  9
$CUSTOMPROPERTY
  1
125892
  9
$CUSTOMPROPERTYTAG
  1
NBSYN
  9
$CUSTOMPROPERTY
  1
$PN.
  9
$CUSTOMPROPERTYTAG
  1
LINA
  9
$CUSTOMPROPERTY
  1
125892
  9
$CUSTOMPROPERTYTAG
  1
SERIES
  9
$CUSTOMPROPERTY
  1
210
  9
$CUSTOMPROPERTYTAG
  1
SS
  9
$CUSTOMPROPERTY
  1
50
  9
$CUSTOMPROPERTYTAG
  1
PN
  9
$CUSTOMPROPERTY
  1
125892
  9
$CUSTOMPROPERTYTAG
  1
DESCRIPTION
  9
$CUSTOMPROPERTY
  1
F4B-SC-50M
  9
$CUSTOMPROPERTYTAG
  1
WEIGHT
  9
$CUSTOMPROPERTY
  1
3.0
  9
$CUSTOMPROPERTYTAG
  1
LF
  9
$CUSTOMPROPERTY
  1
RE-LUBE
  9
$CUSTOMPROPERTYTAG
  1
A
  9
$CUSTOMPROPERTY
  1
49.3
  9
$CUSTOMPROPERTYTAG
  1
B
  9
$CUSTOMPROPERTY
  1
143.0
  9
$CUSTOMPROPERTYTAG
  1
C
  9
$CUSTOMPROPERTY
  1
51.3
  9
$CUSTOMPROPERTYTAG
  1
D
  9
$CUSTOMPROPERTY
  1
111.3
  9
$CUSTOMPROPERTYTAG
  1
F
  9
$CUSTOMPROPERTY
  1
M16
  9
$CUSTOMPROPERTYTAG
  1
H
  9
$CUSTOMPROPERTY
  1
16.0
  9
$CUSTOMPROPERTYTAG
  1
J
  9
$CUSTOMPROPERTY
  1
14.0
  9
$CUSTOMPROPERTYTAG
  1
L
  9
$CUSTOMPROPERTY
  1
61.7
  9
$CUSTOMPROPERTYTAG
  1
N
  9
$CUSTOMPROPERTY
  1
73.2
  9
$CUSTOMPROPERTYTAG
  1
COMPANY
  9
$CUSTOMPROPERTY
  1
baldor
  9
$INSBASE
 10
0.0
 20
0.0
 30
0.0
  9
$EXTMIN
 10
1.000000000000000E+20
 20
1.000000000000000E+20
 30
1.000000000000000E+20
  9
$EXTMAX
 10
-1.000000000000000E+20
 20
-1.000000000000000E+20
 30
-1.000000000000000E+20
  9
$LIMMIN
 10
0.0
 20
0.0
  9
$LIMMAX
 10
420.0
 20
297.0
  9
$ORTHOMODE
 70
     0
  9
$REGENMODE
 70
     1
  9
$FILLMODE
 70
     1
  9
$QTEXTMODE
 70
     0
  9
$MIRRTEXT
 70
     1
  9
$LTSCALE
 40
1.0
  9
$ATTMODE
 70
     1
  9
$TEXTSIZE
 40
2.5
  9
$TRACEWID
 40
1.0
  9
$TEXTSTYLE
  7
Standard
  9
$CLAYER
  8
0
  9
$CELTYPE
  6
ByLayer
  9
$CECOLOR
 62
   256
  9
$CELTSCALE
 40
1.0
  9
$DISPSILH
 70
     0
  9
$DIMSCALE
 40
1.0
  9
$DIMASZ
 40
2.5
  9
$DIMEXO
 40
0.625
  9
$DIMDLI
 40
3.75
  9
$DIMRND
 40
0.0
  9
$DIMDLE
 40
0.0
  9
$DIMEXE
 40
1.25
  9
$DIMTP
 40
0.0
  9
$DIMTM
 40
0.0
  9
$DIMTXT
 40
2.5
  9
$DIMCEN
 40
2.5
  9
$DIMTSZ
 40
0.0
  9
$DIMTOL
 70
     0
  9
$DIMLIM
 70
     0
  9
$DIMTIH
 70
     0
  9
$DIMTOH
 70
     0
  9
$DIMSE1
 70
     0
  9
$DIMSE2
 70
     0
  9
$DIMTAD
 70
     1
  9
$DIMZIN
 70
     8
  9
$DIMBLK
  1

  9
$DIMASO
 70
     1
  9
$DIMSHO
 70
     1
  9
$DIMPOST
  1

  9
$DIMAPOST
  1

  9
$DIMALT
 70
     0
  9
$DIMALTD
 70
     3
  9
$DIMALTF
 40
0.03937007874016
  9
$DIMLFAC
 40
1.0
  9
$DIMTOFL
 70
     1
  9
$DIMTVP
 40
0.0
  9
$DIMTIX
 70
     0
  9
$DIMSOXD
 70
     0
  9
$DIMSAH
 70
     0
  9
$DIMBLK1
  1

  9
$DIMBLK2
  1

  9
$DIMSTYLE
  2
ISO-25
  9
$DIMCLRD
 70
     0
  9
$DIMCLRE
 70
     0
  9
$DIMCLRT
 70
     0
  9
$DIMTFAC
 40
1.0
  9
$DIMGAP
 40
0.625
  9
$DIMJUST
 70
     0
  9
$DIMSD1
 70
     0
  9
$DIMSD2
 70
     0
  9
$DIMTOLJ
 70
     0
  9
$DIMTZIN
 70
     8
  9
$DIMALTZ
 70
     0
  9
$DIMALTTZ
 70
     0
  9
$DIMUPT
 70
     0
  9
$DIMDEC
 70
     2
  9
$DIMTDEC
 70
     2
  9
$DIMALTU
 70
     2
  9
$DIMALTTD
 70
     3
  9
$DIMTXSTY
  7
Standard
  9
$DIMAUNIT
 70
     0
  9
$DIMADEC
 70
     0
  9
$DIMALTRND
 40
0.0
  9
$DIMAZIN
 70
     0
  9
$DIMDSEP
 70
    44
  9
$DIMATFIT
 70
     3
  9
$DIMFRAC
 70
     0
  9
$DIMLDRBLK
  1

  9
$DIMLUNIT
 70
     2
  9
$DIMLWD
 70
    -2
  9
$DIMLWE
 70
    -2
  9
$DIMTMOVE
 70
     0
  9
$DIMFXL
 40
1.0
  9
$DIMFXLON
 70
     0
  9
$DIMJOGANG
 40
0.7853981633974483
  9
$DIMTFILL
 70
     0
  9
$DIMTFILLCLR
 70
     0
  9
$DIMARCSYM
 70
     0
  9
$DIMLTYPE
  6

  9
$DIMLTEX1
  6

  9
$DIMLTEX2
  6

  9
$DIMTXTDIRECTION
 70
     0
  9
$LUNITS
 70
     2
  9
$LUPREC
 70
     4
  9
$SKETCHINC
 40
1.0
  9
$FILLETRAD
 40
10.0
  9
$AUNITS
 70
     0
  9
$AUPREC
 70
     0
  9
$MENU
  1
.
  9
$ELEVATION
 40
0.0
  9
$PELEVATION
 40
0.0
  9
$THICKNESS
 40
0.0
  9
$LIMCHECK
 70
     0
  9
$CHAMFERA
 40
0.0
  9
$CHAMFERB
 40
0.0
  9
$CHAMFERC
 40
0.0
  9
$CHAMFERD
 40
0.0
  9
$SKPOLY
 70
     0
  9
$TDCREATE
 40
2458168.987413889
  9
$TDUCREATE
 40
2458168.945747222
  9
$TDUPDATE
 40
2458168.987413889
  9
$TDUUPDATE
 40
2458168.945747222
  9
$TDINDWG
 40
0.0000000116
  9
$TDUSRTIMER
 40
0.0000000116
  9
$USRTIMER
 70
     1
  9
$ANGBASE
 50
0.0
  9
$ANGDIR
 70
     0
  9
$PDMODE
 70
     0
  9
$PDSIZE
 40
0.0
  9
$PLINEWID
 40
0.0
  9
$SPLFRAME
 70
     0
  9
$SPLINETYPE
 70
     6
  9
$SPLINESEGS
 70
     8
  9
$HANDSEED
  5
172
  9
$SURFTAB1
 70
     6
  9
$SURFTAB2
 70
     6
  9
$SURFTYPE
 70
     6
  9
$SURFU
 70
     6
  9
$SURFV
 70
     6
  9
$UCSBASE
  2

  9
$UCSNAME
  2

  9
$UCSORG
 10
0.0
 20
0.0
 30
0.0
  9
$UCSXDIR
 10
1.0
 20
0.0
 30
0.0
  9
$UCSYDIR
 10
0.0
 20
1.0
 30
0.0
  9
$UCSORTHOREF
  2

  9
$UCSORTHOVIEW
 70
     0
  9
$UCSORGTOP
 10
0.0
 20
0.0
 30
0.0
  9
$UCSORGBOTTOM
 10
0.0
 20
0.0
 30
0.0
  9
$UCSORGLEFT
 10
0.0
 20
0.0
 30
0.0
  9
$UCSORGRIGHT
 10
0.0
 20
0.0
 30
0.0
  9
$UCSORGFRONT
 10
0.0
 20
0.0
 30
0.0
  9
$UCSORGBACK
 10
0.0
 20
0.0
 30
0.0
  9
$PUCSBASE
  2

  9
$PUCSNAME
  2

  9
$PUCSORG
 10
0.0
 20
0.0
 30
0.0
  9
$PUCSXDIR
 10
1.0
 20
0.0
 30
0.0
  9
$PUCSYDIR
 10
0.0
 20
1.0
 30
0.0
  9
$PUCSORTHOREF
  2

  9
$PUCSORTHOVIEW
 70
     0
  9
$PUCSORGTOP
 10
0.0
 20
0.0
 30
0.0
  9
$PUCSORGBOTTOM
 10
0.0
 20
0.0
 30
0.0
  9
$PUCSORGLEFT
 10
0.0
 20
0.0
 30
0.0
  9
$PUCSORGRIGHT
 10
0.0
 20
0.0
 30
0.0
  9
$PUCSORGFRONT
 10
0.0
 20
0.0
 30
0.0
  9
$PUCSORGBACK
 10
0.0
 20
0.0
 30
0.0
  9
$USERI1
 70
     0
  9
$USERI2
 70
     0
  9
$USERI3
 70
     0
  9
$USERI4
 70
     0
  9
$USERI5
 70
     0
  9
$USERR1
 40
0.0
  9
$USERR2
 40
0.0
  9
$USERR3
 40
0.0
  9
$USERR4
 40
0.0
  9
$USERR5
 40
0.0
  9
$WORLDVIEW
 70
     1
  9
$SHADEDGE
 70
     3
  9
$SHADEDIF
 70
    70
  9
$TILEMODE
 70
     1
  9
$MAXACTVP
 70
    64
  9
$PINSBASE
 10
0.0
 20
0.0
 30
0.0
  9
$PLIMCHECK
 70
     0
  9
$PEXTMIN
 10
1.000000000000000E+20
 20
1.000000000000000E+20
 30
1.000000000000000E+20
  9
$PEXTMAX
 10
-1.000000000000000E+20
 20
-1.000000000000000E+20
 30
-1.000000000000000E+20
  9
$PLIMMIN
 10
0.0
 20
0.0
  9
$PLIMMAX
 10
420.0
 20
297.0
  9
$UNITMODE
 70
     0
  9
$VISRETAIN
 70
     1
  9
$PLINEGEN
 70
     0
  9
$PSLTSCALE
 70
     1
  9
$TREEDEPTH
 70
  3020
  9
$CMLSTYLE
  2
Standard
  9
$CMLJUST
 70
     0
  9
$CMLSCALE
 40
20.0
  9
$PROXYGRAPHICS
 70
     1
  9
$MEASUREMENT
 70
     1
  9
$CELWEIGHT
370
    -1
  9
$ENDCAPS
280
     0
  9
$JOINSTYLE
280
     0
  9
$LWDISPLAY
290
     0
  9
$INSUNITS
 70
     4
  9
$HYPERLINKBASE
  1

  9
$STYLESHEET
  1

  9
$XEDIT
290
     1
  9
$CEPSNTYPE
380
     0
  9
$PSTYLEMODE
290
     1
  9
$FINGERPRINTGUID
  2
{A208C586-6EA6-44EA-BC0C-3733D1E80243}
  9
$VERSIONGUID
  2
{FAEB1C32-E019-11D5-929B-00C0DF256EC4}
  9
$EXTNAMES
290
     1
  9
$PSVPSCALE
 40
0.0
  9
$OLESTARTUP
290
     0
  9
$SORTENTS
280
   127
  9
$INDEXCTL
280
     0
  9
$HIDETEXT
280
     1
  9
$XCLIPFRAME
280
     2
  9
$HALOGAP
280
     0
  9
$OBSCOLOR
 70
   257
  9
$OBSLTYPE
280
     0
  9
$INTERSECTIONDISPLAY
280
     0
  9
$INTERSECTIONCOLOR
 70
   257
  9
$DIMASSOC
280
     2
  9
$PROJECTNAME
  1

  9
$CAMERADISPLAY
290
     0
  9
$LENSLENGTH
 40
50.0
  9
$CAMERAHEIGHT
 40
0.0
  9
$STEPSPERSEC
 40
2.0
  9
$STEPSIZE
 40
6.0
  9
$3DDWFPREC
 40
2.0
  9
$PSOLWIDTH
 40
5.0
  9
$PSOLHEIGHT
 40
80.0
  9
$LOFTANG1
 40
1.570796326794897
  9
$LOFTANG2
 40
1.570796326794897
  9
$LOFTMAG1
 40
0.0
  9
$LOFTMAG2
 40
0.0
  9
$LOFTPARAM
 70
     7
  9
$LOFTNORMALS
280
     1
  9
$LATITUDE
 40
37.795
  9
$LONGITUDE
 40
-122.394
  9
$NORTHDIRECTION
 40
0.0
  9
$TIMEZONE
 70
 -8000
  9
$LIGHTGLYPHDISPLAY
280
     1
  9
$TILEMODELIGHTSYNCH
280
     1
  9
$CMATERIAL
347
44
  9
$SOLIDHIST
280
     0
  9
$SHOWHIST
280
     1
  9
$DWFFRAME
280
     2
  9
$DGNFRAME
280
     2
  9
$REALWORLDSCALE
290
     1
  9
$INTERFERECOLOR
 62
   256
  9
$CSHADOW
280
     0
  9
$SHADOWPLANELOCATION
 40
0.0
  0
ENDSEC
  0
SECTION
  2
CLASSES
  0
CLASS
  1
ACDBDICTIONARYWDFLT
  2
AcDbDictionaryWithDefault
  3
ObjectDBX Classes
 90
        0
 91
        4
280
     0
281
     0
  0
CLASS
  1
VISUALSTYLE
  2
AcDbVisualStyle
  3
ObjectDBX Classes
 90
     4095
 91
        4
280
     0
281
     0
  0
CLASS
  1
MATERIAL
  2
AcDbMaterial
  3
ObjectDBX Classes
 90
     1153
 91
        4
280
     0
281
     0
  0
CLASS
  1
SCALE
  2
AcDbScale
  3
ObjectDBX Classes
 90
     1153
 91
        4
280
     0
281
     0
  0
CLASS
  1
TABLESTYLE
  2
AcDbTableStyle
  3
ObjectDBX Classes
 90
     4095
 91
        4
280
     0
281
     0
  0
CLASS
  1
MLEADERSTYLE
  2
AcDbMLeaderStyle
  3
ACDB_MLEADERSTYLE_CLASS
 90
     4095
 91
        4
280
     0
281
     0
  0
CLASS
  1
SUN
  2
AcDbSun
  3
SCENEOE
 90
     1153
 91
        4
280
     0
281
     0
  0
CLASS
  1
DICTIONARYVAR
  2
AcDbDictionaryVar
  3
ObjectDBX Classes
 90
        0
 91
        4
280
     0
281
     0
  0
CLASS
  1
CELLSTYLEMAP
  2
AcDbCellStyleMap
  3
ObjectDBX Classes
 90
     1152
 91
        4
280
     0
281
     0
  0
ENDSEC
  0
SECTION
  2
TABLES
  0
TABLE
  2
VPORT
  5
8
330
0
100
AcDbSymbolTable
 70
     1
  0
VPORT
  5
29
330
8
100
AcDbSymbolTableRecord
100
AcDbViewportTableRecord
  2
*Active
 70
     0
 10
0.0
 20
0.0
 11
1.0
 21
1.0
 12
0.0
 22
-25.95000000000002
 13
0.0
 23
0.0
 14
10.0
 24
10.0
 15
10.0
 25
10.0
 16
0.0
 26
0.0
 36
1.0
 17
0.0
 27
0.0
 37
0.0
 40
56.74259999999994
 41
2.570555455689379
 42
50.0
 43
0.0
 44
0.0
 50
0.0
 51
0.0
 71
     0
 72
   100
 73
     1
 74
     3
 75
     0
 76
     0
 77
     0
 78
     0
281
     0
 65
     1
110
0.0
120
0.0
130
0.0
111
1.0
121
0.0
131
0.0
112
0.0
122
1.0
132
0.0
 79
     0
146
0.0
348
2F
 60
     3
 61
     5
292
     1
282
     1
141
0.0
142
0.0
 63
   250
361
6D
  0
ENDTAB
  0
TABLE
  2
LTYPE
  5
5
330
0
100
AcDbSymbolTable
 70
     3
  0
LTYPE
  5
14
330
5
100
AcDbSymbolTableRecord
100
AcDbLinetypeTableRecord
  2
ByBlock
 70
     0
  3

 72
    65
 73
     0
 40
0.0
  0
LTYPE
  5
15
330
5
100
AcDbSymbolTableRecord
100
AcDbLinetypeTableRecord
  2
ByLayer
 70
     0
  3

 72
    65
 73
     0
 40
0.0
  0
LTYPE
  5
16
330
5
100
AcDbSymbolTableRecord
100
AcDbLinetypeTableRecord
  2
Continuous
 70
     0
  3
Solid line
 72
    65
 73
     0
 40
0.0
  0
LTYPE
  5
94
330
5
100
AcDbSymbolTableRecord
100
AcDbLinetypeTableRecord
  2
Dashed
 70
     0
  3

 72
    65
 73
     2
 40
2.0
 49
1.0
 74
     0
 49
-1.0
 74
     0
  0
LTYPE
  5
9B
330
5
100
AcDbSymbolTableRecord
100
AcDbLinetypeTableRecord
  2
Center
 70
     0
  3

 72
    65
 73
     4
 40
1.5
 49
0.45
 74
     0
 49
-0.5
 74
     0
 49
0.05
 74
     0
 49
-0.5
 74
     0
  0
ENDTAB
  0
TABLE
  2
LAYER
  5
2
330
0
100
AcDbSymbolTable
 70
     7
  0
LAYER
  5
10
330
2
100
AcDbSymbolTableRecord
100
AcDbLayerTableRecord
  2
0
 70
     0
 62
     7
  6
Continuous
370
    -3
390
F
347
46
348
0
  0
LAYER
  5
72
330
2
100
AcDbSymbolTableRecord
100
AcDbLayerTableRecord
  2
AM_6
 70
     0
 62
    -2
  6
Continuous
370
    35
390
F
347
46
348
0
  0
LAYER
  5
95
330
2
100
AcDbSymbolTableRecord
100
AcDbLayerTableRecord
  2
AM_9
 70
     0
 62
     6
  6
Dashed
370
    25
390
F
347
46
348
0
  0
LAYER
  5
9C
330
2
100
AcDbSymbolTableRecord
100
AcDbLayerTableRecord
  2
AM_7
 70
     0
 62
     7
  6
Center
370
    25
390
F
347
46
348
0
  0
LAYER
  5
9E
330
2
100
AcDbSymbolTableRecord
100
AcDbLayerTableRecord
  2
AM_4
 70
     0
 62
     7
  6
Continuous
370
    50
390
F
347
46
348
0
  0
LAYER
  5
A9
330
2
100
AcDbSymbolTableRecord
100
AcDbLayerTableRecord
  2
AM_5
 70
     0
 62
     3
  6
Continuous
370
    25
390
F
347
46
348
0
  0
LAYER
  5
165
330
2
100
AcDbSymbolTableRecord
100
AcDbLayerTableRecord
  2
ConnectionPoints
 70
     0
 62
     7
  6
Continuous
370
    50
390
F
347
46
348
0
  0
ENDTAB
  0
TABLE
  2
STYLE
  5
3
330
0
100
AcDbSymbolTable
 70
     1
  0
STYLE
  5
11
330
3
100
AcDbSymbolTableRecord
100
AcDbTextStyleTableRecord
  2
Standard
 70
     0
 40
0.0
 41
1.0
 50
0.0
 71
     0
 42
2.5
  3
txt
  4

  0
ENDTAB
  0
TABLE
  2
VIEW
  5
6
330
0
100
AcDbSymbolTable
 70
     0
  0
ENDTAB
  0
TABLE
  2
UCS
  5
7
330
0
100
AcDbSymbolTable
 70
     0
  0
ENDTAB
  0
TABLE
  2
APPID
  5
9
330
0
100
AcDbSymbolTable
 70
     1
  0
APPID
  5
12
330
9
100
AcDbSymbolTableRecord
100
AcDbRegAppTableRecord
  2
ACAD
 70
     0
  0
ENDTAB
  0
TABLE
  2
DIMSTYLE
  5
A
330
0
100
AcDbSymbolTable
 70
     1
100
AcDbDimStyleTable
  0
DIMSTYLE
105
27
330
A
100
AcDbSymbolTableRecord
100
AcDbDimStyleTableRecord
  2
ISO-25
 70
     0
 41
2.5
 42
0.625
 43
3.75
 44
1.25
 73
     0
 74
     0
 77
     1
 78
     8
140
2.5
141
2.5
143
0.03937007874016
147
0.625
171
     3
172
     1
178
     0
271
     2
272
     2
274
     3
278
    44
283
     0
284
     8
340
11
  0
ENDTAB
  0
TABLE
  2
BLOCK_RECORD
  5
1
330
0
100
AcDbSymbolTable
 70
     5
  0
BLOCK_RECORD
  5
1F
330
1
100
AcDbSymbolTableRecord
100
AcDbBlockTableRecord
  2
*Model_Space
340
22
 70
     0
280
     1
281
     0
  0
BLOCK_RECORD
  5
1B
330
1
100
AcDbSymbolTableRecord
100
AcDbBlockTableRecord
  2
*Paper_Space
340
1E
 70
     0
280
     1
281
     0
  0
BLOCK_RECORD
  5
23
330
1
100
AcDbSymbolTableRecord
100
AcDbBlockTableRecord
  2
*Paper_Space0
340
26
 70
     0
280
     1
281
     0
  0
BLOCK_RECORD
  5
6E
330
1
100
AcDbSymbolTableRecord
100
AcDbBlockTableRecord
  2
1_125892_4
340
0
102
{BLKREFS
331
6F
102
}
 70
     0
280
     1
281
     0
  0
BLOCK_RECORD
  5
88
330
1
100
AcDbSymbolTableRecord
100
AcDbBlockTableRecord
  2
2_405015E_Metric_0_in_125892_4
340
0
102
{BLKREFS
331
89
102
}
 70
     0
280
     1
281
     0
  0
BLOCK_RECORD
  5
AD
330
1
100
AcDbSymbolTableRecord
100
AcDbBlockTableRecord
  2
3_125814_0_in_125892_4
340
0
102
{BLKREFS
331
AE
102
}
 70
     0
280
     1
281
     0
  0
BLOCK_RECORD
  5
10A
330
1
100
AcDbSymbolTableRecord
100
AcDbBlockTableRecord
  2
4_125892H_0_in_125892_4
340
0
102
{BLKREFS
331
10B
102
}
 70
     0
280
     1
281
     0
  0
ENDTAB
  0
ENDSEC
  0
SECTION
  2
BLOCKS
  0
BLOCK
  5
20
330
1F
100
AcDbEntity
  8
0
100
AcDbBlockBegin
  2
*Model_Space
 70
     0
 10
0.0
 20
0.0
 30
0.0
  3
*Model_Space
  1

  0
ENDBLK
  5
21
330
1F
100
AcDbEntity
  8
0
100
AcDbBlockEnd
  0
BLOCK
  5
1C
330
1B
100
AcDbEntity
 67
     1
  8
0
100
AcDbBlockBegin
  2
*Paper_Space
 70
     0
 10
0.0
 20
0.0
 30
0.0
  3
*Paper_Space
  1

  0
ENDBLK
  5
1D
330
1B
100
AcDbEntity
 67
     1
  8
0
100
AcDbBlockEnd
  0
BLOCK
  5
24
330
23
100
AcDbEntity
  8
0
100
AcDbBlockBegin
  2
*Paper_Space0
 70
     0
 10
0.0
 20
0.0
 30
0.0
  3
*Paper_Space0
  1

  0
ENDBLK
  5
25
330
23
100
AcDbEntity
  8
0
100
AcDbBlockEnd
  0
BLOCK
  5
70
330
6E
100
AcDbEntity
  8
0
100
AcDbBlockBegin
  2
1_125892_4
 70
     2
 10
0.0
 20
0.0
 30
0.0
  3
1_125892_4
  1

  0
ATTDEF
  5
73
330
6E
100
AcDbEntity
  8
AM_6
100
AcDbText
 10
76.50000000000001
 20
1.865
 30
0.0
 40
0.5
  1
Set Screw Four-Bolt Flange Metric Bore
100
AcDbAttributeDefinition
  3

  2
NN
 70
     8
280
     0
  0
ATTDEF
  5
74
330
6E
100
AcDbEntity
  8
AM_6
100
AcDbText
 10
76.50000000000001
 20
1.365
 30
0.0
 40
0.5
  1
SC 4 Bolt Flange Bearings -(Normal Duty)
100
AcDbAttributeDefinition
  3

  2
NT
 70
     8
280
     0
  0
ATTDEF
  5
75
330
6E
100
AcDbEntity
  8
AM_6
100
AcDbText
 10
76.50000000000001
 20
0.865
 30
0.0
 40
0.5
  1
125892
100
AcDbAttributeDefinition
  3

  2
NB
 70
     8
280
     0
  0
ATTDEF
  5
76
330
6E
100
AcDbEntity
  8
AM_6
100
AcDbText
 10
76.50000000000001
 20
0.365
 30
0.0
 40
0.5
  1
$PN.
100
AcDbAttributeDefinition
  3

  2
NBSYN
 70
     8
280
     0
  0
ATTDEF
  5
77
330
6E
100
AcDbEntity
  8
AM_6
100
AcDbText
 10
76.50000000000001
 20
-0.135
 30
0.0
 40
0.5
  1
125892
100
AcDbAttributeDefinition
  3

  2
LINA
 70
     8
280
     0
  0
ATTDEF
  5
78
330
6E
100
AcDbEntity
  8
AM_6
100
AcDbText
 10
76.50000000000001
 20
-0.635
 30
0.0
 40
0.5
  1
210
100
AcDbAttributeDefinition
  3

  2
SERIES
 70
     8
280
     0
  0
ATTDEF
  5
79
330
6E
100
AcDbEntity
  8
AM_6
100
AcDbText
 10
76.50000000000001
 20
-1.135
 30
0.0
 40
0.5
  1
50
100
AcDbAttributeDefinition
  3

  2
SS
 70
     8
280
     0
  0
ATTDEF
  5
7A
330
6E
100
AcDbEntity
  8
AM_6
100
AcDbText
 10
76.50000000000001
 20
-1.635
 30
0.0
 40
0.5
  1
125892
100
AcDbAttributeDefinition
  3

  2
PN
 70
     8
280
     0
  0
ATTDEF
  5
7B
330
6E
100
AcDbEntity
  8
AM_6
100
AcDbText
 10
76.50000000000001
 20
-2.135
 30
0.0
 40
0.5
  1
F4B-SC-50M
100
AcDbAttributeDefinition
  3

  2
DESCRIPTION
 70
     8
280
     0
  0
ATTDEF
  5
7C
330
6E
100
AcDbEntity
  8
AM_6
100
AcDbText
 10
76.50000000000001
 20
-2.635
 30
0.0
 40
0.5
  1
3.0
100
AcDbAttributeDefinition
  3

  2
WEIGHT
 70
     8
280
     0
  0
ATTDEF
  5
7D
330
6E
100
AcDbEntity
  8
AM_6
100
AcDbText
 10
76.50000000000001
 20
-3.135
 30
0.0
 40
0.5
  1
RE-LUBE
100
AcDbAttributeDefinition
  3

  2
LF
 70
     8
280
     0
  0
ATTDEF
  5
7E
330
6E
100
AcDbEntity
  8
AM_6
100
AcDbText
 10
76.50000000000001
 20
-3.635
 30
0.0
 40
0.5
  1
49.3
100
AcDbAttributeDefinition
  3

  2
A
 70
     8
280
     0
  0
ATTDEF
  5
7F
330
6E
100
AcDbEntity
  8
AM_6
100
AcDbText
 10
76.50000000000001
 20
-4.135
 30
0.0
 40
0.5
  1
143.0
100
AcDbAttributeDefinition
  3

  2
B
 70
     8
280
     0
  0
ATTDEF
  5
80
330
6E
100
AcDbEntity
  8
AM_6
100
AcDbText
 10
76.50000000000001
 20
-4.635
 30
0.0
 40
0.5
  1
51.3
100
AcDbAttributeDefinition
  3

  2
C
 70
     8
280
     0
  0
ATTDEF
  5
81
330
6E
100
AcDbEntity
  8
AM_6
100
AcDbText
 10
76.50000000000001
 20
-5.135
 30
0.0
 40
0.5
  1
111.3
100
AcDbAttributeDefinition
  3

  2
D
 70
     8
280
     0
  0
ATTDEF
  5
82
330
6E
100
AcDbEntity
  8
AM_6
100
AcDbText
 10
76.50000000000001
 20
-5.635
 30
0.0
 40
0.5
  1
M16
100
AcDbAttributeDefinition
  3

  2
F
 70
     8
280
     0
  0
ATTDEF
  5
83
330
6E
100
AcDbEntity
  8
AM_6
100
AcDbText
 10
76.50000000000001
 20
-6.135
 30
0.0
 40
0.5
  1
16.0
100
AcDbAttributeDefinition
  3

  2
H
 70
     8
280
     0
  0
ATTDEF
  5
84
330
6E
100
AcDbEntity
  8
AM_6
100
AcDbText
 10
76.50000000000001
 20
-6.635
 30
0.0
 40
0.5
  1
14.0
100
AcDbAttributeDefinition
  3

  2
J
 70
     8
280
     0
  0
ATTDEF
  5
85
330
6E
100
AcDbEntity
  8
AM_6
100
AcDbText
 10
76.50000000000001
 20
-7.135
 30
0.0
 40
0.5
  1
61.7
100
AcDbAttributeDefinition
  3

  2
L
 70
     8
280
     0
  0
ATTDEF
  5
86
330
6E
100
AcDbEntity
  8
AM_6
100
AcDbText
 10
76.50000000000001
 20
-7.635
 30
0.0
 40
0.5
  1
73.2
100
AcDbAttributeDefinition
  3

  2
N
 70
     8
280
     0
  0
ATTDEF
  5
87
330
6E
100
AcDbEntity
  8
AM_6
100
AcDbText
 10
76.50000000000001
 20
-8.135
 30
0.0
 40
0.5
  1
baldor
100
AcDbAttributeDefinition
  3

  2
COMPANY
 70
     8
280
     0
  0
INSERT
  5
89
330
6E
100
AcDbEntity
  8
0
100
AcDbBlockReference
  2
2_405015E_Metric_0_in_125892_4
 10
0.0
 20
0.0
 30
0.0
  0
INSERT
  5
AE
330
6E
100
AcDbEntity
  8
0
100
AcDbBlockReference
  2
3_125814_0_in_125892_4
 10
0.0
 20
0.0
 30
0.0
  0
INSERT
  5
10B
330
6E
100
AcDbEntity
  8
0
100
AcDbBlockReference
  2
4_125892H_0_in_125892_4
 10
0.0
 20
0.0
 30
0.0
  0
ENDBLK
  5
71
330
6E
100
AcDbEntity
  8
0
100
AcDbBlockEnd
  0
BLOCK
  5
8A
330
88
100
AcDbEntity
  8
0
100
AcDbBlockBegin
  2
2_405015E_Metric_0_in_125892_4
 70
     2
 10
0.0
 20
0.0
 30
0.0
  3
2_405015E_Metric_0_in_125892_4
  1

  0
ATTDEF
  5
8C
330
88
100
AcDbEntity
  8
AM_6
100
AcDbText
 10
10.77350269189626
 20
-19.10999999999999
 30
0.0
 40
0.5
  1
405015E -Metric
100
AcDbAttributeDefinition
  3

  2
NN
 70
     8
280
     0
  0
ATTDEF
  5
8D
330
88
100
AcDbEntity
  8
AM_6
100
AcDbText
 10
10.77350269189626
 20
-19.60999999999999
 30
0.0
 40
0.5
  1
Grease Fitting
100
AcDbAttributeDefinition
  3

  2
NT
 70
     8
280
     0
  0
ATTDEF
  5
8E
330
88
100
AcDbEntity
  8
AM_6
100
AcDbText
 10
10.77350269189626
 20
-20.10999999999999
 30
0.0
 40
0.5
  1
405015E-Metric
100
AcDbAttributeDefinition
  3

  2
NB
 70
     8
280
     0
  0
ATTDEF
  5
8F
330
88
100
AcDbEntity
  8
AM_6
100
AcDbText
 10
10.77350269189626
 20
-20.60999999999999
 30
0.0
 40
0.5
  1
$MN.-Metric
100
AcDbAttributeDefinition
  3

  2
NBSYN
 70
     8
280
     0
  0
ATTDEF
  5
90
330
88
100
AcDbEntity
  8
AM_6
100
AcDbText
 10
10.77350269189626
 20
-21.10999999999999
 30
0.0
 40
0.5
  1
405015E
100
AcDbAttributeDefinition
  3

  2
LINA
 70
     8
280
     0
  0
ATTDEF
  5
91
330
88
100
AcDbEntity
  8
AM_6
100
AcDbText
 10
10.77350269189626
 20
-21.60999999999999
 30
0.0
 40
0.5
  1
405015E
100
AcDbAttributeDefinition
  3

  2
MN
 70
     8
280
     0
  0
ATTDEF
  5
92
330
88
100
AcDbEntity
  8
AM_6
100
AcDbText
 10
10.77350269189626
 20
-22.10999999999999
 30
0.0
 40
0.5
  1
1/8 x 27PTF
100
AcDbAttributeDefinition
  3

  2
T
 70
     8
280
     0
  0
ATTDEF
  5
93
330
88
100
AcDbEntity
  8
AM_6
100
AcDbText
 10
10.77350269189626
 20
-22.60999999999999
 30
0.0
 40
0.5
  1
baldor
100
AcDbAttributeDefinition
  3

  2
COMPANY
 70
     8
280
     0
  0
CIRCLE
  5
96
330
88
100
AcDbEntity
  8
AM_9
100
AcDbCircle
 10
0.0
 20
-24.10999999999999
 30
0.0
 40
4.15799375318352
  0
CIRCLE
  5
97
330
88
100
AcDbEntity
  8
AM_9
100
AcDbCircle
 10
0.0
 20
-24.10999999999999
 30
0.0
 40
4.758029456511771
  0
CIRCLE
  5
98
330
88
100
AcDbEntity
  8
AM_9
100
AcDbCircle
 10
0.0
 20
-24.10999999999999
 30
0.0
 40
4.949631665534965
  0
CIRCLE
  5
99
330
88
100
AcDbEntity
  8
AM_9
100
AcDbCircle
 10
0.0
 20
-24.10999999999999
 30
0.0
 40
2.982994982562511
  0
CIRCLE
  5
9A
330
88
100
AcDbEntity
  8
AM_9
100
AcDbCircle
 10
0.0
 20
-24.10999999999999
 30
0.0
 40
2.675
  0
LINE
  5
9D
330
88
100
AcDbEntity
  8
AM_7
100
AcDbLine
 10
-5.249999999999988
 20
-24.11000000000002
 30
0.0
 11
5.249999999999954
 21
-24.11000000000002
 31
0.0
  0
LINE
  5
9F
330
88
100
AcDbEntity
  8
AM_4
100
AcDbLine
 10
2.886751345948128
 20
-29.10999999999999
 30
0.0
 11
5.773502691896257
 21
-24.10999999999999
 31
0.0
  0
LINE
  5
A0
330
88
100
AcDbEntity
  8
AM_4
100
AcDbLine
 10
-2.886751345948129
 20
-29.10999999999999
 30
0.0
 11
2.886751345948128
 21
-29.10999999999999
 31
0.0
  0
LINE
  5
A1
330
88
100
AcDbEntity
  8
AM_4
100
AcDbLine
 10
-5.773502691896257
 20
-24.10999999999999
 30
0.0
 11
-2.886751345948129
 21
-29.10999999999999
 31
0.0
  0
LINE
  5
A2
330
88
100
AcDbEntity
  8
AM_4
100
AcDbLine
 10
2.886751345948129
 20
-19.10999999999999
 30
0.0
 11
-2.886751345948128
 21
-19.10999999999999
 31
0.0
  0
LINE
  5
A3
330
88
100
AcDbEntity
  8
AM_4
100
AcDbLine
 10
-2.886751345948128
 20
-19.10999999999999
 30
0.0
 11
-5.773502691896257
 21
-24.10999999999999
 31
0.0
  0
LINE
  5
A4
330
88
100
AcDbEntity
  8
AM_4
100
AcDbLine
 10
5.773502691896257
 20
-24.10999999999999
 30
0.0
 11
2.886751345948129
 21
-19.10999999999999
 31
0.0
  0
CIRCLE
  5
A5
330
88
100
AcDbEntity
  8
AM_4
100
AcDbCircle
 10
0.0
 20
-24.10999999999999
 30
0.0
 40
4.750000000000001
  0
CIRCLE
  5
A6
330
88
100
AcDbEntity
  8
AM_4
100
AcDbCircle
 10
0.0
 20
-24.10999999999999
 30
0.0
 40
3.607583894601114
  0
CIRCLE
  5
A7
330
88
100
AcDbEntity
  8
AM_4
100
AcDbCircle
 10
0.0
 20
-24.10999999999999
 30
0.0
 40
3.175
  0
CIRCLE
  5
A8
330
88
100
AcDbEntity
  8
AM_4
100
AcDbCircle
 10
0.0
 20
-24.10999999999999
 30
0.0
 40
2.366947548329686
  0
ARC
  5
AA
330
88
100
AcDbEntity
  8
AM_5
100
AcDbCircle
 10
-0.0000000000000027
 20
-24.11000000000006
 30
0.0
 40
4.864000000000068
100
AcDbArc
 50
75.00000000000024
 51
104.9999999999997
  0
ARC
  5
AB
330
88
100
AcDbEntity
  8
AM_5
100
AcDbCircle
 10
0.0000000000000016
 20
-24.10999999999999
 30
0.0
 40
4.864000000000001
100
AcDbArc
 50
105.0
 51
44.99999999999998
  0
CIRCLE
  5
AC
330
88
100
AcDbEntity
  8
AM_4
100
AcDbCircle
 10
-0.0000000000000115
 20
-24.10999999999999
 30
0.0
 40
4.999999999999991
  0
ENDBLK
  5
8B
330
88
100
AcDbEntity
  8
0
100
AcDbBlockEnd
  0
BLOCK
  5
AF
330
AD
100
AcDbEntity
  8
0
100
AcDbBlockBegin
  2
3_125814_0_in_125892_4
 70
     2
 10
0.0
 20
0.0
 30
0.0
  3
3_125814_0_in_125892_4
  1

  0
ATTDEF
  5
B1
330
AD
100
AcDbEntity
  8
AM_6
100
AcDbText
 10
49.99121541260941
 20
-2.000000000000002
 30
0.0
 40
0.5
  1
Set Screw Insert Metric Bore - Stainless Steel
100
AcDbAttributeDefinition
  3

  2
NN
 70
     8
280
     0
  0
ATTDEF
  5
B2
330
AD
100
AcDbEntity
  8
AM_6
100
AcDbText
 10
49.99121541260941
 20
-2.500000000000002
 30
0.0
 40
0.5
  1
SC Bearing Insert -Metric
100
AcDbAttributeDefinition
  3

  2
NT
 70
     8
280
     0
  0
ATTDEF
  5
B3
330
AD
100
AcDbEntity
  8
AM_6
100
AcDbText
 10
49.99121541260941
 20
-3.000000000000002
 30
0.0
 40
0.5
  1
125814
100
AcDbAttributeDefinition
  3

  2
NB
 70
     8
280
     0
  0
ATTDEF
  5
B4
330
AD
100
AcDbEntity
  8
AM_6
100
AcDbText
 10
49.99121541260941
 20
-3.500000000000002
 30
0.0
 40
0.5
  1
$PN.
100
AcDbAttributeDefinition
  3

  2
NBSYN
 70
     8
280
     0
  0
ATTDEF
  5
B5
330
AD
100
AcDbEntity
  8
AM_6
100
AcDbText
 10
49.99121541260941
 20
-4.000000000000002
 30
0.0
 40
0.5
  1
125814
100
AcDbAttributeDefinition
  3

  2
LINA
 70
     8
280
     0
  0
ATTDEF
  5
B6
330
AD
100
AcDbEntity
  8
AM_6
100
AcDbText
 10
49.99121541260941
 20
-4.500000000000002
 30
0.0
 40
0.5
  1
210
100
AcDbAttributeDefinition
  3

  2
SERIES
 70
     8
280
     0
  0
ATTDEF
  5
B7
330
AD
100
AcDbEntity
  8
AM_6
100
AcDbText
 10
49.99121541260941
 20
-5.000000000000002
 30
0.0
 40
0.5
  1
50
100
AcDbAttributeDefinition
  3

  2
SS
 70
     8
280
     0
  0
ATTDEF
  5
B8
330
AD
100
AcDbEntity
  8
AM_6
100
AcDbText
 10
49.99121541260941
 20
-5.500000000000002
 30
0.0
 40
0.5
  1
125814
100
AcDbAttributeDefinition
  3

  2
PN
 70
     8
280
     0
  0
ATTDEF
  5
B9
330
AD
100
AcDbEntity
  8
AM_6
100
AcDbText
 10
49.99121541260941
 20
-6.000000000000002
 30
0.0
 40
0.5
  1
INS-SC-50
100
AcDbAttributeDefinition
  3

  2
DESCRIPTION
 70
     8
280
     0
  0
ATTDEF
  5
BA
330
AD
100
AcDbEntity
  8
AM_6
100
AcDbText
 10
49.99121541260941
 20
-6.500000000000002
 30
0.0
 40
0.5
  1
0.67
100
AcDbAttributeDefinition
  3

  2
WEIGHT
 70
     8
280
     0
  0
ATTDEF
  5
BB
330
AD
100
AcDbEntity
  8
AM_6
100
AcDbText
 10
49.99121541260941
 20
-7.000000000000002
 30
0.0
 40
0.5
  1
49.3
100
AcDbAttributeDefinition
  3

  2
A
 70
     8
280
     0
  0
ATTDEF
  5
BC
330
AD
100
AcDbEntity
  8
AM_6
100
AcDbText
 10
49.99121541260941
 20
-7.500000000000002
 30
0.0
 40
0.5
  1
22.1
100
AcDbAttributeDefinition
  3

  2
C
 70
     8
280
     0
  0
ATTDEF
  5
BD
330
AD
100
AcDbEntity
  8
AM_6
100
AcDbText
 10
49.99121541260941
 20
-8.000000000000002
 30
0.0
 40
0.5
  1
90
100
AcDbAttributeDefinition
  3

  2
D
 70
     8
280
     0
  0
ATTDEF
  5
BE
330
AD
100
AcDbEntity
  8
AM_6
100
AcDbText
 10
49.99121541260941
 20
-8.500000000000002
 30
0.0
 40
0.5
  1
6.4
100
AcDbAttributeDefinition
  3

  2
J
 70
     8
280
     0
  0
ATTDEF
  5
BF
330
AD
100
AcDbEntity
  8
AM_6
100
AcDbText
 10
49.99121541260941
 20
-9.000000000000002
 30
0.0
 40
0.5
  1
61.7
100
AcDbAttributeDefinition
  3

  2
L
 70
     8
280
     0
  0
ATTDEF
  5
C0
330
AD
100
AcDbEntity
  8
AM_6
100
AcDbText
 10
49.99121541260941
 20
-9.500000000000002
 30
0.0
 40
0.5
  1
M10 x 1.5
100
AcDbAttributeDefinition
  3

  2
N
 70
     8
280
     0
  0
ATTDEF
  5
C1
330
AD
100
AcDbEntity
  8
AM_6
100
AcDbText
 10
49.99121541260941
 20
-10.0
 30
0.0
 40
0.5
  1
19.1
100
AcDbAttributeDefinition
  3

  2
W
 70
     8
280
     0
  0
ATTDEF
  5
C2
330
AD
100
AcDbEntity
  8
AM_6
100
AcDbText
 10
49.99121541260941
 20
-10.5
 30
0.0
 40
0.5
  1
30.2
100
AcDbAttributeDefinition
  3

  2
Y
 70
     8
280
     0
  0
ATTDEF
  5
C3
330
AD
100
AcDbEntity
  8
AM_6
100
AcDbText
 10
49.99121541260941
 20
-11.0
 30
0.0
 40
0.5
  1
baldor
100
AcDbAttributeDefinition
  3

  2
COMPANY
 70
     8
280
     0
  0
LINE
  5
C4
330
AD
100
AcDbEntity
  8
AM_9
100
AcDbLine
 10
-47.5
 20
-14.49909090909091
 30
0.0
 11
-47.5
 21
-14.90090909090909
 31
0.0
  0
ARC
  5
C5
330
AD
100
AcDbEntity
  8
AM_9
100
AcDbCircle
 10
-45.49090909090911
 20
-14.9009090909091
 30
0.0
 40
2.009090909090894
100
AcDbArc
 50
180.0
 51
270.0
  0
ARC
  5
C6
330
AD
100
AcDbEntity
  8
AM_9
100
AcDbCircle
 10
-45.49090909090376
 20
-14.49909090909624
 30
0.0
 40
2.009090909096237
100
AcDbArc
 50
90.0
 51
180.0
  0
LINE
  5
C7
330
AD
100
AcDbEntity
  8
AM_9
100
AcDbLine
 10
-45.4909090909091
 20
-16.91
 30
0.0
 11
-44.69126132022674
 21
-16.91
 31
0.0
  0
LINE
  5
C8
330
AD
100
AcDbEntity
  8
AM_9
100
AcDbLine
 10
-43.6804835444733
 20
-12.49
 30
0.0
 11
-45.4909090909091
 21
-12.49
 31
0.0
  0
LINE
  5
C9
330
AD
100
AcDbEntity
  8
AM_9
100
AcDbLine
 10
-45.4909090909091
 20
-12.49
 30
0.0
 11
-45.4909090909091
 21
-16.91
 31
0.0
  0
LINE
  5
CA
330
AD
100
AcDbEntity
  8
AM_9
100
AcDbLine
 10
22.65556916135708
 20
-45.913
 30
0.0
 11
27.58992787792071
 21
-45.913
 31
0.0
  0
LINE
  5
CB
330
AD
100
AcDbEntity
  8
AM_9
100
AcDbLine
 10
27.58992787792071
 20
-37.537
 30
0.0
 11
22.65715160397221
 21
-37.537
 31
0.0
  0
LWPOLYLINE
  5
CC
330
AD
100
AcDbEntity
  8
AM_9
100
AcDbPolyline
 90
       21
 70
     0
 43
0.0
 10
22.65755202915317
 20
-45.91299998639877
 10
22.84697745068978
 20
-45.88800944542596
 10
23.11234352398952
 20
-45.75749039142871
 10
23.35651895568412
 20
-45.51054268300071
 10
23.56302586160189
 20
-45.16604219206332
 10
23.74048193228948
 20
-44.71533308590081
 10
23.88014327542942
 20
-44.18850880320384
 10
23.98820786881822
 20
-43.57513543413449
 10
24.05962370244267
 20
-42.92573974170463
 10
24.09948304212425
 20
-42.22161285746921
 10
24.10623664344415
 20
-41.53163379012984
 10
24.08110167327657
 20
-40.82716476848985
 10
24.02552716100509
 20
-40.17181297927356
 10
23.9354232116977
 20
-39.5420261551753
 10
23.81350703173957
 20
-38.98435631494399
 10
23.65268231650192
 20
-38.48881957971778
 10
23.45962495920939
 20
-38.0924197431484
 10
23.22578699097915
 20
-37.78953044448144
 10
22.96874413759817
 20
-37.60669123079843
 10
22.67755754430895
 20
-37.53726480166353
 10
22.65780285782026
 20
-37.53700000782322
  0
LWPOLYLINE
  5
CD
330
AD
100
AcDbEntity
  8
AM_9
100
AcDbPolyline
 90
       11
 70
     0
 43
0.0
 10
22.65780285782026
 20
-37.53700000782322
 10
22.38010584017358
 20
-37.58608216281404
 10
22.06491330207809
 20
-37.75281282552977
 10
21.76057494242752
 20
-38.02293255121296
 10
21.46112014395699
 20
-38.40390444502206
 10
21.19182596497463
 20
-38.870266930992
 10
20.95307000863783
 20
-39.43155535906029
 10
20.76789990676854
 20
-40.04567931489345
 10
20.63682826440093
 20
-40.72736792744857
 10
20.58527782097713
 20
-41.21873411007047
 10
20.56758620890206
 20
-41.725
  0
ELLIPSE
  5
CE
330
AD
100
AcDbEntity
  8
AM_9
100
AcDbEllipse
 10
27.58992787792072
 20
-41.725
 30
0.0
 11
-7.693231192243677E-16
 21
-4.188000000000002
 31
0.0
210
0.0
220
0.0
230
1.0
 40
0.4226182617407009
 41
3.546177047847653
 42
5.853625744069405
  0
LINE
  5
CF
330
AD
100
AcDbEntity
  8
AM_9
100
AcDbLine
 10
26.76459816541529
 20
-45.42979950446318
 30
0.0
 11
26.99778822615284
 21
-45.72065433913907
 31
0.0
  0
LINE
  5
D0
330
AD
100
AcDbEntity
  8
AM_9
100
AcDbLine
 10
27.00123421423372
 20
-37.72504752615318
 30
0.0
 11
26.76459816541529
 21
-38.02020049553681
 31
0.0
  0
LWPOLYLINE
  5
D1
330
AD
100
AcDbEntity
  8
AM_9
100
AcDbPolyline
 90
        4
 70
     0
 43
0.0
 10
27.47563415016113
 20
-37.28371994351672
 10
27.66290351523769
 20
-37.18826377574735
 10
27.8576382233579
 20
-37.13636909449063
 10
28.04782169889123
 20
-37.13464870573412
  0
LWPOLYLINE
  5
D2
330
AD
100
AcDbEntity
  8
AM_9
100
AcDbPolyline
 90
       11
 70
     0
 43
0.0
 10
20.56758620890206
 20
-41.725
 10
20.60029497019668
 20
-42.4125947545914
 10
20.70047003761933
 20
-43.10018950918279
 10
20.85733960649549
 20
-43.72982636321153
 10
21.07184935399644
 20
-44.3201745295535
 10
21.32466903973899
 20
-44.8271015796819
 10
21.61684182545935
 20
-45.25976548687559
 10
21.92181194018282
 20
-45.58382475567161
 10
22.24314668608925
 20
-45.80550612456223
 10
22.54796384349552
 20
-45.90511834062801
 10
22.65755202915317
 20
-45.91299998639877
  0
LINE
  5
D3
330
AD
100
AcDbEntity
  8
AM_9
100
AcDbLine
 10
25.0
 20
-50.066
 30
0.0
 11
25.0
 21
-3.234000000000001
 31
0.0
  0
LINE
  5
D4
330
AD
100
AcDbEntity
  8
AM_9
100
AcDbLine
 10
-25.0
 20
-3.234000000000001
 30
0.0
 11
-25.0
 21
-50.066
 31
0.0
  0
LINE
  5
D5
330
AD
100
AcDbEntity
  8
AM_9
100
AcDbLine
 10
25.0
 20
-3.234000000000001
 30
0.0
 11
26.23400000000004
 21
-2.000000000000002
 31
0.0
  0
LINE
  5
D6
330
AD
100
AcDbEntity
  8
AM_9
100
AcDbLine
 10
-26.23400000000004
 20
-2.000000000000002
 30
0.0
 11
-25.0
 21
-3.234000000000001
 31
0.0
  0
LINE
  5
D7
330
AD
100
AcDbEntity
  8
AM_9
100
AcDbLine
 10
-25.0
 20
-50.066
 30
0.0
 11
-26.23400000000004
 21
-51.3
 31
0.0
  0
LINE
  5
D8
330
AD
100
AcDbEntity
  8
AM_9
100
AcDbLine
 10
26.23400000000004
 20
-51.3
 30
0.0
 11
25.0
 21
-50.066
 31
0.0
  0
LINE
  5
D9
330
AD
100
AcDbEntity
  8
AM_9
100
AcDbLine
 10
-29.61600000000003
 20
-2.000000000000002
 30
0.0
 11
29.61600000000003
 21
-2.000000000000002
 31
0.0
  0
LINE
  5
DA
330
AD
100
AcDbEntity
  8
AM_9
100
AcDbLine
 10
-29.61600000000003
 20
-2.000000000000002
 30
0.0
 11
-30.84999999999999
 21
-3.234000000000004
 31
0.0
  0
LINE
  5
DB
330
AD
100
AcDbEntity
  8
AM_9
100
AcDbLine
 10
30.84999999999999
 20
-3.234000000000004
 30
0.0
 11
29.61600000000003
 21
-2.000000000000002
 31
0.0
  0
LINE
  5
DC
330
AD
100
AcDbEntity
  8
AM_9
100
AcDbLine
 10
-30.84999999999999
 20
-3.234000000000004
 30
0.0
 11
30.84999999999998
 21
-3.234000000000004
 31
0.0
  0
LINE
  5
DD
330
AD
100
AcDbEntity
  8
AM_9
100
AcDbLine
 10
30.84999999999998
 20
-10.05
 30
0.0
 11
30.84999999999998
 21
-3.234000000000004
 31
0.0
  0
LINE
  5
DE
330
AD
100
AcDbEntity
  8
AM_9
100
AcDbLine
 10
-30.84999999999998
 20
-3.234000000000004
 30
0.0
 11
-30.84999999999998
 21
-10.05
 31
0.0
  0
LINE
  5
DF
330
AD
100
AcDbEntity
  8
AM_9
100
AcDbLine
 10
1.082540772393989
 20
-37.27798210188033
 30
0.0
 11
1.121399464808972
 21
-37.28905433490715
 31
0.0
  0
LWPOLYLINE
  5
E0
330
AD
100
AcDbEntity
  8
AM_9
100
AcDbPolyline
 90
        5
 70
     0
 43
0.0
 10
-1.065659900080557
 20
-37.27330197295834
 10
-0.7039479753220222
 20
-37.19147738895789
 10
-0.0257048942105141
 20
-37.12919980001386
 10
0.67418001542636
 20
-37.18628276139992
 10
1.082540772393989
 20
-37.27798210188033
  0
LINE
  5
E1
330
AD
100
AcDbEntity
  8
AM_9
100
AcDbLine
 10
-1.102018730256604
 20
-37.28347986111375
 30
0.0
 11
-1.065659900080557
 21
-37.27330197295834
 31
0.0
  0
LWPOLYLINE
  5
E2
330
AD
100
AcDbEntity
  8
AM_9
100
AcDbPolyline
 90
        3
 70
     0
 43
0.0
 10
28.04782169889123
 20
-37.13464870573412
 10
28.32358703901373
 20
-37.22945592890171
 10
28.41263400229668
 20
-37.28726657594486
  0
LINE
  5
E3
330
AD
100
AcDbEntity
  8
AM_9
100
AcDbLine
 10
30.84999999999999
 20
-37.3
 30
0.0
 11
30.84999999999999
 21
-32.15
 31
0.0
  0
LINE
  5
E4
330
AD
100
AcDbEntity
  8
AM_9
100
AcDbLine
 10
-30.84999999999999
 20
-32.15
 30
0.0
 11
-30.84999999999999
 21
-37.3
 31
0.0
  0
LINE
  5
E5
330
AD
100
AcDbEntity
  8
AM_9
100
AcDbLine
 10
42.78999999999994
 20
-28.33333333333333
 30
0.0
 11
42.78999999999994
 21
-25.38666666666666
 31
0.0
  0
LINE
  5
E6
330
AD
100
AcDbEntity
  8
AM_9
100
AcDbLine
 10
-42.78999999999994
 20
-25.38666666666666
 30
0.0
 11
-42.78999999999994
 21
-28.33333333333333
 31
0.0
  0
LINE
  5
E7
330
AD
100
AcDbEntity
  8
AM_9
100
AcDbLine
 10
-42.19396883195163
 20
-10.05
 30
0.0
 11
42.19396883191757
 21
-10.05
 31
0.0
  0
ARC
  5
E8
330
AD
100
AcDbEntity
  8
AM_9
100
AcDbCircle
 10
42.19396883195164
 20
-10.93399999999998
 30
0.0
 40
0.8839999999999859
100
AcDbArc
 50
21.41247877657219
 51
90.0
  0
ARC
  5
E9
330
AD
100
AcDbEntity
  8
AM_9
100
AcDbCircle
 10
-42.19396883195164
 20
-10.93399999999998
 30
0.0
 40
0.8839999999999808
100
AcDbArc
 50
90.0
 51
158.5875212234278
  0
LINE
  5
EA
330
AD
100
AcDbEntity
  8
AM_9
100
AcDbLine
 10
-42.1939688319516
 20
-32.15
 30
0.0
 11
42.19396883191754
 21
-32.15
 31
0.0
  0
ARC
  5
EB
330
AD
100
AcDbEntity
  8
AM_9
100
AcDbCircle
 10
42.19396883195159
 20
-31.26599999999997
 30
0.0
 40
0.8840000000000288
100
AcDbArc
 50
270.0
 51
338.5875329531142
  0
ARC
  5
EC
330
AD
100
AcDbEntity
  8
AM_9
100
AcDbCircle
 10
-42.19396883195159
 20
-31.26599999999997
 30
0.0
 40
0.8840000000000307
100
AcDbArc
 50
201.4124670468858
 51
270.0
  0
LINE
  5
ED
330
AD
100
AcDbEntity
  8
AM_9
100
AcDbLine
 10
-43.01695196947389
 20
-31.58873015873016
 30
0.0
 11
43.01695196947389
 21
-31.58873015873016
 31
0.0
  0
LINE
  5
EE
330
AD
100
AcDbEntity
  8
AM_9
100
AcDbLine
 10
-44.07452820834922
 20
-28.33333333333333
 30
0.0
 11
44.07452820834922
 21
-28.33333333333333
 31
0.0
  0
ARC
  5
EF
330
AD
100
AcDbEntity
  8
AM_9
100
AcDbCircle
 10
16.2699999999997
 20
-21.09999999999991
 30
0.0
 40
28.73000000000029
100
AcDbArc
 50
338.587532953116
 51
345.4177622541453
  0
ARC
  5
F0
330
AD
100
AcDbEntity
  8
AM_9
100
AcDbCircle
 10
-16.27000000000132
 20
-21.10000000000045
 30
0.0
 40
28.72999999999859
100
AcDbArc
 50
194.5822377458546
 51
201.4124670468842
  0
LINE
  5
F1
330
AD
100
AcDbEntity
  8
AM_9
100
AcDbLine
 10
-44.67840349067311
 20
-25.38666666666667
 30
0.0
 11
44.67840349067311
 21
-25.38666666666667
 31
0.0
  0
LINE
  5
F2
330
AD
100
AcDbEntity
  8
AM_9
100
AcDbLine
 10
-43.01695190340402
 20
-10.61126967278734
 30
0.0
 11
43.01695190340402
 21
-10.61126967278734
 31
0.0
  0
ARC
  5
F3
330
AD
100
AcDbEntity
  8
AM_9
100
AcDbCircle
 10
16.27000000000014
 20
-21.1
 30
0.0
 40
28.72999999999984
100
AcDbArc
 50
351.4191278814026
 51
21.4124674077977
  0
ARC
  5
F4
330
AD
100
AcDbEntity
  8
AM_9
100
AcDbCircle
 10
-16.26999999999754
 20
-21.10000000000094
 30
0.0
 40
28.7300000000026
100
AcDbArc
 50
158.5875325922025
 51
162.5691075613451
  0
ARC
  5
F5
330
AD
100
AcDbEntity
  8
AM_9
100
AcDbCircle
 10
-16.27000000000005
 20
-21.10000000000001
 30
0.0
 40
28.72999999999993
100
AcDbArc
 50
171.5981215662919
 51
188.5808721185973
  0
LINE
  5
F6
330
AD
100
AcDbEntity
  8
AM_9
100
AcDbLine
 10
-44.50808218060974
 20
-16.00112635380883
 30
0.0
 11
-44.69282181627993
 21
-16.90999999999996
 31
0.0
  0
LINE
  5
F7
330
AD
100
AcDbEntity
  8
AM_9
100
AcDbLine
 10
-44.15332227667689
 20
-14.39887677821486
 30
0.0
 11
-44.50808218060974
 21
-16.00112635380883
 31
0.0
  0
LWPOLYLINE
  5
F8
330
AD
100
AcDbEntity
  8
AM_9
100
AcDbPolyline
 90
       11
 70
     0
 43
0.0
 10
-43.67950200224592
 20
-12.49000000077004
 10
-43.67967644066896
 20
-12.49066194748941
 10
-43.69017526377173
 20
-12.53055281965122
 10
-43.71514168847242
 20
-12.62581709749262
 10
-43.7549130783438
 20
-12.77876011528589
 10
-43.80646923999544
 20
-12.9792399364126
 10
-43.87016531420234
 20
-13.23048505690402
 10
-43.94247516563054
 20
-13.52064654497318
 10
-44.02310581973306
 20
-13.85066051056114
 10
-44.10759050301345
 20
-14.20412228662311
 10
-44.15332227667689
 20
-14.39887677821486
  0
LINE
  5
F9
330
AD
100
AcDbEntity
  8
AM_7
100
AcDbLine
 10
-4.3974
 20
-41.725
 30
0.0
 11
4.3974
 21
-41.725
 31
0.0
  0
LINE
  5
FA
330
AD
100
AcDbEntity
  8
AM_7
100
AcDbLine
 10
-48.3325
 20
-14.7
 30
0.0
 11
-30.0175
 21
-14.7
 31
0.0
  0
ELLIPSE
  5
FB
330
AD
100
AcDbEntity
  8
AM_4
100
AcDbEllipse
 10
27.5899278779207
 20
-41.725
 30
0.0
 11
-7.693231192243690E-16
 21
-4.188000000000009
 31
0.0
210
0.0
220
0.0
230
1.0
 40
0.4226182617406994
 41
5.853625744069413
 42
9.82936235502723
  0
LWPOLYLINE
  5
FC
330
AD
100
AcDbEntity
  8
AM_4
100
AcDbPolyline
 90
       14
 70
     0
 43
0.0
 10
27.00229952451931
 20
-45.72628111890205
 10
26.89492961066503
 20
-45.58374588481943
 10
26.6254829894983
 20
-45.14132786064409
 10
26.38696549773652
 20
-44.61989177486681
 10
26.17569018168256
 20
-43.99168535262125
 10
26.01588821890095
 20
-43.3076557908734
 10
25.90994783998444
 20
-42.54241432440741
 10
25.87199619928882
 20
-41.7554439224059
 10
25.90663800855349
 20
-40.94442790706693
 10
26.01346575770879
 20
-40.15539975546545
 10
26.18947389340159
 20
-39.41060075036605
 10
26.4260710162266
 20
-38.73375054906496
 10
26.70533761558062
 20
-38.16402966664295
 10
27.00263563136546
 20
-37.72329955850063
  0
LWPOLYLINE
  5
FD
330
AD
100
AcDbEntity
  8
AM_4
100
AcDbPolyline
 90
        4
 70
     0
 43
0.0
 10
27.00263563136546
 20
-37.72329955850063
 10
27.02075216690785
 20
-37.70093860123502
 10
27.33805226275685
 20
-37.38233762980867
 10
27.47563415016113
 20
-37.28371994351672
  0
LINE
  5
FE
330
AD
100
AcDbEntity
  8
AM_4
100
AcDbLine
 10
-29.61600000000003
 20
-51.3
 30
0.0
 11
29.61600000000003
 21
-51.3
 31
0.0
  0
LINE
  5
FF
330
AD
100
AcDbEntity
  8
AM_4
100
AcDbLine
 10
29.61600000000003
 20
-51.3
 30
0.0
 11
30.84999999999999
 21
-50.066
 31
0.0
  0
LINE
  5
100
330
AD
100
AcDbEntity
  8
AM_4
100
AcDbLine
 10
-30.84999999999999
 20
-50.066
 30
0.0
 11
-29.61600000000003
 21
-51.3
 31
0.0
  0
CIRCLE
  5
101
330
AD
100
AcDbEntity
  8
AM_4
100
AcDbCircle
 10
0.0
 20
-41.725
 30
0.0
 40
4.188
  0
LINE
  5
102
330
AD
100
AcDbEntity
  8
AM_4
100
AcDbLine
 10
-30.84999999999999
 20
-50.066
 30
0.0
 11
30.84999999999999
 21
-50.066
 31
0.0
  0
LWPOLYLINE
  5
103
330
AD
100
AcDbEntity
  8
AM_4
100
AcDbPolyline
 90
       33
 70
     0
 43
0.0
 10
1.121399464808972
 20
-37.28905433490715
 10
1.313644317097406
 20
-37.35006423578363
 10
1.934224383981521
 20
-37.62296386224217
 10
2.501646125720236
 20
-37.9913197140958
 10
3.016553812573135
 20
-38.45612748039228
 10
3.467600727859446
 20
-39.01592340976089
 10
3.834118613159161
 20
-39.65609793671989
 10
4.104540449532757
 20
-40.37256427620227
 10
4.260773179943167
 20
-41.14378135489137
 10
4.290668996192643
 20
-41.9399353043724
 10
4.186284705863732
 20
-42.75245788830835
 10
3.952407334048856
 20
-43.52177537383031
 10
3.580299575916934
 20
-44.26092804528336
 10
3.109267352074831
 20
-44.89286546259787
 10
2.515110359810774
 20
-45.44829825135767
 10
1.886183604138849
 20
-45.852623738893
 10
1.170788597401333
 20
-46.14626746488022
 10
0.490281082658052
 20
-46.29073828142945
 10
-0.2275420114770787
 20
-46.31440634984043
 10
-0.8839667852433523
 20
-46.22216234588478
 10
-1.533851261469407
 20
-46.0168741982241
 10
-2.128941563761965
 20
-45.71487919421091
 10
-2.682290034515382
 20
-45.31209437276094
 10
-3.178223604901302
 20
-44.81355158957308
 10
-3.600163831996991
 20
-44.22857303374454
 10
-3.937978971680052
 20
-43.55759519107971
 10
-4.170797024836602
 20
-42.82197726983376
 10
-4.285165523435874
 20
-42.04127760653459
 10
-4.270331964364702
 20
-41.23023471414372
 10
-4.123364323362291
 20
-40.43957564556776
 10
-3.837497322610756
 20
-39.6632661080969
 10
-3.510641877004804
 20
-39.08007085360681
 10
-3.093601738165689
 20
-38.53962742808609
  0
LWPOLYLINE
  5
104
330
AD
100
AcDbEntity
  8
AM_4
100
AcDbPolyline
 90
        5
 70
     0
 43
0.0
 10
-3.093601738165689
 20
-38.53962742808609
 10
-2.624305047311222
 20
-38.08909365878664
 10
-2.080149998051467
 20
-37.70571016941082
 10
-1.426705657131576
 20
-37.39090960199709
 10
-1.102018730256604
 20
-37.28347986111375
  0
LWPOLYLINE
  5
105
330
AD
100
AcDbEntity
  8
AM_4
100
AcDbPolyline
 90
       22
 70
     0
 43
0.0
 10
28.41263400229668
 20
-37.28726657594486
 10
28.57630204565344
 20
-37.43645507622362
 10
28.7978824344389
 20
-37.74451807679065
 10
28.98955221925545
 20
-38.14354241904555
 10
29.15770364269838
 20
-38.65029590589654
 10
29.29156913232432
 20
-39.22933784783316
 10
29.39729743661245
 20
-39.91054867933169
 10
29.46620795324636
 20
-40.63762242705152
 10
29.49987624485915
 20
-41.42975585282896
 10
29.49484814671914
 20
-42.22990997088472
 10
29.44949683811546
 20
-43.03163697388805
 10
29.36288236161568
 20
-43.79600163604388
 10
29.23430259201134
 20
-44.49415111936882
 10
29.06218960211855
 20
-45.11014066842958
 10
28.85454545129243
 20
-45.60222042421369
 10
28.60699790742829
 20
-45.97882529436513
 10
28.34275262216102
 20
-46.20910287704195
 10
28.05235182442045
 20
-46.31476361573857
 10
27.76277942003066
 20
-46.29408450150456
 10
27.46583635867595
 20
-46.16007979003914
 10
27.17467688397858
 20
-45.92021815273091
 10
27.00229952451931
 20
-45.72628111890205
  0
LINE
  5
106
330
AD
100
AcDbEntity
  8
AM_4
100
AcDbLine
 10
30.84999999999999
 20
-50.066
 30
0.0
 11
30.84999999999999
 21
-37.3
 31
0.0
  0
LINE
  5
107
330
AD
100
AcDbEntity
  8
AM_4
100
AcDbLine
 10
-30.84999999999999
 20
-37.3
 30
0.0
 11
-30.84999999999999
 21
-50.066
 31
0.0
  0
ARC
  5
108
330
AD
100
AcDbEntity
  8
AM_5
100
AcDbCircle
 10
-0.0000000000000016
 20
-41.72499999999999
 30
0.0
 40
5.000000000000004
100
AcDbArc
 50
75.0
 51
15.0
  0
ARC
  5
109
330
AD
100
AcDbEntity
  8
AM_5
100
AcDbCircle
 10
-0.0000000000000009
 20
-41.3
 30
0.0
 40
5.000000000000003
100
AcDbArc
 50
75.00000000000001
 51
15.00000000000004
  0
ENDBLK
  5
B0
330
AD
100
AcDbEntity
  8
0
100
AcDbBlockEnd
  0
BLOCK
  5
10C
330
10A
100
AcDbEntity
  8
0
100
AcDbBlockBegin
  2
4_125892H_0_in_125892_4
 70
     2
 10
0.0
 20
0.0
 30
0.0
  3
4_125892H_0_in_125892_4
  1

  0
ATTDEF
  5
10E
330
10A
100
AcDbEntity
  8
AM_6
100
AcDbText
 10
76.50000000000001
 20
1.865
 30
0.0
 40
0.5
  1
F4B-SC -M-Housing
100
AcDbAttributeDefinition
  3

  2
NN
 70
     8
280
     0
  0
ATTDEF
  5
10F
330
10A
100
AcDbEntity
  8
AM_6
100
AcDbText
 10
76.50000000000001
 20
1.365
 30
0.0
 40
0.5
  1
SC 4 Bolt Flange Bearings -(Normal Duty)
100
AcDbAttributeDefinition
  3

  2
NT
 70
     8
280
     0
  0
ATTDEF
  5
110
330
10A
100
AcDbEntity
  8
AM_6
100
AcDbText
 10
76.50000000000001
 20
0.865
 30
0.0
 40
0.5
  1
125892H
100
AcDbAttributeDefinition
  3

  2
NB
 70
     8
280
     0
  0
ATTDEF
  5
111
330
10A
100
AcDbEntity
  8
AM_6
100
AcDbText
 10
76.50000000000001
 20
0.365
 30
0.0
 40
0.5
  1
$PN.H
100
AcDbAttributeDefinition
  3

  2
NBSYN
 70
     8
280
     0
  0
ATTDEF
  5
112
330
10A
100
AcDbEntity
  8
AM_6
100
AcDbText
 10
76.50000000000001
 20
-0.135
 30
0.0
 40
0.5
  1
125892
100
AcDbAttributeDefinition
  3

  2
LINA
 70
     8
280
     0
  0
ATTDEF
  5
113
330
10A
100
AcDbEntity
  8
AM_6
100
AcDbText
 10
76.50000000000001
 20
-0.635
 30
0.0
 40
0.5
  1
210
100
AcDbAttributeDefinition
  3

  2
SERIES
 70
     8
280
     0
  0
ATTDEF
  5
114
330
10A
100
AcDbEntity
  8
AM_6
100
AcDbText
 10
76.50000000000001
 20
-1.135
 30
0.0
 40
0.5
  1
50
100
AcDbAttributeDefinition
  3

  2
SS
 70
     8
280
     0
  0
ATTDEF
  5
115
330
10A
100
AcDbEntity
  8
AM_6
100
AcDbText
 10
76.50000000000001
 20
-1.635
 30
0.0
 40
0.5
  1
125892
100
AcDbAttributeDefinition
  3

  2
PN
 70
     8
280
     0
  0
ATTDEF
  5
116
330
10A
100
AcDbEntity
  8
AM_6
100
AcDbText
 10
76.50000000000001
 20
-2.135
 30
0.0
 40
0.5
  1
F4B-SC-50M
100
AcDbAttributeDefinition
  3

  2
DESCRIPTION
 70
     8
280
     0
  0
ATTDEF
  5
117
330
10A
100
AcDbEntity
  8
AM_6
100
AcDbText
 10
76.50000000000001
 20
-2.635
 30
0.0
 40
0.5
  1
1
100
AcDbAttributeDefinition
  3

  2
LF1
 70
     8
280
     0
  0
ATTDEF
  5
118
330
10A
100
AcDbEntity
  8
AM_6
100
AcDbText
 10
76.50000000000001
 20
-3.135
 30
0.0
 40
0.5
  1
49.3
100
AcDbAttributeDefinition
  3

  2
A
 70
     8
280
     0
  0
ATTDEF
  5
119
330
10A
100
AcDbEntity
  8
AM_6
100
AcDbText
 10
76.50000000000001
 20
-3.635
 30
0.0
 40
0.5
  1
22.1
100
AcDbAttributeDefinition
  3

  2
A1
 70
     8
280
     0
  0
ATTDEF
  5
11A
330
10A
100
AcDbEntity
  8
AM_6
100
AcDbText
 10
76.50000000000001
 20
-4.135
 30
0.0
 40
0.5
  1
143.0
100
AcDbAttributeDefinition
  3

  2
B
 70
     8
280
     0
  0
ATTDEF
  5
11B
330
10A
100
AcDbEntity
  8
AM_6
100
AcDbText
 10
76.50000000000001
 20
-4.635
 30
0.0
 40
0.5
  1
51.3
100
AcDbAttributeDefinition
  3

  2
C
 70
     8
280
     0
  0
ATTDEF
  5
11C
330
10A
100
AcDbEntity
  8
AM_6
100
AcDbText
 10
76.50000000000001
 20
-5.135
 30
0.0
 40
0.5
  1
111.3
100
AcDbAttributeDefinition
  3

  2
D
 70
     8
280
     0
  0
ATTDEF
  5
11D
330
10A
100
AcDbEntity
  8
AM_6
100
AcDbText
 10
76.50000000000001
 20
-5.635
 30
0.0
 40
0.5
  1
M16
100
AcDbAttributeDefinition
  3

  2
F
 70
     8
280
     0
  0
ATTDEF
  5
11E
330
10A
100
AcDbEntity
  8
AM_6
100
AcDbText
 10
76.50000000000001
 20
-6.135
 30
0.0
 40
0.5
  1
18.0
100
AcDbAttributeDefinition
  3

  2
F1
 70
     8
280
     0
  0
ATTDEF
  5
11F
330
10A
100
AcDbEntity
  8
AM_6
100
AcDbText
 10
76.50000000000001
 20
-6.635
 30
0.0
 40
0.5
  1
16.0
100
AcDbAttributeDefinition
  3

  2
H
 70
     8
280
     0
  0
ATTDEF
  5
120
330
10A
100
AcDbEntity
  8
AM_6
100
AcDbText
 10
76.50000000000001
 20
-7.135
 30
0.0
 40
0.5
  1
14.0
100
AcDbAttributeDefinition
  3

  2
J
 70
     8
280
     0
  0
ATTDEF
  5
121
330
10A
100
AcDbEntity
  8
AM_6
100
AcDbText
 10
76.50000000000001
 20
-7.635
 30
0.0
 40
0.5
  1
61.7
100
AcDbAttributeDefinition
  3

  2
L
 70
     8
280
     0
  0
ATTDEF
  5
122
330
10A
100
AcDbEntity
  8
AM_6
100
AcDbText
 10
76.50000000000001
 20
-8.135
 30
0.0
 40
0.5
  1
73.2
100
AcDbAttributeDefinition
  3

  2
N
 70
     8
280
     0
  0
ATTDEF
  5
123
330
10A
100
AcDbEntity
  8
AM_6
100
AcDbText
 10
76.50000000000001
 20
-8.635
 30
0.0
 40
0.5
  1
baldor
100
AcDbAttributeDefinition
  3

  2
COMPANY
 70
     8
280
     0
  0
LINE
  5
124
330
10A
100
AcDbEntity
  8
AM_9
100
AcDbLine
 10
-40.38873605350878
 20
-22.38
 30
0.0
 11
-40.38873605350878
 21
-6.399999999999998
 31
0.0
  0
LINE
  5
125
330
10A
100
AcDbEntity
  8
AM_9
100
AcDbLine
 10
-37.41657386773941
 20
-22.38
 30
0.0
 11
-47.5
 21
-22.38
 31
0.0
  0
LINE
  5
126
330
10A
100
AcDbEntity
  8
AM_9
100
AcDbLine
 10
-47.5
 20
-14.90090909090909
 30
0.0
 11
-47.5
 21
-22.38
 31
0.0
  0
LINE
  5
127
330
10A
100
AcDbEntity
  8
AM_9
100
AcDbLine
 10
-47.5
 20
-6.399999999999999
 30
0.0
 11
-47.5
 21
-14.49909090909091
 31
0.0
  0
LINE
  5
128
330
10A
100
AcDbEntity
  8
AM_9
100
AcDbLine
 10
47.5
 20
-22.38
 30
0.0
 11
37.41657386773941
 21
-22.38
 31
0.0
  0
LINE
  5
129
330
10A
100
AcDbEntity
  8
AM_9
100
AcDbLine
 10
40.38873605350877
 20
-22.38
 30
0.0
 11
40.38873605350877
 21
-6.399999999999998
 31
0.0
  0
LINE
  5
12A
330
10A
100
AcDbEntity
  8
AM_9
100
AcDbLine
 10
47.5
 20
-22.38
 30
0.0
 11
47.5
 21
-6.399999999999999
 31
0.0
  0
LINE
  5
12B
330
10A
100
AcDbEntity
  8
AM_9
100
AcDbLine
 10
-37.41657386773941
 20
-22.38
 30
0.0
 11
-37.41657386773941
 21
-6.399999999999998
 31
0.0
  0
LINE
  5
12C
330
10A
100
AcDbEntity
  8
AM_9
100
AcDbLine
 10
37.41657386773941
 20
-6.399999999999998
 30
0.0
 11
37.41657386773941
 21
-22.38
 31
0.0
  0
LINE
  5
12D
330
10A
100
AcDbEntity
  8
AM_9
100
AcDbLine
 10
45.0
 20
-34.1
 30
0.0
 11
45.0
 21
-22.38
 31
0.0
  0
LINE
  5
12E
330
10A
100
AcDbEntity
  8
AM_9
100
AcDbLine
 10
-45.0
 20
-22.38
 30
0.0
 11
-45.0
 21
-34.1
 31
0.0
  0
LINE
  5
12F
330
10A
100
AcDbEntity
  8
AM_9
100
AcDbLine
 10
69.59647310254464
 20
-14.4
 30
0.0
 11
69.59647310254464
 21
-16.0
 31
0.0
  0
LINE
  5
130
330
10A
100
AcDbEntity
  8
AM_9
100
AcDbLine
 10
-69.5964731025446
 20
-14.4
 30
0.0
 11
-69.5964731025446
 21
-16.0
 31
0.0
  0
LINE
  5
131
330
10A
100
AcDbEntity
  8
AM_9
100
AcDbLine
 10
-48.33333333333334
 20
-34.1
 30
0.0
 11
48.33333333333334
 21
-34.1
 31
0.0
  0
LINE
  5
132
330
10A
100
AcDbEntity
  8
AM_9
100
AcDbLine
 10
48.33333333333334
 20
-37.3
 30
0.0
 11
48.33333333333334
 21
-34.1
 31
0.0
  0
LINE
  5
133
330
10A
100
AcDbEntity
  8
AM_9
100
AcDbLine
 10
-48.33333333333334
 20
-34.1
 30
0.0
 11
-48.33333333333334
 21
-37.3
 31
0.0
  0
LINE
  5
134
330
10A
100
AcDbEntity
  8
AM_9
100
AcDbLine
 10
-48.33333333333334
 20
-6.4
 30
0.0
 11
48.33333333333334
 21
-6.4
 31
0.0
  0
LINE
  5
135
330
10A
100
AcDbEntity
  8
AM_9
100
AcDbLine
 10
48.33333333333334
 20
-6.4
 30
0.0
 11
48.33333333333334
 21
0.0
 31
0.0
  0
LINE
  5
136
330
10A
100
AcDbEntity
  8
AM_9
100
AcDbLine
 10
-48.33333333333334
 20
0.0
 30
0.0
 11
-48.33333333333334
 21
-6.4
 31
0.0
  0
LINE
  5
137
330
10A
100
AcDbEntity
  8
AM_9
100
AcDbLine
 10
57.21741104187563
 20
-14.4
 30
0.0
 11
71.50000000000001
 21
-14.4
 31
0.0
  0
LINE
  5
138
330
10A
100
AcDbEntity
  8
AM_9
100
AcDbLine
 10
-71.50000000000001
 20
-14.4
 30
0.0
 11
-57.21741104187563
 21
-14.4
 31
0.0
  0
LINE
  5
139
330
10A
100
AcDbEntity
  8
AM_9
100
AcDbLine
 10
-57.21741104187563
 20
-14.4
 30
0.0
 11
-57.09886630341898
 21
-16.0
 31
0.0
  0
LINE
  5
13A
330
10A
100
AcDbEntity
  8
AM_9
100
AcDbLine
 10
12.7
 20
-14.4
 30
0.0
 11
-12.7
 21
-14.4
 31
0.0
  0
LINE
  5
13B
330
10A
100
AcDbEntity
  8
AM_9
100
AcDbLine
 10
57.09886630341899
 20
-16.0
 30
0.0
 11
57.21741104187563
 21
-14.4
 31
0.0
  0
LINE
  5
13C
330
10A
100
AcDbEntity
  8
AM_9
100
AcDbLine
 10
62.71970509383379
 20
-15.99999999999999
 30
0.0
 11
62.91273458445042
 21
-14.4
 31
0.0
  0
LINE
  5
13D
330
10A
100
AcDbEntity
  8
AM_9
100
AcDbLine
 10
-62.91273458445042
 20
-14.4
 30
0.0
 11
-62.71970509383379
 21
-15.99999999999999
 31
0.0
  0
LINE
  5
13E
330
10A
100
AcDbEntity
  8
AM_9
100
AcDbLine
 10
12.68724331996363
 20
-35.89163988501983
 30
0.0
 11
-12.68724331996364
 21
-35.89163988501983
 31
0.0
  0
CIRCLE
  5
13F
330
10A
100
AcDbEntity
  8
AM_9
100
AcDbCircle
 10
0.0
 20
-24.10999999999999
 30
0.0
 40
3.810000000000001
  0
LINE
  5
140
330
10A
100
AcDbEntity
  8
AM_9
100
AcDbLine
 10
-46.65
 20
-16.0
 30
0.0
 11
-46.65
 21
0.0000000000000034
 31
0.0
  0
LINE
  5
141
330
10A
100
AcDbEntity
  8
AM_9
100
AcDbLine
 10
-64.65
 20
0.0000000000000034
 30
0.0
 11
-64.65
 21
-16.0
 31
0.0
  0
LINE
  5
142
330
10A
100
AcDbEntity
  8
AM_9
100
AcDbLine
 10
64.65
 20
-16.0
 30
0.0
 11
64.65
 21
0.0000000000000034
 31
0.0
  0
LINE
  5
143
330
10A
100
AcDbEntity
  8
AM_9
100
AcDbLine
 10
46.65
 20
0.0000000000000034
 30
0.0
 11
46.65
 21
-16.0
 31
0.0
  0
LINE
  5
144
330
10A
100
AcDbEntity
  8
AM_7
100
AcDbLine
 10
55.65
 20
0.7999999999999966
 30
0.0
 11
55.65
 21
-16.8
 31
0.0
  0
LINE
  5
145
330
10A
100
AcDbEntity
  8
AM_7
100
AcDbLine
 10
-55.65
 20
0.7999999999999966
 30
0.0
 11
-55.65
 21
-16.8
 31
0.0
  0
LINE
  5
146
330
10A
100
AcDbEntity
  8
AM_7
100
AcDbLine
 10
0.0
 20
-53.765
 30
0.0
 11
0.0
 21
1.865
 31
0.0
  0
LINE
  5
147
330
10A
100
AcDbEntity
  8
AM_4
100
AcDbLine
 10
-58.73142768364082
 20
-37.3
 30
0.0
 11
58.73142768363418
 21
-37.3
 31
0.0
  0
ARC
  5
148
330
10A
100
AcDbEntity
  8
AM_4
100
AcDbCircle
 10
58.7314276836408
 20
-35.69999999999998
 30
0.0
 40
1.600000000000016
100
AcDbArc
 50
270.0
 51
353.1208867743683
  0
ARC
  5
149
330
10A
100
AcDbEntity
  8
AM_4
100
AcDbCircle
 10
-58.7314276836408
 20
-35.69999999999998
 30
0.0
 40
1.600000000000019
100
AcDbArc
 50
186.8791132256316
 51
270.0
  0
LINE
  5
14A
330
10A
100
AcDbEntity
  8
AM_4
100
AcDbLine
 10
12.68724331996363
 20
-35.89163988501983
 30
0.0
 11
60.31990939724962
 21
-35.89163988501983
 31
0.0
  0
LINE
  5
14B
330
10A
100
AcDbEntity
  8
AM_4
100
AcDbLine
 10
60.31990939724962
 20
-35.89163988501983
 30
0.0
 11
62.71970509383379
 21
-15.99999999999999
 31
0.0
  0
LINE
  5
14C
330
10A
100
AcDbEntity
  8
AM_4
100
AcDbLine
 10
-62.71970509383379
 20
-15.99999999999999
 30
0.0
 11
-60.31990939724962
 21
-35.89163988501983
 31
0.0
  0
LINE
  5
14D
330
10A
100
AcDbEntity
  8
AM_4
100
AcDbLine
 10
-60.31990939724962
 20
-35.89163988501983
 30
0.0
 11
-12.68724331996364
 21
-35.89163988501983
 31
0.0
  0
LINE
  5
14E
330
10A
100
AcDbEntity
  8
AM_4
100
AcDbLine
 10
-11.10000000000001
 20
-37.28999999999998
 30
0.0
 11
11.1
 21
-37.28999999999998
 31
0.0
  0
LINE
  5
14F
330
10A
100
AcDbEntity
  8
AM_4
100
AcDbLine
 10
12.7
 20
-35.68999997615813
 30
0.0
 11
12.7
 21
-8.533333333333331
 31
0.0
  0
LINE
  5
150
330
10A
100
AcDbEntity
  8
AM_4
100
AcDbLine
 10
-12.7
 20
-8.533333285649613
 30
0.0
 11
-12.7
 21
-35.69
 31
0.0
  0
ARC
  5
151
330
10A
100
AcDbEntity
  8
AM_4
100
AcDbCircle
 10
-11.10000000000002
 20
-35.69
 30
0.0
 40
1.599999999999984
100
AcDbArc
 50
180.0
 51
270.0
  0
ARC
  5
152
330
10A
100
AcDbEntity
  8
AM_4
100
AcDbCircle
 10
11.1
 20
-35.68999999999998
 30
0.0
 40
1.600000000000001
100
AcDbArc
 50
270.0
 51
0.0000012074182697
  0
LINE
  5
153
330
10A
100
AcDbEntity
  8
AM_4
100
AcDbLine
 10
26.15683556087305
 20
-14.4
 30
0.0
 11
25.95151005089617
 21
-16.0
 31
0.0
  0
LINE
  5
154
330
10A
100
AcDbEntity
  8
AM_4
100
AcDbLine
 10
-25.95151005089616
 20
-16.0
 30
0.0
 11
-71.50000000000001
 21
-16.0
 31
0.0
  0
LINE
  5
155
330
10A
100
AcDbEntity
  8
AM_4
100
AcDbLine
 10
-25.95151005089616
 20
-16.0
 30
0.0
 11
-26.15683556087303
 21
-14.4
 31
0.0
  0
LINE
  5
156
330
10A
100
AcDbEntity
  8
AM_4
100
AcDbLine
 10
-71.50000000000001
 20
-16.0
 30
0.0
 11
-71.50000000000001
 21
0.0000000000000034
 31
0.0
  0
LINE
  5
157
330
10A
100
AcDbEntity
  8
AM_4
100
AcDbLine
 10
47.59799999999998
 20
-14.4
 30
0.0
 11
47.59799999999998
 21
-16.0
 31
0.0
  0
LINE
  5
158
330
10A
100
AcDbEntity
  8
AM_4
100
AcDbLine
 10
-47.59799999999998
 20
-14.4
 30
0.0
 11
-47.59799999999998
 21
-16.0
 31
0.0
  0
LINE
  5
159
330
10A
100
AcDbEntity
  8
AM_4
100
AcDbLine
 10
71.50000000000001
 20
-16.0
 30
0.0
 11
25.95151005089617
 21
-16.0
 31
0.0
  0
LINE
  5
15A
330
10A
100
AcDbEntity
  8
AM_4
100
AcDbLine
 10
71.50000000000001
 20
0.0000000000000034
 30
0.0
 11
-71.50000000000001
 21
0.0000000000000034
 31
0.0
  0
LINE
  5
15B
330
10A
100
AcDbEntity
  8
AM_4
100
AcDbLine
 10
71.50000000000001
 20
-16.0
 30
0.0
 11
71.50000000000001
 21
0.0000000000000034
 31
0.0
  0
LINE
  5
15C
330
10A
100
AcDbEntity
  8
AM_4
100
AcDbLine
 10
-12.7
 20
-14.4
 30
0.0
 11
-52.80108511885644
 21
-14.4
 31
0.0
  0
LINE
  5
15D
330
10A
100
AcDbEntity
  8
AM_4
100
AcDbLine
 10
52.80108511885647
 20
-14.4
 30
0.0
 11
12.7
 21
-14.4
 31
0.0
  0
ARC
  5
15E
330
10A
100
AcDbEntity
  8
AM_4
100
AcDbCircle
 10
-9.500000000000002
 20
-8.533333333333328
 30
0.0
 40
3.199999999999999
100
AcDbArc
 50
90.0
 51
179.9999991462263
  0
LINE
  5
15F
330
10A
100
AcDbEntity
  8
AM_4
100
AcDbLine
 10
9.5
 20
-5.333333333333329
 30
0.0
 11
-9.5
 21
-5.333333333333329
 31
0.0
  0
ARC
  5
160
330
10A
100
AcDbEntity
  8
AM_4
100
AcDbCircle
 10
9.5
 20
-8.53333333333333
 30
0.0
 40
3.199999999999999
100
AcDbArc
 50
0.0
 51
90.0
  0
LINE
  5
161
330
10A
100
AcDbEntity
  8
AM_4
100
AcDbLine
 10
52.80108511885647
 20
-16.0
 30
0.0
 11
52.80108511885647
 21
-14.4
 31
0.0
  0
LINE
  5
162
330
10A
100
AcDbEntity
  8
AM_4
100
AcDbLine
 10
55.64999999999999
 20
-16.0
 30
0.0
 11
55.64999999999999
 21
0.0000000000000044
 31
0.0
  0
LINE
  5
163
330
10A
100
AcDbEntity
  8
AM_4
100
AcDbLine
 10
-55.65000000000001
 20
-16.0
 30
0.0
 11
-55.65000000000001
 21
0.0000000000000044
 31
0.0
  0
LINE
  5
164
330
10A
100
AcDbEntity
  8
AM_4
100
AcDbLine
 10
-52.80108511885644
 20
-14.4
 30
0.0
 11
-52.80108511885644
 21
-16.0
 31
0.0
  0
ENDBLK
  5
10D
330
10A
100
AcDbEntity
  8
0
100
AcDbBlockEnd
  0
ENDSEC
  0
SECTION
  2
ENTITIES
  0
INSERT
  5
6F
330
1F
100
AcDbEntity
  8
0
100
AcDbBlockReference
  2
1_125892_4
 10
0.0
 20
0.0
 30
0.0
  0
POINT
  5
166
330
1F
100
AcDbEntity
  8
ConnectionPoints
100
AcDbPoint
 10
0.0
 20
-51.3
 30
0.0000000000000031
  0
POINT
  5
167
330
1F
100
AcDbEntity
  8
ConnectionPoints
100
AcDbPoint
 10
0.0
 20
-24.10999999999999
 30
63.675
  0
POINT
  5
168
330
1F
100
AcDbEntity
  8
ConnectionPoints
100
AcDbPoint
 10
0.0
 20
-51.3
 30
0.0000000000000031
  0
ENDSEC
  0
SECTION
  2
OBJECTS
  0
DICTIONARY
  5
C
330
0
100
AcDbDictionary
281
     1
  3
ACAD_DETAILVIEWSTYLE
350
170
  3
ACAD_GROUP
350
D
  3
ACAD_LAYOUT
350
1A
  3
ACAD_MATERIAL
350
43
  3
ACAD_MLEADERSTYLE
350
6B
  3
ACAD_MLINESTYLE
350
17
  3
ACAD_PLOTSETTINGS
350
19
  3
ACAD_PLOTSTYLENAME
350
E
  3
ACAD_SCALELIST
350
47
  3
ACAD_SECTIONVIEWSTYLE
350
171
  3
ACAD_TABLESTYLE
350
69
  3
ACAD_VISUALSTYLE
350
2A
  3
ACDB_RECOMPOSE_DATA
350
16D
  3
AcDbVariableDictionary
350
169
  0
SUN
  5
6D
330
29
100
AcDbSun
 90
        1
290
     0
 63
     7
421
 16777215
 40
1.0
291
     1
 91
  2455826
 92
 54000000
292
     0
 70
     2
 71
   256
280
     1
  0
DICTIONARY
  5
170
102
{ACAD_REACTORS
330
C
102
}
330
C
100
AcDbDictionary
281
     1
  0
DICTIONARY
  5
D
102
{ACAD_REACTORS
330
C
102
}
330
C
100
AcDbDictionary
281
     1
  0
DICTIONARY
  5
1A
102
{ACAD_REACTORS
330
C
102
}
330
C
100
AcDbDictionary
281
     1
  3
Layout1
350
1E
  3
Layout2
350
26
  3
Model
350
22
  0
DICTIONARY
  5
43
102
{ACAD_REACTORS
330
C
102
}
330
C
100
AcDbDictionary
281
     1
  3
ByBlock
350
45
  3
ByLayer
350
44
  3
Global
350
46
  0
DICTIONARY
  5
6B
102
{ACAD_REACTORS
330
C
102
}
330
C
100
AcDbDictionary
281
     1
  3
Standard
350
6C
  0
DICTIONARY
  5
17
102
{ACAD_REACTORS
330
C
102
}
330
C
100
AcDbDictionary
281
     1
  3
Standard
350
18
  0
DICTIONARY
  5
19
102
{ACAD_REACTORS
330
C
102
}
330
C
100
AcDbDictionary
281
     1
  0
ACDBDICTIONARYWDFLT
  5
E
102
{ACAD_REACTORS
330
C
102
}
330
C
100
AcDbDictionary
281
     1
  3
Normal
350
F
100
AcDbDictionaryWithDefault
340
F
  0
DICTIONARY
  5
47
102
{ACAD_REACTORS
330
C
102
}
330
C
100
AcDbDictionary
281
     1
  3
A0
350
48
  3
A1
350
49
  3
A2
350
4A
  3
A3
350
4B
  3
A4
350
4C
  3
A5
350
4D
  3
A6
350
4E
  3
A7
350
4F
  3
A8
350
50
  3
A9
350
51
  3
B0
350
52
  3
B1
350
53
  3
B2
350
54
  3
B3
350
55
  3
B4
350
56
  3
B5
350
57
  3
B6
350
58
  3
B7
350
59
  3
B8
350
5A
  3
B9
350
5B
  3
C0
350
5C
  3
C1
350
5D
  3
C2
350
5E
  3
C3
350
5F
  3
C4
350
60
  3
C5
350
61
  3
C6
350
62
  3
C7
350
63
  3
C8
350
64
  3
C9
350
65
  3
D0
350
66
  3
D1
350
67
  3
D2
350
68
  0
DICTIONARY
  5
171
102
{ACAD_REACTORS
330
C
102
}
330
C
100
AcDbDictionary
281
     1
  0
DICTIONARY
  5
69
102
{ACAD_REACTORS
330
C
102
}
330
C
100
AcDbDictionary
281
     1
  3
Standard
350
6A
  0
DICTIONARY
  5
2A
102
{ACAD_REACTORS
330
C
102
}
330
C
100
AcDbDictionary
281
     1
  3
2dWireframe
350
2F
  3
Basic
350
32
  3
Brighten
350
36
  3
ColorChange
350
3A
  3
Conceptual
350
34
  3
Dim
350
35
  3
EdgeColorOff
350
3D
  3
Facepattern
350
39
  3
Flat
350
2B
  3
FlatWithEdges
350
2C
  3
Gouraud
350
2D
  3
GouraudWithEdges
350
2E
  3
Hidden
350
31
  3
JitterOff
350
3B
  3
Linepattern
350
38
  3
OverhangOff
350
3C
  3
Realistic
350
33
  3
Shaded
350
42
  3
Shaded with edges
350
41
  3
Shades of Gray
350
3E
  3
Sketchy
350
3F
  3
Thicken
350
37
  3
Wireframe
350
30
  3
X-Ray
350
40
  0
XRECORD
  5
16D
102
{ACAD_REACTORS
330
C
102
}
330
C
100
AcDbXrecord
280
     1
 90
        1
330
6A
  0
DICTIONARY
  5
169
102
{ACAD_REACTORS
330
C
102
}
330
C
100
AcDbDictionary
281
     1
  3
CANNOSCALE
350
16A
  3
CMLEADERSTYLE
350
16F
  3
CTABLESTYLE
350
16E
  0
LAYOUT
  5
1E
102
{ACAD_REACTORS
330
1A
102
}
330
1A
100
AcDbPlotSettings
  1

  2
none_device
  4

  6

 40
0.0
 41
0.0
 42
0.0
 43
0.0
 44
0.0
 45
0.0
 46
0.0
 47
0.0
 48
0.0
 49
0.0
140
0.0
141
0.0
142
1.0
143
1.0
 70
   688
 72
     1
 73
     0
 74
     5
  7

 75
    16
 76
     0
 77
     2
 78
   300
147
1.0
148
0.0
149
0.0
100
AcDbLayout
  1
Layout1
 70
     1
 71
     1
 10
0.0
 20
0.0
 11
420.0
 21
297.0
 12
0.0
 22
0.0
 32
0.0
 14
1.000000000000000E+20
 24
1.000000000000000E+20
 34
1.000000000000000E+20
 15
-1.000000000000000E+20
 25
-1.000000000000000E+20
 35
-1.000000000000000E+20
146
0.0
 13
0.0
 23
0.0
 33
0.0
 16
1.0
 26
0.0
 36
0.0
 17
0.0
 27
1.0
 37
0.0
 76
     0
330
1B
  0
LAYOUT
  5
26
102
{ACAD_REACTORS
330
1A
102
}
330
1A
100
AcDbPlotSettings
  1

  2
none_device
  4

  6

 40
0.0
 41
0.0
 42
0.0
 43
0.0
 44
0.0
 45
0.0
 46
0.0
 47
0.0
 48
0.0
 49
0.0
140
0.0
141
0.0
142
1.0
143
1.0
 70
   688
 72
     1
 73
     0
 74
     5
  7

 75
    16
 76
     0
 77
     2
 78
   300
147
1.0
148
0.0
149
0.0
100
AcDbLayout
  1
Layout2
 70
     1
 71
     2
 10
0.0
 20
0.0
 11
0.0
 21
0.0
 12
0.0
 22
0.0
 32
0.0
 14
0.0
 24
0.0
 34
0.0
 15
0.0
 25
0.0
 35
0.0
146
0.0
 13
0.0
 23
0.0
 33
0.0
 16
1.0
 26
0.0
 36
0.0
 17
0.0
 27
1.0
 37
0.0
 76
     0
330
23
  0
LAYOUT
  5
22
102
{ACAD_REACTORS
330
1A
102
}
330
1A
100
AcDbPlotSettings
  1

  2
none_device
  4
Letter_(8.50_x_11.00_Inches)
  6

 40
6.35
 41
6.35
 42
6.35000508
 43
6.35000508
 44
215.9
 45
279.4
 46
0.0
 47
0.0
 48
0.0
 49
0.0
140
0.0
141
0.0
142
1.0
143
1.0
 70
  1712
 72
     1
 73
     0
 74
     0
  7

 75
     0
 76
     0
 77
     2
 78
   300
147
1.0
148
0.0
149
0.0
100
AcDbLayout
  1
Model
 70
     1
 71
     0
 10
0.0
 20
0.0
 11
420.0
 21
297.0
 12
0.0
 22
0.0
 32
0.0
 14
1.000000000000000E+20
 24
1.000000000000000E+20
 34
1.000000000000000E+20
 15
-1.000000000000000E+20
 25
-1.000000000000000E+20
 35
-1.000000000000000E+20
146
0.0
 13
0.0
 23
0.0
 33
0.0
 16
1.0
 26
0.0
 36
0.0
 17
0.0
 27
1.0
 37
0.0
 76
     0
330
1F
331
29
  0
MATERIAL
  5
45
102
{ACAD_REACTORS
330
43
102
}
330
43
100
AcDbMaterial
  1
ByBlock
 72
     1
 94
      127
  0
MATERIAL
  5
44
102
{ACAD_REACTORS
330
43
102
}
330
43
100
AcDbMaterial
  1
ByLayer
 72
     1
 94
      127
  0
MATERIAL
  5
46
102
{ACAD_REACTORS
330
43
102
}
330
43
100
AcDbMaterial
  1
Global
 72
     1
 94
      127
  0
MLEADERSTYLE
  5
6C
102
{ACAD_REACTORS
330
6B
102
}
330
6B
100
AcDbMLeaderStyle
179
     2
170
     2
171
     1
172
     0
 90
        2
 40
0.0
 41
0.0
173
     1
 91
-1056964608
340
14
 92
       -2
290
     1
 42
2.0
291
     1
 43
8.0
  3
Standard
341
0
 44
4.0
300

342
11
174
     1
178
     6
175
     1
176
     0
 93
-1056964608
 45
4.0
292
     0
297
     0
 46
4.0
343
0
 94
-1056964608
 47
1.0
 49
1.0
140
1.0
293
     1
141
0.0
294
     1
177
     0
142
1.0
295
     0
296
     0
143
3.75
271
     0
272
     9
273
     9
298
     0
  0
MLINESTYLE
  5
18
102
{ACAD_REACTORS
330
17
102
}
330
17
100
AcDbMlineStyle
  2
Standard
 70
     0
  3

 62
   256
 51
90.0
 52
90.0
 71
     2
 49
0.5
 62
   256
  6
BYLAYER
 49
-0.5
 62
   256
  6
BYLAYER
  0
ACDBPLACEHOLDER
  5
F
102
{ACAD_REACTORS
330
E
102
}
330
E
  0
SCALE
  5
48
102
{ACAD_REACTORS
330
47
102
}
330
47
100
AcDbScale
 70
     0
300
1:1
140
1.0
141
1.0
290
     1
  0
SCALE
  5
49
102
{ACAD_REACTORS
330
47
102
}
330
47
100
AcDbScale
 70
     0
300
1:2
140
1.0
141
2.0
290
     0
  0
SCALE
  5
4A
102
{ACAD_REACTORS
330
47
102
}
330
47
100
AcDbScale
 70
     0
300
1:4
140
1.0
141
4.0
290
     0
  0
SCALE
  5
4B
102
{ACAD_REACTORS
330
47
102
}
330
47
100
AcDbScale
 70
     0
300
1:5
140
1.0
141
5.0
290
     0
  0
SCALE
  5
4C
102
{ACAD_REACTORS
330
47
102
}
330
47
100
AcDbScale
 70
     0
300
1:8
140
1.0
141
8.0
290
     0
  0
SCALE
  5
4D
102
{ACAD_REACTORS
330
47
102
}
330
47
100
AcDbScale
 70
     0
300
1:10
140
1.0
141
10.0
290
     0
  0
SCALE
  5
4E
102
{ACAD_REACTORS
330
47
102
}
330
47
100
AcDbScale
 70
     0
300
1:16
140
1.0
141
16.0
290
     0
  0
SCALE
  5
4F
102
{ACAD_REACTORS
330
47
102
}
330
47
100
AcDbScale
 70
     0
300
1:20
140
1.0
141
20.0
290
     0
  0
SCALE
  5
50
102
{ACAD_REACTORS
330
47
102
}
330
47
100
AcDbScale
 70
     0
300
1:30
140
1.0
141
30.0
290
     0
  0
SCALE
  5
51
102
{ACAD_REACTORS
330
47
102
}
330
47
100
AcDbScale
 70
     0
300
1:40
140
1.0
141
40.0
290
     0
  0
SCALE
  5
52
102
{ACAD_REACTORS
330
47
102
}
330
47
100
AcDbScale
 70
     0
300
1:50
140
1.0
141
50.0
290
     0
  0
SCALE
  5
53
102
{ACAD_REACTORS
330
47
102
}
330
47
100
AcDbScale
 70
     0
300
1:100
140
1.0
141
100.0
290
     0
  0
SCALE
  5
54
102
{ACAD_REACTORS
330
47
102
}
330
47
100
AcDbScale
 70
     0
300
2:1
140
2.0
141
1.0
290
     0
  0
SCALE
  5
55
102
{ACAD_REACTORS
330
47
102
}
330
47
100
AcDbScale
 70
     0
300
4:1
140
4.0
141
1.0
290
     0
  0
SCALE
  5
56
102
{ACAD_REACTORS
330
47
102
}
330
47
100
AcDbScale
 70
     0
300
8:1
140
8.0
141
1.0
290
     0
  0
SCALE
  5
57
102
{ACAD_REACTORS
330
47
102
}
330
47
100
AcDbScale
 70
     0
300
10:1
140
10.0
141
1.0
290
     0
  0
SCALE
  5
58
102
{ACAD_REACTORS
330
47
102
}
330
47
100
AcDbScale
 70
     0
300
100:1
140
100.0
141
1.0
290
     0
  0
SCALE
  5
59
102
{ACAD_REACTORS
330
47
102
}
330
47
100
AcDbScale
 70
     0
300
1/128" = 1'-0"
140
0.0078125
141
12.0
290
     0
  0
SCALE
  5
5A
102
{ACAD_REACTORS
330
47
102
}
330
47
100
AcDbScale
 70
     0
300
1/64" = 1'-0"
140
0.015625
141
12.0
290
     0
  0
SCALE
  5
5B
102
{ACAD_REACTORS
330
47
102
}
330
47
100
AcDbScale
 70
     0
300
1/32" = 1'-0"
140
0.03125
141
12.0
290
     0
  0
SCALE
  5
5C
102
{ACAD_REACTORS
330
47
102
}
330
47
100
AcDbScale
 70
     0
300
1/16" = 1'-0"
140
0.0625
141
12.0
290
     0
  0
SCALE
  5
5D
102
{ACAD_REACTORS
330
47
102
}
330
47
100
AcDbScale
 70
     0
300
3/32" = 1'-0"
140
0.09375
141
12.0
290
     0
  0
SCALE
  5
5E
102
{ACAD_REACTORS
330
47
102
}
330
47
100
AcDbScale
 70
     0
300
1/8" = 1'-0"
140
0.125
141
12.0
290
     0
  0
SCALE
  5
5F
102
{ACAD_REACTORS
330
47
102
}
330
47
100
AcDbScale
 70
     0
300
3/16" = 1'-0"
140
0.1875
141
12.0
290
     0
  0
SCALE
  5
60
102
{ACAD_REACTORS
330
47
102
}
330
47
100
AcDbScale
 70
     0
300
1/4" = 1'-0"
140
0.25
141
12.0
290
     0
  0
SCALE
  5
61
102
{ACAD_REACTORS
330
47
102
}
330
47
100
AcDbScale
 70
     0
300
3/8" = 1'-0"
140
0.375
141
12.0
290
     0
  0
SCALE
  5
62
102
{ACAD_REACTORS
330
47
102
}
330
47
100
AcDbScale
 70
     0
300
1/2" = 1'-0"
140
0.5
141
12.0
290
     0
  0
SCALE
  5
63
102
{ACAD_REACTORS
330
47
102
}
330
47
100
AcDbScale
 70
     0
300
3/4" = 1'-0"
140
0.75
141
12.0
290
     0
  0
SCALE
  5
64
102
{ACAD_REACTORS
330
47
102
}
330
47
100
AcDbScale
 70
     0
300
1" = 1'-0"
140
1.0
141
12.0
290
     0
  0
SCALE
  5
65
102
{ACAD_REACTORS
330
47
102
}
330
47
100
AcDbScale
 70
     0
300
1-1/2" = 1'-0"
140
1.5
141
12.0
290
     0
  0
SCALE
  5
66
102
{ACAD_REACTORS
330
47
102
}
330
47
100
AcDbScale
 70
     0
300
3" = 1'-0"
140
3.0
141
12.0
290
     0
  0
SCALE
  5
67
102
{ACAD_REACTORS
330
47
102
}
330
47
100
AcDbScale
 70
     0
300
6" = 1'-0"
140
6.0
141
12.0
290
     0
  0
SCALE
  5
68
102
{ACAD_REACTORS
330
47
102
}
330
47
100
AcDbScale
 70
     0
300
1'-0" = 1'-0"
140
12.0
141
12.0
290
     0
  0
TABLESTYLE
  5
6A
102
{ACAD_REACTORS
330
69
102
}
102
{ACAD_XDICTIONARY
360
16B
102
}
330
69
100
AcDbTableStyle
  3
Standard
 70
     0
 71
     0
 40
0.06
 41
0.06
280
     0
281
     0
  7
Standard
140
4.5
170
     2
 62
     0
 63
   257
283
     0
 90
        4
 91
        0
  1

274
    -2
284
     1
 64
     0
275
    -2
285
     1
 65
     0
276
    -2
286
     1
 66
     0
277
    -2
287
     1
 67
     0
278
    -2
288
     1
 68
     0
279
    -2
289
     1
 69
     0
  7
Standard
140
6.0
170
     5
 62
     0
 63
   257
283
     0
 90
        4
 91
        0
  1

274
    -2
284
     1
 64
     0
275
    -2
285
     1
 65
     0
276
    -2
286
     1
 66
     0
277
    -2
287
     1
 67
     0
278
    -2
288
     1
 68
     0
279
    -2
289
     1
 69
     0
  7
Standard
140
4.5
170
     5
 62
     0
 63
   257
283
     0
 90
        4
 91
        0
  1

274
    -2
284
     1
 64
     0
275
    -2
285
     1
 65
     0
276
    -2
286
     1
 66
     0
277
    -2
287
     1
 67
     0
278
    -2
288
     1
 68
     0
279
    -2
289
     1
 69
     0
  0
VISUALSTYLE
  5
2F
102
{ACAD_REACTORS
330
2A
102
}
330
2A
100
AcDbVisualStyle
  2
2dWireframe
 70
     4
177
     3
291
     0
 70
    58
 90
        0
176
     1
 90
        2
176
     1
 90
        0
176
     1
 90
        0
176
     1
 40
0.6
176
     1
 40
30.0
176
     1
 62
     7
420
 16777215
176
     1
 90
        1
176
     1
 90
        4
176
     1
 62
     7
176
     1
 62
   257
176
     1
 90
        1
176
     1
 90
        1
176
     1
 40
1.0
176
     1
 90
        0
176
     1
 62
   257
176
     1
 40
1.0
176
     1
 90
        1
176
     1
 90
        6
176
     1
 90
        2
176
     1
 62
     7
176
     1
 90
        5
176
     1
 90
        0
176
     1
 90
        0
176
     1
290
     0
176
     1
 90
        1
176
     1
 40
0.0
176
     1
 90
        0
176
     1
290
     1
176
     1
290
     1
176
     1
290
     0
176
     1
290
     0
176
     1
290
     0
176
     1
290
     0
176
     1
290
     0
176
     1
290
     0
176
     1
290
     0
176
     1
 90
       50
176
     1
 40
0.0
176
     1
 40
1.0
176
     1
 90
        0
176
     1
 62
    18
420
        0
176
     1
 90
       50
176
     1
 90
        3
176
     1
 62
     5
420
      255
176
     1
290
     0
176
     1
 90
       50
176
     1
 90
       50
176
     1
 90
       50
176
     1
290
     0
176
     1
 90
       50
176
     1
 62
   256
176
     0
 40
1.0
176
     0
 90
        2
176
     1
  1
strokes_ogs.tif
176
     1
290
     0
176
     1
 40
1.0
176
     1
 40
1.0
176
     1
  0
VISUALSTYLE
  5
32
102
{ACAD_REACTORS
330
2A
102
}
330
2A
100
AcDbVisualStyle
  2
Basic
 70
     7
177
     3
291
     1
 70
    58
 90
        1
176
     1
 90
        0
176
     1
 90
        1
176
     1
 90
        0
176
     1
 40
0.6
176
     1
 40
30.0
176
     1
 62
     7
420
 16777215
176
     1
 90
        0
176
     1
 90
        4
176
     1
 62
     7
176
     1
 62
   257
176
     1
 90
        1
176
     1
 90
        1
176
     1
 40
1.0
176
     1
 90
        8
176
     1
 62
     7
176
     1
 40
1.0
176
     1
 90
        1
176
     1
 90
        6
176
     1
 90
        2
176
     1
 62
     7
176
     1
 90
        5
176
     1
 90
        0
176
     1
 90
        0
176
     1
290
     0
176
     1
 90
        1
176
     1
 40
0.0
176
     1
 90
        0
176
     1
290
     0
176
     1
290
     1
176
     1
290
     1
176
     1
290
     0
176
     1
290
     0
176
     1
290
     0
176
     1
290
     0
176
     1
290
     0
176
     1
290
     0
176
     1
 90
       50
176
     1
 40
0.0
176
     1
 40
1.0
176
     1
 90
        0
176
     1
 62
    18
420
        0
176
     1
 90
       50
176
     1
 90
        3
176
     1
 62
     5
420
      255
176
     1
290
     0
176
     1
 90
       50
176
     1
 90
       50
176
     1
 90
       50
176
     1
290
     0
176
     1
 90
       50
176
     1
 62
   256
176
     0
 40
1.0
176
     0
 90
        2
176
     1
  1
strokes_ogs.tif
176
     1
290
     0
176
     1
 40
1.0
176
     1
 40
1.0
176
     1
  0
VISUALSTYLE
  5
36
102
{ACAD_REACTORS
330
2A
102
}
330
2A
100
AcDbVisualStyle
  2
Brighten
 70
    12
177
     3
291
     1
 70
    58
 90
        2
176
     1
 90
        2
176
     1
 90
        0
176
     1
 90
        0
176
     1
 40
0.6
176
     1
 40
30.0
176
     1
 62
     7
420
 16777215
176
     1
 90
        1
176
     1
 90
        4
176
     1
 62
     7
176
     1
 62
   257
176
     1
 90
        1
176
     1
 90
        1
176
     1
 40
1.0
176
     1
 90
        8
176
     1
 62
     7
176
     1
 40
1.0
176
     1
 90
        1
176
     1
 90
        6
176
     1
 90
        2
176
     1
 62
     7
176
     1
 90
        5
176
     1
 90
        0
176
     1
 90
        0
176
     1
290
     0
176
     1
 90
        1
176
     1
 40
50.0
176
     1
 90
        0
176
     1
290
     0
176
     1
290
     1
176
     1
290
     1
176
     1
290
     0
176
     1
290
     0
176
     1
290
     0
176
     1
290
     0
176
     1
290
     0
176
     1
290
     0
176
     1
 90
       50
176
     1
 40
0.0
176
     1
 40
1.0
176
     1
 90
        0
176
     1
 62
    18
420
        0
176
     1
 90
       50
176
     1
 90
        3
176
     1
 62
     5
420
      255
176
     1
290
     0
176
     1
 90
       50
176
     1
 90
       50
176
     1
 90
       50
176
     1
290
     0
176
     1
 90
       50
176
     1
 62
   256
176
     0
 40
1.0
176
     0
 90
        2
176
     1
  1
strokes_ogs.tif
176
     1
290
     0
176
     1
 40
1.0
176
     1
 40
1.0
176
     1
  0
VISUALSTYLE
  5
3A
102
{ACAD_REACTORS
330
2A
102
}
330
2A
100
AcDbVisualStyle
  2
ColorChange
 70
    16
177
     3
291
     1
 70
    58
 90
        2
176
     1
 90
        2
176
     1
 90
        3
176
     1
 90
        0
176
     1
 40
0.6
176
     1
 40
30.0
176
     1
 62
     8
420
  8421504
176
     1
 90
        1
176
     1
 90
        4
176
     1
 62
     7
176
     1
 62
   257
176
     1
 90
        1
176
     1
 90
        1
176
     1
 40
1.0
176
     1
 90
        8
176
     1
 62
     8
420
  8421504
176
     1
 40
1.0
176
     1
 90
        1
176
     1
 90
        6
176
     1
 90
        2
176
     1
 62
     7
176
     1
 90
        5
176
     1
 90
        0
176
     1
 90
        0
176
     1
290
     0
176
     1
 90
        1
176
     1
 40
0.0
176
     1
 90
        0
176
     1
290
     0
176
     1
290
     1
176
     1
290
     1
176
     1
290
     0
176
     1
290
     0
176
     1
290
     0
176
     1
290
     0
176
     1
290
     0
176
     1
290
     0
176
     1
 90
       50
176
     1
 40
0.0
176
     1
 40
1.0
176
     1
 90
        0
176
     1
 62
    18
420
        0
176
     1
 90
       50
176
     1
 90
        3
176
     1
 62
     5
420
      255
176
     1
290
     0
176
     1
 90
       50
176
     1
 90
       50
176
     1
 90
       50
176
     1
290
     0
176
     1
 90
       50
176
     1
 62
   256
176
     0
 40
1.0
176
     0
 90
        2
176
     1
  1
strokes_ogs.tif
176
     1
290
     0
176
     1
 40
1.0
176
     1
 40
1.0
176
     1
  0
VISUALSTYLE
  5
34
102
{ACAD_REACTORS
330
2A
102
}
330
2A
100
AcDbVisualStyle
  2
Conceptual
 70
     9
177
     3
291
     0
 70
    58
 90
        3
176
     1
 90
        2
176
     1
 90
        0
176
     1
 90
        0
176
     1
 40
0.6
176
     1
 40
30.0
176
     1
 62
     7
420
 16777215
176
     1
 90
        2
176
     1
 90
        2
176
     1
 62
     7
176
     1
 62
   257
176
     1
 90
        1
176
     1
 90
        1
176
     1
 40
179.0
176
     1
 90
        8
176
     1
 62
     7
176
     1
 40
1.0
176
     1
 90
        1
176
     1
 90
        6
176
     1
 90
        2
176
     1
 62
     7
176
     1
 90
        3
176
     1
 90
        0
176
     1
 90
        0
176
     1
290
     0
176
     1
 90
        1
176
     1
 40
0.0
176
     1
 90
        0
176
     1
290
     0
176
     1
290
     1
176
     1
290
     1
176
     1
290
     0
176
     1
290
     0
176
     1
290
     0
176
     1
290
     0
176
     1
290
     0
176
     1
290
     0
176
     1
 90
       50
176
     1
 40
0.0
176
     1
 40
1.0
176
     1
 90
        0
176
     1
 62
    18
420
        0
176
     1
 90
       50
176
     1
 90
        3
176
     1
 62
     5
420
      255
176
     1
290
     0
176
     1
 90
       50
176
     1
 90
       50
176
     1
 90
       50
176
     1
290
     0
176
     1
 90
       50
176
     1
 62
   256
176
     0
 40
1.0
176
     0
 90
        2
176
     1
  1
strokes_ogs.tif
176
     1
290
     0
176
     1
 40
1.0
176
     1
 40
1.0
176
     1
  0
VISUALSTYLE
  5
35
102
{ACAD_REACTORS
330
2A
102
}
330
2A
100
AcDbVisualStyle
  2
Dim
 70
    11
177
     3
291
     1
 70
    58
 90
        2
176
     1
 90
        2
176
     1
 90
        0
176
     1
 90
        0
176
     1
 40
0.6
176
     1
 40
30.0
176
     1
 62
     7
420
 16777215
176
     1
 90
        1
176
     1
 90
        4
176
     1
 62
     7
176
     1
 62
   257
176
     1
 90
        1
176
     1
 90
        1
176
     1
 40
1.0
176
     1
 90
        8
176
     1
 62
     7
176
     1
 40
1.0
176
     1
 90
        1
176
     1
 90
        6
176
     1
 90
        2
176
     1
 62
     7
176
     1
 90
        5
176
     1
 90
        0
176
     1
 90
        0
176
     1
290
     0
176
     1
 90
        1
176
     1
 40
-50.0
176
     1
 90
        0
176
     1
290
     0
176
     1
290
     1
176
     1
290
     1
176
     1
290
     0
176
     1
290
     0
176
     1
290
     0
176
     1
290
     0
176
     1
290
     0
176
     1
290
     0
176
     1
 90
       50
176
     1
 40
0.0
176
     1
 40
1.0
176
     1
 90
        0
176
     1
 62
    18
420
        0
176
     1
 90
       50
176
     1
 90
        3
176
     1
 62
     5
420
      255
176
     1
290
     0
176
     1
 90
       50
176
     1
 90
       50
176
     1
 90
       50
176
     1
290
     0
176
     1
 90
       50
176
     1
 62
   256
176
     0
 40
1.0
176
     0
 90
        2
176
     1
  1
strokes_ogs.tif
176
     1
290
     0
176
     1
 40
1.0
176
     1
 40
1.0
176
     1
  0
VISUALSTYLE
  5
3D
102
{ACAD_REACTORS
330
2A
102
}
330
2A
100
AcDbVisualStyle
  2
EdgeColorOff
 70
    22
177
     3
291
     1
 70
    58
 90
        2
176
     0
 90
        2
176
     0
 90
        0
176
     0
 90
        0
176
     0
 40
0.6
176
     0
 40
30.0
176
     0
 62
     7
420
 16777215
176
     0
 90
        1
176
     0
 90
        4
176
     0
 62
     7
176
     0
 62
   257
176
     0
 90
        1
176
     0
 90
        1
176
     0
 40
1.0
176
     0
 90
        8
176
     2
 62
     7
176
     0
 40
1.0
176
     0
 90
        1
176
     0
 90
        6
176
     0
 90
        2
176
     0
 62
     7
176
     0
 90
        5
176
     0
 90
        0
176
     0
 90
        0
176
     0
290
     0
176
     0
 90
        1
176
     0
 40
0.0
176
     0
 90
        0
176
     0
290
     0
176
     0
290
     1
176
     0
290
     1
176
     0
290
     0
176
     0
290
     0
176
     0
290
     0
176
     0
290
     0
176
     0
290
     0
176
     0
290
     0
176
     0
 90
       50
176
     0
 40
0.0
176
     0
 40
1.0
176
     0
 90
        0
176
     0
 62
    18
420
        0
176
     0
 90
       50
176
     0
 90
        3
176
     0
 62
     5
420
      255
176
     0
290
     0
176
     0
 90
       50
176
     0
 90
       50
176
     0
 90
       50
176
     0
290
     0
176
     0
 90
       50
176
     0
 62
   256
176
     0
 40
1.0
176
     0
 90
        2
176
     0
  1
strokes_ogs.tif
176
     0
290
     0
176
     0
 40
1.0
176
     0
 40
1.0
176
     0
  0
VISUALSTYLE
  5
39
102
{ACAD_REACTORS
330
2A
102
}
330
2A
100
AcDbVisualStyle
  2
Facepattern
 70
    15
177
     3
291
     1
 70
    58
 90
        2
176
     1
 90
        2
176
     1
 90
        0
176
     1
 90
        0
176
     1
 40
0.6
176
     1
 40
30.0
176
     1
 62
     7
420
 16777215
176
     1
 90
        1
176
     1
 90
        4
176
     1
 62
     7
176
     1
 62
   257
176
     1
 90
        1
176
     1
 90
        1
176
     1
 40
1.0
176
     1
 90
        8
176
     1
 62
     7
176
     1
 40
1.0
176
     1
 90
        1
176
     1
 90
        6
176
     1
 90
        2
176
     1
 62
     7
176
     1
 90
        5
176
     1
 90
        0
176
     1
 90
        0
176
     1
290
     0
176
     1
 90
        1
176
     1
 40
0.0
176
     1
 90
        0
176
     1
290
     0
176
     1
290
     1
176
     1
290
     1
176
     1
290
     0
176
     1
290
     0
176
     1
290
     0
176
     1
290
     0
176
     1
290
     0
176
     1
290
     0
176
     1
 90
       50
176
     1
 40
0.0
176
     1
 40
1.0
176
     1
 90
        0
176
     1
 62
    18
420
        0
176
     1
 90
       50
176
     1
 90
        3
176
     1
 62
     5
420
      255
176
     1
290
     0
176
     1
 90
       50
176
     1
 90
       50
176
     1
 90
       50
176
     1
290
     0
176
     1
 90
       50
176
     1
 62
   256
176
     0
 40
1.0
176
     0
 90
        2
176
     1
  1
strokes_ogs.tif
176
     1
290
     0
176
     1
 40
1.0
176
     1
 40
1.0
176
     1
  0
VISUALSTYLE
  5
2B
102
{ACAD_REACTORS
330
2A
102
}
330
2A
100
AcDbVisualStyle
  2
Flat
 70
     0
177
     3
291
     1
 70
    58
 90
        2
176
     1
 90
        1
176
     1
 90
        1
176
     1
 90
        2
176
     1
 40
0.6
176
     1
 40
30.0
176
     1
 62
     7
420
 16777215
176
     1
 90
        0
176
     1
 90
        0
176
     1
 62
     7
176
     1
 62
   257
176
     1
 90
        1
176
     1
 90
        1
176
     1
 40
1.0
176
     1
 90
        8
176
     1
 62
     7
176
     1
 40
1.0
176
     1
 90
        1
176
     1
 90
        6
176
     1
 90
        2
176
     1
 62
     7
176
     1
 90
        5
176
     1
 90
        0
176
     1
 90
        0
176
     1
290
     0
176
     1
 90
       13
176
     1
 40
0.0
176
     1
 90
        0
176
     1
290
     0
176
     1
290
     1
176
     1
290
     1
176
     1
290
     0
176
     1
290
     0
176
     1
290
     0
176
     1
290
     0
176
     1
290
     0
176
     1
290
     0
176
     1
 90
       50
176
     1
 40
0.0
176
     1
 40
1.0
176
     1
 90
        0
176
     1
 62
    18
420
        0
176
     1
 90
       50
176
     1
 90
        3
176
     1
 62
     5
420
      255
176
     1
290
     0
176
     1
 90
       50
176
     1
 90
       50
176
     1
 90
       50
176
     1
290
     0
176
     1
 90
       50
176
     1
 62
   256
176
     0
 40
1.0
176
     0
 90
        2
176
     1
  1
strokes_ogs.tif
176
     1
290
     0
176
     1
 40
1.0
176
     1
 40
1.0
176
     1
  0
VISUALSTYLE
  5
2C
102
{ACAD_REACTORS
330
2A
102
}
330
2A
100
AcDbVisualStyle
  2
FlatWithEdges
 70
     1
177
     3
291
     1
 70
    58
 90
        2
176
     1
 90
        1
176
     1
 90
        1
176
     1
 90
        2
176
     1
 40
0.6
176
     1
 40
30.0
176
     1
 62
     7
420
 16777215
176
     1
 90
        1
176
     1
 90
        0
176
     1
 62
     7
176
     1
 62
   257
176
     1
 90
        1
176
     1
 90
        1
176
     1
 40
1.0
176
     1
 90
        0
176
     1
 62
   257
176
     1
 40
1.0
176
     1
 90
        1
176
     1
 90
        6
176
     1
 90
        2
176
     1
 62
     7
176
     1
 90
        5
176
     1
 90
        0
176
     1
 90
        0
176
     1
290
     0
176
     1
 90
       13
176
     1
 40
0.0
176
     1
 90
        0
176
     1
290
     0
176
     1
290
     1
176
     1
290
     1
176
     1
290
     0
176
     1
290
     0
176
     1
290
     0
176
     1
290
     0
176
     1
290
     0
176
     1
290
     0
176
     1
 90
       50
176
     1
 40
0.0
176
     1
 40
1.0
176
     1
 90
        0
176
     1
 62
    18
420
        0
176
     1
 90
       50
176
     1
 90
        3
176
     1
 62
     5
420
      255
176
     1
290
     0
176
     1
 90
       50
176
     1
 90
       50
176
     1
 90
       50
176
     1
290
     0
176
     1
 90
       50
176
     1
 62
   256
176
     0
 40
1.0
176
     0
 90
        2
176
     1
  1
strokes_ogs.tif
176
     1
290
     0
176
     1
 40
1.0
176
     1
 40
1.0
176
     1
  0
VISUALSTYLE
  5
2D
102
{ACAD_REACTORS
330
2A
102
}
330
2A
100
AcDbVisualStyle
  2
Gouraud
 70
     2
177
     3
291
     1
 70
    58
 90
        2
176
     1
 90
        2
176
     1
 90
        1
176
     1
 90
        2
176
     1
 40
0.6
176
     1
 40
30.0
176
     1
 62
     7
420
 16777215
176
     1
 90
        0
176
     1
 90
        0
176
     1
 62
     7
176
     1
 62
   257
176
     1
 90
        1
176
     1
 90
        1
176
     1
 40
1.0
176
     1
 90
        0
176
     1
 62
     7
176
     1
 40
1.0
176
     1
 90
        1
176
     1
 90
        6
176
     1
 90
        2
176
     1
 62
     7
176
     1
 90
        5
176
     1
 90
        0
176
     1
 90
        0
176
     1
290
     0
176
     1
 90
       13
176
     1
 40
0.0
176
     1
 90
        0
176
     1
290
     0
176
     1
290
     1
176
     1
290
     1
176
     1
290
     0
176
     1
290
     0
176
     1
290
     0
176
     1
290
     0
176
     1
290
     0
176
     1
290
     0
176
     1
 90
       50
176
     1
 40
0.0
176
     1
 40
1.0
176
     1
 90
        0
176
     1
 62
    18
420
        0
176
     1
 90
       50
176
     1
 90
        3
176
     1
 62
     5
420
      255
176
     1
290
     0
176
     1
 90
       50
176
     1
 90
       50
176
     1
 90
       50
176
     1
290
     0
176
     1
 90
       50
176
     1
 62
   256
176
     0
 40
1.0
176
     0
 90
        2
176
     1
  1
strokes_ogs.tif
176
     1
290
     0
176
     1
 40
1.0
176
     1
 40
1.0
176
     1
  0
VISUALSTYLE
  5
2E
102
{ACAD_REACTORS
330
2A
102
}
330
2A
100
AcDbVisualStyle
  2
GouraudWithEdges
 70
     3
177
     3
291
     1
 70
    58
 90
        2
176
     1
 90
        2
176
     1
 90
        1
176
     1
 90
        2
176
     1
 40
0.6
176
     1
 40
30.0
176
     1
 62
     7
420
 16777215
176
     1
 90
        1
176
     1
 90
        0
176
     1
 62
     7
176
     1
 62
   257
176
     1
 90
        1
176
     1
 90
        1
176
     1
 40
1.0
176
     1
 90
        0
176
     1
 62
   257
176
     1
 40
1.0
176
     1
 90
        1
176
     1
 90
        6
176
     1
 90
        2
176
     1
 62
     7
176
     1
 90
        5
176
     1
 90
        0
176
     1
 90
        0
176
     1
290
     0
176
     1
 90
       13
176
     1
 40
0.0
176
     1
 90
        0
176
     1
290
     0
176
     1
290
     1
176
     1
290
     1
176
     1
290
     0
176
     1
290
     0
176
     1
290
     0
176
     1
290
     0
176
     1
290
     0
176
     1
290
     0
176
     1
 90
       50
176
     1
 40
0.0
176
     1
 40
1.0
176
     1
 90
        0
176
     1
 62
    18
420
        0
176
     1
 90
       50
176
     1
 90
        3
176
     1
 62
     5
420
      255
176
     1
290
     0
176
     1
 90
       50
176
     1
 90
       50
176
     1
 90
       50
176
     1
290
     0
176
     1
 90
       50
176
     1
 62
   256
176
     0
 40
1.0
176
     0
 90
        2
176
     1
  1
strokes_ogs.tif
176
     1
290
     0
176
     1
 40
1.0
176
     1
 40
1.0
176
     1
  0
VISUALSTYLE
  5
31
102
{ACAD_REACTORS
330
2A
102
}
330
2A
100
AcDbVisualStyle
  2
Hidden
 70
     6
177
     3
291
     0
 70
    58
 90
        1
176
     1
 90
        2
176
     1
 90
        2
176
     1
 90
        0
176
     1
 40
0.6
176
     1
 40
30.0
176
     1
 62
     7
420
 16777215
176
     1
 90
        2
176
     1
 90
        2
176
     1
 62
     7
176
     1
 62
   257
176
     1
 90
        2
176
     1
 90
        1
176
     1
 40
40.0
176
     1
 90
        0
176
     1
 62
   257
176
     1
 40
1.0
176
     1
 90
        1
176
     1
 90
        6
176
     1
 90
        2
176
     1
 62
     7
176
     1
 90
        3
176
     1
 90
        0
176
     1
 90
        0
176
     1
290
     0
176
     1
 90
        1
176
     1
 40
0.0
176
     1
 90
        0
176
     1
290
     0
176
     1
290
     1
176
     1
290
     1
176
     1
290
     0
176
     1
290
     0
176
     1
290
     0
176
     1
290
     0
176
     1
290
     0
176
     1
290
     0
176
     1
 90
       50
176
     1
 40
0.0
176
     1
 40
1.0
176
     1
 90
        0
176
     1
 62
    18
420
        0
176
     1
 90
       50
176
     1
 90
        3
176
     1
 62
     5
420
      255
176
     1
290
     0
176
     1
 90
       50
176
     1
 90
       50
176
     1
 90
       50
176
     1
290
     0
176
     1
 90
       50
176
     1
 62
   256
176
     0
 40
1.0
176
     0
 90
        2
176
     1
  1
strokes_ogs.tif
176
     1
290
     0
176
     1
 40
1.0
176
     1
 40
1.0
176
     1
  0
VISUALSTYLE
  5
3B
102
{ACAD_REACTORS
330
2A
102
}
330
2A
100
AcDbVisualStyle
  2
JitterOff
 70
    20
177
     3
291
     1
 70
    58
 90
        2
176
     0
 90
        2
176
     0
 90
        0
176
     0
 90
        0
176
     0
 40
0.6
176
     0
 40
30.0
176
     0
 62
     7
420
 16777215
176
     0
 90
        1
176
     0
 90
        4
176
     0
 62
     7
176
     0
 62
   257
176
     0
 90
        1
176
     0
 90
        1
176
     0
 40
1.0
176
     0
 90
       10
176
     2
 62
     7
176
     0
 40
1.0
176
     0
 90
        1
176
     0
 90
        6
176
     0
 90
        2
176
     0
 62
     7
176
     0
 90
        5
176
     0
 90
        0
176
     0
 90
        0
176
     0
290
     0
176
     0
 90
        1
176
     0
 40
0.0
176
     0
 90
        0
176
     0
290
     0
176
     0
290
     1
176
     0
290
     1
176
     0
290
     0
176
     0
290
     0
176
     0
290
     0
176
     0
290
     0
176
     0
290
     0
176
     0
290
     0
176
     0
 90
       50
176
     0
 40
0.0
176
     0
 40
1.0
176
     0
 90
        0
176
     0
 62
    18
420
        0
176
     0
 90
       50
176
     0
 90
        3
176
     0
 62
     5
420
      255
176
     0
290
     0
176
     0
 90
       50
176
     0
 90
       50
176
     0
 90
       50
176
     0
290
     0
176
     0
 90
       50
176
     0
 62
   256
176
     0
 40
1.0
176
     0
 90
        2
176
     0
  1
strokes_ogs.tif
176
     0
290
     0
176
     0
 40
1.0
176
     0
 40
1.0
176
     0
  0
VISUALSTYLE
  5
38
102
{ACAD_REACTORS
330
2A
102
}
330
2A
100
AcDbVisualStyle
  2
Linepattern
 70
    14
177
     3
291
     1
 70
    58
 90
        2
176
     1
 90
        2
176
     1
 90
        0
176
     1
 90
        0
176
     1
 40
0.6
176
     1
 40
30.0
176
     1
 62
     7
420
 16777215
176
     1
 90
        1
176
     1
 90
        4
176
     1
 62
     7
176
     1
 62
   257
176
     1
 90
        7
176
     1
 90
        7
176
     1
 40
1.0
176
     1
 90
        8
176
     1
 62
     7
176
     1
 40
1.0
176
     1
 90
        1
176
     1
 90
        6
176
     1
 90
        2
176
     1
 62
     7
176
     1
 90
        5
176
     1
 90
        0
176
     1
 90
        0
176
     1
290
     0
176
     1
 90
        1
176
     1
 40
0.0
176
     1
 90
        0
176
     1
290
     0
176
     1
290
     1
176
     1
290
     1
176
     1
290
     0
176
     1
290
     0
176
     1
290
     0
176
     1
290
     0
176
     1
290
     0
176
     1
290
     0
176
     1
 90
       50
176
     1
 40
0.0
176
     1
 40
1.0
176
     1
 90
        0
176
     1
 62
    18
420
        0
176
     1
 90
       50
176
     1
 90
        3
176
     1
 62
     5
420
      255
176
     1
290
     0
176
     1
 90
       50
176
     1
 90
       50
176
     1
 90
       50
176
     1
290
     0
176
     1
 90
       50
176
     1
 62
   256
176
     0
 40
1.0
176
     0
 90
        2
176
     1
  1
strokes_ogs.tif
176
     1
290
     0
176
     1
 40
1.0
176
     1
 40
1.0
176
     1
  0
VISUALSTYLE
  5
3C
102
{ACAD_REACTORS
330
2A
102
}
330
2A
100
AcDbVisualStyle
  2
OverhangOff
 70
    21
177
     3
291
     1
 70
    58
 90
        2
176
     0
 90
        2
176
     0
 90
        0
176
     0
 90
        0
176
     0
 40
0.6
176
     0
 40
30.0
176
     0
 62
     7
420
 16777215
176
     0
 90
        1
176
     0
 90
        4
176
     0
 62
     7
176
     0
 62
   257
176
     0
 90
        1
176
     0
 90
        1
176
     0
 40
1.0
176
     0
 90
        9
176
     2
 62
     7
176
     0
 40
1.0
176
     0
 90
        1
176
     0
 90
        6
176
     0
 90
        2
176
     0
 62
     7
176
     0
 90
        5
176
     0
 90
        0
176
     0
 90
        0
176
     0
290
     0
176
     0
 90
        1
176
     0
 40
0.0
176
     0
 90
        0
176
     0
290
     0
176
     0
290
     1
176
     0
290
     1
176
     0
290
     0
176
     0
290
     0
176
     0
290
     0
176
     0
290
     0
176
     0
290
     0
176
     0
290
     0
176
     0
 90
       50
176
     0
 40
0.0
176
     0
 40
1.0
176
     0
 90
        0
176
     0
 62
    18
420
        0
176
     0
 90
       50
176
     0
 90
        3
176
     0
 62
     5
420
      255
176
     0
290
     0
176
     0
 90
       50
176
     0
 90
       50
176
     0
 90
       50
176
     0
290
     0
176
     0
 90
       50
176
     0
 62
   256
176
     0
 40
1.0
176
     0
 90
        2
176
     0
  1
strokes_ogs.tif
176
     0
290
     0
176
     0
 40
1.0
176
     0
 40
1.0
176
     0
  0
VISUALSTYLE
  5
33
102
{ACAD_REACTORS
330
2A
102
}
330
2A
100
AcDbVisualStyle
  2
Realistic
 70
     8
177
     3
291
     0
 70
    58
 90
        2
176
     1
 90
        3
176
     1
 90
        0
176
     1
 90
        2
176
     1
 40
0.6
176
     1
 40
30.0
176
     1
 62
     7
420
 16777215
176
     1
 90
        0
176
     1
 90
        0
176
     1
 62
     7
176
     1
 62
   257
176
     1
 90
        1
176
     1
 90
        1
176
     1
 40
1.0
176
     1
 90
        8
176
     1
 62
   257
176
     1
 40
1.0
176
     1
 90
        1
176
     1
 90
        6
176
     1
 90
        2
176
     1
 62
     7
176
     1
 90
        3
176
     1
 90
        0
176
     1
 90
        0
176
     1
290
     0
176
     1
 90
       13
176
     1
 40
0.0
176
     1
 90
        0
176
     1
290
     0
176
     1
290
     1
176
     1
290
     1
176
     1
290
     0
176
     1
290
     0
176
     1
290
     0
176
     1
290
     0
176
     1
290
     0
176
     1
290
     0
176
     1
 90
       50
176
     1
 40
0.0
176
     1
 40
1.0
176
     1
 90
        0
176
     1
 62
    18
420
        0
176
     1
 90
       50
176
     1
 90
        3
176
     1
 62
     5
420
      255
176
     1
290
     0
176
     1
 90
       50
176
     1
 90
       50
176
     1
 90
       50
176
     1
290
     0
176
     1
 90
       50
176
     1
 62
   256
176
     0
 40
1.0
176
     0
 90
        2
176
     1
  1
strokes_ogs.tif
176
     1
290
     0
176
     1
 40
1.0
176
     1
 40
1.0
176
     1
  0
VISUALSTYLE
  5
42
102
{ACAD_REACTORS
330
2A
102
}
330
2A
100
AcDbVisualStyle
  2
Shaded
 70
    27
177
     3
291
     0
 70
    58
 90
        2
176
     1
 90
        2
176
     1
 90
        1
176
     1
 90
        2
176
     1
 40
0.6
176
     1
 40
30.0
176
     1
 62
     7
420
 16777215
176
     1
 90
        0
176
     1
 90
        4
176
     1
 62
     7
176
     1
 62
   257
176
     1
 90
        1
176
     1
 90
        1
176
     1
 40
1.0
176
     1
 90
        8
176
     1
 62
   257
176
     1
 40
1.0
176
     1
 90
        1
176
     1
 90
        6
176
     1
 90
        2
176
     1
 62
     8
420
  7895160
176
     1
 90
        3
176
     1
 90
        0
176
     1
 90
        0
176
     1
290
     0
176
     1
 90
        5
176
     1
 40
0.0
176
     1
 90
        0
176
     1
290
     0
176
     1
290
     1
176
     1
290
     1
176
     1
290
     0
176
     1
290
     0
176
     1
290
     0
176
     1
290
     0
176
     1
290
     0
176
     1
290
     0
176
     1
 90
       50
176
     1
 40
0.0
176
     1
 40
1.0
176
     1
 90
        0
176
     1
 62
    18
420
        0
176
     1
 90
       50
176
     1
 90
        3
176
     1
 62
     5
420
      255
176
     1
290
     0
176
     1
 90
       50
176
     1
 90
       50
176
     1
 90
       50
176
     1
290
     0
176
     1
 90
       50
176
     1
 62
   256
176
     0
 40
1.0
176
     0
 90
        2
176
     1
  1
strokes_ogs.tif
176
     1
290
     0
176
     1
 40
1.0
176
     1
 40
1.0
176
     1
  0
VISUALSTYLE
  5
41
102
{ACAD_REACTORS
330
2A
102
}
330
2A
100
AcDbVisualStyle
  2
Shaded with edges
 70
    26
177
     3
291
     0
 70
    58
 90
        2
176
     1
 90
        2
176
     1
 90
        1
176
     1
 90
        2
176
     1
 40
0.6
176
     1
 40
30.0
176
     1
 62
     7
420
 16777215
176
     1
 90
        1
176
     1
 90
       10
176
     1
 62
     7
176
     1
 62
   257
176
     1
 90
        2
176
     1
 90
        1
176
     1
 40
1.0
176
     1
 90
        8
176
     1
 62
   257
176
     1
 40
1.0
176
     1
 90
        1
176
     1
 90
        6
176
     1
 90
        2
176
     1
 62
     7
176
     1
 90
        3
176
     1
 90
        0
176
     1
 90
        0
176
     1
290
     0
176
     1
 90
        5
176
     1
 40
0.0
176
     1
 90
        0
176
     1
290
     0
176
     1
290
     1
176
     1
290
     1
176
     1
290
     0
176
     1
290
     0
176
     1
290
     0
176
     1
290
     0
176
     1
290
     0
176
     1
290
     0
176
     1
 90
       50
176
     1
 40
0.0
176
     1
 40
1.0
176
     1
 90
        0
176
     1
 62
    18
420
        0
176
     1
 90
       50
176
     1
 90
        3
176
     1
 62
     5
420
      255
176
     1
290
     0
176
     1
 90
       50
176
     1
 90
       50
176
     1
 90
       50
176
     1
290
     0
176
     1
 90
       50
176
     1
 62
   256
176
     0
 40
1.0
176
     0
 90
        2
176
     1
  1
strokes_ogs.tif
176
     1
290
     0
176
     1
 40
1.0
176
     1
 40
1.0
176
     1
  0
VISUALSTYLE
  5
3E
102
{ACAD_REACTORS
330
2A
102
}
330
2A
100
AcDbVisualStyle
  2
Shades of Gray
 70
    23
177
     3
291
     0
 70
    58
 90
        2
176
     1
 90
        2
176
     1
 90
        3
176
     1
 90
        0
176
     1
 40
0.6
176
     1
 40
30.0
176
     1
 62
     7
420
 16777215
176
     1
 90
        2
176
     1
 90
        2
176
     1
 62
     7
176
     1
 62
     7
176
     1
 90
        1
176
     1
 90
        1
176
     1
 40
40.0
176
     1
 90
        8
176
     1
 62
     7
176
     1
 40
1.0
176
     1
 90
        1
176
     1
 90
        6
176
     1
 90
        2
176
     1
 62
     7
176
     1
 90
        3
176
     1
 90
        0
176
     1
 90
        0
176
     1
290
     0
176
     1
 90
        1
176
     1
 40
0.0
176
     1
 90
        0
176
     1
290
     0
176
     1
290
     1
176
     1
290
     1
176
     1
290
     0
176
     1
290
     0
176
     1
290
     0
176
     1
290
     0
176
     1
290
     0
176
     1
290
     0
176
     1
 90
       50
176
     1
 40
0.0
176
     1
 40
1.0
176
     1
 90
        0
176
     1
 62
    18
420
        0
176
     1
 90
       50
176
     1
 90
        3
176
     1
 62
     5
420
      255
176
     1
290
     0
176
     1
 90
       50
176
     1
 90
       50
176
     1
 90
       50
176
     1
290
     0
176
     1
 90
       50
176
     1
 62
   256
176
     0
 40
1.0
176
     0
 90
        2
176
     1
  1
strokes_ogs.tif
176
     1
290
     0
176
     1
 40
1.0
176
     1
 40
1.0
176
     1
  0
VISUALSTYLE
  5
3F
102
{ACAD_REACTORS
330
2A
102
}
330
2A
100
AcDbVisualStyle
  2
Sketchy
 70
    24
177
     3
291
     0
 70
    58
 90
        1
176
     1
 90
        2
176
     1
 90
        2
176
     1
 90
        0
176
     1
 40
0.6
176
     1
 40
30.0
176
     1
 62
     7
420
 16777215
176
     1
 90
        2
176
     1
 90
        2
176
     1
 62
     7
176
     1
 62
     7
176
     1
 90
        1
176
     1
 90
        1
176
     1
 40
40.0
176
     1
 90
       11
176
     1
 62
     7
176
     1
 40
1.0
176
     1
 90
        1
176
     1
 90
        6
176
     1
 90
        2
176
     1
 62
     7
176
     1
 90
        6
176
     1
 90
        0
176
     1
 90
        0
176
     1
290
     0
176
     1
 90
        1
176
     1
 40
0.0
176
     1
 90
        0
176
     1
290
     0
176
     1
290
     1
176
     1
290
     1
176
     1
290
     0
176
     1
290
     0
176
     1
290
     0
176
     1
290
     0
176
     1
290
     0
176
     1
290
     0
176
     1
 90
       50
176
     1
 40
0.0
176
     1
 40
1.0
176
     1
 90
        0
176
     1
 62
    18
420
        0
176
     1
 90
       50
176
     1
 90
        3
176
     1
 62
     5
420
      255
176
     1
290
     0
176
     1
 90
       50
176
     1
 90
       50
176
     1
 90
       50
176
     1
290
     0
176
     1
 90
       50
176
     1
 62
   256
176
     0
 40
1.0
176
     0
 90
        2
176
     1
  1
strokes_ogs.tif
176
     1
290
     0
176
     1
 40
1.0
176
     1
 40
1.0
176
     1
  0
VISUALSTYLE
  5
37
102
{ACAD_REACTORS
330
2A
102
}
330
2A
100
AcDbVisualStyle
  2
Thicken
 70
    13
177
     3
291
     1
 70
    58
 90
        2
176
     1
 90
        2
176
     1
 90
        0
176
     1
 90
        0
176
     1
 40
0.6
176
     1
 40
30.0
176
     1
 62
     7
420
 16777215
176
     1
 90
        1
176
     1
 90
        4
176
     1
 62
     7
176
     1
 62
   257
176
     1
 90
        1
176
     1
 90
        1
176
     1
 40
1.0
176
     1
 90
       12
176
     1
 62
     7
176
     1
 40
1.0
176
     1
 90
        1
176
     1
 90
        6
176
     1
 90
        2
176
     1
 62
     7
176
     1
 90
        5
176
     1
 90
        0
176
     1
 90
        0
176
     1
290
     0
176
     1
 90
        1
176
     1
 40
0.0
176
     1
 90
        0
176
     1
290
     0
176
     1
290
     1
176
     1
290
     1
176
     1
290
     0
176
     1
290
     0
176
     1
290
     0
176
     1
290
     0
176
     1
290
     0
176
     1
290
     0
176
     1
 90
       50
176
     1
 40
0.0
176
     1
 40
1.0
176
     1
 90
        0
176
     1
 62
    18
420
        0
176
     1
 90
       50
176
     1
 90
        3
176
     1
 62
     5
420
      255
176
     1
290
     0
176
     1
 90
       50
176
     1
 90
       50
176
     1
 90
       50
176
     1
290
     0
176
     1
 90
       50
176
     1
 62
   256
176
     0
 40
1.0
176
     0
 90
        2
176
     1
  1
strokes_ogs.tif
176
     1
290
     0
176
     1
 40
1.0
176
     1
 40
1.0
176
     1
  0
VISUALSTYLE
  5
30
102
{ACAD_REACTORS
330
2A
102
}
330
2A
100
AcDbVisualStyle
  2
Wireframe
 70
     5
177
     3
291
     0
 70
    58
 90
        0
176
     1
 90
        2
176
     1
 90
        0
176
     1
 90
        0
176
     1
 40
0.6
176
     1
 40
30.0
176
     1
 62
     7
420
 16777215
176
     1
 90
        1
176
     1
 90
        4
176
     1
 62
     7
176
     1
 62
   257
176
     1
 90
        1
176
     1
 90
        1
176
     1
 40
1.0
176
     1
 90
        0
176
     1
 62
   257
176
     1
 40
1.0
176
     1
 90
        1
176
     1
 90
        6
176
     1
 90
        2
176
     1
 62
     7
176
     1
 90
        3
176
     1
 90
        0
176
     1
 90
        0
176
     1
290
     0
176
     1
 90
        1
176
     1
 40
0.0
176
     1
 90
        0
176
     1
290
     0
176
     1
290
     1
176
     1
290
     1
176
     1
290
     0
176
     1
290
     0
176
     1
290
     0
176
     1
290
     0
176
     1
290
     0
176
     1
290
     0
176
     1
 90
       50
176
     1
 40
0.0
176
     1
 40
1.0
176
     1
 90
        0
176
     1
 62
    18
420
        0
176
     1
 90
       50
176
     1
 90
        3
176
     1
 62
     5
420
      255
176
     1
290
     0
176
     1
 90
       50
176
     1
 90
       50
176
     1
 90
       50
176
     1
290
     0
176
     1
 90
       50
176
     1
 62
   256
176
     0
 40
1.0
176
     0
 90
        2
176
     1
  1
strokes_ogs.tif
176
     1
290
     0
176
     1
 40
1.0
176
     1
 40
1.0
176
     1
  0
VISUALSTYLE
  5
40
102
{ACAD_REACTORS
330
2A
102
}
330
2A
100
AcDbVisualStyle
  2
X-Ray
 70
    25
177
     3
291
     0
 70
    58
 90
        2
176
     1
 90
        2
176
     1
 90
        1
176
     1
 90
        1
176
     1
 40
0.5
176
     1
 40
30.0
176
     1
 62
     7
420
 16777215
176
     1
 90
        1
176
     1
 90
        0
176
     1
 62
     7
176
     1
 62
   257
176
     1
 90
        1
176
     1
 90
        1
176
     1
 40
1.0
176
     1
 90
        8
176
     1
 62
     7
176
     1
 40
1.0
176
     1
 90
        1
176
     1
 90
        6
176
     1
 90
        2
176
     1
 62
     7
176
     1
 90
        3
176
     1
 90
        0
176
     1
 90
        0
176
     1
290
     0
176
     1
 90
       13
176
     1
 40
0.0
176
     1
 90
        0
176
     1
290
     0
176
     1
290
     1
176
     1
290
     1
176
     1
290
     0
176
     1
290
     0
176
     1
290
     0
176
     1
290
     0
176
     1
290
     0
176
     1
290
     0
176
     1
 90
       50
176
     1
 40
0.0
176
     1
 40
1.0
176
     1
 90
        0
176
     1
 62
    18
420
        0
176
     1
 90
       50
176
     1
 90
        3
176
     1
 62
     5
420
      255
176
     1
290
     0
176
     1
 90
       50
176
     1
 90
       50
176
     1
 90
       50
176
     1
290
     0
176
     1
 90
       50
176
     1
 62
   256
176
     0
 40
1.0
176
     0
 90
        2
176
     1
  1
strokes_ogs.tif
176
     1
290
     0
176
     1
 40
1.0
176
     1
 40
1.0
176
     1
  0
DICTIONARYVAR
  5
16A
102
{ACAD_REACTORS
330
169
102
}
330
169
100
DictionaryVariables
280
     0
  1
1:1
  0
DICTIONARYVAR
  5
16F
102
{ACAD_REACTORS
330
169
102
}
330
169
100
DictionaryVariables
280
     0
  1
Standard
  0
DICTIONARYVAR
  5
16E
102
{ACAD_REACTORS
330
169
102
}
330
169
100
DictionaryVariables
280
     0
  1
Standard
  0
DICTIONARY
  5
16B
330
6A
100
AcDbDictionary
280
     1
281
     1
  3
ACAD_ROUNDTRIP_2008_TABLESTYLE_CELLSTYLEMAP
360
16C
  0
CELLSTYLEMAP
  5
16C
102
{ACAD_REACTORS
330
16B
102
}
330
16B
100
AcDbCellStyleMap
 90
        3
300
CELLSTYLE
  1
TABLEFORMAT_BEGIN
 90
        5
170
     1
 91
        0
 92
    32768
 62
   257
 93
        1
300
CONTENTFORMAT
  1
CONTENTFORMAT_BEGIN
 90
        0
 91
        0
 92
        4
 93
        0
300

 40
0.0
140
1.0
 94
        5
 62
     0
340
11
144
6.0
309
CONTENTFORMAT_END
171
     1
301
MARGIN
  1
CELLMARGIN_BEGIN
 40
1.5
 40
1.5
 40
1.5
 40
1.5
 40
1.5
 40
1.5
309
CELLMARGIN_END
 94
        6
 95
        1
302
GRIDFORMAT
  1
GRIDFORMAT_BEGIN
 90
        0
 91
        1
 62
     0
 92
       -2
340
14
 93
        0
 40
0.045
309
GRIDFORMAT_END
 95
        2
302
GRIDFORMAT
  1
GRIDFORMAT_BEGIN
 90
        0
 91
        1
 62
     0
 92
       -2
340
14
 93
        0
 40
0.045
309
GRIDFORMAT_END
 95
        4
302
GRIDFORMAT
  1
GRIDFORMAT_BEGIN
 90
        0
 91
        1
 62
     0
 92
       -2
340
14
 93
        0
 40
0.045
309
GRIDFORMAT_END
 95
        8
302
GRIDFORMAT
  1
GRIDFORMAT_BEGIN
 90
        0
 91
        1
 62
     0
 92
       -2
340
14
 93
        0
 40
0.045
309
GRIDFORMAT_END
 95
       16
302
GRIDFORMAT
  1
GRIDFORMAT_BEGIN
 90
        0
 91
        1
 62
     0
 92
       -2
340
14
 93
        0
 40
0.045
309
GRIDFORMAT_END
 95
       32
302
GRIDFORMAT
  1
GRIDFORMAT_BEGIN
 90
        0
 91
        1
 62
     0
 92
       -2
340
14
 93
        0
 40
0.045
309
GRIDFORMAT_END
309
TABLEFORMAT_END
  1
CELLSTYLE_BEGIN
 90
        1
 91
        1
300
_TITLE
309
CELLSTYLE_END
300
CELLSTYLE
  1
TABLEFORMAT_BEGIN
 90
        5
170
     1
 91
        0
 92
        0
 62
   257
 93
        1
300
CONTENTFORMAT
  1
CONTENTFORMAT_BEGIN
 90
        0
 91
        0
 92
        4
 93
        0
300

 40
0.0
140
1.0
 94
        5
 62
     0
340
11
144
4.5
309
CONTENTFORMAT_END
171
     1
301
MARGIN
  1
CELLMARGIN_BEGIN
 40
1.5
 40
1.5
 40
1.5
 40
1.5
 40
1.5
 40
1.5
309
CELLMARGIN_END
 94
        6
 95
        1
302
GRIDFORMAT
  1
GRIDFORMAT_BEGIN
 90
        0
 91
        1
 62
     0
 92
       -2
340
14
 93
        0
 40
0.045
309
GRIDFORMAT_END
 95
        2
302
GRIDFORMAT
  1
GRIDFORMAT_BEGIN
 90
        0
 91
        1
 62
     0
 92
       -2
340
14
 93
        0
 40
0.045
309
GRIDFORMAT_END
 95
        4
302
GRIDFORMAT
  1
GRIDFORMAT_BEGIN
 90
        0
 91
        1
 62
     0
 92
       -2
340
14
 93
        0
 40
0.045
309
GRIDFORMAT_END
 95
        8
302
GRIDFORMAT
  1
GRIDFORMAT_BEGIN
 90
        0
 91
        1
 62
     0
 92
       -2
340
14
 93
        0
 40
0.045
309
GRIDFORMAT_END
 95
       16
302
GRIDFORMAT
  1
GRIDFORMAT_BEGIN
 90
        0
 91
        1
 62
     0
 92
       -2
340
14
 93
        0
 40
0.045
309
GRIDFORMAT_END
 95
       32
302
GRIDFORMAT
  1
GRIDFORMAT_BEGIN
 90
        0
 91
        1
 62
     0
 92
       -2
340
14
 93
        0
 40
0.045
309
GRIDFORMAT_END
309
TABLEFORMAT_END
  1
CELLSTYLE_BEGIN
 90
        2
 91
        1
300
_HEADER
309
CELLSTYLE_END
300
CELLSTYLE
  1
TABLEFORMAT_BEGIN
 90
        5
170
     1
 91
        0
 92
        0
 62
   257
 93
        1
300
CONTENTFORMAT
  1
CONTENTFORMAT_BEGIN
 90
        0
 91
        0
 92
        4
 93
        0
300

 40
0.0
140
1.0
 94
        2
 62
     0
340
11
144
4.5
309
CONTENTFORMAT_END
171
     1
301
MARGIN
  1
CELLMARGIN_BEGIN
 40
1.5
 40
1.5
 40
1.5
 40
1.5
 40
1.5
 40
1.5
309
CELLMARGIN_END
 94
        6
 95
        1
302
GRIDFORMAT
  1
GRIDFORMAT_BEGIN
 90
        0
 91
        1
 62
     0
 92
       -2
340
14
 93
        0
 40
0.045
309
GRIDFORMAT_END
 95
        2
302
GRIDFORMAT
  1
GRIDFORMAT_BEGIN
 90
        0
 91
        1
 62
     0
 92
       -2
340
14
 93
        0
 40
0.045
309
GRIDFORMAT_END
 95
        4
302
GRIDFORMAT
  1
GRIDFORMAT_BEGIN
 90
        0
 91
        1
 62
     0
 92
       -2
340
14
 93
        0
 40
0.045
309
GRIDFORMAT_END
 95
        8
302
GRIDFORMAT
  1
GRIDFORMAT_BEGIN
 90
        0
 91
        1
 62
     0
 92
       -2
340
14
 93
        0
 40
0.045
309
GRIDFORMAT_END
 95
       16
302
GRIDFORMAT
  1
GRIDFORMAT_BEGIN
 90
        0
 91
        1
 62
     0
 92
       -2
340
14
 93
        0
 40
0.045
309
GRIDFORMAT_END
 95
       32
302
GRIDFORMAT
  1
GRIDFORMAT_BEGIN
 90
        0
 91
        1
 62
     0
 92
       -2
340
14
 93
        0
 40
0.045
309
GRIDFORMAT_END
309
TABLEFORMAT_END
  1
CELLSTYLE_BEGIN
 90
        3
 91
        2
300
_DATA
309
CELLSTYLE_END
  0
ENDSEC
  0
EOF