0
SECTION
  2
HEADER
  9
$ACADVER
  1
AC1027
  9
$ACADMAINTVER
 70
     8
  9
$DWGCODEPAGE
  3
ANSI_1252
  9
$REQUIREDVERSIONS
160
                 0
  9
$COMMENTS
  1
File was created by Cadenas
  9
$CUSTOMPROPERTYTAG
  1
NN
  9
$CUSTOMPROPERTY
  1
Set Screw Four-Bolt Flange Metric Bore
  9
$CUSTOMPROPERTYTAG
  1
NT
  9
$CUSTOMPROPERTY
  1
SC 4 Bolt Flange Bearings -(Normal Duty)
  9
$CUSTOMPROPERTYTAG
  1
NB
  9
$CUSTOMPROPERTY
  1
125892
  9
$CUSTOMPROPERTYTAG
  1
NBSYN
  9
$CUSTOMPROPERTY
  1
$PN.
  9
$CUSTOMPROPERTYTAG
  1
LINA
  9
$CUSTOMPROPERTY
  1
125892
  9
$CUSTOMPROPERTYTAG
  1
SERIES
  9
$CUSTOMPROPERTY
  1
210
  9
$CUSTOMPROPERTYTAG
  1
SS
  9
$CUSTOMPROPERTY
  1
50
  9
$CUSTOMPROPERTYTAG
  1
PN
  9
$CUSTOMPROPERTY
  1
125892
  9
$CUSTOMPROPERTYTAG
  1
DESCRIPTION
  9
$CUSTOMPROPERTY
  1
F4B-SC-50M
  9
$CUSTOMPROPERTYTAG
  1
WEIGHT
  9
$CUSTOMPROPERTY
  1
3.0
  9
$CUSTOMPROPERTYTAG
  1
LF
  9
$CUSTOMPROPERTY
  1
RE-LUBE
  9
$CUSTOMPROPERTYTAG
  1
A
  9
$CUSTOMPROPERTY
  1
49.3
  9
$CUSTOMPROPERTYTAG
  1
B
  9
$CUSTOMPROPERTY
  1
143.0
  9
$CUSTOMPROPERTYTAG
  1
C
  9
$CUSTOMPROPERTY
  1
51.3
  9
$CUSTOMPROPERTYTAG
  1
D
  9
$CUSTOMPROPERTY
  1
111.3
  9
$CUSTOMPROPERTYTAG
  1
F
  9
$CUSTOMPROPERTY
  1
M16
  9
$CUSTOMPROPERTYTAG
  1
H
  9
$CUSTOMPROPERTY
  1
16.0
  9
$CUSTOMPROPERTYTAG
  1
J
  9
$CUSTOMPROPERTY
  1
14.0
  9
$CUSTOMPROPERTYTAG
  1
L
  9
$CUSTOMPROPERTY
  1
61.7
  9
$CUSTOMPROPERTYTAG
  1
N
  9
$CUSTOMPROPERTY
  1
73.2
  9
$CUSTOMPROPERTYTAG
  1
COMPANY
  9
$CUSTOMPROPERTY
  1
baldor
  9
$INSBASE
 10
0.0
 20
0.0
 30
0.0
  9
$EXTMIN
 10
1.000000000000000E+20
 20
1.000000000000000E+20
 30
1.000000000000000E+20
  9
$EXTMAX
 10
-1.000000000000000E+20
 20
-1.000000000000000E+20
 30
-1.000000000000000E+20
  9
$LIMMIN
 10
0.0
 20
0.0
  9
$LIMMAX
 10
420.0
 20
297.0
  9
$ORTHOMODE
 70
     0
  9
$REGENMODE
 70
     1
  9
$FILLMODE
 70
     1
  9
$QTEXTMODE
 70
     0
  9
$MIRRTEXT
 70
     1
  9
$LTSCALE
 40
1.0
  9
$ATTMODE
 70
     1
  9
$TEXTSIZE
 40
2.5
  9
$TRACEWID
 40
1.0
  9
$TEXTSTYLE
  7
Standard
  9
$CLAYER
  8
0
  9
$CELTYPE
  6
ByLayer
  9
$CECOLOR
 62
   256
  9
$CELTSCALE
 40
1.0
  9
$DISPSILH
 70
     0
  9
$DIMSCALE
 40
1.0
  9
$DIMASZ
 40
2.5
  9
$DIMEXO
 40
0.625
  9
$DIMDLI
 40
3.75
  9
$DIMRND
 40
0.0
  9
$DIMDLE
 40
0.0
  9
$DIMEXE
 40
1.25
  9
$DIMTP
 40
0.0
  9
$DIMTM
 40
0.0
  9
$DIMTXT
 40
2.5
  9
$DIMCEN
 40
2.5
  9
$DIMTSZ
 40
0.0
  9
$DIMTOL
 70
     0
  9
$DIMLIM
 70
     0
  9
$DIMTIH
 70
     0
  9
$DIMTOH
 70
     0
  9
$DIMSE1
 70
     0
  9
$DIMSE2
 70
     0
  9
$DIMTAD
 70
     1
  9
$DIMZIN
 70
     8
  9
$DIMBLK
  1

  9
$DIMASO
 70
     1
  9
$DIMSHO
 70
     1
  9
$DIMPOST
  1

  9
$DIMAPOST
  1

  9
$DIMALT
 70
     0
  9
$DIMALTD
 70
     3
  9
$DIMALTF
 40
0.03937007874016
  9
$DIMLFAC
 40
1.0
  9
$DIMTOFL
 70
     1
  9
$DIMTVP
 40
0.0
  9
$DIMTIX
 70
     0
  9
$DIMSOXD
 70
     0
  9
$DIMSAH
 70
     0
  9
$DIMBLK1
  1

  9
$DIMBLK2
  1

  9
$DIMSTYLE
  2
ISO-25
  9
$DIMCLRD
 70
     0
  9
$DIMCLRE
 70
     0
  9
$DIMCLRT
 70
     0
  9
$DIMTFAC
 40
1.0
  9
$DIMGAP
 40
0.625
  9
$DIMJUST
 70
     0
  9
$DIMSD1
 70
     0
  9
$DIMSD2
 70
     0
  9
$DIMTOLJ
 70
     0
  9
$DIMTZIN
 70
     8
  9
$DIMALTZ
 70
     0
  9
$DIMALTTZ
 70
     0
  9
$DIMUPT
 70
     0
  9
$DIMDEC
 70
     2
  9
$DIMTDEC
 70
     2
  9
$DIMALTU
 70
     2
  9
$DIMALTTD
 70
     3
  9
$DIMTXSTY
  7
Standard
  9
$DIMAUNIT
 70
     0
  9
$DIMADEC
 70
     0
  9
$DIMALTRND
 40
0.0
  9
$DIMAZIN
 70
     0
  9
$DIMDSEP
 70
    44
  9
$DIMATFIT
 70
     3
  9
$DIMFRAC
 70
     0
  9
$DIMLDRBLK
  1

  9
$DIMLUNIT
 70
     2
  9
$DIMLWD
 70
    -2
  9
$DIMLWE
 70
    -2
  9
$DIMTMOVE
 70
     0
  9
$DIMFXL
 40
1.0
  9
$DIMFXLON
 70
     0
  9
$DIMJOGANG
 40
0.7853981633974483
  9
$DIMTFILL
 70
     0
  9
$DIMTFILLCLR
 70
     0
  9
$DIMARCSYM
 70
     0
  9
$DIMLTYPE
  6

  9
$DIMLTEX1
  6

  9
$DIMLTEX2
  6

  9
$DIMTXTDIRECTION
 70
     0
  9
$LUNITS
 70
     2
  9
$LUPREC
 70
     4
  9
$SKETCHINC
 40
1.0
  9
$FILLETRAD
 40
10.0
  9
$AUNITS
 70
     0
  9
$AUPREC
 70
     0
  9
$MENU
  1
.
  9
$ELEVATION
 40
0.0
  9
$PELEVATION
 40
0.0
  9
$THICKNESS
 40
0.0
  9
$LIMCHECK
 70
     0
  9
$CHAMFERA
 40
0.0
  9
$CHAMFERB
 40
0.0
  9
$CHAMFERC
 40
0.0
  9
$CHAMFERD
 40
0.0
  9
$SKPOLY
 70
     0
  9
$TDCREATE
 40
2458168.98740919
  9
$TDUCREATE
 40
2458168.945742523
  9
$TDUPDATE
 40
2458168.987409364
  9
$TDUUPDATE
 40
2458168.945742697
  9
$TDINDWG
 40
0.0000000116
  9
$TDUSRTIMER
 40
0.0000000116
  9
$USRTIMER
 70
     1
  9
$ANGBASE
 50
0.0
  9
$ANGDIR
 70
     0
  9
$PDMODE
 70
     0
  9
$PDSIZE
 40
0.0
  9
$PLINEWID
 40
0.0
  9
$SPLFRAME
 70
     0
  9
$SPLINETYPE
 70
     6
  9
$SPLINESEGS
 70
     8
  9
$HANDSEED
  5
17E
  9
$SURFTAB1
 70
     6
  9
$SURFTAB2
 70
     6
  9
$SURFTYPE
 70
     6
  9
$SURFU
 70
     6
  9
$SURFV
 70
     6
  9
$UCSBASE
  2

  9
$UCSNAME
  2

  9
$UCSORG
 10
0.0
 20
0.0
 30
0.0
  9
$UCSXDIR
 10
1.0
 20
0.0
 30
0.0
  9
$UCSYDIR
 10
0.0
 20
1.0
 30
0.0
  9
$UCSORTHOREF
  2

  9
$UCSORTHOVIEW
 70
     0
  9
$UCSORGTOP
 10
0.0
 20
0.0
 30
0.0
  9
$UCSORGBOTTOM
 10
0.0
 20
0.0
 30
0.0
  9
$UCSORGLEFT
 10
0.0
 20
0.0
 30
0.0
  9
$UCSORGRIGHT
 10
0.0
 20
0.0
 30
0.0
  9
$UCSORGFRONT
 10
0.0
 20
0.0
 30
0.0
  9
$UCSORGBACK
 10
0.0
 20
0.0
 30
0.0
  9
$PUCSBASE
  2

  9
$PUCSNAME
  2

  9
$PUCSORG
 10
0.0
 20
0.0
 30
0.0
  9
$PUCSXDIR
 10
1.0
 20
0.0
 30
0.0
  9
$PUCSYDIR
 10
0.0
 20
1.0
 30
0.0
  9
$PUCSORTHOREF
  2

  9
$PUCSORTHOVIEW
 70
     0
  9
$PUCSORGTOP
 10
0.0
 20
0.0
 30
0.0
  9
$PUCSORGBOTTOM
 10
0.0
 20
0.0
 30
0.0
  9
$PUCSORGLEFT
 10
0.0
 20
0.0
 30
0.0
  9
$PUCSORGRIGHT
 10
0.0
 20
0.0
 30
0.0
  9
$PUCSORGFRONT
 10
0.0
 20
0.0
 30
0.0
  9
$PUCSORGBACK
 10
0.0
 20
0.0
 30
0.0
  9
$USERI1
 70
     0
  9
$USERI2
 70
     0
  9
$USERI3
 70
     0
  9
$USERI4
 70
     0
  9
$USERI5
 70
     0
  9
$USERR1
 40
0.0
  9
$USERR2
 40
0.0
  9
$USERR3
 40
0.0
  9
$USERR4
 40
0.0
  9
$USERR5
 40
0.0
  9
$WORLDVIEW
 70
     1
  9
$SHADEDGE
 70
     3
  9
$SHADEDIF
 70
    70
  9
$TILEMODE
 70
     1
  9
$MAXACTVP
 70
    64
  9
$PINSBASE
 10
0.0
 20
0.0
 30
0.0
  9
$PLIMCHECK
 70
     0
  9
$PEXTMIN
 10
1.000000000000000E+20
 20
1.000000000000000E+20
 30
1.000000000000000E+20
  9
$PEXTMAX
 10
-1.000000000000000E+20
 20
-1.000000000000000E+20
 30
-1.000000000000000E+20
  9
$PLIMMIN
 10
0.0
 20
0.0
  9
$PLIMMAX
 10
420.0
 20
297.0
  9
$UNITMODE
 70
     0
  9
$VISRETAIN
 70
     1
  9
$PLINEGEN
 70
     0
  9
$PSLTSCALE
 70
     1
  9
$TREEDEPTH
 70
  3020
  9
$CMLSTYLE
  2
Standard
  9
$CMLJUST
 70
     0
  9
$CMLSCALE
 40
20.0
  9
$PROXYGRAPHICS
 70
     1
  9
$MEASUREMENT
 70
     1
  9
$CELWEIGHT
370
    -1
  9
$ENDCAPS
280
     0
  9
$JOINSTYLE
280
     0
  9
$LWDISPLAY
290
     0
  9
$INSUNITS
 70
     4
  9
$HYPERLINKBASE
  1

  9
$STYLESHEET
  1

  9
$XEDIT
290
     1
  9
$CEPSNTYPE
380
     0
  9
$PSTYLEMODE
290
     1
  9
$FINGERPRINTGUID
  2
{20A5665F-B6BF-48CC-86A2-4AC09715276E}
  9
$VERSIONGUID
  2
{FAEB1C32-E019-11D5-929B-00C0DF256EC4}
  9
$EXTNAMES
290
     1
  9
$PSVPSCALE
 40
0.0
  9
$OLESTARTUP
290
     0
  9
$SORTENTS
280
   127
  9
$INDEXCTL
280
     0
  9
$HIDETEXT
280
     1
  9
$XCLIPFRAME
280
     2
  9
$HALOGAP
280
     0
  9
$OBSCOLOR
 70
   257
  9
$OBSLTYPE
280
     0
  9
$INTERSECTIONDISPLAY
280
     0
  9
$INTERSECTIONCOLOR
 70
   257
  9
$DIMASSOC
280
     2
  9
$PROJECTNAME
  1

  9
$CAMERADISPLAY
290
     0
  9
$LENSLENGTH
 40
50.0
  9
$CAMERAHEIGHT
 40
0.0
  9
$STEPSPERSEC
 40
2.0
  9
$STEPSIZE
 40
6.0
  9
$3DDWFPREC
 40
2.0
  9
$PSOLWIDTH
 40
5.0
  9
$PSOLHEIGHT
 40
80.0
  9
$LOFTANG1
 40
1.570796326794897
  9
$LOFTANG2
 40
1.570796326794897
  9
$LOFTMAG1
 40
0.0
  9
$LOFTMAG2
 40
0.0
  9
$LOFTPARAM
 70
     7
  9
$LOFTNORMALS
280
     1
  9
$LATITUDE
 40
37.795
  9
$LONGITUDE
 40
-122.394
  9
$NORTHDIRECTION
 40
0.0
  9
$TIMEZONE
 70
 -8000
  9
$LIGHTGLYPHDISPLAY
280
     1
  9
$TILEMODELIGHTSYNCH
280
     1
  9
$CMATERIAL
347
44
  9
$SOLIDHIST
280
     0
  9
$SHOWHIST
280
     1
  9
$DWFFRAME
280
     2
  9
$DGNFRAME
280
     2
  9
$REALWORLDSCALE
290
     1
  9
$INTERFERECOLOR
 62
   256
  9
$CSHADOW
280
     0
  9
$SHADOWPLANELOCATION
 40
0.0
  0
ENDSEC
  0
SECTION
  2
CLASSES
  0
CLASS
  1
ACDBDICTIONARYWDFLT
  2
AcDbDictionaryWithDefault
  3
ObjectDBX Classes
 90
        0
 91
        4
280
     0
281
     0
  0
CLASS
  1
VISUALSTYLE
  2
AcDbVisualStyle
  3
ObjectDBX Classes
 90
     4095
 91
        4
280
     0
281
     0
  0
CLASS
  1
MATERIAL
  2
AcDbMaterial
  3
ObjectDBX Classes
 90
     1153
 91
        4
280
     0
281
     0
  0
CLASS
  1
SCALE
  2
AcDbScale
  3
ObjectDBX Classes
 90
     1153
 91
        4
280
     0
281
     0
  0
CLASS
  1
TABLESTYLE
  2
AcDbTableStyle
  3
ObjectDBX Classes
 90
     4095
 91
        4
280
     0
281
     0
  0
CLASS
  1
MLEADERSTYLE
  2
AcDbMLeaderStyle
  3
ACDB_MLEADERSTYLE_CLASS
 90
     4095
 91
        4
280
     0
281
     0
  0
CLASS
  1
SUN
  2
AcDbSun
  3
SCENEOE
 90
     1153
 91
        4
280
     0
281
     0
  0
CLASS
  1
DICTIONARYVAR
  2
AcDbDictionaryVar
  3
ObjectDBX Classes
 90
        0
 91
        4
280
     0
281
     0
  0
CLASS
  1
CELLSTYLEMAP
  2
AcDbCellStyleMap
  3
ObjectDBX Classes
 90
     1152
 91
        4
280
     0
281
     0
  0
ENDSEC
  0
SECTION
  2
TABLES
  0
TABLE
  2
VPORT
  5
8
330
0
100
AcDbSymbolTable
 70
     1
  0
VPORT
  5
29
330
8
100
AcDbSymbolTableRecord
100
AcDbViewportTableRecord
  2
*Active
 70
     0
 10
0.0
 20
0.0
 11
1.0
 21
1.0
 12
-25.94999999999999
 22
1.256399999999985
 13
0.0
 23
0.0
 14
10.0
 24
10.0
 15
10.0
 25
10.0
 16
0.0
 26
0.0
 36
1.0
 17
0.0
 27
0.0
 37
0.0
 40
148.423056
 41
0.382303137593393
 42
50.0
 43
0.0
 44
0.0
 50
0.0
 51
0.0
 71
     0
 72
   100
 73
     1
 74
     3
 75
     0
 76
     0
 77
     0
 78
     0
281
     0
 65
     1
110
0.0
120
0.0
130
0.0
111
1.0
121
0.0
131
0.0
112
0.0
122
1.0
132
0.0
 79
     0
146
0.0
348
2F
 60
     3
 61
     5
292
     1
282
     1
141
0.0
142
0.0
 63
   250
361
6D
  0
ENDTAB
  0
TABLE
  2
LTYPE
  5
5
330
0
100
AcDbSymbolTable
 70
     3
  0
LTYPE
  5
14
330
5
100
AcDbSymbolTableRecord
100
AcDbLinetypeTableRecord
  2
ByBlock
 70
     0
  3

 72
    65
 73
     0
 40
0.0
  0
LTYPE
  5
15
330
5
100
AcDbSymbolTableRecord
100
AcDbLinetypeTableRecord
  2
ByLayer
 70
     0
  3

 72
    65
 73
     0
 40
0.0
  0
LTYPE
  5
16
330
5
100
AcDbSymbolTableRecord
100
AcDbLinetypeTableRecord
  2
Continuous
 70
     0
  3
Solid line
 72
    65
 73
     0
 40
0.0
  0
LTYPE
  5
94
330
5
100
AcDbSymbolTableRecord
100
AcDbLinetypeTableRecord
  2
Dashed
 70
     0
  3

 72
    65
 73
     2
 40
2.0
 49
1.0
 74
     0
 49
-1.0
 74
     0
  0
LTYPE
  5
A2
330
5
100
AcDbSymbolTableRecord
100
AcDbLinetypeTableRecord
  2
Center
 70
     0
  3

 72
    65
 73
     4
 40
1.5
 49
0.45
 74
     0
 49
-0.5
 74
     0
 49
0.05
 74
     0
 49
-0.5
 74
     0
  0
ENDTAB
  0
TABLE
  2
LAYER
  5
2
330
0
100
AcDbSymbolTable
 70
     7
  0
LAYER
  5
10
330
2
100
AcDbSymbolTableRecord
100
AcDbLayerTableRecord
  2
0
 70
     0
 62
     7
  6
Continuous
370
    -3
390
F
347
46
348
0
  0
LAYER
  5
72
330
2
100
AcDbSymbolTableRecord
100
AcDbLayerTableRecord
  2
AM_6
 70
     0
 62
    -2
  6
Continuous
370
    35
390
F
347
46
348
0
  0
LAYER
  5
95
330
2
100
AcDbSymbolTableRecord
100
AcDbLayerTableRecord
  2
AM_9
 70
     0
 62
     6
  6
Dashed
370
    25
390
F
347
46
348
0
  0
LAYER
  5
9C
330
2
100
AcDbSymbolTableRecord
100
AcDbLayerTableRecord
  2
AM_5
 70
     0
 62
     3
  6
Continuous
370
    25
390
F
347
46
348
0
  0
LAYER
  5
A3
330
2
100
AcDbSymbolTableRecord
100
AcDbLayerTableRecord
  2
AM_7
 70
     0
 62
     7
  6
Center
370
    25
390
F
347
46
348
0
  0
LAYER
  5
A5
330
2
100
AcDbSymbolTableRecord
100
AcDbLayerTableRecord
  2
AM_4
 70
     0
 62
     7
  6
Continuous
370
    50
390
F
347
46
348
0
  0
LAYER
  5
171
330
2
100
AcDbSymbolTableRecord
100
AcDbLayerTableRecord
  2
ConnectionPoints
 70
     0
 62
     7
  6
Continuous
370
    50
390
F
347
46
348
0
  0
ENDTAB
  0
TABLE
  2
STYLE
  5
3
330
0
100
AcDbSymbolTable
 70
     1
  0
STYLE
  5
11
330
3
100
AcDbSymbolTableRecord
100
AcDbTextStyleTableRecord
  2
Standard
 70
     0
 40
0.0
 41
1.0
 50
0.0
 71
     0
 42
2.5
  3
txt
  4

  0
ENDTAB
  0
TABLE
  2
VIEW
  5
6
330
0
100
AcDbSymbolTable
 70
     0
  0
ENDTAB
  0
TABLE
  2
UCS
  5
7
330
0
100
AcDbSymbolTable
 70
     0
  0
ENDTAB
  0
TABLE
  2
APPID
  5
9
330
0
100
AcDbSymbolTable
 70
     1
  0
APPID
  5
12
330
9
100
AcDbSymbolTableRecord
100
AcDbRegAppTableRecord
  2
ACAD
 70
     0
  0
ENDTAB
  0
TABLE
  2
DIMSTYLE
  5
A
330
0
100
AcDbSymbolTable
 70
     1
100
AcDbDimStyleTable
  0
DIMSTYLE
105
27
330
A
100
AcDbSymbolTableRecord
100
AcDbDimStyleTableRecord
  2
ISO-25
 70
     0
 41
2.5
 42
0.625
 43
3.75
 44
1.25
 73
     0
 74
     0
 77
     1
 78
     8
140
2.5
141
2.5
143
0.03937007874016
147
0.625
171
     3
172
     1
178
     0
271
     2
272
     2
274
     3
278
    44
283
     0
284
     8
340
11
  0
ENDTAB
  0
TABLE
  2
BLOCK_RECORD
  5
1
330
0
100
AcDbSymbolTable
 70
     5
  0
BLOCK_RECORD
  5
1F
330
1
100
AcDbSymbolTableRecord
100
AcDbBlockTableRecord
  2
*Model_Space
340
22
 70
     0
280
     1
281
     0
  0
BLOCK_RECORD
  5
1B
330
1
100
AcDbSymbolTableRecord
100
AcDbBlockTableRecord
  2
*Paper_Space
340
1E
 70
     0
280
     1
281
     0
  0
BLOCK_RECORD
  5
23
330
1
100
AcDbSymbolTableRecord
100
AcDbBlockTableRecord
  2
*Paper_Space0
340
26
 70
     0
280
     1
281
     0
  0
BLOCK_RECORD
  5
6E
330
1
100
AcDbSymbolTableRecord
100
AcDbBlockTableRecord
  2
1_125892_2
340
0
102
{BLKREFS
331
6F
102
}
 70
     0
280
     1
281
     0
  0
BLOCK_RECORD
  5
88
330
1
100
AcDbSymbolTableRecord
100
AcDbBlockTableRecord
  2
2_405015E_Metric_0_in_125892_2
340
0
102
{BLKREFS
331
89
102
}
 70
     0
280
     1
281
     0
  0
BLOCK_RECORD
  5
C4
330
1
100
AcDbSymbolTableRecord
100
AcDbBlockTableRecord
  2
3_125814_0_in_125892_2
340
0
102
{BLKREFS
331
C5
102
}
 70
     0
280
     1
281
     0
  0
BLOCK_RECORD
  5
11E
330
1
100
AcDbSymbolTableRecord
100
AcDbBlockTableRecord
  2
4_125892H_0_in_125892_2
340
0
102
{BLKREFS
331
11F
102
}
 70
     0
280
     1
281
     0
  0
ENDTAB
  0
ENDSEC
  0
SECTION
  2
BLOCKS
  0
BLOCK
  5
20
330
1F
100
AcDbEntity
  8
0
100
AcDbBlockBegin
  2
*Model_Space
 70
     0
 10
0.0
 20
0.0
 30
0.0
  3
*Model_Space
  1

  0
ENDBLK
  5
21
330
1F
100
AcDbEntity
  8
0
100
AcDbBlockEnd
  0
BLOCK
  5
1C
330
1B
100
AcDbEntity
 67
     1
  8
0
100
AcDbBlockBegin
  2
*Paper_Space
 70
     0
 10
0.0
 20
0.0
 30
0.0
  3
*Paper_Space
  1

  0
ENDBLK
  5
1D
330
1B
100
AcDbEntity
 67
     1
  8
0
100
AcDbBlockEnd
  0
BLOCK
  5
24
330
23
100
AcDbEntity
  8
0
100
AcDbBlockBegin
  2
*Paper_Space0
 70
     0
 10
0.0
 20
0.0
 30
0.0
  3
*Paper_Space0
  1

  0
ENDBLK
  5
25
330
23
100
AcDbEntity
  8
0
100
AcDbBlockEnd
  0
BLOCK
  5
70
330
6E
100
AcDbEntity
  8
0
100
AcDbBlockBegin
  2
1_125892_2
 70
     2
 10
0.0
 20
0.0
 30
0.0
  3
1_125892_2
  1

  0
ATTDEF
  5
73
330
6E
100
AcDbEntity
  8
AM_6
100
AcDbText
 10
6.865
 20
74.01280000000001
 30
0.0
 40
0.5
  1
Set Screw Four-Bolt Flange Metric Bore
100
AcDbAttributeDefinition
  3

  2
NN
 70
     8
280
     0
  0
ATTDEF
  5
74
330
6E
100
AcDbEntity
  8
AM_6
100
AcDbText
 10
6.865
 20
73.51280000000001
 30
0.0
 40
0.5
  1
SC 4 Bolt Flange Bearings -(Normal Duty)
100
AcDbAttributeDefinition
  3

  2
NT
 70
     8
280
     0
  0
ATTDEF
  5
75
330
6E
100
AcDbEntity
  8
AM_6
100
AcDbText
 10
6.865
 20
73.01280000000001
 30
0.0
 40
0.5
  1
125892
100
AcDbAttributeDefinition
  3

  2
NB
 70
     8
280
     0
  0
ATTDEF
  5
76
330
6E
100
AcDbEntity
  8
AM_6
100
AcDbText
 10
6.865
 20
72.51280000000001
 30
0.0
 40
0.5
  1
$PN.
100
AcDbAttributeDefinition
  3

  2
NBSYN
 70
     8
280
     0
  0
ATTDEF
  5
77
330
6E
100
AcDbEntity
  8
AM_6
100
AcDbText
 10
6.865
 20
72.01280000000001
 30
0.0
 40
0.5
  1
125892
100
AcDbAttributeDefinition
  3

  2
LINA
 70
     8
280
     0
  0
ATTDEF
  5
78
330
6E
100
AcDbEntity
  8
AM_6
100
AcDbText
 10
6.865
 20
71.51280000000001
 30
0.0
 40
0.5
  1
210
100
AcDbAttributeDefinition
  3

  2
SERIES
 70
     8
280
     0
  0
ATTDEF
  5
79
330
6E
100
AcDbEntity
  8
AM_6
100
AcDbText
 10
6.865
 20
71.01280000000001
 30
0.0
 40
0.5
  1
50
100
AcDbAttributeDefinition
  3

  2
SS
 70
     8
280
     0
  0
ATTDEF
  5
7A
330
6E
100
AcDbEntity
  8
AM_6
100
AcDbText
 10
6.865
 20
70.51280000000001
 30
0.0
 40
0.5
  1
125892
100
AcDbAttributeDefinition
  3

  2
PN
 70
     8
280
     0
  0
ATTDEF
  5
7B
330
6E
100
AcDbEntity
  8
AM_6
100
AcDbText
 10
6.865
 20
70.01280000000001
 30
0.0
 40
0.5
  1
F4B-SC-50M
100
AcDbAttributeDefinition
  3

  2
DESCRIPTION
 70
     8
280
     0
  0
ATTDEF
  5
7C
330
6E
100
AcDbEntity
  8
AM_6
100
AcDbText
 10
6.865
 20
69.51280000000001
 30
0.0
 40
0.5
  1
3.0
100
AcDbAttributeDefinition
  3

  2
WEIGHT
 70
     8
280
     0
  0
ATTDEF
  5
7D
330
6E
100
AcDbEntity
  8
AM_6
100
AcDbText
 10
6.865
 20
69.01280000000001
 30
0.0
 40
0.5
  1
RE-LUBE
100
AcDbAttributeDefinition
  3

  2
LF
 70
     8
280
     0
  0
ATTDEF
  5
7E
330
6E
100
AcDbEntity
  8
AM_6
100
AcDbText
 10
6.865
 20
68.51280000000001
 30
0.0
 40
0.5
  1
49.3
100
AcDbAttributeDefinition
  3

  2
A
 70
     8
280
     0
  0
ATTDEF
  5
7F
330
6E
100
AcDbEntity
  8
AM_6
100
AcDbText
 10
6.865
 20
68.01280000000001
 30
0.0
 40
0.5
  1
143.0
100
AcDbAttributeDefinition
  3

  2
B
 70
     8
280
     0
  0
ATTDEF
  5
80
330
6E
100
AcDbEntity
  8
AM_6
100
AcDbText
 10
6.865
 20
67.51280000000001
 30
0.0
 40
0.5
  1
51.3
100
AcDbAttributeDefinition
  3

  2
C
 70
     8
280
     0
  0
ATTDEF
  5
81
330
6E
100
AcDbEntity
  8
AM_6
100
AcDbText
 10
6.865
 20
67.01280000000001
 30
0.0
 40
0.5
  1
111.3
100
AcDbAttributeDefinition
  3

  2
D
 70
     8
280
     0
  0
ATTDEF
  5
82
330
6E
100
AcDbEntity
  8
AM_6
100
AcDbText
 10
6.865
 20
66.51280000000001
 30
0.0
 40
0.5
  1
M16
100
AcDbAttributeDefinition
  3

  2
F
 70
     8
280
     0
  0
ATTDEF
  5
83
330
6E
100
AcDbEntity
  8
AM_6
100
AcDbText
 10
6.865
 20
66.01280000000001
 30
0.0
 40
0.5
  1
16.0
100
AcDbAttributeDefinition
  3

  2
H
 70
     8
280
     0
  0
ATTDEF
  5
84
330
6E
100
AcDbEntity
  8
AM_6
100
AcDbText
 10
6.865
 20
65.51280000000001
 30
0.0
 40
0.5
  1
14.0
100
AcDbAttributeDefinition
  3

  2
J
 70
     8
280
     0
  0
ATTDEF
  5
85
330
6E
100
AcDbEntity
  8
AM_6
100
AcDbText
 10
6.865
 20
65.01280000000001
 30
0.0
 40
0.5
  1
61.7
100
AcDbAttributeDefinition
  3

  2
L
 70
     8
280
     0
  0
ATTDEF
  5
86
330
6E
100
AcDbEntity
  8
AM_6
100
AcDbText
 10
6.865
 20
64.51280000000001
 30
0.0
 40
0.5
  1
73.2
100
AcDbAttributeDefinition
  3

  2
N
 70
     8
280
     0
  0
ATTDEF
  5
87
330
6E
100
AcDbEntity
  8
AM_6
100
AcDbText
 10
6.865
 20
64.01280000000001
 30
0.0
 40
0.5
  1
baldor
100
AcDbAttributeDefinition
  3

  2
COMPANY
 70
     8
280
     0
  0
INSERT
  5
89
330
6E
100
AcDbEntity
  8
0
100
AcDbBlockReference
  2
2_405015E_Metric_0_in_125892_2
 10
0.0
 20
0.0
 30
0.0
  0
INSERT
  5
C5
330
6E
100
AcDbEntity
  8
0
100
AcDbBlockReference
  2
3_125814_0_in_125892_2
 10
0.0
 20
0.0
 30
0.0
  0
INSERT
  5
11F
330
6E
100
AcDbEntity
  8
0
100
AcDbBlockReference
  2
4_125892H_0_in_125892_2
 10
0.0
 20
0.0
 30
0.0
  0
ENDBLK
  5
71
330
6E
100
AcDbEntity
  8
0
100
AcDbBlockEnd
  0
BLOCK
  5
8A
330
88
100
AcDbEntity
  8
0
100
AcDbBlockBegin
  2
2_405015E_Metric_0_in_125892_2
 70
     2
 10
0.0
 20
0.0
 30
0.0
  3
2_405015E_Metric_0_in_125892_2
  1

  0
ATTDEF
  5
8C
330
88
100
AcDbEntity
  8
AM_6
100
AcDbText
 10
-14.11
 20
74.01280000000001
 30
0.0
 40
0.5
  1
405015E -Metric
100
AcDbAttributeDefinition
  3

  2
NN
 70
     8
280
     0
  0
ATTDEF
  5
8D
330
88
100
AcDbEntity
  8
AM_6
100
AcDbText
 10
-14.11
 20
73.51280000000001
 30
0.0
 40
0.5
  1
Grease Fitting
100
AcDbAttributeDefinition
  3

  2
NT
 70
     8
280
     0
  0
ATTDEF
  5
8E
330
88
100
AcDbEntity
  8
AM_6
100
AcDbText
 10
-14.11
 20
73.01280000000001
 30
0.0
 40
0.5
  1
405015E-Metric
100
AcDbAttributeDefinition
  3

  2
NB
 70
     8
280
     0
  0
ATTDEF
  5
8F
330
88
100
AcDbEntity
  8
AM_6
100
AcDbText
 10
-14.11
 20
72.51280000000001
 30
0.0
 40
0.5
  1
$MN.-Metric
100
AcDbAttributeDefinition
  3

  2
NBSYN
 70
     8
280
     0
  0
ATTDEF
  5
90
330
88
100
AcDbEntity
  8
AM_6
100
AcDbText
 10
-14.11
 20
72.01280000000001
 30
0.0
 40
0.5
  1
405015E
100
AcDbAttributeDefinition
  3

  2
LINA
 70
     8
280
     0
  0
ATTDEF
  5
91
330
88
100
AcDbEntity
  8
AM_6
100
AcDbText
 10
-14.11
 20
71.51280000000001
 30
0.0
 40
0.5
  1
405015E
100
AcDbAttributeDefinition
  3

  2
MN
 70
     8
280
     0
  0
ATTDEF
  5
92
330
88
100
AcDbEntity
  8
AM_6
100
AcDbText
 10
-14.11
 20
71.01280000000001
 30
0.0
 40
0.5
  1
1/8 x 27PTF
100
AcDbAttributeDefinition
  3

  2
T
 70
     8
280
     0
  0
ATTDEF
  5
93
330
88
100
AcDbEntity
  8
AM_6
100
AcDbText
 10
-14.11
 20
70.51280000000001
 30
0.0
 40
0.5
  1
baldor
100
AcDbAttributeDefinition
  3

  2
COMPANY
 70
     8
280
     0
  0
LINE
  5
96
330
88
100
AcDbEntity
  8
AM_9
100
AcDbLine
 10
-28.26799375318352
 20
56.94400000000001
 30
0.0
 11
-19.95200624681647
 21
56.94400000000001
 31
0.0
  0
LINE
  5
97
330
88
100
AcDbEntity
  8
AM_9
100
AcDbLine
 10
-19.95200624681647
 20
56.94400000000001
 30
0.0
 11
-19.35197054348822
 21
57.54403570332826
 31
0.0
  0
LINE
  5
98
330
88
100
AcDbEntity
  8
AM_9
100
AcDbLine
 10
-28.86802945651177
 20
57.54403570332826
 30
0.0
 11
-28.26799375318352
 21
56.94400000000001
 31
0.0
  0
LINE
  5
99
330
88
100
AcDbEntity
  8
AM_9
100
AcDbLine
 10
-28.86802945651177
 20
57.54403570332826
 30
0.0
 11
-19.35197054348822
 21
57.54403570332826
 31
0.0
  0
LINE
  5
9A
330
88
100
AcDbEntity
  8
AM_9
100
AcDbLine
 10
-19.35197054348822
 20
57.54403570332826
 30
0.0
 11
-19.16036833446503
 21
63.67500000000001
 31
0.0
  0
LINE
  5
9B
330
88
100
AcDbEntity
  8
AM_9
100
AcDbLine
 10
-29.05963166553496
 20
63.67500000000001
 30
0.0
 11
-28.86802945651177
 21
57.54403570332826
 31
0.0
  0
LINE
  5
9D
330
88
100
AcDbEntity
  8
AM_5
100
AcDbLine
 10
-19.77491707355492
 20
62.61057036016894
 30
0.0
 11
-19.95200624681647
 21
56.94400000000001
 31
0.0
  0
LINE
  5
9E
330
88
100
AcDbEntity
  8
AM_5
100
AcDbLine
 10
-19.16036833446503
 20
63.67500000000001
 30
0.0
 11
-19.77491707355492
 21
62.61057036016894
 31
0.0
  0
LINE
  5
9F
330
88
100
AcDbEntity
  8
AM_5
100
AcDbLine
 10
-28.44508292644507
 20
62.61057036016894
 30
0.0
 11
-28.26799375318351
 21
56.94400000000001
 31
0.0
  0
LINE
  5
A0
330
88
100
AcDbEntity
  8
AM_5
100
AcDbLine
 10
-29.05963166553496
 20
63.67500000000001
 30
0.0
 11
-28.44508292644507
 21
62.61057036016894
 31
0.0
  0
LINE
  5
A1
330
88
100
AcDbEntity
  8
AM_5
100
AcDbLine
 10
-29.02636657696609
 20
62.61057036016894
 30
0.0
 11
-19.1936334230339
 21
62.61057036016894
 31
0.0
  0
LINE
  5
A4
330
88
100
AcDbEntity
  8
AM_7
100
AcDbLine
 10
-24.11
 20
74.01280000000001
 30
0.0
 11
-24.11
 21
56.13120000000001
 31
0.0
  0
LINE
  5
A6
330
88
100
AcDbEntity
  8
AM_4
100
AcDbLine
 10
-21.435
 20
69.20000000000002
 30
0.0
 11
-21.435
 21
69.9
 31
0.0
  0
LINE
  5
A7
330
88
100
AcDbEntity
  8
AM_4
100
AcDbLine
 10
-26.785
 20
69.9
 30
0.0
 11
-26.785
 21
69.20000000000002
 31
0.0
  0
LINE
  5
A8
330
88
100
AcDbEntity
  8
AM_4
100
AcDbLine
 10
-26.785
 20
69.20000000000002
 30
0.0
 11
-21.435
 21
69.20000000000002
 31
0.0
  0
LINE
  5
A9
330
88
100
AcDbEntity
  8
AM_4
100
AcDbLine
 10
-26.785
 20
69.20000000000002
 30
0.0
 11
-27.09299498256251
 21
68.38381329620937
 31
0.0
  0
LINE
  5
AA
330
88
100
AcDbEntity
  8
AM_4
100
AcDbLine
 10
-21.12700501743749
 20
68.38381329620937
 30
0.0
 11
-21.435
 21
69.20000000000002
 31
0.0
  0
LINE
  5
AB
330
88
100
AcDbEntity
  8
AM_4
100
AcDbLine
 10
-19.11
 20
63.67500000000001
 30
0.0
 11
-19.11
 21
66.67500000000001
 31
0.0
  0
LINE
  5
AC
330
88
100
AcDbEntity
  8
AM_4
100
AcDbLine
 10
-26.785
 20
69.9
 30
0.0
 11
-21.435
 21
69.9
 31
0.0
  0
LINE
  5
AD
330
88
100
AcDbEntity
  8
AM_4
100
AcDbLine
 10
-21.435
 20
69.9
 30
0.0
 11
-20.935
 21
71.20000000000002
 31
0.0
  0
LINE
  5
AE
330
88
100
AcDbEntity
  8
AM_4
100
AcDbLine
 10
-27.285
 20
71.20000000000002
 30
0.0
 11
-26.785
 21
69.9
 31
0.0
  0
LINE
  5
AF
330
88
100
AcDbEntity
  8
AM_4
100
AcDbLine
 10
-26.47694754832968
 20
73.20000000000002
 30
0.0
 11
-21.74305245167031
 21
73.20000000000002
 31
0.0
  0
LINE
  5
B0
330
88
100
AcDbEntity
  8
AM_4
100
AcDbLine
 10
-27.285
 20
71.20000000000002
 30
0.0
 11
-20.935
 21
71.20000000000002
 31
0.0
  0
LINE
  5
B1
330
88
100
AcDbEntity
  8
AM_4
100
AcDbLine
 10
-26.47694754832968
 20
73.20000000000002
 30
0.0
 11
-27.285
 21
71.20000000000002
 31
0.0
  0
LINE
  5
B2
330
88
100
AcDbEntity
  8
AM_4
100
AcDbLine
 10
-20.935
 20
71.20000000000002
 30
0.0
 11
-21.74305245167031
 21
73.20000000000002
 31
0.0
  0
LINE
  5
B3
330
88
100
AcDbEntity
  8
AM_4
100
AcDbLine
 10
-27.09299498256251
 20
68.38381329620937
 30
0.0
 11
-21.12700501743749
 21
68.38381329620937
 31
0.0
  0
LINE
  5
B4
330
88
100
AcDbEntity
  8
AM_4
100
AcDbLine
 10
-27.09299498256251
 20
68.38381329620937
 30
0.0
 11
-27.71758389460111
 21
67.54541227078012
 31
0.0
  0
LINE
  5
B5
330
88
100
AcDbEntity
  8
AM_4
100
AcDbLine
 10
-20.50241610539888
 20
67.54541227078012
 30
0.0
 11
-21.12700501743749
 21
68.38381329620937
 31
0.0
  0
LINE
  5
B6
330
88
100
AcDbEntity
  8
AM_4
100
AcDbLine
 10
-29.11
 20
66.67500000000001
 30
0.0
 11
-19.11
 21
66.67500000000001
 31
0.0
  0
LINE
  5
B7
330
88
100
AcDbEntity
  8
AM_4
100
AcDbLine
 10
-29.11
 20
66.67500000000001
 30
0.0
 11
-29.11
 21
63.67500000000001
 31
0.0
  0
LWPOLYLINE
  5
B8
330
88
100
AcDbEntity
  8
AM_4
100
AcDbPolyline
 90
        4
 70
     0
 43
0.0
 10
-21.61
 20
66.67500000000001
 10
-20.64379319112681
 20
66.64205240150254
 10
-19.67758638225363
 20
66.54764244961908
 10
-19.11
 20
66.4677405783631
  0
LWPOLYLINE
  5
B9
330
88
100
AcDbEntity
  8
AM_4
100
AcDbPolyline
 90
        4
 70
     0
 43
0.0
 10
-19.11
 20
63.88225942163692
 10
-19.67758638225363
 20
63.80235755038093
 10
-20.64090543234242
 20
63.70814245672375
 10
-21.61
 20
63.67500000000001
  0
LINE
  5
BA
330
88
100
AcDbEntity
  8
AM_4
100
AcDbLine
 10
-27.71758389460111
 20
67.54541227078012
 30
0.0
 11
-20.50241610539888
 21
67.54541227078012
 31
0.0
  0
LINE
  5
BB
330
88
100
AcDbEntity
  8
AM_4
100
AcDbLine
 10
-27.71758389460111
 20
67.54541227078012
 30
0.0
 11
-28.86
 21
66.67500000000001
 31
0.0
  0
LINE
  5
BC
330
88
100
AcDbEntity
  8
AM_4
100
AcDbLine
 10
-19.36
 20
66.67500000000001
 30
0.0
 11
-20.50241610539888
 21
67.54541227078012
 31
0.0
  0
LWPOLYLINE
  5
BD
330
88
100
AcDbEntity
  8
AM_4
100
AcDbPolyline
 90
        4
 70
     0
 43
0.0
 10
-21.61
 20
63.67500000000001
 10
-22.235
 20
63.68888374866284
 10
-22.86
 20
63.72970584651508
 10
-24.11
 20
63.88225942163692
  0
LWPOLYLINE
  5
BE
330
88
100
AcDbEntity
  8
AM_4
100
AcDbPolyline
 90
        4
 70
     0
 43
0.0
 10
-24.11
 20
66.4677405783631
 10
-22.86562033659086
 20
66.61981085829441
 10
-22.23868568935394
 20
66.66095287281767
 10
-21.61
 20
66.67500000000001
  0
LINE
  5
BF
330
88
100
AcDbEntity
  8
AM_4
100
AcDbLine
 10
-24.11
 20
66.4677405783631
 30
0.0
 11
-24.11
 21
63.88225942163692
 31
0.0
  0
LWPOLYLINE
  5
C0
330
88
100
AcDbEntity
  8
AM_4
100
AcDbPolyline
 90
        4
 70
     0
 43
0.0
 10
-26.61
 20
66.67500000000001
 10
-25.985
 20
66.66111625133716
 10
-25.36
 20
66.62029415348493
 10
-24.11
 20
66.4677405783631
  0
LWPOLYLINE
  5
C1
330
88
100
AcDbEntity
  8
AM_4
100
AcDbPolyline
 90
        4
 70
     0
 43
0.0
 10
-29.11
 20
66.4677405783631
 10
-27.86562033659086
 20
66.61981085829441
 10
-27.23868568935394
 20
66.66095287281767
 10
-26.61
 20
66.67500000000001
  0
LWPOLYLINE
  5
C2
330
88
100
AcDbEntity
  8
AM_4
100
AcDbPolyline
 90
        4
 70
     0
 43
0.0
 10
-26.61
 20
63.67500000000001
 10
-27.235
 20
63.68888374866284
 10
-27.86
 20
63.72970584651508
 10
-29.11
 20
63.8822594216369
  0
LWPOLYLINE
  5
C3
330
88
100
AcDbEntity
  8
AM_4
100
AcDbPolyline
 90
        4
 70
     0
 43
0.0
 10
-24.11
 20
63.88225942163692
 10
-25.35437966340913
 20
63.73018914170562
 10
-25.98131431064606
 20
63.68904712718235
 10
-26.61
 20
63.67500000000001
  0
ENDBLK
  5
8B
330
88
100
AcDbEntity
  8
0
100
AcDbBlockEnd
  0
BLOCK
  5
C6
330
C4
100
AcDbEntity
  8
0
100
AcDbBlockBegin
  2
3_125814_0_in_125892_2
 70
     2
 10
0.0
 20
0.0
 30
0.0
  3
3_125814_0_in_125892_2
  1

  0
ATTDEF
  5
C8
330
C4
100
AcDbEntity
  8
AM_6
100
AcDbText
 10
2.999999999999998
 20
44.99121541260944
 30
0.0
 40
0.5
  1
Set Screw Insert Metric Bore - Stainless Steel
100
AcDbAttributeDefinition
  3

  2
NN
 70
     8
280
     0
  0
ATTDEF
  5
C9
330
C4
100
AcDbEntity
  8
AM_6
100
AcDbText
 10
2.999999999999998
 20
44.49121541260944
 30
0.0
 40
0.5
  1
SC Bearing Insert -Metric
100
AcDbAttributeDefinition
  3

  2
NT
 70
     8
280
     0
  0
ATTDEF
  5
CA
330
C4
100
AcDbEntity
  8
AM_6
100
AcDbText
 10
2.999999999999998
 20
43.99121541260944
 30
0.0
 40
0.5
  1
125814
100
AcDbAttributeDefinition
  3

  2
NB
 70
     8
280
     0
  0
ATTDEF
  5
CB
330
C4
100
AcDbEntity
  8
AM_6
100
AcDbText
 10
2.999999999999998
 20
43.49121541260944
 30
0.0
 40
0.5
  1
$PN.
100
AcDbAttributeDefinition
  3

  2
NBSYN
 70
     8
280
     0
  0
ATTDEF
  5
CC
330
C4
100
AcDbEntity
  8
AM_6
100
AcDbText
 10
2.999999999999998
 20
42.99121541260944
 30
0.0
 40
0.5
  1
125814
100
AcDbAttributeDefinition
  3

  2
LINA
 70
     8
280
     0
  0
ATTDEF
  5
CD
330
C4
100
AcDbEntity
  8
AM_6
100
AcDbText
 10
2.999999999999998
 20
42.49121541260944
 30
0.0
 40
0.5
  1
210
100
AcDbAttributeDefinition
  3

  2
SERIES
 70
     8
280
     0
  0
ATTDEF
  5
CE
330
C4
100
AcDbEntity
  8
AM_6
100
AcDbText
 10
2.999999999999998
 20
41.99121541260944
 30
0.0
 40
0.5
  1
50
100
AcDbAttributeDefinition
  3

  2
SS
 70
     8
280
     0
  0
ATTDEF
  5
CF
330
C4
100
AcDbEntity
  8
AM_6
100
AcDbText
 10
2.999999999999998
 20
41.49121541260944
 30
0.0
 40
0.5
  1
125814
100
AcDbAttributeDefinition
  3

  2
PN
 70
     8
280
     0
  0
ATTDEF
  5
D0
330
C4
100
AcDbEntity
  8
AM_6
100
AcDbText
 10
2.999999999999998
 20
40.99121541260944
 30
0.0
 40
0.5
  1
INS-SC-50
100
AcDbAttributeDefinition
  3

  2
DESCRIPTION
 70
     8
280
     0
  0
ATTDEF
  5
D1
330
C4
100
AcDbEntity
  8
AM_6
100
AcDbText
 10
2.999999999999998
 20
40.49121541260944
 30
0.0
 40
0.5
  1
0.67
100
AcDbAttributeDefinition
  3

  2
WEIGHT
 70
     8
280
     0
  0
ATTDEF
  5
D2
330
C4
100
AcDbEntity
  8
AM_6
100
AcDbText
 10
2.999999999999998
 20
39.99121541260944
 30
0.0
 40
0.5
  1
49.3
100
AcDbAttributeDefinition
  3

  2
A
 70
     8
280
     0
  0
ATTDEF
  5
D3
330
C4
100
AcDbEntity
  8
AM_6
100
AcDbText
 10
2.999999999999998
 20
39.49121541260944
 30
0.0
 40
0.5
  1
22.1
100
AcDbAttributeDefinition
  3

  2
C
 70
     8
280
     0
  0
ATTDEF
  5
D4
330
C4
100
AcDbEntity
  8
AM_6
100
AcDbText
 10
2.999999999999998
 20
38.99121541260944
 30
0.0
 40
0.5
  1
90
100
AcDbAttributeDefinition
  3

  2
D
 70
     8
280
     0
  0
ATTDEF
  5
D5
330
C4
100
AcDbEntity
  8
AM_6
100
AcDbText
 10
2.999999999999998
 20
38.49121541260944
 30
0.0
 40
0.5
  1
6.4
100
AcDbAttributeDefinition
  3

  2
J
 70
     8
280
     0
  0
ATTDEF
  5
D6
330
C4
100
AcDbEntity
  8
AM_6
100
AcDbText
 10
2.999999999999998
 20
37.99121541260944
 30
0.0
 40
0.5
  1
61.7
100
AcDbAttributeDefinition
  3

  2
L
 70
     8
280
     0
  0
ATTDEF
  5
D7
330
C4
100
AcDbEntity
  8
AM_6
100
AcDbText
 10
2.999999999999998
 20
37.49121541260944
 30
0.0
 40
0.5
  1
M10 x 1.5
100
AcDbAttributeDefinition
  3

  2
N
 70
     8
280
     0
  0
ATTDEF
  5
D8
330
C4
100
AcDbEntity
  8
AM_6
100
AcDbText
 10
2.999999999999998
 20
36.99121541260944
 30
0.0
 40
0.5
  1
19.1
100
AcDbAttributeDefinition
  3

  2
W
 70
     8
280
     0
  0
ATTDEF
  5
D9
330
C4
100
AcDbEntity
  8
AM_6
100
AcDbText
 10
2.999999999999998
 20
36.49121541260944
 30
0.0
 40
0.5
  1
30.2
100
AcDbAttributeDefinition
  3

  2
Y
 70
     8
280
     0
  0
ATTDEF
  5
DA
330
C4
100
AcDbEntity
  8
AM_6
100
AcDbText
 10
2.999999999999998
 20
35.99121541260944
 30
0.0
 40
0.5
  1
baldor
100
AcDbAttributeDefinition
  3

  2
COMPANY
 70
     8
280
     0
  0
ARC
  5
DB
330
C4
100
AcDbEntity
  8
AM_9
100
AcDbCircle
 10
-14.69999999999655
 20
-0.0000000000001101
 30
0.0
 40
2.209999999996549
100
AcDbArc
 50
357.2881802290063
 51
0.0
  0
ARC
  5
DC
330
C4
100
AcDbEntity
  8
AM_9
100
AcDbCircle
 10
-14.70000000000017
 20
0.0000000000001534
 30
0.0
 40
2.210000000000227
100
AcDbArc
 50
311.0124699686999
 51
323.9781282827317
  0
ARC
  5
DD
330
C4
100
AcDbEntity
  8
AM_9
100
AcDbCircle
 10
-14.69999999999985
 20
-0.0000000000067661
 30
0.0
 40
2.210000000006763
100
AcDbArc
 50
90.0
 51
91.80845484016213
  0
CIRCLE
  5
DE
330
C4
100
AcDbEntity
  8
AM_9
100
AcDbCircle
 10
-14.7
 20
-0.0000000000000029
 30
0.0
 40
0.2009090909090882
  0
LINE
  5
DF
330
C4
100
AcDbEntity
  8
AM_9
100
AcDbLine
 10
-37.537
 20
24.99808322449283
 30
0.0
 11
-37.537
 21
30.44211720626539
 31
0.0
  0
LINE
  5
E0
330
C4
100
AcDbEntity
  8
AM_9
100
AcDbLine
 10
-45.913
 20
30.44211720626539
 30
0.0
 11
-45.913
 21
25.0
 31
0.0
  0
LINE
  5
E1
330
C4
100
AcDbEntity
  8
AM_9
100
AcDbLine
 10
-45.913
 20
30.44211720626539
 30
0.0
 11
-37.537
 21
30.44211720626539
 31
0.0
  0
LINE
  5
E2
330
C4
100
AcDbEntity
  8
AM_9
100
AcDbLine
 10
-37.537
 20
30.44211720626539
 30
0.0
 11
-37.1291172062654
 21
30.84999999999999
 31
0.0
  0
LINE
  5
E3
330
C4
100
AcDbEntity
  8
AM_9
100
AcDbLine
 10
-46.3208827937346
 20
30.84999999999999
 30
0.0
 11
-45.913
 21
30.44211720626539
 31
0.0
  0
LWPOLYLINE
  5
E4
330
C4
100
AcDbEntity
  8
AM_9
100
AcDbPolyline
 90
       20
 70
     0
 43
0.0
 10
-45.913
 20
25.0
 10
-45.85615563420295
 20
24.99054026774945
 10
-45.68072439586317
 20
24.96213956166472
 10
-45.40182480722292
 20
24.91946421300044
 10
-45.01176241664941
 20
24.86490424641726
 10
-44.53836927357498
 20
24.80676727567492
 10
-43.97090575291963
 20
24.74883327858099
 10
-43.3523449101752
 20
24.70038273907255
 10
-42.66757305858784
 20
24.66473393269782
 10
-41.98157825067714
 20
24.64805242607863
 10
-41.26786956973623
 20
24.65095584820745
 10
-40.59429595679862
 20
24.67263965677998
 10
-39.93381997550452
 20
24.71171750162566
 10
-39.33808497385876
 20
24.76202777120684
 10
-38.79318220520039
 20
24.82047968073751
 10
-38.33836647590633
 20
24.87830264761877
 10
-37.96789754027618
 20
24.93143547597817
 10
-37.71288745762374
 20
24.97113740006035
 10
-37.56658617339249
 20
24.99506074314125
 10
-37.53700000001633
 20
24.99999999999726
  0
LINE
  5
E5
330
C4
100
AcDbEntity
  8
AM_9
100
AcDbLine
 10
-6.399999999999994
 20
-25.0
 30
0.0
 11
-3.234000000000001
 21
-25.0
 31
0.0
  0
LINE
  5
E6
330
C4
100
AcDbEntity
  8
AM_9
100
AcDbLine
 10
-50.066
 20
-25.0
 30
0.0
 11
-22.38
 21
-25.0
 31
0.0
  0
LINE
  5
E7
330
C4
100
AcDbEntity
  8
AM_9
100
AcDbLine
 10
-22.38
 20
25.0
 30
0.0
 11
-37.54848689120391
 21
25.0
 31
0.0
  0
LINE
  5
E8
330
C4
100
AcDbEntity
  8
AM_9
100
AcDbLine
 10
-3.234000000000001
 20
25.0
 30
0.0
 11
-6.399999999999998
 21
25.0
 31
0.0
  0
LINE
  5
E9
330
C4
100
AcDbEntity
  8
AM_9
100
AcDbLine
 10
-45.913
 20
25.0
 30
0.0
 11
-50.066
 21
25.0
 31
0.0
  0
LINE
  5
EA
330
C4
100
AcDbEntity
  8
AM_9
100
AcDbLine
 10
-3.234000000000001
 20
-25.0
 30
0.0
 11
-2.000000000000002
 21
-26.23400000000004
 31
0.0
  0
LINE
  5
EB
330
C4
100
AcDbEntity
  8
AM_9
100
AcDbLine
 10
-2.000000000000002
 20
26.23400000000004
 30
0.0
 11
-3.234000000000001
 21
25.0
 31
0.0
  0
LINE
  5
EC
330
C4
100
AcDbEntity
  8
AM_9
100
AcDbLine
 10
-50.066
 20
25.0
 30
0.0
 11
-51.3
 21
26.23400000000004
 31
0.0
  0
LINE
  5
ED
330
C4
100
AcDbEntity
  8
AM_9
100
AcDbLine
 10
-51.3
 20
-26.23400000000004
 30
0.0
 11
-50.066
 21
-25.0
 31
0.0
  0
LWPOLYLINE
  5
EE
330
C4
100
AcDbEntity
  8
AM_9
100
AcDbPolyline
 90
        4
 70
     0
 43
0.0
 10
-45.70931575420166
 20
11.72068042125846
 10
-45.80550612456223
 20
11.41238036086761
 10
-45.90511834062801
 20
10.79765375034868
 10
-45.91299998639877
 20
10.56576244509677
  0
LINE
  5
EF
330
C4
100
AcDbEntity
  8
AM_9
100
AcDbLine
 10
-37.537
 20
10.56520330491105
 30
0.0
 11
-37.537
 21
12.86539465741852
 31
0.0
  0
LINE
  5
F0
330
C4
100
AcDbEntity
  8
AM_9
100
AcDbLine
 10
-45.913
 20
12.86539465741852
 30
0.0
 11
-45.913
 21
10.56446539980102
 31
0.0
  0
LWPOLYLINE
  5
F1
330
C4
100
AcDbEntity
  8
AM_9
100
AcDbPolyline
 90
       21
 70
     0
 43
0.0
 10
-45.91299998639877
 20
10.56576244509677
 10
-45.88800944542596
 20
10.14966114546061
 10
-45.75749039142871
 20
9.529930578398753
 10
-45.51054268300071
 20
8.91476428587815
 10
-45.16604219206332
 20
8.353670585166784
 10
-44.71533308590081
 20
7.835146305120088
 10
-44.18850880320384
 20
7.398564532729509
 10
-43.57513543413449
 20
7.040304200982202
 10
-42.92573974170463
 20
6.79223875440629
 10
-42.22161285746921
 20
6.649429832877838
 10
-41.53163379012984
 20
6.624904141968456
 10
-40.82716476848985
 20
6.715693724502054
 10
-40.17181297927356
 20
6.911877070362766
 10
-39.5420261551753
 20
7.217722333044055
 10
-38.98435631494399
 20
7.610314241165764
 10
-38.48881957971778
 20
8.096333690914504
 10
-38.0924197431484
 20
8.639791477416557
 10
-37.78953044448144
 20
9.250017224290108
 10
-37.60669123079843
 20
9.871007686226863
 10
-37.53726480166353
 20
10.52275552431759
 10
-37.53700000782322
 20
10.56522454357463
  0
LWPOLYLINE
  5
F2
330
C4
100
AcDbEntity
  8
AM_9
100
AcDbPolyline
 90
        3
 70
     0
 43
0.0
 10
-37.53700000782322
 20
10.56522454357463
 10
-37.58608216281404
 20
11.14140307962281
 10
-37.74346693075125
 20
11.72825263451637
  0
LINE
  5
F3
330
C4
100
AcDbEntity
  8
AM_9
100
AcDbLine
 10
-2.000000000000002
 20
29.61600000000003
 30
0.0
 11
-3.234000000000004
 21
30.84999999999999
 31
0.0
  0
LINE
  5
F4
330
C4
100
AcDbEntity
  8
AM_9
100
AcDbLine
 10
-3.234000000000004
 20
-30.84999999999999
 30
0.0
 11
-2.000000000000002
 21
-29.61600000000003
 31
0.0
  0
LINE
  5
F5
330
C4
100
AcDbEntity
  8
AM_9
100
AcDbLine
 10
-2.000000000000002
 20
29.61600000000003
 30
0.0
 11
-2.000000000000002
 21
-29.61600000000003
 31
0.0
  0
LINE
  5
F6
330
C4
100
AcDbEntity
  8
AM_9
100
AcDbLine
 10
-10.05
 20
-30.84999999999998
 30
0.0
 11
-3.234000000000004
 21
-30.84999999999998
 31
0.0
  0
LINE
  5
F7
330
C4
100
AcDbEntity
  8
AM_9
100
AcDbLine
 10
-3.234000000000004
 20
30.84999999999998
 30
0.0
 11
-10.05
 21
30.84999999999998
 31
0.0
  0
LINE
  5
F8
330
C4
100
AcDbEntity
  8
AM_9
100
AcDbLine
 10
-3.234000000000004
 20
30.84999999999998
 30
0.0
 11
-3.234000000000004
 21
-30.84999999999998
 31
0.0
  0
LWPOLYLINE
  5
F9
330
C4
100
AcDbEntity
  8
AM_9
100
AcDbPolyline
 90
        4
 70
     0
 43
0.0
 10
-37.28371994351672
 20
14.0289710259341
 10
-37.18826377574735
 20
13.65599755077048
 10
-37.13636909449063
 20
13.25417757086215
 10
-37.13464885026331
 20
12.84687517887843
  0
LWPOLYLINE
  5
FA
330
C4
100
AcDbEntity
  8
AM_9
100
AcDbPolyline
 90
        3
 70
     0
 43
0.0
 10
-37.13464885026331
 20
12.84687517887843
 10
-37.22945592890171
 20
12.22664300670395
 10
-37.28726657594485
 20
12.01851609191144
  0
LINE
  5
FB
330
C4
100
AcDbEntity
  8
AM_9
100
AcDbLine
 10
-37.3
 20
-30.84999999999999
 30
0.0
 11
-32.15
 21
-30.84999999999999
 31
0.0
  0
LINE
  5
FC
330
C4
100
AcDbEntity
  8
AM_9
100
AcDbLine
 10
-32.15
 20
30.84999999999999
 30
0.0
 11
-37.13129606317696
 21
30.84999999999999
 31
0.0
  0
LINE
  5
FD
330
C4
100
AcDbEntity
  8
AM_9
100
AcDbLine
 10
-37.12911720626649
 20
30.84999999999985
 30
0.0
 11
-37.28905433490715
 21
30.82961179191729
 31
0.0
  0
LINE
  5
FE
330
C4
100
AcDbEntity
  8
AM_9
100
AcDbLine
 10
-28.33333333333333
 20
-42.78999999999994
 30
0.0
 11
-25.38666666666666
 21
-42.78999999999994
 31
0.0
  0
LINE
  5
FF
330
C4
100
AcDbEntity
  8
AM_9
100
AcDbLine
 10
-25.38666666666666
 20
42.78999999999994
 30
0.0
 11
-28.33333333333333
 21
42.78999999999994
 31
0.0
  0
LINE
  5
100
330
C4
100
AcDbEntity
  8
AM_9
100
AcDbLine
 10
-10.05
 20
42.19396883195163
 30
0.0
 11
-10.05
 21
-42.19396883195163
 31
0.0
  0
ARC
  5
101
330
C4
100
AcDbEntity
  8
AM_9
100
AcDbCircle
 10
-10.934
 20
-42.19396883195163
 30
0.0
 40
0.8839999999999996
100
AcDbArc
 50
291.4124787765732
 51
0.0
  0
ARC
  5
102
330
C4
100
AcDbEntity
  8
AM_9
100
AcDbCircle
 10
-10.934
 20
42.19396883195163
 30
0.0
 40
0.8840000000000003
100
AcDbArc
 50
0.0
 51
68.5875212234268
  0
LINE
  5
103
330
C4
100
AcDbEntity
  8
AM_9
100
AcDbLine
 10
-32.15
 20
42.1939688319516
 30
0.0
 11
-32.15
 21
-42.1939688319516
 31
0.0
  0
ARC
  5
104
330
C4
100
AcDbEntity
  8
AM_9
100
AcDbCircle
 10
-31.26599999999997
 20
-42.19396883195159
 30
0.0
 40
0.8840000000000288
100
AcDbArc
 50
179.9999991462263
 51
248.5875329531142
  0
ARC
  5
105
330
C4
100
AcDbEntity
  8
AM_9
100
AcDbCircle
 10
-31.26599999999997
 20
42.19396883195159
 30
0.0
 40
0.8840000000000307
100
AcDbArc
 50
111.4124670468858
 51
179.9999991462263
  0
ARC
  5
106
330
C4
100
AcDbEntity
  8
AM_9
100
AcDbCircle
 10
-21.09999999999986
 20
-16.26999999999956
 30
0.0
 40
28.73000000000044
100
AcDbArc
 50
248.587532953116
 51
255.4177622541452
  0
ARC
  5
107
330
C4
100
AcDbEntity
  8
AM_9
100
AcDbCircle
 10
-21.09999999999969
 20
16.26999999999897
 30
0.0
 40
28.73000000000105
100
AcDbArc
 50
104.5822377458548
 51
111.4124670468839
  0
LINE
  5
108
330
C4
100
AcDbEntity
  8
AM_9
100
AcDbLine
 10
-31.58873015873016
 20
43.01695196947389
 30
0.0
 11
-31.58873015873016
 21
-43.01695196947389
 31
0.0
  0
LINE
  5
109
330
C4
100
AcDbEntity
  8
AM_9
100
AcDbLine
 10
-28.33333333333333
 20
44.07452820834922
 30
0.0
 11
-28.33333333333333
 21
-44.07452820834922
 31
0.0
  0
LWPOLYLINE
  5
10A
330
C4
100
AcDbEntity
  8
AM_9
100
AcDbPolyline
 90
       38
 70
     0
 43
0.0
 10
-13.17038850915775
 20
-1.59511400441659
 10
-12.92815962583096
 20
-1.320508367671184
 10
-12.73346983095203
 20
-1.008394314851172
 10
-12.59304662081533
 20
-0.6661725207845351
 10
-12.51104896730425
 20
-0.3042915977482845
 10
-12.4910305767886
 20
0.059420276147759
 10
-12.53055281965122
 20
0.421424882602731
 10
-12.62774582987588
 20
0.767423082795553
 10
-12.77876011528589
 20
1.092216693419262
 10
-12.98245037598617
 20
1.390417371807732
 10
-13.23048505690403
 20
1.650644065817228
 10
-13.52495620165964
 20
1.871499216710227
 10
-13.85066051056114
 20
2.04027508725655
 10
-14.20927496302178
 20
2.15461590363394
 10
-14.58175386602393
 20
2.206834350783879
 10
-14.9635062510016
 20
2.194006017636521
 10
-15.33820398664134
 20
2.115843961977134
 10
-15.69347959030186
 20
1.973836875950348
 10
-16.020345721334
 20
1.772226615350021
 10
-16.30354780897239
 20
1.520411453267825
 10
-16.54073790519331
 20
1.223022470923796
 10
-16.72018248497155
 20
0.8954906636022126
 10
-16.84258838665539
 20
0.5416779535567476
 10
-16.90257938632698
 20
0.1781223582783341
 10
-16.90177124536391
 20
-0.1905344669309063
 10
-16.84006943259874
 20
-0.5506628519045066
 10
-16.72051311652254
 20
-0.8953361078167033
 10
-16.54553819993858
 20
-1.215380967274712
 10
-16.32140939224879
 20
-1.501709553384887
 10
-16.05061194675105
 20
-1.749009109290328
 10
-15.74410107673332
 20
-1.947807213654455
 10
-15.40345695519071
 20
-2.094836422184599
 10
-15.04427225198615
 20
-2.183020067821732
 10
-14.6685501530881
 20
-2.20956606199037
 10
-14.2941268672139
 20
-2.172410412441076
 10
-13.92653423861309
 20
-2.06999251733721
 10
-13.58120779168796
 20
-1.905886668881514
 10
-13.17038850915804
 20
-1.595114004416064
  0
ARC
  5
10B
330
C4
100
AcDbEntity
  8
AM_9
100
AcDbCircle
 10
-21.10000000000001
 20
-16.2700000000001
 30
0.0
 40
28.72999999999989
100
AcDbArc
 50
261.4191278814026
 51
291.4124674077976
  0
ARC
  5
10C
330
C4
100
AcDbEntity
  8
AM_9
100
AcDbCircle
 10
-21.09999999999987
 20
16.27000000000129
 30
0.0
 40
28.72999999999873
100
AcDbArc
 50
68.58753259220171
 51
98.58087211859795
  0
LINE
  5
10D
330
C4
100
AcDbEntity
  8
AM_9
100
AcDbLine
 10
-25.38666666666667
 20
44.67840349067311
 30
0.0
 11
-25.38666666666667
 21
-44.67840349067311
 31
0.0
  0
LINE
  5
10E
330
C4
100
AcDbEntity
  8
AM_9
100
AcDbLine
 10
-10.61126967278734
 20
43.01695190340402
 30
0.0
 11
-10.61126967278734
 21
-43.01695190340402
 31
0.0
  0
LINE
  5
10F
330
C4
100
AcDbEntity
  8
AM_5
100
AcDbLine
 10
-36.725
 20
25.0
 30
0.0
 11
-36.725
 21
30.84999999999999
 31
0.0
  0
LINE
  5
110
330
C4
100
AcDbEntity
  8
AM_5
100
AcDbLine
 10
-46.72499999999999
 20
25.0
 30
0.0
 11
-46.72499999999999
 21
30.84999999999999
 31
0.0
  0
LINE
  5
111
330
C4
100
AcDbEntity
  8
AM_7
100
AcDbLine
 10
-14.7
 20
-0.2109545454545455
 30
0.0
 11
-14.7
 21
0.2109545454545397
 31
0.0
  0
LINE
  5
112
330
C4
100
AcDbEntity
  8
AM_7
100
AcDbLine
 10
-41.725
 20
32.15767819518707
 30
0.0
 11
-41.725
 21
23.2793364389101
 31
0.0
  0
LWPOLYLINE
  5
113
330
C4
100
AcDbEntity
  8
AM_4
100
AcDbPolyline
 90
        9
 70
     0
 43
0.0
 10
-41.725
 20
14.21176968358908
 10
-42.4125947545914
 20
14.16431597857409
 10
-43.10018950918279
 20
14.01750834569484
 10
-43.72982636321153
 20
13.78301072114923
 10
-44.3201745295535
 20
13.45277535687263
 10
-44.8271015796819
 20
13.04831369739392
 10
-45.25976548687559
 20
12.55834979179475
 10
-45.58382475567161
 20
12.01807643756928
 10
-45.70931575420166
 20
11.72068042125846
  0
LWPOLYLINE
  5
114
330
C4
100
AcDbEntity
  8
AM_4
100
AcDbPolyline
 90
       10
 70
     0
 43
0.0
 10
-37.74346693075125
 20
11.72825263451637
 10
-37.75281282552977
 20
11.75328043449051
 10
-38.02293255121296
 20
12.30761464196029
 10
-38.40390444502206
 20
12.82264879682211
 10
-38.870266930992
 20
13.26297524201215
 10
-39.43155535906029
 20
13.63703989922747
 10
-40.04567931489345
 20
13.91741116236936
 10
-40.72736792744857
 20
14.11103536901609
 10
-41.21873411007047
 20
14.18613185590728
 10
-41.725
 20
14.21176968358908
  0
LINE
  5
115
330
C4
100
AcDbEntity
  8
AM_4
100
AcDbLine
 10
-51.3
 20
-29.61600000000003
 30
0.0
 11
-50.066
 21
-30.84999999999999
 31
0.0
  0
LINE
  5
116
330
C4
100
AcDbEntity
  8
AM_4
100
AcDbLine
 10
-50.066
 20
30.84999999999999
 30
0.0
 11
-51.3
 21
29.61600000000003
 31
0.0
  0
LINE
  5
117
330
C4
100
AcDbEntity
  8
AM_4
100
AcDbLine
 10
-51.3
 20
29.61600000000003
 30
0.0
 11
-51.3
 21
-29.61600000000003
 31
0.0
  0
LWPOLYLINE
  5
118
330
C4
100
AcDbEntity
  8
AM_4
100
AcDbPolyline
 90
       36
 70
     0
 43
0.0
 10
-37.28726657594485
 20
12.01851609191144
 10
-37.43645507622362
 20
11.62400367324368
 10
-37.74451807679065
 20
11.06351649317233
 10
-38.14354241904555
 20
10.55122562203373
 10
-38.65029590589654
 20
10.07722031968127
 10
-39.22933784783315
 20
9.681243606389877
 10
-39.91054867933168
 20
9.355409488972814
 10
-40.63762242705152
 20
9.135922988731933
 10
-41.42975585282896
 20
9.026852757032813
 10
-42.22990997088472
 20
9.043032279162665
 10
-43.03163697388805
 20
9.189855777820682
 10
-43.79600163604388
 20
9.46275009803803
 10
-44.49415111936882
 20
9.852840952840907
 10
-45.11014066842957
 20
10.34947513309307
 10
-45.60222042421368
 20
10.91481022234481
 10
-45.97882529436513
 20
11.54825401194452
 10
-46.20910287704194
 20
12.1820910670103
 10
-46.31476361573857
 20
12.83698006226285
 10
-46.29408450150456
 20
13.45154740312673
 10
-46.16007979003914
 20
14.04814340467926
 10
-45.92021815273091
 20
14.60327033614249
 10
-45.58374588481943
 20
15.11242076033396
 10
-45.14132786064409
 20
15.582195703723
 10
-44.61989177486681
 20
15.98282052146186
 10
-43.99168535262125
 20
16.32657747577922
 10
-43.3076557908734
 20
16.57998975215757
 10
-42.54241432440741
 20
16.74517564960787
 10
-41.7554439224059
 20
16.80363986355292
 10
-40.94442790706693
 20
16.75031073365648
 10
-40.15539975546545
 20
16.58379025652797
 10
-39.41060075036605
 20
16.30447148549665
 10
-38.73375054906496
 20
15.91807999242835
 10
-38.16402966664295
 20
15.44488538109894
 10
-37.70093860123502
 20
14.88628403378572
 10
-37.38233762980867
 20
14.29497623203129
 10
-37.28371994351672
 20
14.0289710259341
  0
LINE
  5
119
330
C4
100
AcDbEntity
  8
AM_4
100
AcDbLine
 10
-50.066
 20
-30.84999999999999
 30
0.0
 11
-37.3
 21
-30.84999999999999
 31
0.0
  0
LINE
  5
11A
330
C4
100
AcDbEntity
  8
AM_4
100
AcDbLine
 10
-46.3069040868358
 20
30.84999999999999
 30
0.0
 11
-50.066
 21
30.84999999999999
 31
0.0
  0
LINE
  5
11B
330
C4
100
AcDbEntity
  8
AM_4
100
AcDbLine
 10
-50.066
 20
30.84999999999999
 30
0.0
 11
-50.066
 21
-30.84999999999999
 31
0.0
  0
LWPOLYLINE
  5
11C
330
C4
100
AcDbEntity
  8
AM_4
100
AcDbPolyline
 90
       19
 70
     0
 43
0.0
 10
-37.28905433490715
 20
30.82961179191729
 10
-37.35006423578364
 20
30.82201873025446
 10
-37.62296386224217
 20
30.78930457208169
 10
-37.99131971409581
 20
30.74840266845854
 10
-38.45612748039228
 20
30.70216446923327
 10
-39.0159234097609
 20
30.65449796020395
 10
-39.6560979367199
 20
30.61081564513148
 10
-40.37256427620228
 20
30.5757297165276
 10
-41.14378135489137
 20
30.55435013069459
 10
-41.9399353043724
 20
30.55016627720888
 10
-42.75245788830835
 20
30.56464494087001
 10
-43.52177537383032
 20
30.59576729329984
 10
-44.26092804528336
 20
30.64153969608395
 10
-44.89286546259788
 20
30.69291378369478
 10
-45.44829825135767
 20
30.74730427009776
 10
-45.85262373889301
 20
30.7922849332666
 10
-46.14626746488022
 20
30.82777569109057
 10
-46.29073828142946
 20
30.84610387812353
 10
-46.32088279372714
 20
30.84999999999902
  0
ELLIPSE
  5
11D
330
C4
100
AcDbEntity
  8
AM_4
100
AcDbEllipse
 10
-41.725
 20
12.86539465741853
 30
0.0
 11
4.188000000000009
 21
0.0
 31
0.0
210
0.0
220
0.0
230
1.0
 40
0.9063077870366496
 41
0.0
 42
6.283185307179586
  0
ENDBLK
  5
C7
330
C4
100
AcDbEntity
  8
0
100
AcDbBlockEnd
  0
BLOCK
  5
120
330
11E
100
AcDbEntity
  8
0
100
AcDbBlockBegin
  2
4_125892H_0_in_125892_2
 70
     2
 10
0.0
 20
0.0
 30
0.0
  3
4_125892H_0_in_125892_2
  1

  0
ATTDEF
  5
122
330
11E
100
AcDbEntity
  8
AM_6
100
AcDbText
 10
6.865
 20
71.50000000000001
 30
0.0
 40
0.5
  1
F4B-SC -M-Housing
100
AcDbAttributeDefinition
  3

  2
NN
 70
     8
280
     0
  0
ATTDEF
  5
123
330
11E
100
AcDbEntity
  8
AM_6
100
AcDbText
 10
6.865
 20
71.00000000000001
 30
0.0
 40
0.5
  1
SC 4 Bolt Flange Bearings -(Normal Duty)
100
AcDbAttributeDefinition
  3

  2
NT
 70
     8
280
     0
  0
ATTDEF
  5
124
330
11E
100
AcDbEntity
  8
AM_6
100
AcDbText
 10
6.865
 20
70.50000000000001
 30
0.0
 40
0.5
  1
125892H
100
AcDbAttributeDefinition
  3

  2
NB
 70
     8
280
     0
  0
ATTDEF
  5
125
330
11E
100
AcDbEntity
  8
AM_6
100
AcDbText
 10
6.865
 20
70.00000000000001
 30
0.0
 40
0.5
  1
$PN.H
100
AcDbAttributeDefinition
  3

  2
NBSYN
 70
     8
280
     0
  0
ATTDEF
  5
126
330
11E
100
AcDbEntity
  8
AM_6
100
AcDbText
 10
6.865
 20
69.50000000000001
 30
0.0
 40
0.5
  1
125892
100
AcDbAttributeDefinition
  3

  2
LINA
 70
     8
280
     0
  0
ATTDEF
  5
127
330
11E
100
AcDbEntity
  8
AM_6
100
AcDbText
 10
6.865
 20
69.00000000000001
 30
0.0
 40
0.5
  1
210
100
AcDbAttributeDefinition
  3

  2
SERIES
 70
     8
280
     0
  0
ATTDEF
  5
128
330
11E
100
AcDbEntity
  8
AM_6
100
AcDbText
 10
6.865
 20
68.50000000000001
 30
0.0
 40
0.5
  1
50
100
AcDbAttributeDefinition
  3

  2
SS
 70
     8
280
     0
  0
ATTDEF
  5
129
330
11E
100
AcDbEntity
  8
AM_6
100
AcDbText
 10
6.865
 20
68.00000000000001
 30
0.0
 40
0.5
  1
125892
100
AcDbAttributeDefinition
  3

  2
PN
 70
     8
280
     0
  0
ATTDEF
  5
12A
330
11E
100
AcDbEntity
  8
AM_6
100
AcDbText
 10
6.865
 20
67.50000000000001
 30
0.0
 40
0.5
  1
F4B-SC-50M
100
AcDbAttributeDefinition
  3

  2
DESCRIPTION
 70
     8
280
     0
  0
ATTDEF
  5
12B
330
11E
100
AcDbEntity
  8
AM_6
100
AcDbText
 10
6.865
 20
67.00000000000001
 30
0.0
 40
0.5
  1
1
100
AcDbAttributeDefinition
  3

  2
LF1
 70
     8
280
     0
  0
ATTDEF
  5
12C
330
11E
100
AcDbEntity
  8
AM_6
100
AcDbText
 10
6.865
 20
66.50000000000001
 30
0.0
 40
0.5
  1
49.3
100
AcDbAttributeDefinition
  3

  2
A
 70
     8
280
     0
  0
ATTDEF
  5
12D
330
11E
100
AcDbEntity
  8
AM_6
100
AcDbText
 10
6.865
 20
66.00000000000001
 30
0.0
 40
0.5
  1
22.1
100
AcDbAttributeDefinition
  3

  2
A1
 70
     8
280
     0
  0
ATTDEF
  5
12E
330
11E
100
AcDbEntity
  8
AM_6
100
AcDbText
 10
6.865
 20
65.50000000000001
 30
0.0
 40
0.5
  1
143.0
100
AcDbAttributeDefinition
  3

  2
B
 70
     8
280
     0
  0
ATTDEF
  5
12F
330
11E
100
AcDbEntity
  8
AM_6
100
AcDbText
 10
6.865
 20
65.00000000000001
 30
0.0
 40
0.5
  1
51.3
100
AcDbAttributeDefinition
  3

  2
C
 70
     8
280
     0
  0
ATTDEF
  5
130
330
11E
100
AcDbEntity
  8
AM_6
100
AcDbText
 10
6.865
 20
64.50000000000001
 30
0.0
 40
0.5
  1
111.3
100
AcDbAttributeDefinition
  3

  2
D
 70
     8
280
     0
  0
ATTDEF
  5
131
330
11E
100
AcDbEntity
  8
AM_6
100
AcDbText
 10
6.865
 20
64.00000000000001
 30
0.0
 40
0.5
  1
M16
100
AcDbAttributeDefinition
  3

  2
F
 70
     8
280
     0
  0
ATTDEF
  5
132
330
11E
100
AcDbEntity
  8
AM_6
100
AcDbText
 10
6.865
 20
63.50000000000001
 30
0.0
 40
0.5
  1
18.0
100
AcDbAttributeDefinition
  3

  2
F1
 70
     8
280
     0
  0
ATTDEF
  5
133
330
11E
100
AcDbEntity
  8
AM_6
100
AcDbText
 10
6.865
 20
63.00000000000001
 30
0.0
 40
0.5
  1
16.0
100
AcDbAttributeDefinition
  3

  2
H
 70
     8
280
     0
  0
ATTDEF
  5
134
330
11E
100
AcDbEntity
  8
AM_6
100
AcDbText
 10
6.865
 20
62.50000000000001
 30
0.0
 40
0.5
  1
14.0
100
AcDbAttributeDefinition
  3

  2
J
 70
     8
280
     0
  0
ATTDEF
  5
135
330
11E
100
AcDbEntity
  8
AM_6
100
AcDbText
 10
6.865
 20
62.00000000000001
 30
0.0
 40
0.5
  1
61.7
100
AcDbAttributeDefinition
  3

  2
L
 70
     8
280
     0
  0
ATTDEF
  5
136
330
11E
100
AcDbEntity
  8
AM_6
100
AcDbText
 10
6.865
 20
61.50000000000001
 30
0.0
 40
0.5
  1
73.2
100
AcDbAttributeDefinition
  3

  2
N
 70
     8
280
     0
  0
ATTDEF
  5
137
330
11E
100
AcDbEntity
  8
AM_6
100
AcDbText
 10
6.865
 20
61.00000000000001
 30
0.0
 40
0.5
  1
baldor
100
AcDbAttributeDefinition
  3

  2
COMPANY
 70
     8
280
     0
  0
LINE
  5
138
330
11E
100
AcDbEntity
  8
AM_9
100
AcDbLine
 10
-27.92
 20
58.675
 30
0.0
 11
-20.29999999999999
 21
58.675
 31
0.0
  0
LINE
  5
139
330
11E
100
AcDbEntity
  8
AM_9
100
AcDbLine
 10
-20.29999999999999
 20
58.675
 30
0.0
 11
-20.29999999999999
 21
63.67500000000001
 31
0.0
  0
LINE
  5
13A
330
11E
100
AcDbEntity
  8
AM_9
100
AcDbLine
 10
-27.92
 20
63.67500000000001
 30
0.0
 11
-27.92
 21
58.675
 31
0.0
  0
LINE
  5
13B
330
11E
100
AcDbEntity
  8
AM_9
100
AcDbLine
 10
-8.533333333333337
 20
71.50000000000001
 30
0.0
 11
-8.533333333333337
 21
63.67500000000001
 31
0.0
  0
LINE
  5
13C
330
11E
100
AcDbEntity
  8
AM_9
100
AcDbLine
 10
-5.333333333333333
 20
71.50000000000001
 30
0.0
 11
-5.333333333333333
 21
63.67500000000001
 31
0.0
  0
LINE
  5
13D
330
11E
100
AcDbEntity
  8
AM_9
100
AcDbLine
 10
-16.0
 20
63.67500000000001
 30
0.0
 11
-5.333333333333333
 21
63.67500000000001
 31
0.0
  0
LINE
  5
13E
330
11E
100
AcDbEntity
  8
AM_9
100
AcDbLine
 10
-22.38
 20
25.00000000000004
 30
0.0
 11
-6.399999999999997
 21
25.00000000000004
 31
0.0
  0
LINE
  5
13F
330
11E
100
AcDbEntity
  8
AM_9
100
AcDbLine
 10
-22.38
 20
-25.0
 30
0.0
 11
-6.399999999999997
 21
-25.0
 31
0.0
  0
LINE
  5
140
330
11E
100
AcDbEntity
  8
AM_9
100
AcDbLine
 10
-34.1
 20
-45.0
 30
0.0
 11
-6.399999999999999
 21
-45.0
 31
0.0
  0
LINE
  5
141
330
11E
100
AcDbEntity
  8
AM_9
100
AcDbLine
 10
-6.399999999999999
 20
45.0
 30
0.0
 11
-34.1
 21
45.0
 31
0.0
  0
LINE
  5
142
330
11E
100
AcDbEntity
  8
AM_9
100
AcDbLine
 10
-22.38
 20
-25.0
 30
0.0
 11
-22.38
 21
25.00000000000004
 31
0.0
  0
LINE
  5
143
330
11E
100
AcDbEntity
  8
AM_9
100
AcDbLine
 10
-14.4
 20
-69.59647310254462
 30
0.0
 11
-16.0
 21
-69.59647310254462
 31
0.0
  0
LINE
  5
144
330
11E
100
AcDbEntity
  8
AM_9
100
AcDbLine
 10
-14.4
 20
-57.21741104187563
 30
0.0
 11
-14.4
 21
-71.50000000000001
 31
0.0
  0
LINE
  5
145
330
11E
100
AcDbEntity
  8
AM_9
100
AcDbLine
 10
-14.4
 20
69.5964731025446
 30
0.0
 11
-16.0
 21
69.5964731025446
 31
0.0
  0
LINE
  5
146
330
11E
100
AcDbEntity
  8
AM_9
100
AcDbLine
 10
-37.3
 20
-48.33333333333334
 30
0.0
 11
-34.1
 21
-48.33333333333334
 31
0.0
  0
LINE
  5
147
330
11E
100
AcDbEntity
  8
AM_9
100
AcDbLine
 10
-34.1
 20
48.33333333333334
 30
0.0
 11
-37.3
 21
48.33333333333334
 31
0.0
  0
LINE
  5
148
330
11E
100
AcDbEntity
  8
AM_9
100
AcDbLine
 10
-34.1
 20
48.33333333333334
 30
0.0
 11
-34.1
 21
-48.33333333333334
 31
0.0
  0
LINE
  5
149
330
11E
100
AcDbEntity
  8
AM_9
100
AcDbLine
 10
-6.4
 20
-48.33333333333334
 30
0.0
 11
0.0
 21
-48.33333333333334
 31
0.0
  0
LINE
  5
14A
330
11E
100
AcDbEntity
  8
AM_9
100
AcDbLine
 10
0.0
 20
48.33333333333334
 30
0.0
 11
-6.4
 21
48.33333333333334
 31
0.0
  0
LINE
  5
14B
330
11E
100
AcDbEntity
  8
AM_9
100
AcDbLine
 10
-6.4
 20
48.33333333333334
 30
0.0
 11
-6.4
 21
-48.33333333333334
 31
0.0
  0
LINE
  5
14C
330
11E
100
AcDbEntity
  8
AM_9
100
AcDbLine
 10
-14.4
 20
71.50000000000001
 30
0.0
 11
-14.4
 21
57.21741104187563
 31
0.0
  0
LWPOLYLINE
  5
14D
330
11E
100
AcDbEntity
  8
AM_9
100
AcDbPolyline
 90
        4
 70
     0
 43
0.0
 10
-37.28999999999999
 20
57.85483587875006
 10
-37.28863883442951
 20
57.85408098095632
 10
-37.28212867410082
 20
57.88518766394039
 10
-37.26297422087503
 20
57.96463285844744
  0
LINE
  5
14E
330
11E
100
AcDbEntity
  8
AM_9
100
AcDbLine
 10
-16.0
 20
-57.09886630341898
 30
0.0
 11
-14.4
 21
-57.21741104187563
 31
0.0
  0
LINE
  5
14F
330
11E
100
AcDbEntity
  8
AM_9
100
AcDbLine
 10
-14.4
 20
57.21741104187563
 30
0.0
 11
-16.0
 21
57.09886630341898
 31
0.0
  0
LINE
  5
150
330
11E
100
AcDbEntity
  8
AM_9
100
AcDbLine
 10
-16.0000096849351
 20
61.42044659957373
 30
0.0
 11
-14.4
 21
61.61754760531698
 31
0.0
  0
LINE
  5
151
330
11E
100
AcDbEntity
  8
AM_9
100
AcDbLine
 10
-15.99999999999999
 20
-62.71970509383379
 30
0.0
 11
-14.4
 21
-62.91273458445042
 31
0.0
  0
LINE
  5
152
330
11E
100
AcDbEntity
  8
AM_9
100
AcDbLine
 10
-16.0
 20
46.65
 30
0.0
 11
0.0000000000000034
 21
46.65
 31
0.0
  0
LINE
  5
153
330
11E
100
AcDbEntity
  8
AM_9
100
AcDbLine
 10
0.0000000000000034
 20
64.65
 30
0.0
 11
-16.0
 21
64.65
 31
0.0
  0
LINE
  5
154
330
11E
100
AcDbEntity
  8
AM_9
100
AcDbLine
 10
-16.0
 20
-64.65
 30
0.0
 11
0.0000000000000034
 21
-64.65
 31
0.0
  0
LINE
  5
155
330
11E
100
AcDbEntity
  8
AM_9
100
AcDbLine
 10
0.0000000000000034
 20
-46.65
 30
0.0
 11
-16.0
 21
-46.65
 31
0.0
  0
LINE
  5
156
330
11E
100
AcDbEntity
  8
AM_7
100
AcDbLine
 10
0.7999999999999966
 20
55.65
 30
0.0
 11
-16.8
 21
55.65
 31
0.0
  0
LINE
  5
157
330
11E
100
AcDbEntity
  8
AM_7
100
AcDbLine
 10
0.7999999999999966
 20
-55.65
 30
0.0
 11
-16.8
 21
-55.65
 31
0.0
  0
LINE
  5
158
330
11E
100
AcDbEntity
  8
AM_7
100
AcDbLine
 10
-53.765
 20
0.0
 30
0.0
 11
1.865
 21
0.0
 31
0.0
  0
LINE
  5
159
330
11E
100
AcDbEntity
  8
AM_4
100
AcDbLine
 10
-37.28999999999999
 20
63.67500000000001
 30
0.0
 11
-16.0
 21
63.67500000000001
 31
0.0
  0
LINE
  5
15A
330
11E
100
AcDbEntity
  8
AM_4
100
AcDbLine
 10
-37.28999999999999
 20
63.67500000000001
 30
0.0
 11
-37.28999999999999
 21
57.85483587875007
 31
0.0
  0
LINE
  5
15B
330
11E
100
AcDbEntity
  8
AM_4
100
AcDbLine
 10
-35.68999997615813
 20
63.67500000000001
 30
0.0
 11
-35.68999997615813
 21
58.99268437451475
 31
0.0
  0
LWPOLYLINE
  5
15C
330
11E
100
AcDbEntity
  8
AM_4
100
AcDbPolyline
 90
       11
 70
     0
 43
0.0
 10
-35.89163988501983
 20
58.97054626364285
 10
-36.12017606389773
 20
58.93480477698234
 10
-36.34181954010094
 20
58.87190872983298
 10
-36.71409194376132
 20
58.68790602460441
 10
-36.91552976329909
 20
58.52837710141559
 10
-37.07678194765676
 20
58.34579828427335
 10
-37.19186509108695
 20
58.15386156734335
 10
-37.26464165030045
 20
57.95856770644939
 10
-37.28134041394439
 20
57.88895355023798
 10
-37.2883112050379
 20
57.85539623601002
 10
-37.28999999999999
 20
57.85483587875007
  0
LINE
  5
15D
330
11E
100
AcDbEntity
  8
AM_4
100
AcDbLine
 10
-37.3
 20
58.73142768364082
 30
0.0
 11
-37.3
 21
-58.73142768364082
 31
0.0
  0
ARC
  5
15E
330
11E
100
AcDbEntity
  8
AM_4
100
AcDbCircle
 10
-35.69999999999998
 20
-58.7314276836408
 30
0.0
 40
1.600000000000016
100
AcDbArc
 50
180.0
 51
263.1208867743684
  0
ARC
  5
15F
330
11E
100
AcDbEntity
  8
AM_4
100
AcDbCircle
 10
-35.70000000000339
 20
58.73142768364103
 30
0.0
 40
1.599999999996605
100
AcDbArc
 50
173.5907960217747
 51
180.0
  0
LINE
  5
160
330
11E
100
AcDbEntity
  8
AM_4
100
AcDbLine
 10
-35.89163988501983
 20
58.97054626364285
 30
0.0
 11
-16.0000096849351
 21
61.42044659957373
 31
0.0
  0
LINE
  5
161
330
11E
100
AcDbEntity
  8
AM_4
100
AcDbLine
 10
-35.89163988501983
 20
58.97054626364285
 30
0.0
 11
-35.89163988501983
 21
-60.31990939724962
 31
0.0
  0
LINE
  5
162
330
11E
100
AcDbEntity
  8
AM_4
100
AcDbLine
 10
-35.89163988501983
 20
-60.31990939724962
 30
0.0
 11
-15.99999999999999
 21
-62.71970509383379
 31
0.0
  0
LINE
  5
163
330
11E
100
AcDbEntity
  8
AM_4
100
AcDbLine
 10
-14.4
 20
-26.15683556087306
 30
0.0
 11
-16.0
 21
-25.95151005089618
 31
0.0
  0
LINE
  5
164
330
11E
100
AcDbEntity
  8
AM_4
100
AcDbLine
 10
-16.0
 20
25.95151005089614
 30
0.0
 11
-14.4
 21
26.15683556087303
 31
0.0
  0
LINE
  5
165
330
11E
100
AcDbEntity
  8
AM_4
100
AcDbLine
 10
-14.4
 20
-47.598
 30
0.0
 11
-16.0
 21
-47.598
 31
0.0
  0
LINE
  5
166
330
11E
100
AcDbEntity
  8
AM_4
100
AcDbLine
 10
-16.0
 20
-71.50000000000001
 30
0.0
 11
-16.0
 21
-25.95151005089618
 31
0.0
  0
LINE
  5
167
330
11E
100
AcDbEntity
  8
AM_4
100
AcDbLine
 10
-16.0
 20
-71.50000000000001
 30
0.0
 11
0.0000000000000034
 21
-71.50000000000001
 31
0.0
  0
LINE
  5
168
330
11E
100
AcDbEntity
  8
AM_4
100
AcDbLine
 10
-14.4
 20
-52.80108511885661
 30
0.0
 11
-14.4
 21
52.80108511885643
 31
0.0
  0
LINE
  5
169
330
11E
100
AcDbEntity
  8
AM_4
100
AcDbLine
 10
-16.0
 20
-52.80108511885661
 30
0.0
 11
-14.4
 21
-52.80108511885661
 31
0.0
  0
LINE
  5
16A
330
11E
100
AcDbEntity
  8
AM_4
100
AcDbLine
 10
-16.0
 20
-55.64999999999999
 30
0.0
 11
0.0000000000000044
 21
-55.64999999999999
 31
0.0
  0
LINE
  5
16B
330
11E
100
AcDbEntity
  8
AM_4
100
AcDbLine
 10
0.0000000000000034
 20
-71.50000000000001
 30
0.0
 11
0.0000000000000034
 21
71.50000000000001
 31
0.0
  0
LINE
  5
16C
330
11E
100
AcDbEntity
  8
AM_4
100
AcDbLine
 10
-16.0
 20
71.50000000000001
 30
0.0
 11
0.0000000000000034
 21
71.50000000000001
 31
0.0
  0
LINE
  5
16D
330
11E
100
AcDbEntity
  8
AM_4
100
AcDbLine
 10
-16.0
 20
25.95151005089614
 30
0.0
 11
-16.0
 21
71.50000000000001
 31
0.0
  0
LINE
  5
16E
330
11E
100
AcDbEntity
  8
AM_4
100
AcDbLine
 10
-16.0
 20
55.64999999999999
 30
0.0
 11
0.0000000000000044
 21
55.64999999999999
 31
0.0
  0
LINE
  5
16F
330
11E
100
AcDbEntity
  8
AM_4
100
AcDbLine
 10
-14.4
 20
52.80108511885643
 30
0.0
 11
-16.0
 21
52.80108511885643
 31
0.0
  0
LINE
  5
170
330
11E
100
AcDbEntity
  8
AM_4
100
AcDbLine
 10
-14.4
 20
47.59799999999999
 30
0.0
 11
-16.0
 21
47.59799999999999
 31
0.0
  0
ENDBLK
  5
121
330
11E
100
AcDbEntity
  8
0
100
AcDbBlockEnd
  0
ENDSEC
  0
SECTION
  2
ENTITIES
  0
INSERT
  5
6F
330
1F
100
AcDbEntity
  8
0
100
AcDbBlockReference
  2
1_125892_2
 10
0.0
 20
0.0
 30
0.0
  0
POINT
  5
172
330
1F
100
AcDbEntity
  8
ConnectionPoints
100
AcDbPoint
 10
-51.3
 20
0.0
 30
0.0000000000000031
  0
POINT
  5
173
330
1F
100
AcDbEntity
  8
ConnectionPoints
100
AcDbPoint
 10
-24.11
 20
63.675
 30
0.0000000000000015
  0
POINT
  5
174
330
1F
100
AcDbEntity
  8
ConnectionPoints
100
AcDbPoint
 10
-51.3
 20
0.0
 30
0.0000000000000031
  0
ENDSEC
  0
SECTION
  2
OBJECTS
  0
DICTIONARY
  5
C
330
0
100
AcDbDictionary
281
     1
  3
ACAD_DETAILVIEWSTYLE
350
17C
  3
ACAD_GROUP
350
D
  3
ACAD_LAYOUT
350
1A
  3
ACAD_MATERIAL
350
43
  3
ACAD_MLEADERSTYLE
350
6B
  3
ACAD_MLINESTYLE
350
17
  3
ACAD_PLOTSETTINGS
350
19
  3
ACAD_PLOTSTYLENAME
350
E
  3
ACAD_SCALELIST
350
47
  3
ACAD_SECTIONVIEWSTYLE
350
17D
  3
ACAD_TABLESTYLE
350
69
  3
ACAD_VISUALSTYLE
350
2A
  3
ACDB_RECOMPOSE_DATA
350
179
  3
AcDbVariableDictionary
350
175
  0
SUN
  5
6D
330
29
100
AcDbSun
 90
        1
290
     0
 63
     7
421
 16777215
 40
1.0
291
     1
 91
  2455826
 92
 54000000
292
     0
 70
     2
 71
   256
280
     1
  0
DICTIONARY
  5
17C
102
{ACAD_REACTORS
330
C
102
}
330
C
100
AcDbDictionary
281
     1
  0
DICTIONARY
  5
D
102
{ACAD_REACTORS
330
C
102
}
330
C
100
AcDbDictionary
281
     1
  0
DICTIONARY
  5
1A
102
{ACAD_REACTORS
330
C
102
}
330
C
100
AcDbDictionary
281
     1
  3
Layout1
350
1E
  3
Layout2
350
26
  3
Model
350
22
  0
DICTIONARY
  5
43
102
{ACAD_REACTORS
330
C
102
}
330
C
100
AcDbDictionary
281
     1
  3
ByBlock
350
45
  3
ByLayer
350
44
  3
Global
350
46
  0
DICTIONARY
  5
6B
102
{ACAD_REACTORS
330
C
102
}
330
C
100
AcDbDictionary
281
     1
  3
Standard
350
6C
  0
DICTIONARY
  5
17
102
{ACAD_REACTORS
330
C
102
}
330
C
100
AcDbDictionary
281
     1
  3
Standard
350
18
  0
DICTIONARY
  5
19
102
{ACAD_REACTORS
330
C
102
}
330
C
100
AcDbDictionary
281
     1
  0
ACDBDICTIONARYWDFLT
  5
E
102
{ACAD_REACTORS
330
C
102
}
330
C
100
AcDbDictionary
281
     1
  3
Normal
350
F
100
AcDbDictionaryWithDefault
340
F
  0
DICTIONARY
  5
47
102
{ACAD_REACTORS
330
C
102
}
330
C
100
AcDbDictionary
281
     1
  3
A0
350
48
  3
A1
350
49
  3
A2
350
4A
  3
A3
350
4B
  3
A4
350
4C
  3
A5
350
4D
  3
A6
350
4E
  3
A7
350
4F
  3
A8
350
50
  3
A9
350
51
  3
B0
350
52
  3
B1
350
53
  3
B2
350
54
  3
B3
350
55
  3
B4
350
56
  3
B5
350
57
  3
B6
350
58
  3
B7
350
59
  3
B8
350
5A
  3
B9
350
5B
  3
C0
350
5C
  3
C1
350
5D
  3
C2
350
5E
  3
C3
350
5F
  3
C4
350
60
  3
C5
350
61
  3
C6
350
62
  3
C7
350
63
  3
C8
350
64
  3
C9
350
65
  3
D0
350
66
  3
D1
350
67
  3
D2
350
68
  0
DICTIONARY
  5
17D
102
{ACAD_REACTORS
330
C
102
}
330
C
100
AcDbDictionary
281
     1
  0
DICTIONARY
  5
69
102
{ACAD_REACTORS
330
C
102
}
330
C
100
AcDbDictionary
281
     1
  3
Standard
350
6A
  0
DICTIONARY
  5
2A
102
{ACAD_REACTORS
330
C
102
}
330
C
100
AcDbDictionary
281
     1
  3
2dWireframe
350
2F
  3
Basic
350
32
  3
Brighten
350
36
  3
ColorChange
350
3A
  3
Conceptual
350
34
  3
Dim
350
35
  3
EdgeColorOff
350
3D
  3
Facepattern
350
39
  3
Flat
350
2B
  3
FlatWithEdges
350
2C
  3
Gouraud
350
2D
  3
GouraudWithEdges
350
2E
  3
Hidden
350
31
  3
JitterOff
350
3B
  3
Linepattern
350
38
  3
OverhangOff
350
3C
  3
Realistic
350
33
  3
Shaded
350
42
  3
Shaded with edges
350
41
  3
Shades of Gray
350
3E
  3
Sketchy
350
3F
  3
Thicken
350
37
  3
Wireframe
350
30
  3
X-Ray
350
40
  0
XRECORD
  5
179
102
{ACAD_REACTORS
330
C
102
}
330
C
100
AcDbXrecord
280
     1
 90
        1
330
6A
  0
DICTIONARY
  5
175
102
{ACAD_REACTORS
330
C
102
}
330
C
100
AcDbDictionary
281
     1
  3
CANNOSCALE
350
176
  3
CMLEADERSTYLE
350
17B
  3
CTABLESTYLE
350
17A
  0
LAYOUT
  5
1E
102
{ACAD_REACTORS
330
1A
102
}
330
1A
100
AcDbPlotSettings
  1

  2
none_device
  4

  6

 40
0.0
 41
0.0
 42
0.0
 43
0.0
 44
0.0
 45
0.0
 46
0.0
 47
0.0
 48
0.0
 49
0.0
140
0.0
141
0.0
142
1.0
143
1.0
 70
   688
 72
     1
 73
     0
 74
     5
  7

 75
    16
 76
     0
 77
     2
 78
   300
147
1.0
148
0.0
149
0.0
100
AcDbLayout
  1
Layout1
 70
     1
 71
     1
 10
0.0
 20
0.0
 11
420.0
 21
297.0
 12
0.0
 22
0.0
 32
0.0
 14
1.000000000000000E+20
 24
1.000000000000000E+20
 34
1.000000000000000E+20
 15
-1.000000000000000E+20
 25
-1.000000000000000E+20
 35
-1.000000000000000E+20
146
0.0
 13
0.0
 23
0.0
 33
0.0
 16
1.0
 26
0.0
 36
0.0
 17
0.0
 27
1.0
 37
0.0
 76
     0
330
1B
  0
LAYOUT
  5
26
102
{ACAD_REACTORS
330
1A
102
}
330
1A
100
AcDbPlotSettings
  1

  2
none_device
  4

  6

 40
0.0
 41
0.0
 42
0.0
 43
0.0
 44
0.0
 45
0.0
 46
0.0
 47
0.0
 48
0.0
 49
0.0
140
0.0
141
0.0
142
1.0
143
1.0
 70
   688
 72
     1
 73
     0
 74
     5
  7

 75
    16
 76
     0
 77
     2
 78
   300
147
1.0
148
0.0
149
0.0
100
AcDbLayout
  1
Layout2
 70
     1
 71
     2
 10
0.0
 20
0.0
 11
0.0
 21
0.0
 12
0.0
 22
0.0
 32
0.0
 14
0.0
 24
0.0
 34
0.0
 15
0.0
 25
0.0
 35
0.0
146
0.0
 13
0.0
 23
0.0
 33
0.0
 16
1.0
 26
0.0
 36
0.0
 17
0.0
 27
1.0
 37
0.0
 76
     0
330
23
  0
LAYOUT
  5
22
102
{ACAD_REACTORS
330
1A
102
}
330
1A
100
AcDbPlotSettings
  1

  2
none_device
  4
Letter_(8.50_x_11.00_Inches)
  6

 40
6.35
 41
6.35
 42
6.35000508
 43
6.35000508
 44
215.9
 45
279.4
 46
0.0
 47
0.0
 48
0.0
 49
0.0
140
0.0
141
0.0
142
1.0
143
1.0
 70
  1712
 72
     1
 73
     0
 74
     0
  7

 75
     0
 76
     0
 77
     2
 78
   300
147
1.0
148
0.0
149
0.0
100
AcDbLayout
  1
Model
 70
     1
 71
     0
 10
0.0
 20
0.0
 11
420.0
 21
297.0
 12
0.0
 22
0.0
 32
0.0
 14
1.000000000000000E+20
 24
1.000000000000000E+20
 34
1.000000000000000E+20
 15
-1.000000000000000E+20
 25
-1.000000000000000E+20
 35
-1.000000000000000E+20
146
0.0
 13
0.0
 23
0.0
 33
0.0
 16
1.0
 26
0.0
 36
0.0
 17
0.0
 27
1.0
 37
0.0
 76
     0
330
1F
331
29
  0
MATERIAL
  5
45
102
{ACAD_REACTORS
330
43
102
}
330
43
100
AcDbMaterial
  1
ByBlock
 72
     1
 94
      127
  0
MATERIAL
  5
44
102
{ACAD_REACTORS
330
43
102
}
330
43
100
AcDbMaterial
  1
ByLayer
 72
     1
 94
      127
  0
MATERIAL
  5
46
102
{ACAD_REACTORS
330
43
102
}
330
43
100
AcDbMaterial
  1
Global
 72
     1
 94
      127
  0
MLEADERSTYLE
  5
6C
102
{ACAD_REACTORS
330
6B
102
}
330
6B
100
AcDbMLeaderStyle
179
     2
170
     2
171
     1
172
     0
 90
        2
 40
0.0
 41
0.0
173
     1
 91
-1056964608
340
14
 92
       -2
290
     1
 42
2.0
291
     1
 43
8.0
  3
Standard
341
0
 44
4.0
300

342
11
174
     1
178
     6
175
     1
176
     0
 93
-1056964608
 45
4.0
292
     0
297
     0
 46
4.0
343
0
 94
-1056964608
 47
1.0
 49
1.0
140
1.0
293
     1
141
0.0
294
     1
177
     0
142
1.0
295
     0
296
     0
143
3.75
271
     0
272
     9
273
     9
298
     0
  0
MLINESTYLE
  5
18
102
{ACAD_REACTORS
330
17
102
}
330
17
100
AcDbMlineStyle
  2
Standard
 70
     0
  3

 62
   256
 51
90.0
 52
90.0
 71
     2
 49
0.5
 62
   256
  6
BYLAYER
 49
-0.5
 62
   256
  6
BYLAYER
  0
ACDBPLACEHOLDER
  5
F
102
{ACAD_REACTORS
330
E
102
}
330
E
  0
SCALE
  5
48
102
{ACAD_REACTORS
330
47
102
}
330
47
100
AcDbScale
 70
     0
300
1:1
140
1.0
141
1.0
290
     1
  0
SCALE
  5
49
102
{ACAD_REACTORS
330
47
102
}
330
47
100
AcDbScale
 70
     0
300
1:2
140
1.0
141
2.0
290
     0
  0
SCALE
  5
4A
102
{ACAD_REACTORS
330
47
102
}
330
47
100
AcDbScale
 70
     0
300
1:4
140
1.0
141
4.0
290
     0
  0
SCALE
  5
4B
102
{ACAD_REACTORS
330
47
102
}
330
47
100
AcDbScale
 70
     0
300
1:5
140
1.0
141
5.0
290
     0
  0
SCALE
  5
4C
102
{ACAD_REACTORS
330
47
102
}
330
47
100
AcDbScale
 70
     0
300
1:8
140
1.0
141
8.0
290
     0
  0
SCALE
  5
4D
102
{ACAD_REACTORS
330
47
102
}
330
47
100
AcDbScale
 70
     0
300
1:10
140
1.0
141
10.0
290
     0
  0
SCALE
  5
4E
102
{ACAD_REACTORS
330
47
102
}
330
47
100
AcDbScale
 70
     0
300
1:16
140
1.0
141
16.0
290
     0
  0
SCALE
  5
4F
102
{ACAD_REACTORS
330
47
102
}
330
47
100
AcDbScale
 70
     0
300
1:20
140
1.0
141
20.0
290
     0
  0
SCALE
  5
50
102
{ACAD_REACTORS
330
47
102
}
330
47
100
AcDbScale
 70
     0
300
1:30
140
1.0
141
30.0
290
     0
  0
SCALE
  5
51
102
{ACAD_REACTORS
330
47
102
}
330
47
100
AcDbScale
 70
     0
300
1:40
140
1.0
141
40.0
290
     0
  0
SCALE
  5
52
102
{ACAD_REACTORS
330
47
102
}
330
47
100
AcDbScale
 70
     0
300
1:50
140
1.0
141
50.0
290
     0
  0
SCALE
  5
53
102
{ACAD_REACTORS
330
47
102
}
330
47
100
AcDbScale
 70
     0
300
1:100
140
1.0
141
100.0
290
     0
  0
SCALE
  5
54
102
{ACAD_REACTORS
330
47
102
}
330
47
100
AcDbScale
 70
     0
300
2:1
140
2.0
141
1.0
290
     0
  0
SCALE
  5
55
102
{ACAD_REACTORS
330
47
102
}
330
47
100
AcDbScale
 70
     0
300
4:1
140
4.0
141
1.0
290
     0
  0
SCALE
  5
56
102
{ACAD_REACTORS
330
47
102
}
330
47
100
AcDbScale
 70
     0
300
8:1
140
8.0
141
1.0
290
     0
  0
SCALE
  5
57
102
{ACAD_REACTORS
330
47
102
}
330
47
100
AcDbScale
 70
     0
300
10:1
140
10.0
141
1.0
290
     0
  0
SCALE
  5
58
102
{ACAD_REACTORS
330
47
102
}
330
47
100
AcDbScale
 70
     0
300
100:1
140
100.0
141
1.0
290
     0
  0
SCALE
  5
59
102
{ACAD_REACTORS
330
47
102
}
330
47
100
AcDbScale
 70
     0
300
1/128" = 1'-0"
140
0.0078125
141
12.0
290
     0
  0
SCALE
  5
5A
102
{ACAD_REACTORS
330
47
102
}
330
47
100
AcDbScale
 70
     0
300
1/64" = 1'-0"
140
0.015625
141
12.0
290
     0
  0
SCALE
  5
5B
102
{ACAD_REACTORS
330
47
102
}
330
47
100
AcDbScale
 70
     0
300
1/32" = 1'-0"
140
0.03125
141
12.0
290
     0
  0
SCALE
  5
5C
102
{ACAD_REACTORS
330
47
102
}
330
47
100
AcDbScale
 70
     0
300
1/16" = 1'-0"
140
0.0625
141
12.0
290
     0
  0
SCALE
  5
5D
102
{ACAD_REACTORS
330
47
102
}
330
47
100
AcDbScale
 70
     0
300
3/32" = 1'-0"
140
0.09375
141
12.0
290
     0
  0
SCALE
  5
5E
102
{ACAD_REACTORS
330
47
102
}
330
47
100
AcDbScale
 70
     0
300
1/8" = 1'-0"
140
0.125
141
12.0
290
     0
  0
SCALE
  5
5F
102
{ACAD_REACTORS
330
47
102
}
330
47
100
AcDbScale
 70
     0
300
3/16" = 1'-0"
140
0.1875
141
12.0
290
     0
  0
SCALE
  5
60
102
{ACAD_REACTORS
330
47
102
}
330
47
100
AcDbScale
 70
     0
300
1/4" = 1'-0"
140
0.25
141
12.0
290
     0
  0
SCALE
  5
61
102
{ACAD_REACTORS
330
47
102
}
330
47
100
AcDbScale
 70
     0
300
3/8" = 1'-0"
140
0.375
141
12.0
290
     0
  0
SCALE
  5
62
102
{ACAD_REACTORS
330
47
102
}
330
47
100
AcDbScale
 70
     0
300
1/2" = 1'-0"
140
0.5
141
12.0
290
     0
  0
SCALE
  5
63
102
{ACAD_REACTORS
330
47
102
}
330
47
100
AcDbScale
 70
     0
300
3/4" = 1'-0"
140
0.75
141
12.0
290
     0
  0
SCALE
  5
64
102
{ACAD_REACTORS
330
47
102
}
330
47
100
AcDbScale
 70
     0
300
1" = 1'-0"
140
1.0
141
12.0
290
     0
  0
SCALE
  5
65
102
{ACAD_REACTORS
330
47
102
}
330
47
100
AcDbScale
 70
     0
300
1-1/2" = 1'-0"
140
1.5
141
12.0
290
     0
  0
SCALE
  5
66
102
{ACAD_REACTORS
330
47
102
}
330
47
100
AcDbScale
 70
     0
300
3" = 1'-0"
140
3.0
141
12.0
290
     0
  0
SCALE
  5
67
102
{ACAD_REACTORS
330
47
102
}
330
47
100
AcDbScale
 70
     0
300
6" = 1'-0"
140
6.0
141
12.0
290
     0
  0
SCALE
  5
68
102
{ACAD_REACTORS
330
47
102
}
330
47
100
AcDbScale
 70
     0
300
1'-0" = 1'-0"
140
12.0
141
12.0
290
     0
  0
TABLESTYLE
  5
6A
102
{ACAD_REACTORS
330
69
102
}
102
{ACAD_XDICTIONARY
360
177
102
}
330
69
100
AcDbTableStyle
  3
Standard
 70
     0
 71
     0
 40
0.06
 41
0.06
280
     0
281
     0
  7
Standard
140
4.5
170
     2
 62
     0
 63
   257
283
     0
 90
        4
 91
        0
  1

274
    -2
284
     1
 64
     0
275
    -2
285
     1
 65
     0
276
    -2
286
     1
 66
     0
277
    -2
287
     1
 67
     0
278
    -2
288
     1
 68
     0
279
    -2
289
     1
 69
     0
  7
Standard
140
6.0
170
     5
 62
     0
 63
   257
283
     0
 90
        4
 91
        0
  1

274
    -2
284
     1
 64
     0
275
    -2
285
     1
 65
     0
276
    -2
286
     1
 66
     0
277
    -2
287
     1
 67
     0
278
    -2
288
     1
 68
     0
279
    -2
289
     1
 69
     0
  7
Standard
140
4.5
170
     5
 62
     0
 63
   257
283
     0
 90
        4
 91
        0
  1

274
    -2
284
     1
 64
     0
275
    -2
285
     1
 65
     0
276
    -2
286
     1
 66
     0
277
    -2
287
     1
 67
     0
278
    -2
288
     1
 68
     0
279
    -2
289
     1
 69
     0
  0
VISUALSTYLE
  5
2F
102
{ACAD_REACTORS
330
2A
102
}
330
2A
100
AcDbVisualStyle
  2
2dWireframe
 70
     4
177
     3
291
     0
 70
    58
 90
        0
176
     1
 90
        2
176
     1
 90
        0
176
     1
 90
        0
176
     1
 40
0.6
176
     1
 40
30.0
176
     1
 62
     7
420
 16777215
176
     1
 90
        1
176
     1
 90
        4
176
     1
 62
     7
176
     1
 62
   257
176
     1
 90
        1
176
     1
 90
        1
176
     1
 40
1.0
176
     1
 90
        0
176
     1
 62
   257
176
     1
 40
1.0
176
     1
 90
        1
176
     1
 90
        6
176
     1
 90
        2
176
     1
 62
     7
176
     1
 90
        5
176
     1
 90
        0
176
     1
 90
        0
176
     1
290
     0
176
     1
 90
        1
176
     1
 40
0.0
176
     1
 90
        0
176
     1
290
     1
176
     1
290
     1
176
     1
290
     0
176
     1
290
     0
176
     1
290
     0
176
     1
290
     0
176
     1
290
     0
176
     1
290
     0
176
     1
290
     0
176
     1
 90
       50
176
     1
 40
0.0
176
     1
 40
1.0
176
     1
 90
        0
176
     1
 62
    18
420
        0
176
     1
 90
       50
176
     1
 90
        3
176
     1
 62
     5
420
      255
176
     1
290
     0
176
     1
 90
       50
176
     1
 90
       50
176
     1
 90
       50
176
     1
290
     0
176
     1
 90
       50
176
     1
 62
   256
176
     0
 40
1.0
176
     0
 90
        2
176
     1
  1
strokes_ogs.tif
176
     1
290
     0
176
     1
 40
1.0
176
     1
 40
1.0
176
     1
  0
VISUALSTYLE
  5
32
102
{ACAD_REACTORS
330
2A
102
}
330
2A
100
AcDbVisualStyle
  2
Basic
 70
     7
177
     3
291
     1
 70
    58
 90
        1
176
     1
 90
        0
176
     1
 90
        1
176
     1
 90
        0
176
     1
 40
0.6
176
     1
 40
30.0
176
     1
 62
     7
420
 16777215
176
     1
 90
        0
176
     1
 90
        4
176
     1
 62
     7
176
     1
 62
   257
176
     1
 90
        1
176
     1
 90
        1
176
     1
 40
1.0
176
     1
 90
        8
176
     1
 62
     7
176
     1
 40
1.0
176
     1
 90
        1
176
     1
 90
        6
176
     1
 90
        2
176
     1
 62
     7
176
     1
 90
        5
176
     1
 90
        0
176
     1
 90
        0
176
     1
290
     0
176
     1
 90
        1
176
     1
 40
0.0
176
     1
 90
        0
176
     1
290
     0
176
     1
290
     1
176
     1
290
     1
176
     1
290
     0
176
     1
290
     0
176
     1
290
     0
176
     1
290
     0
176
     1
290
     0
176
     1
290
     0
176
     1
 90
       50
176
     1
 40
0.0
176
     1
 40
1.0
176
     1
 90
        0
176
     1
 62
    18
420
        0
176
     1
 90
       50
176
     1
 90
        3
176
     1
 62
     5
420
      255
176
     1
290
     0
176
     1
 90
       50
176
     1
 90
       50
176
     1
 90
       50
176
     1
290
     0
176
     1
 90
       50
176
     1
 62
   256
176
     0
 40
1.0
176
     0
 90
        2
176
     1
  1
strokes_ogs.tif
176
     1
290
     0
176
     1
 40
1.0
176
     1
 40
1.0
176
     1
  0
VISUALSTYLE
  5
36
102
{ACAD_REACTORS
330
2A
102
}
330
2A
100
AcDbVisualStyle
  2
Brighten
 70
    12
177
     3
291
     1
 70
    58
 90
        2
176
     1
 90
        2
176
     1
 90
        0
176
     1
 90
        0
176
     1
 40
0.6
176
     1
 40
30.0
176
     1
 62
     7
420
 16777215
176
     1
 90
        1
176
     1
 90
        4
176
     1
 62
     7
176
     1
 62
   257
176
     1
 90
        1
176
     1
 90
        1
176
     1
 40
1.0
176
     1
 90
        8
176
     1
 62
     7
176
     1
 40
1.0
176
     1
 90
        1
176
     1
 90
        6
176
     1
 90
        2
176
     1
 62
     7
176
     1
 90
        5
176
     1
 90
        0
176
     1
 90
        0
176
     1
290
     0
176
     1
 90
        1
176
     1
 40
50.0
176
     1
 90
        0
176
     1
290
     0
176
     1
290
     1
176
     1
290
     1
176
     1
290
     0
176
     1
290
     0
176
     1
290
     0
176
     1
290
     0
176
     1
290
     0
176
     1
290
     0
176
     1
 90
       50
176
     1
 40
0.0
176
     1
 40
1.0
176
     1
 90
        0
176
     1
 62
    18
420
        0
176
     1
 90
       50
176
     1
 90
        3
176
     1
 62
     5
420
      255
176
     1
290
     0
176
     1
 90
       50
176
     1
 90
       50
176
     1
 90
       50
176
     1
290
     0
176
     1
 90
       50
176
     1
 62
   256
176
     0
 40
1.0
176
     0
 90
        2
176
     1
  1
strokes_ogs.tif
176
     1
290
     0
176
     1
 40
1.0
176
     1
 40
1.0
176
     1
  0
VISUALSTYLE
  5
3A
102
{ACAD_REACTORS
330
2A
102
}
330
2A
100
AcDbVisualStyle
  2
ColorChange
 70
    16
177
     3
291
     1
 70
    58
 90
        2
176
     1
 90
        2
176
     1
 90
        3
176
     1
 90
        0
176
     1
 40
0.6
176
     1
 40
30.0
176
     1
 62
     8
420
  8421504
176
     1
 90
        1
176
     1
 90
        4
176
     1
 62
     7
176
     1
 62
   257
176
     1
 90
        1
176
     1
 90
        1
176
     1
 40
1.0
176
     1
 90
        8
176
     1
 62
     8
420
  8421504
176
     1
 40
1.0
176
     1
 90
        1
176
     1
 90
        6
176
     1
 90
        2
176
     1
 62
     7
176
     1
 90
        5
176
     1
 90
        0
176
     1
 90
        0
176
     1
290
     0
176
     1
 90
        1
176
     1
 40
0.0
176
     1
 90
        0
176
     1
290
     0
176
     1
290
     1
176
     1
290
     1
176
     1
290
     0
176
     1
290
     0
176
     1
290
     0
176
     1
290
     0
176
     1
290
     0
176
     1
290
     0
176
     1
 90
       50
176
     1
 40
0.0
176
     1
 40
1.0
176
     1
 90
        0
176
     1
 62
    18
420
        0
176
     1
 90
       50
176
     1
 90
        3
176
     1
 62
     5
420
      255
176
     1
290
     0
176
     1
 90
       50
176
     1
 90
       50
176
     1
 90
       50
176
     1
290
     0
176
     1
 90
       50
176
     1
 62
   256
176
     0
 40
1.0
176
     0
 90
        2
176
     1
  1
strokes_ogs.tif
176
     1
290
     0
176
     1
 40
1.0
176
     1
 40
1.0
176
     1
  0
VISUALSTYLE
  5
34
102
{ACAD_REACTORS
330
2A
102
}
330
2A
100
AcDbVisualStyle
  2
Conceptual
 70
     9
177
     3
291
     0
 70
    58
 90
        3
176
     1
 90
        2
176
     1
 90
        0
176
     1
 90
        0
176
     1
 40
0.6
176
     1
 40
30.0
176
     1
 62
     7
420
 16777215
176
     1
 90
        2
176
     1
 90
        2
176
     1
 62
     7
176
     1
 62
   257
176
     1
 90
        1
176
     1
 90
        1
176
     1
 40
179.0
176
     1
 90
        8
176
     1
 62
     7
176
     1
 40
1.0
176
     1
 90
        1
176
     1
 90
        6
176
     1
 90
        2
176
     1
 62
     7
176
     1
 90
        3
176
     1
 90
        0
176
     1
 90
        0
176
     1
290
     0
176
     1
 90
        1
176
     1
 40
0.0
176
     1
 90
        0
176
     1
290
     0
176
     1
290
     1
176
     1
290
     1
176
     1
290
     0
176
     1
290
     0
176
     1
290
     0
176
     1
290
     0
176
     1
290
     0
176
     1
290
     0
176
     1
 90
       50
176
     1
 40
0.0
176
     1
 40
1.0
176
     1
 90
        0
176
     1
 62
    18
420
        0
176
     1
 90
       50
176
     1
 90
        3
176
     1
 62
     5
420
      255
176
     1
290
     0
176
     1
 90
       50
176
     1
 90
       50
176
     1
 90
       50
176
     1
290
     0
176
     1
 90
       50
176
     1
 62
   256
176
     0
 40
1.0
176
     0
 90
        2
176
     1
  1
strokes_ogs.tif
176
     1
290
     0
176
     1
 40
1.0
176
     1
 40
1.0
176
     1
  0
VISUALSTYLE
  5
35
102
{ACAD_REACTORS
330
2A
102
}
330
2A
100
AcDbVisualStyle
  2
Dim
 70
    11
177
     3
291
     1
 70
    58
 90
        2
176
     1
 90
        2
176
     1
 90
        0
176
     1
 90
        0
176
     1
 40
0.6
176
     1
 40
30.0
176
     1
 62
     7
420
 16777215
176
     1
 90
        1
176
     1
 90
        4
176
     1
 62
     7
176
     1
 62
   257
176
     1
 90
        1
176
     1
 90
        1
176
     1
 40
1.0
176
     1
 90
        8
176
     1
 62
     7
176
     1
 40
1.0
176
     1
 90
        1
176
     1
 90
        6
176
     1
 90
        2
176
     1
 62
     7
176
     1
 90
        5
176
     1
 90
        0
176
     1
 90
        0
176
     1
290
     0
176
     1
 90
        1
176
     1
 40
-50.0
176
     1
 90
        0
176
     1
290
     0
176
     1
290
     1
176
     1
290
     1
176
     1
290
     0
176
     1
290
     0
176
     1
290
     0
176
     1
290
     0
176
     1
290
     0
176
     1
290
     0
176
     1
 90
       50
176
     1
 40
0.0
176
     1
 40
1.0
176
     1
 90
        0
176
     1
 62
    18
420
        0
176
     1
 90
       50
176
     1
 90
        3
176
     1
 62
     5
420
      255
176
     1
290
     0
176
     1
 90
       50
176
     1
 90
       50
176
     1
 90
       50
176
     1
290
     0
176
     1
 90
       50
176
     1
 62
   256
176
     0
 40
1.0
176
     0
 90
        2
176
     1
  1
strokes_ogs.tif
176
     1
290
     0
176
     1
 40
1.0
176
     1
 40
1.0
176
     1
  0
VISUALSTYLE
  5
3D
102
{ACAD_REACTORS
330
2A
102
}
330
2A
100
AcDbVisualStyle
  2
EdgeColorOff
 70
    22
177
     3
291
     1
 70
    58
 90
        2
176
     0
 90
        2
176
     0
 90
        0
176
     0
 90
        0
176
     0
 40
0.6
176
     0
 40
30.0
176
     0
 62
     7
420
 16777215
176
     0
 90
        1
176
     0
 90
        4
176
     0
 62
     7
176
     0
 62
   257
176
     0
 90
        1
176
     0
 90
        1
176
     0
 40
1.0
176
     0
 90
        8
176
     2
 62
     7
176
     0
 40
1.0
176
     0
 90
        1
176
     0
 90
        6
176
     0
 90
        2
176
     0
 62
     7
176
     0
 90
        5
176
     0
 90
        0
176
     0
 90
        0
176
     0
290
     0
176
     0
 90
        1
176
     0
 40
0.0
176
     0
 90
        0
176
     0
290
     0
176
     0
290
     1
176
     0
290
     1
176
     0
290
     0
176
     0
290
     0
176
     0
290
     0
176
     0
290
     0
176
     0
290
     0
176
     0
290
     0
176
     0
 90
       50
176
     0
 40
0.0
176
     0
 40
1.0
176
     0
 90
        0
176
     0
 62
    18
420
        0
176
     0
 90
       50
176
     0
 90
        3
176
     0
 62
     5
420
      255
176
     0
290
     0
176
     0
 90
       50
176
     0
 90
       50
176
     0
 90
       50
176
     0
290
     0
176
     0
 90
       50
176
     0
 62
   256
176
     0
 40
1.0
176
     0
 90
        2
176
     0
  1
strokes_ogs.tif
176
     0
290
     0
176
     0
 40
1.0
176
     0
 40
1.0
176
     0
  0
VISUALSTYLE
  5
39
102
{ACAD_REACTORS
330
2A
102
}
330
2A
100
AcDbVisualStyle
  2
Facepattern
 70
    15
177
     3
291
     1
 70
    58
 90
        2
176
     1
 90
        2
176
     1
 90
        0
176
     1
 90
        0
176
     1
 40
0.6
176
     1
 40
30.0
176
     1
 62
     7
420
 16777215
176
     1
 90
        1
176
     1
 90
        4
176
     1
 62
     7
176
     1
 62
   257
176
     1
 90
        1
176
     1
 90
        1
176
     1
 40
1.0
176
     1
 90
        8
176
     1
 62
     7
176
     1
 40
1.0
176
     1
 90
        1
176
     1
 90
        6
176
     1
 90
        2
176
     1
 62
     7
176
     1
 90
        5
176
     1
 90
        0
176
     1
 90
        0
176
     1
290
     0
176
     1
 90
        1
176
     1
 40
0.0
176
     1
 90
        0
176
     1
290
     0
176
     1
290
     1
176
     1
290
     1
176
     1
290
     0
176
     1
290
     0
176
     1
290
     0
176
     1
290
     0
176
     1
290
     0
176
     1
290
     0
176
     1
 90
       50
176
     1
 40
0.0
176
     1
 40
1.0
176
     1
 90
        0
176
     1
 62
    18
420
        0
176
     1
 90
       50
176
     1
 90
        3
176
     1
 62
     5
420
      255
176
     1
290
     0
176
     1
 90
       50
176
     1
 90
       50
176
     1
 90
       50
176
     1
290
     0
176
     1
 90
       50
176
     1
 62
   256
176
     0
 40
1.0
176
     0
 90
        2
176
     1
  1
strokes_ogs.tif
176
     1
290
     0
176
     1
 40
1.0
176
     1
 40
1.0
176
     1
  0
VISUALSTYLE
  5
2B
102
{ACAD_REACTORS
330
2A
102
}
330
2A
100
AcDbVisualStyle
  2
Flat
 70
     0
177
     3
291
     1
 70
    58
 90
        2
176
     1
 90
        1
176
     1
 90
        1
176
     1
 90
        2
176
     1
 40
0.6
176
     1
 40
30.0
176
     1
 62
     7
420
 16777215
176
     1
 90
        0
176
     1
 90
        0
176
     1
 62
     7
176
     1
 62
   257
176
     1
 90
        1
176
     1
 90
        1
176
     1
 40
1.0
176
     1
 90
        8
176
     1
 62
     7
176
     1
 40
1.0
176
     1
 90
        1
176
     1
 90
        6
176
     1
 90
        2
176
     1
 62
     7
176
     1
 90
        5
176
     1
 90
        0
176
     1
 90
        0
176
     1
290
     0
176
     1
 90
       13
176
     1
 40
0.0
176
     1
 90
        0
176
     1
290
     0
176
     1
290
     1
176
     1
290
     1
176
     1
290
     0
176
     1
290
     0
176
     1
290
     0
176
     1
290
     0
176
     1
290
     0
176
     1
290
     0
176
     1
 90
       50
176
     1
 40
0.0
176
     1
 40
1.0
176
     1
 90
        0
176
     1
 62
    18
420
        0
176
     1
 90
       50
176
     1
 90
        3
176
     1
 62
     5
420
      255
176
     1
290
     0
176
     1
 90
       50
176
     1
 90
       50
176
     1
 90
       50
176
     1
290
     0
176
     1
 90
       50
176
     1
 62
   256
176
     0
 40
1.0
176
     0
 90
        2
176
     1
  1
strokes_ogs.tif
176
     1
290
     0
176
     1
 40
1.0
176
     1
 40
1.0
176
     1
  0
VISUALSTYLE
  5
2C
102
{ACAD_REACTORS
330
2A
102
}
330
2A
100
AcDbVisualStyle
  2
FlatWithEdges
 70
     1
177
     3
291
     1
 70
    58
 90
        2
176
     1
 90
        1
176
     1
 90
        1
176
     1
 90
        2
176
     1
 40
0.6
176
     1
 40
30.0
176
     1
 62
     7
420
 16777215
176
     1
 90
        1
176
     1
 90
        0
176
     1
 62
     7
176
     1
 62
   257
176
     1
 90
        1
176
     1
 90
        1
176
     1
 40
1.0
176
     1
 90
        0
176
     1
 62
   257
176
     1
 40
1.0
176
     1
 90
        1
176
     1
 90
        6
176
     1
 90
        2
176
     1
 62
     7
176
     1
 90
        5
176
     1
 90
        0
176
     1
 90
        0
176
     1
290
     0
176
     1
 90
       13
176
     1
 40
0.0
176
     1
 90
        0
176
     1
290
     0
176
     1
290
     1
176
     1
290
     1
176
     1
290
     0
176
     1
290
     0
176
     1
290
     0
176
     1
290
     0
176
     1
290
     0
176
     1
290
     0
176
     1
 90
       50
176
     1
 40
0.0
176
     1
 40
1.0
176
     1
 90
        0
176
     1
 62
    18
420
        0
176
     1
 90
       50
176
     1
 90
        3
176
     1
 62
     5
420
      255
176
     1
290
     0
176
     1
 90
       50
176
     1
 90
       50
176
     1
 90
       50
176
     1
290
     0
176
     1
 90
       50
176
     1
 62
   256
176
     0
 40
1.0
176
     0
 90
        2
176
     1
  1
strokes_ogs.tif
176
     1
290
     0
176
     1
 40
1.0
176
     1
 40
1.0
176
     1
  0
VISUALSTYLE
  5
2D
102
{ACAD_REACTORS
330
2A
102
}
330
2A
100
AcDbVisualStyle
  2
Gouraud
 70
     2
177
     3
291
     1
 70
    58
 90
        2
176
     1
 90
        2
176
     1
 90
        1
176
     1
 90
        2
176
     1
 40
0.6
176
     1
 40
30.0
176
     1
 62
     7
420
 16777215
176
     1
 90
        0
176
     1
 90
        0
176
     1
 62
     7
176
     1
 62
   257
176
     1
 90
        1
176
     1
 90
        1
176
     1
 40
1.0
176
     1
 90
        0
176
     1
 62
     7
176
     1
 40
1.0
176
     1
 90
        1
176
     1
 90
        6
176
     1
 90
        2
176
     1
 62
     7
176
     1
 90
        5
176
     1
 90
        0
176
     1
 90
        0
176
     1
290
     0
176
     1
 90
       13
176
     1
 40
0.0
176
     1
 90
        0
176
     1
290
     0
176
     1
290
     1
176
     1
290
     1
176
     1
290
     0
176
     1
290
     0
176
     1
290
     0
176
     1
290
     0
176
     1
290
     0
176
     1
290
     0
176
     1
 90
       50
176
     1
 40
0.0
176
     1
 40
1.0
176
     1
 90
        0
176
     1
 62
    18
420
        0
176
     1
 90
       50
176
     1
 90
        3
176
     1
 62
     5
420
      255
176
     1
290
     0
176
     1
 90
       50
176
     1
 90
       50
176
     1
 90
       50
176
     1
290
     0
176
     1
 90
       50
176
     1
 62
   256
176
     0
 40
1.0
176
     0
 90
        2
176
     1
  1
strokes_ogs.tif
176
     1
290
     0
176
     1
 40
1.0
176
     1
 40
1.0
176
     1
  0
VISUALSTYLE
  5
2E
102
{ACAD_REACTORS
330
2A
102
}
330
2A
100
AcDbVisualStyle
  2
GouraudWithEdges
 70
     3
177
     3
291
     1
 70
    58
 90
        2
176
     1
 90
        2
176
     1
 90
        1
176
     1
 90
        2
176
     1
 40
0.6
176
     1
 40
30.0
176
     1
 62
     7
420
 16777215
176
     1
 90
        1
176
     1
 90
        0
176
     1
 62
     7
176
     1
 62
   257
176
     1
 90
        1
176
     1
 90
        1
176
     1
 40
1.0
176
     1
 90
        0
176
     1
 62
   257
176
     1
 40
1.0
176
     1
 90
        1
176
     1
 90
        6
176
     1
 90
        2
176
     1
 62
     7
176
     1
 90
        5
176
     1
 90
        0
176
     1
 90
        0
176
     1
290
     0
176
     1
 90
       13
176
     1
 40
0.0
176
     1
 90
        0
176
     1
290
     0
176
     1
290
     1
176
     1
290
     1
176
     1
290
     0
176
     1
290
     0
176
     1
290
     0
176
     1
290
     0
176
     1
290
     0
176
     1
290
     0
176
     1
 90
       50
176
     1
 40
0.0
176
     1
 40
1.0
176
     1
 90
        0
176
     1
 62
    18
420
        0
176
     1
 90
       50
176
     1
 90
        3
176
     1
 62
     5
420
      255
176
     1
290
     0
176
     1
 90
       50
176
     1
 90
       50
176
     1
 90
       50
176
     1
290
     0
176
     1
 90
       50
176
     1
 62
   256
176
     0
 40
1.0
176
     0
 90
        2
176
     1
  1
strokes_ogs.tif
176
     1
290
     0
176
     1
 40
1.0
176
     1
 40
1.0
176
     1
  0
VISUALSTYLE
  5
31
102
{ACAD_REACTORS
330
2A
102
}
330
2A
100
AcDbVisualStyle
  2
Hidden
 70
     6
177
     3
291
     0
 70
    58
 90
        1
176
     1
 90
        2
176
     1
 90
        2
176
     1
 90
        0
176
     1
 40
0.6
176
     1
 40
30.0
176
     1
 62
     7
420
 16777215
176
     1
 90
        2
176
     1
 90
        2
176
     1
 62
     7
176
     1
 62
   257
176
     1
 90
        2
176
     1
 90
        1
176
     1
 40
40.0
176
     1
 90
        0
176
     1
 62
   257
176
     1
 40
1.0
176
     1
 90
        1
176
     1
 90
        6
176
     1
 90
        2
176
     1
 62
     7
176
     1
 90
        3
176
     1
 90
        0
176
     1
 90
        0
176
     1
290
     0
176
     1
 90
        1
176
     1
 40
0.0
176
     1
 90
        0
176
     1
290
     0
176
     1
290
     1
176
     1
290
     1
176
     1
290
     0
176
     1
290
     0
176
     1
290
     0
176
     1
290
     0
176
     1
290
     0
176
     1
290
     0
176
     1
 90
       50
176
     1
 40
0.0
176
     1
 40
1.0
176
     1
 90
        0
176
     1
 62
    18
420
        0
176
     1
 90
       50
176
     1
 90
        3
176
     1
 62
     5
420
      255
176
     1
290
     0
176
     1
 90
       50
176
     1
 90
       50
176
     1
 90
       50
176
     1
290
     0
176
     1
 90
       50
176
     1
 62
   256
176
     0
 40
1.0
176
     0
 90
        2
176
     1
  1
strokes_ogs.tif
176
     1
290
     0
176
     1
 40
1.0
176
     1
 40
1.0
176
     1
  0
VISUALSTYLE
  5
3B
102
{ACAD_REACTORS
330
2A
102
}
330
2A
100
AcDbVisualStyle
  2
JitterOff
 70
    20
177
     3
291
     1
 70
    58
 90
        2
176
     0
 90
        2
176
     0
 90
        0
176
     0
 90
        0
176
     0
 40
0.6
176
     0
 40
30.0
176
     0
 62
     7
420
 16777215
176
     0
 90
        1
176
     0
 90
        4
176
     0
 62
     7
176
     0
 62
   257
176
     0
 90
        1
176
     0
 90
        1
176
     0
 40
1.0
176
     0
 90
       10
176
     2
 62
     7
176
     0
 40
1.0
176
     0
 90
        1
176
     0
 90
        6
176
     0
 90
        2
176
     0
 62
     7
176
     0
 90
        5
176
     0
 90
        0
176
     0
 90
        0
176
     0
290
     0
176
     0
 90
        1
176
     0
 40
0.0
176
     0
 90
        0
176
     0
290
     0
176
     0
290
     1
176
     0
290
     1
176
     0
290
     0
176
     0
290
     0
176
     0
290
     0
176
     0
290
     0
176
     0
290
     0
176
     0
290
     0
176
     0
 90
       50
176
     0
 40
0.0
176
     0
 40
1.0
176
     0
 90
        0
176
     0
 62
    18
420
        0
176
     0
 90
       50
176
     0
 90
        3
176
     0
 62
     5
420
      255
176
     0
290
     0
176
     0
 90
       50
176
     0
 90
       50
176
     0
 90
       50
176
     0
290
     0
176
     0
 90
       50
176
     0
 62
   256
176
     0
 40
1.0
176
     0
 90
        2
176
     0
  1
strokes_ogs.tif
176
     0
290
     0
176
     0
 40
1.0
176
     0
 40
1.0
176
     0
  0
VISUALSTYLE
  5
38
102
{ACAD_REACTORS
330
2A
102
}
330
2A
100
AcDbVisualStyle
  2
Linepattern
 70
    14
177
     3
291
     1
 70
    58
 90
        2
176
     1
 90
        2
176
     1
 90
        0
176
     1
 90
        0
176
     1
 40
0.6
176
     1
 40
30.0
176
     1
 62
     7
420
 16777215
176
     1
 90
        1
176
     1
 90
        4
176
     1
 62
     7
176
     1
 62
   257
176
     1
 90
        7
176
     1
 90
        7
176
     1
 40
1.0
176
     1
 90
        8
176
     1
 62
     7
176
     1
 40
1.0
176
     1
 90
        1
176
     1
 90
        6
176
     1
 90
        2
176
     1
 62
     7
176
     1
 90
        5
176
     1
 90
        0
176
     1
 90
        0
176
     1
290
     0
176
     1
 90
        1
176
     1
 40
0.0
176
     1
 90
        0
176
     1
290
     0
176
     1
290
     1
176
     1
290
     1
176
     1
290
     0
176
     1
290
     0
176
     1
290
     0
176
     1
290
     0
176
     1
290
     0
176
     1
290
     0
176
     1
 90
       50
176
     1
 40
0.0
176
     1
 40
1.0
176
     1
 90
        0
176
     1
 62
    18
420
        0
176
     1
 90
       50
176
     1
 90
        3
176
     1
 62
     5
420
      255
176
     1
290
     0
176
     1
 90
       50
176
     1
 90
       50
176
     1
 90
       50
176
     1
290
     0
176
     1
 90
       50
176
     1
 62
   256
176
     0
 40
1.0
176
     0
 90
        2
176
     1
  1
strokes_ogs.tif
176
     1
290
     0
176
     1
 40
1.0
176
     1
 40
1.0
176
     1
  0
VISUALSTYLE
  5
3C
102
{ACAD_REACTORS
330
2A
102
}
330
2A
100
AcDbVisualStyle
  2
OverhangOff
 70
    21
177
     3
291
     1
 70
    58
 90
        2
176
     0
 90
        2
176
     0
 90
        0
176
     0
 90
        0
176
     0
 40
0.6
176
     0
 40
30.0
176
     0
 62
     7
420
 16777215
176
     0
 90
        1
176
     0
 90
        4
176
     0
 62
     7
176
     0
 62
   257
176
     0
 90
        1
176
     0
 90
        1
176
     0
 40
1.0
176
     0
 90
        9
176
     2
 62
     7
176
     0
 40
1.0
176
     0
 90
        1
176
     0
 90
        6
176
     0
 90
        2
176
     0
 62
     7
176
     0
 90
        5
176
     0
 90
        0
176
     0
 90
        0
176
     0
290
     0
176
     0
 90
        1
176
     0
 40
0.0
176
     0
 90
        0
176
     0
290
     0
176
     0
290
     1
176
     0
290
     1
176
     0
290
     0
176
     0
290
     0
176
     0
290
     0
176
     0
290
     0
176
     0
290
     0
176
     0
290
     0
176
     0
 90
       50
176
     0
 40
0.0
176
     0
 40
1.0
176
     0
 90
        0
176
     0
 62
    18
420
        0
176
     0
 90
       50
176
     0
 90
        3
176
     0
 62
     5
420
      255
176
     0
290
     0
176
     0
 90
       50
176
     0
 90
       50
176
     0
 90
       50
176
     0
290
     0
176
     0
 90
       50
176
     0
 62
   256
176
     0
 40
1.0
176
     0
 90
        2
176
     0
  1
strokes_ogs.tif
176
     0
290
     0
176
     0
 40
1.0
176
     0
 40
1.0
176
     0
  0
VISUALSTYLE
  5
33
102
{ACAD_REACTORS
330
2A
102
}
330
2A
100
AcDbVisualStyle
  2
Realistic
 70
     8
177
     3
291
     0
 70
    58
 90
        2
176
     1
 90
        3
176
     1
 90
        0
176
     1
 90
        2
176
     1
 40
0.6
176
     1
 40
30.0
176
     1
 62
     7
420
 16777215
176
     1
 90
        0
176
     1
 90
        0
176
     1
 62
     7
176
     1
 62
   257
176
     1
 90
        1
176
     1
 90
        1
176
     1
 40
1.0
176
     1
 90
        8
176
     1
 62
   257
176
     1
 40
1.0
176
     1
 90
        1
176
     1
 90
        6
176
     1
 90
        2
176
     1
 62
     7
176
     1
 90
        3
176
     1
 90
        0
176
     1
 90
        0
176
     1
290
     0
176
     1
 90
       13
176
     1
 40
0.0
176
     1
 90
        0
176
     1
290
     0
176
     1
290
     1
176
     1
290
     1
176
     1
290
     0
176
     1
290
     0
176
     1
290
     0
176
     1
290
     0
176
     1
290
     0
176
     1
290
     0
176
     1
 90
       50
176
     1
 40
0.0
176
     1
 40
1.0
176
     1
 90
        0
176
     1
 62
    18
420
        0
176
     1
 90
       50
176
     1
 90
        3
176
     1
 62
     5
420
      255
176
     1
290
     0
176
     1
 90
       50
176
     1
 90
       50
176
     1
 90
       50
176
     1
290
     0
176
     1
 90
       50
176
     1
 62
   256
176
     0
 40
1.0
176
     0
 90
        2
176
     1
  1
strokes_ogs.tif
176
     1
290
     0
176
     1
 40
1.0
176
     1
 40
1.0
176
     1
  0
VISUALSTYLE
  5
42
102
{ACAD_REACTORS
330
2A
102
}
330
2A
100
AcDbVisualStyle
  2
Shaded
 70
    27
177
     3
291
     0
 70
    58
 90
        2
176
     1
 90
        2
176
     1
 90
        1
176
     1
 90
        2
176
     1
 40
0.6
176
     1
 40
30.0
176
     1
 62
     7
420
 16777215
176
     1
 90
        0
176
     1
 90
        4
176
     1
 62
     7
176
     1
 62
   257
176
     1
 90
        1
176
     1
 90
        1
176
     1
 40
1.0
176
     1
 90
        8
176
     1
 62
   257
176
     1
 40
1.0
176
     1
 90
        1
176
     1
 90
        6
176
     1
 90
        2
176
     1
 62
     8
420
  7895160
176
     1
 90
        3
176
     1
 90
        0
176
     1
 90
        0
176
     1
290
     0
176
     1
 90
        5
176
     1
 40
0.0
176
     1
 90
        0
176
     1
290
     0
176
     1
290
     1
176
     1
290
     1
176
     1
290
     0
176
     1
290
     0
176
     1
290
     0
176
     1
290
     0
176
     1
290
     0
176
     1
290
     0
176
     1
 90
       50
176
     1
 40
0.0
176
     1
 40
1.0
176
     1
 90
        0
176
     1
 62
    18
420
        0
176
     1
 90
       50
176
     1
 90
        3
176
     1
 62
     5
420
      255
176
     1
290
     0
176
     1
 90
       50
176
     1
 90
       50
176
     1
 90
       50
176
     1
290
     0
176
     1
 90
       50
176
     1
 62
   256
176
     0
 40
1.0
176
     0
 90
        2
176
     1
  1
strokes_ogs.tif
176
     1
290
     0
176
     1
 40
1.0
176
     1
 40
1.0
176
     1
  0
VISUALSTYLE
  5
41
102
{ACAD_REACTORS
330
2A
102
}
330
2A
100
AcDbVisualStyle
  2
Shaded with edges
 70
    26
177
     3
291
     0
 70
    58
 90
        2
176
     1
 90
        2
176
     1
 90
        1
176
     1
 90
        2
176
     1
 40
0.6
176
     1
 40
30.0
176
     1
 62
     7
420
 16777215
176
     1
 90
        1
176
     1
 90
       10
176
     1
 62
     7
176
     1
 62
   257
176
     1
 90
        2
176
     1
 90
        1
176
     1
 40
1.0
176
     1
 90
        8
176
     1
 62
   257
176
     1
 40
1.0
176
     1
 90
        1
176
     1
 90
        6
176
     1
 90
        2
176
     1
 62
     7
176
     1
 90
        3
176
     1
 90
        0
176
     1
 90
        0
176
     1
290
     0
176
     1
 90
        5
176
     1
 40
0.0
176
     1
 90
        0
176
     1
290
     0
176
     1
290
     1
176
     1
290
     1
176
     1
290
     0
176
     1
290
     0
176
     1
290
     0
176
     1
290
     0
176
     1
290
     0
176
     1
290
     0
176
     1
 90
       50
176
     1
 40
0.0
176
     1
 40
1.0
176
     1
 90
        0
176
     1
 62
    18
420
        0
176
     1
 90
       50
176
     1
 90
        3
176
     1
 62
     5
420
      255
176
     1
290
     0
176
     1
 90
       50
176
     1
 90
       50
176
     1
 90
       50
176
     1
290
     0
176
     1
 90
       50
176
     1
 62
   256
176
     0
 40
1.0
176
     0
 90
        2
176
     1
  1
strokes_ogs.tif
176
     1
290
     0
176
     1
 40
1.0
176
     1
 40
1.0
176
     1
  0
VISUALSTYLE
  5
3E
102
{ACAD_REACTORS
330
2A
102
}
330
2A
100
AcDbVisualStyle
  2
Shades of Gray
 70
    23
177
     3
291
     0
 70
    58
 90
        2
176
     1
 90
        2
176
     1
 90
        3
176
     1
 90
        0
176
     1
 40
0.6
176
     1
 40
30.0
176
     1
 62
     7
420
 16777215
176
     1
 90
        2
176
     1
 90
        2
176
     1
 62
     7
176
     1
 62
     7
176
     1
 90
        1
176
     1
 90
        1
176
     1
 40
40.0
176
     1
 90
        8
176
     1
 62
     7
176
     1
 40
1.0
176
     1
 90
        1
176
     1
 90
        6
176
     1
 90
        2
176
     1
 62
     7
176
     1
 90
        3
176
     1
 90
        0
176
     1
 90
        0
176
     1
290
     0
176
     1
 90
        1
176
     1
 40
0.0
176
     1
 90
        0
176
     1
290
     0
176
     1
290
     1
176
     1
290
     1
176
     1
290
     0
176
     1
290
     0
176
     1
290
     0
176
     1
290
     0
176
     1
290
     0
176
     1
290
     0
176
     1
 90
       50
176
     1
 40
0.0
176
     1
 40
1.0
176
     1
 90
        0
176
     1
 62
    18
420
        0
176
     1
 90
       50
176
     1
 90
        3
176
     1
 62
     5
420
      255
176
     1
290
     0
176
     1
 90
       50
176
     1
 90
       50
176
     1
 90
       50
176
     1
290
     0
176
     1
 90
       50
176
     1
 62
   256
176
     0
 40
1.0
176
     0
 90
        2
176
     1
  1
strokes_ogs.tif
176
     1
290
     0
176
     1
 40
1.0
176
     1
 40
1.0
176
     1
  0
VISUALSTYLE
  5
3F
102
{ACAD_REACTORS
330
2A
102
}
330
2A
100
AcDbVisualStyle
  2
Sketchy
 70
    24
177
     3
291
     0
 70
    58
 90
        1
176
     1
 90
        2
176
     1
 90
        2
176
     1
 90
        0
176
     1
 40
0.6
176
     1
 40
30.0
176
     1
 62
     7
420
 16777215
176
     1
 90
        2
176
     1
 90
        2
176
     1
 62
     7
176
     1
 62
     7
176
     1
 90
        1
176
     1
 90
        1
176
     1
 40
40.0
176
     1
 90
       11
176
     1
 62
     7
176
     1
 40
1.0
176
     1
 90
        1
176
     1
 90
        6
176
     1
 90
        2
176
     1
 62
     7
176
     1
 90
        6
176
     1
 90
        0
176
     1
 90
        0
176
     1
290
     0
176
     1
 90
        1
176
     1
 40
0.0
176
     1
 90
        0
176
     1
290
     0
176
     1
290
     1
176
     1
290
     1
176
     1
290
     0
176
     1
290
     0
176
     1
290
     0
176
     1
290
     0
176
     1
290
     0
176
     1
290
     0
176
     1
 90
       50
176
     1
 40
0.0
176
     1
 40
1.0
176
     1
 90
        0
176
     1
 62
    18
420
        0
176
     1
 90
       50
176
     1
 90
        3
176
     1
 62
     5
420
      255
176
     1
290
     0
176
     1
 90
       50
176
     1
 90
       50
176
     1
 90
       50
176
     1
290
     0
176
     1
 90
       50
176
     1
 62
   256
176
     0
 40
1.0
176
     0
 90
        2
176
     1
  1
strokes_ogs.tif
176
     1
290
     0
176
     1
 40
1.0
176
     1
 40
1.0
176
     1
  0
VISUALSTYLE
  5
37
102
{ACAD_REACTORS
330
2A
102
}
330
2A
100
AcDbVisualStyle
  2
Thicken
 70
    13
177
     3
291
     1
 70
    58
 90
        2
176
     1
 90
        2
176
     1
 90
        0
176
     1
 90
        0
176
     1
 40
0.6
176
     1
 40
30.0
176
     1
 62
     7
420
 16777215
176
     1
 90
        1
176
     1
 90
        4
176
     1
 62
     7
176
     1
 62
   257
176
     1
 90
        1
176
     1
 90
        1
176
     1
 40
1.0
176
     1
 90
       12
176
     1
 62
     7
176
     1
 40
1.0
176
     1
 90
        1
176
     1
 90
        6
176
     1
 90
        2
176
     1
 62
     7
176
     1
 90
        5
176
     1
 90
        0
176
     1
 90
        0
176
     1
290
     0
176
     1
 90
        1
176
     1
 40
0.0
176
     1
 90
        0
176
     1
290
     0
176
     1
290
     1
176
     1
290
     1
176
     1
290
     0
176
     1
290
     0
176
     1
290
     0
176
     1
290
     0
176
     1
290
     0
176
     1
290
     0
176
     1
 90
       50
176
     1
 40
0.0
176
     1
 40
1.0
176
     1
 90
        0
176
     1
 62
    18
420
        0
176
     1
 90
       50
176
     1
 90
        3
176
     1
 62
     5
420
      255
176
     1
290
     0
176
     1
 90
       50
176
     1
 90
       50
176
     1
 90
       50
176
     1
290
     0
176
     1
 90
       50
176
     1
 62
   256
176
     0
 40
1.0
176
     0
 90
        2
176
     1
  1
strokes_ogs.tif
176
     1
290
     0
176
     1
 40
1.0
176
     1
 40
1.0
176
     1
  0
VISUALSTYLE
  5
30
102
{ACAD_REACTORS
330
2A
102
}
330
2A
100
AcDbVisualStyle
  2
Wireframe
 70
     5
177
     3
291
     0
 70
    58
 90
        0
176
     1
 90
        2
176
     1
 90
        0
176
     1
 90
        0
176
     1
 40
0.6
176
     1
 40
30.0
176
     1
 62
     7
420
 16777215
176
     1
 90
        1
176
     1
 90
        4
176
     1
 62
     7
176
     1
 62
   257
176
     1
 90
        1
176
     1
 90
        1
176
     1
 40
1.0
176
     1
 90
        0
176
     1
 62
   257
176
     1
 40
1.0
176
     1
 90
        1
176
     1
 90
        6
176
     1
 90
        2
176
     1
 62
     7
176
     1
 90
        3
176
     1
 90
        0
176
     1
 90
        0
176
     1
290
     0
176
     1
 90
        1
176
     1
 40
0.0
176
     1
 90
        0
176
     1
290
     0
176
     1
290
     1
176
     1
290
     1
176
     1
290
     0
176
     1
290
     0
176
     1
290
     0
176
     1
290
     0
176
     1
290
     0
176
     1
290
     0
176
     1
 90
       50
176
     1
 40
0.0
176
     1
 40
1.0
176
     1
 90
        0
176
     1
 62
    18
420
        0
176
     1
 90
       50
176
     1
 90
        3
176
     1
 62
     5
420
      255
176
     1
290
     0
176
     1
 90
       50
176
     1
 90
       50
176
     1
 90
       50
176
     1
290
     0
176
     1
 90
       50
176
     1
 62
   256
176
     0
 40
1.0
176
     0
 90
        2
176
     1
  1
strokes_ogs.tif
176
     1
290
     0
176
     1
 40
1.0
176
     1
 40
1.0
176
     1
  0
VISUALSTYLE
  5
40
102
{ACAD_REACTORS
330
2A
102
}
330
2A
100
AcDbVisualStyle
  2
X-Ray
 70
    25
177
     3
291
     0
 70
    58
 90
        2
176
     1
 90
        2
176
     1
 90
        1
176
     1
 90
        1
176
     1
 40
0.5
176
     1
 40
30.0
176
     1
 62
     7
420
 16777215
176
     1
 90
        1
176
     1
 90
        0
176
     1
 62
     7
176
     1
 62
   257
176
     1
 90
        1
176
     1
 90
        1
176
     1
 40
1.0
176
     1
 90
        8
176
     1
 62
     7
176
     1
 40
1.0
176
     1
 90
        1
176
     1
 90
        6
176
     1
 90
        2
176
     1
 62
     7
176
     1
 90
        3
176
     1
 90
        0
176
     1
 90
        0
176
     1
290
     0
176
     1
 90
       13
176
     1
 40
0.0
176
     1
 90
        0
176
     1
290
     0
176
     1
290
     1
176
     1
290
     1
176
     1
290
     0
176
     1
290
     0
176
     1
290
     0
176
     1
290
     0
176
     1
290
     0
176
     1
290
     0
176
     1
 90
       50
176
     1
 40
0.0
176
     1
 40
1.0
176
     1
 90
        0
176
     1
 62
    18
420
        0
176
     1
 90
       50
176
     1
 90
        3
176
     1
 62
     5
420
      255
176
     1
290
     0
176
     1
 90
       50
176
     1
 90
       50
176
     1
 90
       50
176
     1
290
     0
176
     1
 90
       50
176
     1
 62
   256
176
     0
 40
1.0
176
     0
 90
        2
176
     1
  1
strokes_ogs.tif
176
     1
290
     0
176
     1
 40
1.0
176
     1
 40
1.0
176
     1
  0
DICTIONARYVAR
  5
176
102
{ACAD_REACTORS
330
175
102
}
330
175
100
DictionaryVariables
280
     0
  1
1:1
  0
DICTIONARYVAR
  5
17B
102
{ACAD_REACTORS
330
175
102
}
330
175
100
DictionaryVariables
280
     0
  1
Standard
  0
DICTIONARYVAR
  5
17A
102
{ACAD_REACTORS
330
175
102
}
330
175
100
DictionaryVariables
280
     0
  1
Standard
  0
DICTIONARY
  5
177
330
6A
100
AcDbDictionary
280
     1
281
     1
  3
ACAD_ROUNDTRIP_2008_TABLESTYLE_CELLSTYLEMAP
360
178
  0
CELLSTYLEMAP
  5
178
102
{ACAD_REACTORS
330
177
102
}
330
177
100
AcDbCellStyleMap
 90
        3
300
CELLSTYLE
  1
TABLEFORMAT_BEGIN
 90
        5
170
     1
 91
        0
 92
    32768
 62
   257
 93
        1
300
CONTENTFORMAT
  1
CONTENTFORMAT_BEGIN
 90
        0
 91
        0
 92
        4
 93
        0
300

 40
0.0
140
1.0
 94
        5
 62
     0
340
11
144
6.0
309
CONTENTFORMAT_END
171
     1
301
MARGIN
  1
CELLMARGIN_BEGIN
 40
1.5
 40
1.5
 40
1.5
 40
1.5
 40
1.5
 40
1.5
309
CELLMARGIN_END
 94
        6
 95
        1
302
GRIDFORMAT
  1
GRIDFORMAT_BEGIN
 90
        0
 91
        1
 62
     0
 92
       -2
340
14
 93
        0
 40
0.045
309
GRIDFORMAT_END
 95
        2
302
GRIDFORMAT
  1
GRIDFORMAT_BEGIN
 90
        0
 91
        1
 62
     0
 92
       -2
340
14
 93
        0
 40
0.045
309
GRIDFORMAT_END
 95
        4
302
GRIDFORMAT
  1
GRIDFORMAT_BEGIN
 90
        0
 91
        1
 62
     0
 92
       -2
340
14
 93
        0
 40
0.045
309
GRIDFORMAT_END
 95
        8
302
GRIDFORMAT
  1
GRIDFORMAT_BEGIN
 90
        0
 91
        1
 62
     0
 92
       -2
340
14
 93
        0
 40
0.045
309
GRIDFORMAT_END
 95
       16
302
GRIDFORMAT
  1
GRIDFORMAT_BEGIN
 90
        0
 91
        1
 62
     0
 92
       -2
340
14
 93
        0
 40
0.045
309
GRIDFORMAT_END
 95
       32
302
GRIDFORMAT
  1
GRIDFORMAT_BEGIN
 90
        0
 91
        1
 62
     0
 92
       -2
340
14
 93
        0
 40
0.045
309
GRIDFORMAT_END
309
TABLEFORMAT_END
  1
CELLSTYLE_BEGIN
 90
        1
 91
        1
300
_TITLE
309
CELLSTYLE_END
300
CELLSTYLE
  1
TABLEFORMAT_BEGIN
 90
        5
170
     1
 91
        0
 92
        0
 62
   257
 93
        1
300
CONTENTFORMAT
  1
CONTENTFORMAT_BEGIN
 90
        0
 91
        0
 92
        4
 93
        0
300

 40
0.0
140
1.0
 94
        5
 62
     0
340
11
144
4.5
309
CONTENTFORMAT_END
171
     1
301
MARGIN
  1
CELLMARGIN_BEGIN
 40
1.5
 40
1.5
 40
1.5
 40
1.5
 40
1.5
 40
1.5
309
CELLMARGIN_END
 94
        6
 95
        1
302
GRIDFORMAT
  1
GRIDFORMAT_BEGIN
 90
        0
 91
        1
 62
     0
 92
       -2
340
14
 93
        0
 40
0.045
309
GRIDFORMAT_END
 95
        2
302
GRIDFORMAT
  1
GRIDFORMAT_BEGIN
 90
        0
 91
        1
 62
     0
 92
       -2
340
14
 93
        0
 40
0.045
309
GRIDFORMAT_END
 95
        4
302
GRIDFORMAT
  1
GRIDFORMAT_BEGIN
 90
        0
 91
        1
 62
     0
 92
       -2
340
14
 93
        0
 40
0.045
309
GRIDFORMAT_END
 95
        8
302
GRIDFORMAT
  1
GRIDFORMAT_BEGIN
 90
        0
 91
        1
 62
     0
 92
       -2
340
14
 93
        0
 40
0.045
309
GRIDFORMAT_END
 95
       16
302
GRIDFORMAT
  1
GRIDFORMAT_BEGIN
 90
        0
 91
        1
 62
     0
 92
       -2
340
14
 93
        0
 40
0.045
309
GRIDFORMAT_END
 95
       32
302
GRIDFORMAT
  1
GRIDFORMAT_BEGIN
 90
        0
 91
        1
 62
     0
 92
       -2
340
14
 93
        0
 40
0.045
309
GRIDFORMAT_END
309
TABLEFORMAT_END
  1
CELLSTYLE_BEGIN
 90
        2
 91
        1
300
_HEADER
309
CELLSTYLE_END
300
CELLSTYLE
  1
TABLEFORMAT_BEGIN
 90
        5
170
     1
 91
        0
 92
        0
 62
   257
 93
        1
300
CONTENTFORMAT
  1
CONTENTFORMAT_BEGIN
 90
        0
 91
        0
 92
        4
 93
        0
300

 40
0.0
140
1.0
 94
        2
 62
     0
340
11
144
4.5
309
CONTENTFORMAT_END
171
     1
301
MARGIN
  1
CELLMARGIN_BEGIN
 40
1.5
 40
1.5
 40
1.5
 40
1.5
 40
1.5
 40
1.5
309
CELLMARGIN_END
 94
        6
 95
        1
302
GRIDFORMAT
  1
GRIDFORMAT_BEGIN
 90
        0
 91
        1
 62
     0
 92
       -2
340
14
 93
        0
 40
0.045
309
GRIDFORMAT_END
 95
        2
302
GRIDFORMAT
  1
GRIDFORMAT_BEGIN
 90
        0
 91
        1
 62
     0
 92
       -2
340
14
 93
        0
 40
0.045
309
GRIDFORMAT_END
 95
        4
302
GRIDFORMAT
  1
GRIDFORMAT_BEGIN
 90
        0
 91
        1
 62
     0
 92
       -2
340
14
 93
        0
 40
0.045
309
GRIDFORMAT_END
 95
        8
302
GRIDFORMAT
  1
GRIDFORMAT_BEGIN
 90
        0
 91
        1
 62
     0
 92
       -2
340
14
 93
        0
 40
0.045
309
GRIDFORMAT_END
 95
       16
302
GRIDFORMAT
  1
GRIDFORMAT_BEGIN
 90
        0
 91
        1
 62
     0
 92
       -2
340
14
 93
        0
 40
0.045
309
GRIDFORMAT_END
 95
       32
302
GRIDFORMAT
  1
GRIDFORMAT_BEGIN
 90
        0
 91
        1
 62
     0
 92
       -2
340
14
 93
        0
 40
0.045
309
GRIDFORMAT_END
309
TABLEFORMAT_END
  1
CELLSTYLE_BEGIN
 90
        3
 91
        2
300
_DATA
309
CELLSTYLE_END
  0
ENDSEC
  0
EOF