0
SECTION
  2
HEADER
  9
$ACADVER
  1
AC1027
  9
$ACADMAINTVER
 70
     8
  9
$DWGCODEPAGE
  3
ANSI_1252
  9
$REQUIREDVERSIONS
160
                 0
  9
$COMMENTS
  1
File was created by Cadenas
  9
$CUSTOMPROPERTYTAG
  1
NN
  9
$CUSTOMPROPERTY
  1
Set Screw Flange Cartridge Metric Bore
  9
$CUSTOMPROPERTYTAG
  1
NT
  9
$CUSTOMPROPERTY
  1
SC Piloted Flange Bearings -(Normal Duty)
  9
$CUSTOMPROPERTYTAG
  1
NB
  9
$CUSTOMPROPERTY
  1
125871
  9
$CUSTOMPROPERTYTAG
  1
NBSYN
  9
$CUSTOMPROPERTY
  1
$PN.
  9
$CUSTOMPROPERTYTAG
  1
LINA
  9
$CUSTOMPROPERTY
  1
125871
  9
$CUSTOMPROPERTYTAG
  1
SERIES
  9
$CUSTOMPROPERTY
  1
212
  9
$CUSTOMPROPERTYTAG
  1
SS
  9
$CUSTOMPROPERTY
  1
60
  9
$CUSTOMPROPERTYTAG
  1
PN
  9
$CUSTOMPROPERTY
  1
125871
  9
$CUSTOMPROPERTYTAG
  1
DESCRIPTION
  9
$CUSTOMPROPERTY
  1
FC-SC-60M
  9
$CUSTOMPROPERTYTAG
  1
WEIGHT
  9
$CUSTOMPROPERTY
  1
4.3
  9
$CUSTOMPROPERTYTAG
  1
A
  9
$CUSTOMPROPERTY
  1
58.7
  9
$CUSTOMPROPERTYTAG
  1
B
  9
$CUSTOMPROPERTY
  1
181.1
  9
$CUSTOMPROPERTYTAG
  1
C
  9
$CUSTOMPROPERTY
  1
64.5
  9
$CUSTOMPROPERTYTAG
  1
D
  9
$CUSTOMPROPERTY
  1
152.4
  9
$CUSTOMPROPERTYTAG
  1
E
  9
$CUSTOMPROPERTY
  1
22.4
  9
$CUSTOMPROPERTYTAG
  1
F
  9
$CUSTOMPROPERTY
  1
M12
  9
$CUSTOMPROPERTYTAG
  1
G
  9
$CUSTOMPROPERTY
  1
42.4
  9
$CUSTOMPROPERTYTAG
  1
H
  9
$CUSTOMPROPERTY
  1
25.4
  9
$CUSTOMPROPERTYTAG
  1
K
  9
$CUSTOMPROPERTY
  1
127.00 / 126.95
  9
$CUSTOMPROPERTYTAG
  1
L
  9
$CUSTOMPROPERTY
  1
75.4
  9
$CUSTOMPROPERTYTAG
  1
COMPANY
  9
$CUSTOMPROPERTY
  1
baldor
  9
$INSBASE
 10
0.0
 20
0.0
 30
0.0
  9
$EXTMIN
 10
1.000000000000000E+20
 20
1.000000000000000E+20
 30
1.000000000000000E+20
  9
$EXTMAX
 10
-1.000000000000000E+20
 20
-1.000000000000000E+20
 30
-1.000000000000000E+20
  9
$LIMMIN
 10
0.0
 20
0.0
  9
$LIMMAX
 10
420.0
 20
297.0
  9
$ORTHOMODE
 70
     0
  9
$REGENMODE
 70
     1
  9
$FILLMODE
 70
     1
  9
$QTEXTMODE
 70
     0
  9
$MIRRTEXT
 70
     1
  9
$LTSCALE
 40
1.0
  9
$ATTMODE
 70
     1
  9
$TEXTSIZE
 40
2.5
  9
$TRACEWID
 40
1.0
  9
$TEXTSTYLE
  7
Standard
  9
$CLAYER
  8
0
  9
$CELTYPE
  6
ByLayer
  9
$CECOLOR
 62
   256
  9
$CELTSCALE
 40
1.0
  9
$DISPSILH
 70
     0
  9
$DIMSCALE
 40
1.0
  9
$DIMASZ
 40
2.5
  9
$DIMEXO
 40
0.625
  9
$DIMDLI
 40
3.75
  9
$DIMRND
 40
0.0
  9
$DIMDLE
 40
0.0
  9
$DIMEXE
 40
1.25
  9
$DIMTP
 40
0.0
  9
$DIMTM
 40
0.0
  9
$DIMTXT
 40
2.5
  9
$DIMCEN
 40
2.5
  9
$DIMTSZ
 40
0.0
  9
$DIMTOL
 70
     0
  9
$DIMLIM
 70
     0
  9
$DIMTIH
 70
     0
  9
$DIMTOH
 70
     0
  9
$DIMSE1
 70
     0
  9
$DIMSE2
 70
     0
  9
$DIMTAD
 70
     1
  9
$DIMZIN
 70
     8
  9
$DIMBLK
  1

  9
$DIMASO
 70
     1
  9
$DIMSHO
 70
     1
  9
$DIMPOST
  1

  9
$DIMAPOST
  1

  9
$DIMALT
 70
     0
  9
$DIMALTD
 70
     3
  9
$DIMALTF
 40
0.03937007874016
  9
$DIMLFAC
 40
1.0
  9
$DIMTOFL
 70
     1
  9
$DIMTVP
 40
0.0
  9
$DIMTIX
 70
     0
  9
$DIMSOXD
 70
     0
  9
$DIMSAH
 70
     0
  9
$DIMBLK1
  1

  9
$DIMBLK2
  1

  9
$DIMSTYLE
  2
ISO-25
  9
$DIMCLRD
 70
     0
  9
$DIMCLRE
 70
     0
  9
$DIMCLRT
 70
     0
  9
$DIMTFAC
 40
1.0
  9
$DIMGAP
 40
0.625
  9
$DIMJUST
 70
     0
  9
$DIMSD1
 70
     0
  9
$DIMSD2
 70
     0
  9
$DIMTOLJ
 70
     0
  9
$DIMTZIN
 70
     8
  9
$DIMALTZ
 70
     0
  9
$DIMALTTZ
 70
     0
  9
$DIMUPT
 70
     0
  9
$DIMDEC
 70
     2
  9
$DIMTDEC
 70
     2
  9
$DIMALTU
 70
     2
  9
$DIMALTTD
 70
     3
  9
$DIMTXSTY
  7
Standard
  9
$DIMAUNIT
 70
     0
  9
$DIMADEC
 70
     0
  9
$DIMALTRND
 40
0.0
  9
$DIMAZIN
 70
     0
  9
$DIMDSEP
 70
    44
  9
$DIMATFIT
 70
     3
  9
$DIMFRAC
 70
     0
  9
$DIMLDRBLK
  1

  9
$DIMLUNIT
 70
     2
  9
$DIMLWD
 70
    -2
  9
$DIMLWE
 70
    -2
  9
$DIMTMOVE
 70
     0
  9
$DIMFXL
 40
1.0
  9
$DIMFXLON
 70
     0
  9
$DIMJOGANG
 40
0.7853981633974483
  9
$DIMTFILL
 70
     0
  9
$DIMTFILLCLR
 70
     0
  9
$DIMARCSYM
 70
     0
  9
$DIMLTYPE
  6

  9
$DIMLTEX1
  6

  9
$DIMLTEX2
  6

  9
$DIMTXTDIRECTION
 70
     0
  9
$LUNITS
 70
     2
  9
$LUPREC
 70
     4
  9
$SKETCHINC
 40
1.0
  9
$FILLETRAD
 40
10.0
  9
$AUNITS
 70
     0
  9
$AUPREC
 70
     0
  9
$MENU
  1
.
  9
$ELEVATION
 40
0.0
  9
$PELEVATION
 40
0.0
  9
$THICKNESS
 40
0.0
  9
$LIMCHECK
 70
     0
  9
$CHAMFERA
 40
0.0
  9
$CHAMFERB
 40
0.0
  9
$CHAMFERC
 40
0.0
  9
$CHAMFERD
 40
0.0
  9
$SKPOLY
 70
     0
  9
$TDCREATE
 40
2458168.986758727
  9
$TDUCREATE
 40
2458168.94509206
  9
$TDUPDATE
 40
2458168.986758727
  9
$TDUUPDATE
 40
2458168.94509206
  9
$TDINDWG
 40
0.0000000116
  9
$TDUSRTIMER
 40
0.0000000116
  9
$USRTIMER
 70
     1
  9
$ANGBASE
 50
0.0
  9
$ANGDIR
 70
     0
  9
$PDMODE
 70
     0
  9
$PDSIZE
 40
0.0
  9
$PLINEWID
 40
0.0
  9
$SPLFRAME
 70
     0
  9
$SPLINETYPE
 70
     6
  9
$SPLINESEGS
 70
     8
  9
$HANDSEED
  5
1A2
  9
$SURFTAB1
 70
     6
  9
$SURFTAB2
 70
     6
  9
$SURFTYPE
 70
     6
  9
$SURFU
 70
     6
  9
$SURFV
 70
     6
  9
$UCSBASE
  2

  9
$UCSNAME
  2

  9
$UCSORG
 10
0.0
 20
0.0
 30
0.0
  9
$UCSXDIR
 10
1.0
 20
0.0
 30
0.0
  9
$UCSYDIR
 10
0.0
 20
1.0
 30
0.0
  9
$UCSORTHOREF
  2

  9
$UCSORTHOVIEW
 70
     0
  9
$UCSORGTOP
 10
0.0
 20
0.0
 30
0.0
  9
$UCSORGBOTTOM
 10
0.0
 20
0.0
 30
0.0
  9
$UCSORGLEFT
 10
0.0
 20
0.0
 30
0.0
  9
$UCSORGRIGHT
 10
0.0
 20
0.0
 30
0.0
  9
$UCSORGFRONT
 10
0.0
 20
0.0
 30
0.0
  9
$UCSORGBACK
 10
0.0
 20
0.0
 30
0.0
  9
$PUCSBASE
  2

  9
$PUCSNAME
  2

  9
$PUCSORG
 10
0.0
 20
0.0
 30
0.0
  9
$PUCSXDIR
 10
1.0
 20
0.0
 30
0.0
  9
$PUCSYDIR
 10
0.0
 20
1.0
 30
0.0
  9
$PUCSORTHOREF
  2

  9
$PUCSORTHOVIEW
 70
     0
  9
$PUCSORGTOP
 10
0.0
 20
0.0
 30
0.0
  9
$PUCSORGBOTTOM
 10
0.0
 20
0.0
 30
0.0
  9
$PUCSORGLEFT
 10
0.0
 20
0.0
 30
0.0
  9
$PUCSORGRIGHT
 10
0.0
 20
0.0
 30
0.0
  9
$PUCSORGFRONT
 10
0.0
 20
0.0
 30
0.0
  9
$PUCSORGBACK
 10
0.0
 20
0.0
 30
0.0
  9
$USERI1
 70
     0
  9
$USERI2
 70
     0
  9
$USERI3
 70
     0
  9
$USERI4
 70
     0
  9
$USERI5
 70
     0
  9
$USERR1
 40
0.0
  9
$USERR2
 40
0.0
  9
$USERR3
 40
0.0
  9
$USERR4
 40
0.0
  9
$USERR5
 40
0.0
  9
$WORLDVIEW
 70
     1
  9
$SHADEDGE
 70
     3
  9
$SHADEDIF
 70
    70
  9
$TILEMODE
 70
     1
  9
$MAXACTVP
 70
    64
  9
$PINSBASE
 10
0.0
 20
0.0
 30
0.0
  9
$PLIMCHECK
 70
     0
  9
$PEXTMIN
 10
1.000000000000000E+20
 20
1.000000000000000E+20
 30
1.000000000000000E+20
  9
$PEXTMAX
 10
-1.000000000000000E+20
 20
-1.000000000000000E+20
 30
-1.000000000000000E+20
  9
$PLIMMIN
 10
0.0
 20
0.0
  9
$PLIMMAX
 10
420.0
 20
297.0
  9
$UNITMODE
 70
     0
  9
$VISRETAIN
 70
     1
  9
$PLINEGEN
 70
     0
  9
$PSLTSCALE
 70
     1
  9
$TREEDEPTH
 70
  3020
  9
$CMLSTYLE
  2
Standard
  9
$CMLJUST
 70
     0
  9
$CMLSCALE
 40
20.0
  9
$PROXYGRAPHICS
 70
     1
  9
$MEASUREMENT
 70
     1
  9
$CELWEIGHT
370
    -1
  9
$ENDCAPS
280
     0
  9
$JOINSTYLE
280
     0
  9
$LWDISPLAY
290
     0
  9
$INSUNITS
 70
     4
  9
$HYPERLINKBASE
  1

  9
$STYLESHEET
  1

  9
$XEDIT
290
     1
  9
$CEPSNTYPE
380
     0
  9
$PSTYLEMODE
290
     1
  9
$FINGERPRINTGUID
  2
{06BC318D-FE88-493F-A631-35EBB97D2BEB}
  9
$VERSIONGUID
  2
{FAEB1C32-E019-11D5-929B-00C0DF256EC4}
  9
$EXTNAMES
290
     1
  9
$PSVPSCALE
 40
0.0
  9
$OLESTARTUP
290
     0
  9
$SORTENTS
280
   127
  9
$INDEXCTL
280
     0
  9
$HIDETEXT
280
     1
  9
$XCLIPFRAME
280
     2
  9
$HALOGAP
280
     0
  9
$OBSCOLOR
 70
   257
  9
$OBSLTYPE
280
     0
  9
$INTERSECTIONDISPLAY
280
     0
  9
$INTERSECTIONCOLOR
 70
   257
  9
$DIMASSOC
280
     2
  9
$PROJECTNAME
  1

  9
$CAMERADISPLAY
290
     0
  9
$LENSLENGTH
 40
50.0
  9
$CAMERAHEIGHT
 40
0.0
  9
$STEPSPERSEC
 40
2.0
  9
$STEPSIZE
 40
6.0
  9
$3DDWFPREC
 40
2.0
  9
$PSOLWIDTH
 40
5.0
  9
$PSOLHEIGHT
 40
80.0
  9
$LOFTANG1
 40
1.570796326794897
  9
$LOFTANG2
 40
1.570796326794897
  9
$LOFTMAG1
 40
0.0
  9
$LOFTMAG2
 40
0.0
  9
$LOFTPARAM
 70
     7
  9
$LOFTNORMALS
280
     1
  9
$LATITUDE
 40
37.795
  9
$LONGITUDE
 40
-122.394
  9
$NORTHDIRECTION
 40
0.0
  9
$TIMEZONE
 70
 -8000
  9
$LIGHTGLYPHDISPLAY
280
     1
  9
$TILEMODELIGHTSYNCH
280
     1
  9
$CMATERIAL
347
44
  9
$SOLIDHIST
280
     0
  9
$SHOWHIST
280
     1
  9
$DWFFRAME
280
     2
  9
$DGNFRAME
280
     2
  9
$REALWORLDSCALE
290
     1
  9
$INTERFERECOLOR
 62
   256
  9
$CSHADOW
280
     0
  9
$SHADOWPLANELOCATION
 40
0.0
  0
ENDSEC
  0
SECTION
  2
CLASSES
  0
CLASS
  1
ACDBDICTIONARYWDFLT
  2
AcDbDictionaryWithDefault
  3
ObjectDBX Classes
 90
        0
 91
        4
280
     0
281
     0
  0
CLASS
  1
VISUALSTYLE
  2
AcDbVisualStyle
  3
ObjectDBX Classes
 90
     4095
 91
        4
280
     0
281
     0
  0
CLASS
  1
MATERIAL
  2
AcDbMaterial
  3
ObjectDBX Classes
 90
     1153
 91
        4
280
     0
281
     0
  0
CLASS
  1
SCALE
  2
AcDbScale
  3
ObjectDBX Classes
 90
     1153
 91
        4
280
     0
281
     0
  0
CLASS
  1
TABLESTYLE
  2
AcDbTableStyle
  3
ObjectDBX Classes
 90
     4095
 91
        4
280
     0
281
     0
  0
CLASS
  1
MLEADERSTYLE
  2
AcDbMLeaderStyle
  3
ACDB_MLEADERSTYLE_CLASS
 90
     4095
 91
        4
280
     0
281
     0
  0
CLASS
  1
SUN
  2
AcDbSun
  3
SCENEOE
 90
     1153
 91
        4
280
     0
281
     0
  0
CLASS
  1
DICTIONARYVAR
  2
AcDbDictionaryVar
  3
ObjectDBX Classes
 90
        0
 91
        4
280
     0
281
     0
  0
CLASS
  1
CELLSTYLEMAP
  2
AcDbCellStyleMap
  3
ObjectDBX Classes
 90
     1152
 91
        4
280
     0
281
     0
  0
ENDSEC
  0
SECTION
  2
TABLES
  0
TABLE
  2
VPORT
  5
8
330
0
100
AcDbSymbolTable
 70
     1
  0
VPORT
  5
29
330
8
100
AcDbSymbolTableRecord
100
AcDbViewportTableRecord
  2
*Active
 70
     0
 10
0.0
 20
0.0
 11
1.0
 21
1.0
 12
0.0
 22
-10.27250000000004
 13
0.0
 23
0.0
 14
10.0
 24
10.0
 15
10.0
 25
10.0
 16
0.0
 26
0.0
 36
1.0
 17
0.0
 27
0.0
 37
0.0
 40
71.52749999999995
 41
2.582531194295903
 42
50.0
 43
0.0
 44
0.0
 50
0.0
 51
0.0
 71
     0
 72
   100
 73
     1
 74
     3
 75
     0
 76
     0
 77
     0
 78
     0
281
     0
 65
     1
110
0.0
120
0.0
130
0.0
111
1.0
121
0.0
131
0.0
112
0.0
122
1.0
132
0.0
 79
     0
146
0.0
348
2F
 60
     3
 61
     5
292
     1
282
     1
141
0.0
142
0.0
 63
   250
361
6D
  0
ENDTAB
  0
TABLE
  2
LTYPE
  5
5
330
0
100
AcDbSymbolTable
 70
     3
  0
LTYPE
  5
14
330
5
100
AcDbSymbolTableRecord
100
AcDbLinetypeTableRecord
  2
ByBlock
 70
     0
  3

 72
    65
 73
     0
 40
0.0
  0
LTYPE
  5
15
330
5
100
AcDbSymbolTableRecord
100
AcDbLinetypeTableRecord
  2
ByLayer
 70
     0
  3

 72
    65
 73
     0
 40
0.0
  0
LTYPE
  5
16
330
5
100
AcDbSymbolTableRecord
100
AcDbLinetypeTableRecord
  2
Continuous
 70
     0
  3
Solid line
 72
    65
 73
     0
 40
0.0
  0
LTYPE
  5
94
330
5
100
AcDbSymbolTableRecord
100
AcDbLinetypeTableRecord
  2
Dashed
 70
     0
  3

 72
    65
 73
     2
 40
2.0
 49
1.0
 74
     0
 49
-1.0
 74
     0
  0
LTYPE
  5
171
330
5
100
AcDbSymbolTableRecord
100
AcDbLinetypeTableRecord
  2
Center
 70
     0
  3

 72
    65
 73
     4
 40
1.5
 49
0.45
 74
     0
 49
-0.5
 74
     0
 49
0.05
 74
     0
 49
-0.5
 74
     0
  0
ENDTAB
  0
TABLE
  2
LAYER
  5
2
330
0
100
AcDbSymbolTable
 70
     6
  0
LAYER
  5
10
330
2
100
AcDbSymbolTableRecord
100
AcDbLayerTableRecord
  2
0
 70
     0
 62
     7
  6
Continuous
370
    -3
390
F
347
46
348
0
  0
LAYER
  5
72
330
2
100
AcDbSymbolTableRecord
100
AcDbLayerTableRecord
  2
AM_6
 70
     0
 62
    -2
  6
Continuous
370
    35
390
F
347
46
348
0
  0
LAYER
  5
95
330
2
100
AcDbSymbolTableRecord
100
AcDbLayerTableRecord
  2
AM_9
 70
     0
 62
     6
  6
Dashed
370
    25
390
F
347
46
348
0
  0
LAYER
  5
BB
330
2
100
AcDbSymbolTableRecord
100
AcDbLayerTableRecord
  2
AM_4
 70
     0
 62
     7
  6
Continuous
370
    50
390
F
347
46
348
0
  0
LAYER
  5
172
330
2
100
AcDbSymbolTableRecord
100
AcDbLayerTableRecord
  2
AM_7
 70
     0
 62
     7
  6
Center
370
    25
390
F
347
46
348
0
  0
LAYER
  5
195
330
2
100
AcDbSymbolTableRecord
100
AcDbLayerTableRecord
  2
ConnectionPoints
 70
     0
 62
     7
  6
Continuous
370
    50
390
F
347
46
348
0
  0
ENDTAB
  0
TABLE
  2
STYLE
  5
3
330
0
100
AcDbSymbolTable
 70
     1
  0
STYLE
  5
11
330
3
100
AcDbSymbolTableRecord
100
AcDbTextStyleTableRecord
  2
Standard
 70
     0
 40
0.0
 41
1.0
 50
0.0
 71
     0
 42
2.5
  3
txt
  4

  0
ENDTAB
  0
TABLE
  2
VIEW
  5
6
330
0
100
AcDbSymbolTable
 70
     0
  0
ENDTAB
  0
TABLE
  2
UCS
  5
7
330
0
100
AcDbSymbolTable
 70
     0
  0
ENDTAB
  0
TABLE
  2
APPID
  5
9
330
0
100
AcDbSymbolTable
 70
     1
  0
APPID
  5
12
330
9
100
AcDbSymbolTableRecord
100
AcDbRegAppTableRecord
  2
ACAD
 70
     0
  0
ENDTAB
  0
TABLE
  2
DIMSTYLE
  5
A
330
0
100
AcDbSymbolTable
 70
     1
100
AcDbDimStyleTable
  0
DIMSTYLE
105
27
330
A
100
AcDbSymbolTableRecord
100
AcDbDimStyleTableRecord
  2
ISO-25
 70
     0
 41
2.5
 42
0.625
 43
3.75
 44
1.25
 73
     0
 74
     0
 77
     1
 78
     8
140
2.5
141
2.5
143
0.03937007874016
147
0.625
171
     3
172
     1
178
     0
271
     2
272
     2
274
     3
278
    44
283
     0
284
     8
340
11
  0
ENDTAB
  0
TABLE
  2
BLOCK_RECORD
  5
1
330
0
100
AcDbSymbolTable
 70
     5
  0
BLOCK_RECORD
  5
1F
330
1
100
AcDbSymbolTableRecord
100
AcDbBlockTableRecord
  2
*Model_Space
340
22
 70
     0
280
     1
281
     0
  0
BLOCK_RECORD
  5
1B
330
1
100
AcDbSymbolTableRecord
100
AcDbBlockTableRecord
  2
*Paper_Space
340
1E
 70
     0
280
     1
281
     0
  0
BLOCK_RECORD
  5
23
330
1
100
AcDbSymbolTableRecord
100
AcDbBlockTableRecord
  2
*Paper_Space0
340
26
 70
     0
280
     1
281
     0
  0
BLOCK_RECORD
  5
6E
330
1
100
AcDbSymbolTableRecord
100
AcDbBlockTableRecord
  2
1_125871_4
340
0
102
{BLKREFS
331
6F
102
}
 70
     0
280
     1
281
     0
  0
BLOCK_RECORD
  5
88
330
1
100
AcDbSymbolTableRecord
100
AcDbBlockTableRecord
  2
2_405015E_Metric_0_in_125871_4
340
0
102
{BLKREFS
331
89
102
}
 70
     0
280
     1
281
     0
  0
BLOCK_RECORD
  5
E5
330
1
100
AcDbSymbolTableRecord
100
AcDbBlockTableRecord
  2
3_125818_0_in_125871_4
340
0
102
{BLKREFS
331
E6
102
}
 70
     0
280
     1
281
     0
  0
BLOCK_RECORD
  5
13B
330
1
100
AcDbSymbolTableRecord
100
AcDbBlockTableRecord
  2
4_125871H_0_in_125871_4
340
0
102
{BLKREFS
331
13C
102
}
 70
     0
280
     1
281
     0
  0
ENDTAB
  0
ENDSEC
  0
SECTION
  2
BLOCKS
  0
BLOCK
  5
20
330
1F
100
AcDbEntity
  8
0
100
AcDbBlockBegin
  2
*Model_Space
 70
     0
 10
0.0
 20
0.0
 30
0.0
  3
*Model_Space
  1

  0
ENDBLK
  5
21
330
1F
100
AcDbEntity
  8
0
100
AcDbBlockEnd
  0
BLOCK
  5
1C
330
1B
100
AcDbEntity
 67
     1
  8
0
100
AcDbBlockBegin
  2
*Paper_Space
 70
     0
 10
0.0
 20
0.0
 30
0.0
  3
*Paper_Space
  1

  0
ENDBLK
  5
1D
330
1B
100
AcDbEntity
 67
     1
  8
0
100
AcDbBlockEnd
  0
BLOCK
  5
24
330
23
100
AcDbEntity
  8
0
100
AcDbBlockBegin
  2
*Paper_Space0
 70
     0
 10
0.0
 20
0.0
 30
0.0
  3
*Paper_Space0
  1

  0
ENDBLK
  5
25
330
23
100
AcDbEntity
  8
0
100
AcDbBlockEnd
  0
BLOCK
  5
70
330
6E
100
AcDbEntity
  8
0
100
AcDbBlockBegin
  2
1_125871_4
 70
     2
 10
0.0
 20
0.0
 30
0.0
  3
1_125871_4
  1

  0
ATTDEF
  5
73
330
6E
100
AcDbEntity
  8
AM_6
100
AcDbText
 10
95.55000000000001
 20
24.78999999999998
 30
0.0
 40
0.5
  1
Set Screw Flange Cartridge Metric Bore
100
AcDbAttributeDefinition
  3

  2
NN
 70
     8
280
     0
  0
ATTDEF
  5
74
330
6E
100
AcDbEntity
  8
AM_6
100
AcDbText
 10
95.55000000000001
 20
24.28999999999998
 30
0.0
 40
0.5
  1
SC Piloted Flange Bearings -(Normal Duty)
100
AcDbAttributeDefinition
  3

  2
NT
 70
     8
280
     0
  0
ATTDEF
  5
75
330
6E
100
AcDbEntity
  8
AM_6
100
AcDbText
 10
95.55000000000001
 20
23.78999999999998
 30
0.0
 40
0.5
  1
125871
100
AcDbAttributeDefinition
  3

  2
NB
 70
     8
280
     0
  0
ATTDEF
  5
76
330
6E
100
AcDbEntity
  8
AM_6
100
AcDbText
 10
95.55000000000001
 20
23.28999999999998
 30
0.0
 40
0.5
  1
$PN.
100
AcDbAttributeDefinition
  3

  2
NBSYN
 70
     8
280
     0
  0
ATTDEF
  5
77
330
6E
100
AcDbEntity
  8
AM_6
100
AcDbText
 10
95.55000000000001
 20
22.78999999999998
 30
0.0
 40
0.5
  1
125871
100
AcDbAttributeDefinition
  3

  2
LINA
 70
     8
280
     0
  0
ATTDEF
  5
78
330
6E
100
AcDbEntity
  8
AM_6
100
AcDbText
 10
95.55000000000001
 20
22.28999999999998
 30
0.0
 40
0.5
  1
212
100
AcDbAttributeDefinition
  3

  2
SERIES
 70
     8
280
     0
  0
ATTDEF
  5
79
330
6E
100
AcDbEntity
  8
AM_6
100
AcDbText
 10
95.55000000000001
 20
21.78999999999998
 30
0.0
 40
0.5
  1
60
100
AcDbAttributeDefinition
  3

  2
SS
 70
     8
280
     0
  0
ATTDEF
  5
7A
330
6E
100
AcDbEntity
  8
AM_6
100
AcDbText
 10
95.55000000000001
 20
21.28999999999998
 30
0.0
 40
0.5
  1
125871
100
AcDbAttributeDefinition
  3

  2
PN
 70
     8
280
     0
  0
ATTDEF
  5
7B
330
6E
100
AcDbEntity
  8
AM_6
100
AcDbText
 10
95.55000000000001
 20
20.78999999999998
 30
0.0
 40
0.5
  1
FC-SC-60M
100
AcDbAttributeDefinition
  3

  2
DESCRIPTION
 70
     8
280
     0
  0
ATTDEF
  5
7C
330
6E
100
AcDbEntity
  8
AM_6
100
AcDbText
 10
95.55000000000001
 20
20.28999999999998
 30
0.0
 40
0.5
  1
4.3
100
AcDbAttributeDefinition
  3

  2
WEIGHT
 70
     8
280
     0
  0
ATTDEF
  5
7D
330
6E
100
AcDbEntity
  8
AM_6
100
AcDbText
 10
95.55000000000001
 20
19.78999999999998
 30
0.0
 40
0.5
  1
58.7
100
AcDbAttributeDefinition
  3

  2
A
 70
     8
280
     0
  0
ATTDEF
  5
7E
330
6E
100
AcDbEntity
  8
AM_6
100
AcDbText
 10
95.55000000000001
 20
19.28999999999998
 30
0.0
 40
0.5
  1
181.1
100
AcDbAttributeDefinition
  3

  2
B
 70
     8
280
     0
  0
ATTDEF
  5
7F
330
6E
100
AcDbEntity
  8
AM_6
100
AcDbText
 10
95.55000000000001
 20
18.78999999999998
 30
0.0
 40
0.5
  1
64.5
100
AcDbAttributeDefinition
  3

  2
C
 70
     8
280
     0
  0
ATTDEF
  5
80
330
6E
100
AcDbEntity
  8
AM_6
100
AcDbText
 10
95.55000000000001
 20
18.28999999999998
 30
0.0
 40
0.5
  1
152.4
100
AcDbAttributeDefinition
  3

  2
D
 70
     8
280
     0
  0
ATTDEF
  5
81
330
6E
100
AcDbEntity
  8
AM_6
100
AcDbText
 10
95.55000000000001
 20
17.78999999999998
 30
0.0
 40
0.5
  1
22.4
100
AcDbAttributeDefinition
  3

  2
E
 70
     8
280
     0
  0
ATTDEF
  5
82
330
6E
100
AcDbEntity
  8
AM_6
100
AcDbText
 10
95.55000000000001
 20
17.28999999999998
 30
0.0
 40
0.5
  1
M12
100
AcDbAttributeDefinition
  3

  2
F
 70
     8
280
     0
  0
ATTDEF
  5
83
330
6E
100
AcDbEntity
  8
AM_6
100
AcDbText
 10
95.55000000000001
 20
16.78999999999998
 30
0.0
 40
0.5
  1
42.4
100
AcDbAttributeDefinition
  3

  2
G
 70
     8
280
     0
  0
ATTDEF
  5
84
330
6E
100
AcDbEntity
  8
AM_6
100
AcDbText
 10
95.55000000000001
 20
16.28999999999998
 30
0.0
 40
0.5
  1
25.4
100
AcDbAttributeDefinition
  3

  2
H
 70
     8
280
     0
  0
ATTDEF
  5
85
330
6E
100
AcDbEntity
  8
AM_6
100
AcDbText
 10
95.55000000000001
 20
15.78999999999998
 30
0.0
 40
0.5
  1
127.00 / 126.95
100
AcDbAttributeDefinition
  3

  2
K
 70
     8
280
     0
  0
ATTDEF
  5
86
330
6E
100
AcDbEntity
  8
AM_6
100
AcDbText
 10
95.55000000000001
 20
15.28999999999998
 30
0.0
 40
0.5
  1
75.4
100
AcDbAttributeDefinition
  3

  2
L
 70
     8
280
     0
  0
ATTDEF
  5
87
330
6E
100
AcDbEntity
  8
AM_6
100
AcDbText
 10
95.55000000000001
 20
14.78999999999998
 30
0.0
 40
0.5
  1
baldor
100
AcDbAttributeDefinition
  3

  2
COMPANY
 70
     8
280
     0
  0
INSERT
  5
89
330
6E
100
AcDbEntity
  8
0
100
AcDbBlockReference
  2
2_405015E_Metric_0_in_125871_4
 10
0.0
 20
0.0
 30
0.0
  0
INSERT
  5
E6
330
6E
100
AcDbEntity
  8
0
100
AcDbBlockReference
  2
3_125818_0_in_125871_4
 10
0.0
 20
0.0
 30
0.0
  0
INSERT
  5
13C
330
6E
100
AcDbEntity
  8
0
100
AcDbBlockReference
  2
4_125871H_0_in_125871_4
 10
0.0
 20
0.0
 30
0.0
  0
ENDBLK
  5
71
330
6E
100
AcDbEntity
  8
0
100
AcDbBlockEnd
  0
BLOCK
  5
8A
330
88
100
AcDbEntity
  8
0
100
AcDbBlockBegin
  2
2_405015E_Metric_0_in_125871_4
 70
     2
 10
0.0
 20
0.0
 30
0.0
  3
2_405015E_Metric_0_in_125871_4
  1

  0
ATTDEF
  5
8C
330
88
100
AcDbEntity
  8
AM_6
100
AcDbText
 10
3.497808316568772
 20
-13.25863986939519
 30
0.0
 40
0.5
  1
405015E -Metric
100
AcDbAttributeDefinition
  3

  2
NN
 70
     8
280
     0
  0
ATTDEF
  5
8D
330
88
100
AcDbEntity
  8
AM_6
100
AcDbText
 10
3.497808316568772
 20
-13.75863986939519
 30
0.0
 40
0.5
  1
Grease Fitting
100
AcDbAttributeDefinition
  3

  2
NT
 70
     8
280
     0
  0
ATTDEF
  5
8E
330
88
100
AcDbEntity
  8
AM_6
100
AcDbText
 10
3.497808316568772
 20
-14.25863986939519
 30
0.0
 40
0.5
  1
405015E-Metric
100
AcDbAttributeDefinition
  3

  2
NB
 70
     8
280
     0
  0
ATTDEF
  5
8F
330
88
100
AcDbEntity
  8
AM_6
100
AcDbText
 10
3.497808316568772
 20
-14.75863986939519
 30
0.0
 40
0.5
  1
$MN.-Metric
100
AcDbAttributeDefinition
  3

  2
NBSYN
 70
     8
280
     0
  0
ATTDEF
  5
90
330
88
100
AcDbEntity
  8
AM_6
100
AcDbText
 10
3.497808316568772
 20
-15.25863986939519
 30
0.0
 40
0.5
  1
405015E
100
AcDbAttributeDefinition
  3

  2
LINA
 70
     8
280
     0
  0
ATTDEF
  5
91
330
88
100
AcDbEntity
  8
AM_6
100
AcDbText
 10
3.497808316568772
 20
-15.75863986939519
 30
0.0
 40
0.5
  1
405015E
100
AcDbAttributeDefinition
  3

  2
MN
 70
     8
280
     0
  0
ATTDEF
  5
92
330
88
100
AcDbEntity
  8
AM_6
100
AcDbText
 10
3.497808316568772
 20
-16.25863986939519
 30
0.0
 40
0.5
  1
1/8 x 27PTF
100
AcDbAttributeDefinition
  3

  2
T
 70
     8
280
     0
  0
ATTDEF
  5
93
330
88
100
AcDbEntity
  8
AM_6
100
AcDbText
 10
3.497808316568772
 20
-16.75863986939519
 30
0.0
 40
0.5
  1
baldor
100
AcDbAttributeDefinition
  3

  2
COMPANY
 70
     8
280
     0
  0
LWPOLYLINE
  5
96
330
88
100
AcDbEntity
  8
AM_9
100
AcDbPolyline
 90
        3
 70
     0
 43
0.0
 10
-6.265275817020811
 20
-24.23290993692602
 10
-7.552520757935805
 20
-23.74199174452322
 10
-8.855675316267641
 20
-23.33173017612776
  0
LWPOLYLINE
  5
97
330
88
100
AcDbEntity
  8
AM_9
100
AcDbPolyline
 90
        4
 70
     0
 43
0.0
 10
-3.874701825808912
 20
-23.33173017612776
 10
-4.796562476240328
 20
-23.63918351401815
 10
-5.72110152520193
 20
-23.99986481131717
 10
-6.265275817020811
 20
-24.23290993692602
  0
LWPOLYLINE
  5
98
330
88
100
AcDbEntity
  8
AM_9
100
AcDbPolyline
 90
        3
 70
     0
 43
0.0
 10
-1.502191683431228
 20
-22.78953426395195
 10
-2.680981790521717
 20
-23.01705900519251
 10
-3.874701825808912
 20
-23.33173017612776
  0
LINE
  5
99
330
88
100
AcDbEntity
  8
AM_9
100
AcDbLine
 10
-6.377945582308085
 20
-26.47200229965688
 30
0.0
 11
-6.265275817020811
 21
-24.23290993692602
 31
0.0
  0
LWPOLYLINE
  5
9A
330
88
100
AcDbEntity
  8
AM_9
100
AcDbPolyline
 90
        3
 70
     0
 43
0.0
 10
-7.785948347632853
 20
-26.22213020334927
 10
-7.68430925421433
 20
-26.243273652907
 10
-6.377945582308085
 20
-26.47200229965688
  0
LINE
  5
9B
330
88
100
AcDbEntity
  8
AM_9
100
AcDbLine
 10
-8.98640893038913
 20
-25.92980638748108
 30
0.0
 11
-8.651370436974352
 21
-26.01957442383139
 31
0.0
  0
LINE
  5
9C
330
88
100
AcDbEntity
  8
AM_9
100
AcDbLine
 10
-4.203841921587974
 20
-25.98860845795788
 30
0.0
 11
-4.133038989962984
 21
-25.96792778716146
 31
0.0
  0
LWPOLYLINE
  5
9D
330
88
100
AcDbEntity
  8
AM_9
100
AcDbPolyline
 90
        4
 70
     0
 43
0.0
 10
-6.377945582308085
 20
-26.47200229965688
 10
-5.840735197425444
 20
-26.37735127468322
 10
-4.927166954045813
 20
-26.18085768276814
 10
-4.203841921587974
 20
-25.98860845795788
  0
LWPOLYLINE
  5
9E
330
88
100
AcDbEntity
  8
AM_9
100
AcDbPolyline
 90
        3
 70
     0
 43
0.0
 10
-11.46413866434868
 20
-22.78953426395195
 10
-11.56596659907456
 20
-21.93939460472748
 10
-11.67299609680072
 20
-21.16666666666666
  0
LWPOLYLINE
  5
9F
330
88
100
AcDbEntity
  8
AM_9
100
AcDbPolyline
 90
        3
 70
     0
 43
0.0
 10
-8.855675316267641
 20
-23.33173017612776
 10
-10.15777499244244
 20
-23.01826291070183
 10
-11.46413866434868
 20
-22.78953426395195
  0
LINE
  5
A0
330
88
100
AcDbEntity
  8
AM_9
100
AcDbLine
 10
-11.57680842963596
 20
-25.02862662668281
 30
0.0
 11
-11.46413866434868
 21
-22.78953426395195
 31
0.0
  0
LINE
  5
A1
330
88
100
AcDbEntity
  8
AM_9
100
AcDbLine
 10
-9.639845065560408
 20
-25.7360423848292
 30
0.0
 11
-8.98640893038913
 21
-25.92980638748108
 31
0.0
  0
LINE
  5
A2
330
88
100
AcDbEntity
  8
AM_9
100
AcDbLine
 10
-9.714169991856584
 20
-25.71245426788196
 30
0.0
 11
-9.639845065560408
 21
-25.7360423848292
 31
0.0
  0
LINE
  5
A3
330
88
100
AcDbEntity
  8
AM_9
100
AcDbLine
 10
-9.73816191861401
 20
-13.97821827181711
 30
0.0
 11
-10.24622443950433
 21
-14.30171518069098
 31
0.0
  0
LINE
  5
A4
330
88
100
AcDbEntity
  8
AM_9
100
AcDbLine
 10
-2.466638641256957
 20
-14.69317920446698
 30
0.0
 11
-2.939660680418117
 21
-14.32031471748518
 31
0.0
  0
LWPOLYLINE
  5
A5
330
88
100
AcDbEntity
  8
AM_9
100
AcDbPolyline
 90
        3
 70
     0
 43
0.0
 10
-11.67299609680072
 20
-21.16666666666666
 10
-11.78432473957813
 20
-20.49235548299722
 10
-11.89991737808698
 20
-19.90278291800382
  0
LINE
  5
A6
330
88
100
AcDbEntity
  8
AM_9
100
AcDbLine
 10
-11.17396144809153
 20
-15.5755246159201
 30
0.0
 11
-11.63237898041358
 21
-20.87375678874054
 31
0.0
  0
LINE
  5
A7
330
88
100
AcDbEntity
  8
AM_9
100
AcDbLine
 10
-1.747217773700123
 20
-21.37117208590536
 30
0.0
 11
-1.671458760585681
 21
-16.05368476923203
 31
0.0
  0
LINE
  5
A8
330
88
100
AcDbEntity
  8
AM_9
100
AcDbLine
 10
-9.627425134987583
 20
-26.27440061941368
 30
0.0
 11
-9.63491466831375
 21
-26.42324052183364
 31
0.0
  0
LINE
  5
A9
330
88
100
AcDbEntity
  8
AM_9
100
AcDbLine
 10
-4.291675042974413
 20
-26.69210908861594
 30
0.0
 11
-4.284185509648246
 21
-26.54326918619597
 31
0.0
  0
ELLIPSE
  5
AA
330
88
100
AcDbEntity
  8
AM_9
100
AcDbEllipse
 10
-6.96329485564408
 20
-26.55767480522479
 30
0.0
 11
-2.671619812669664
 21
0.1344342833911502
 31
0.0
210
0.0
220
0.0
230
1.0
 40
0.4980973490458736
 41
6.060414024152654
 42
9.647549243796309
  0
LINE
  5
AB
330
88
100
AcDbEntity
  8
AM_9
100
AcDbLine
 10
-4.33920615560639
 20
-26.37114958696351
 30
0.0
 11
-4.268515277951383
 21
-26.23185382090069
 31
0.0
  0
LINE
  5
AC
330
88
100
AcDbEntity
  8
AM_9
100
AcDbLine
 10
-9.611754903290718
 20
-25.96298525411839
 30
0.0
 11
-9.555404256389368
 21
-26.10867367239679
 31
0.0
  0
ELLIPSE
  5
AD
330
88
100
AcDbEntity
  8
AM_9
100
AcDbEllipse
 10
-6.932790345682435
 20
-25.951457022576
 30
0.0
 11
-2.671619812669706
 21
0.1344342833907122
 31
0.0
210
0.0
220
0.0
230
1.0
 40
0.4980973490458522
 41
0.0
 42
3.141592653589793
  0
LINE
  5
AE
330
88
100
AcDbEntity
  8
AM_9
100
AcDbLine
 10
-4.236523358343786
 20
-26.01514175980153
 30
0.0
 11
-4.085742012237938
 21
-25.87170067373497
 31
0.0
  0
LINE
  5
AF
330
88
100
AcDbEntity
  8
AM_9
100
AcDbLine
 10
-9.75745109636232
 20
-25.5863037236482
 30
0.0
 11
-9.621830667684339
 21
-25.74415637275692
 31
0.0
  0
ELLIPSE
  5
B0
330
88
100
AcDbEntity
  8
AM_9
100
AcDbEllipse
 10
-6.897222666487822
 20
-25.24461860286155
 30
0.0
 11
-2.979225606171553
 21
0.1499128197537086
 31
0.0
210
0.0
220
0.0
230
1.0
 40
0.4980973490459124
 41
0.2184991656108801
 42
2.92309348797941
  0
ELLIPSE
  5
B1
330
88
100
AcDbEntity
  8
AM_9
100
AcDbEllipse
 10
-6.822756220371694
 20
-23.76474287794223
 30
0.0
 11
-4.993681892999763
 21
0.2512790343719037
 31
0.0
210
0.0
220
0.0
230
1.0
 40
0.4980973490485833
 41
0.9774389075087297
 42
2.164153746047274
  0
LINE
  5
B2
330
88
100
AcDbEntity
  8
AM_9
100
AcDbLine
 10
-4.561766994150153
 20
-25.99070284866985
 30
0.0
 11
-3.981982715908216
 21
-25.77299253417115
 31
0.0
  0
LINE
  5
B3
330
88
100
AcDbEntity
  8
AM_9
100
AcDbLine
 10
-9.850777496550343
 20
-25.477678351755
 30
0.0
 11
-9.295776642091129
 21
-25.7524903636562
 31
0.0
  0
ELLIPSE
  5
B4
330
88
100
AcDbEntity
  8
AM_9
100
AcDbEllipse
 10
-6.860686934441996
 20
-24.51854201628105
 30
0.0
 11
-3.603025274274843
 21
0.1813020394932614
 31
0.0
210
0.0
220
0.0
230
1.0
 40
0.498097349045888
 41
0.4422058148587862
 42
2.699386838731168
  0
ELLIPSE
  5
B5
330
88
100
AcDbEntity
  8
AM_9
100
AcDbEllipse
 10
-6.822756220463481
 20
-23.76474287801995
 30
0.0
 11
-4.74399779819848
 21
0.2387150826571874
 31
0.0
210
0.0
220
0.0
230
1.0
 40
0.4980973490458749
 41
0.8540311468197928
 42
2.287561506770002
  0
ELLIPSE
  5
B6
330
88
100
AcDbEntity
  8
AM_9
100
AcDbEllipse
 10
-7.019946088430058
 20
-27.68350783014456
 30
0.0
 11
-3.170988001953716
 21
0.1595621868287513
 31
0.0
210
0.0
220
0.0
230
1.0
 40
0.4980973490458732
 41
0.2342189901130798
 42
2.907373663476715
  0
ELLIPSE
  5
B7
330
88
100
AcDbEntity
  8
AM_9
100
AcDbEllipse
 10
-6.398699954124753
 20
-15.33744967379361
 30
0.0
 11
-4.152739623163303
 21
0.2089633310482683
 31
0.0
210
0.0
220
0.0
230
1.0
 40
0.4980973490458741
 41
0.0
 42
6.283185307179586
  0
ELLIPSE
  5
B8
330
88
100
AcDbEntity
  8
AM_9
100
AcDbEllipse
 10
-6.424848232928641
 20
-15.85709583597771
 30
0.0
 11
-4.752017108643331
 21
0.239118609596899
 31
0.0
210
0.0
220
0.0
230
1.0
 40
0.4980973490326042
 41
0.0
 42
6.283185307179586
  0
ELLIPSE
  5
B9
330
88
100
AcDbEntity
  8
AM_9
100
AcDbEllipse
 10
-6.692022606341995
 20
-21.16666666666663
 30
0.0
 11
-4.993681892840494
 21
0.2512790343759683
 31
0.0
210
0.0
220
0.0
230
1.0
 40
0.4980973490458668
 41
0.0
 42
6.283185307179586
  0
ELLIPSE
  5
BA
330
88
100
AcDbEntity
  8
AM_9
100
AcDbEllipse
 10
-6.692022606341997
 20
-21.16666666666666
 30
0.0
 11
-4.943377204882404
 21
0.2487477330864829
 31
0.0
210
0.0
220
0.0
230
1.0
 40
0.4980973490458729
 41
0.0
 42
6.283185307179586
  0
LINE
  5
BC
330
88
100
AcDbEntity
  8
AM_4
100
AcDbLine
 10
-4.133038989962984
 20
-25.96792778716146
 30
0.0
 11
-4.005435439930399
 21
-25.92980638748107
 31
0.0
  0
LWPOLYLINE
  5
BD
330
88
100
AcDbEntity
  8
AM_4
100
AcDbPolyline
 90
        3
 70
     0
 43
0.0
 10
-11.80372971092221
 20
-23.76474287801997
 10
-11.69240106814481
 20
-24.43905406168942
 10
-11.57680842963596
 20
-25.02862662668281
  0
LWPOLYLINE
  5
BE
330
88
100
AcDbEntity
  8
AM_4
100
AcDbPolyline
 90
        3
 70
     0
 43
0.0
 10
-11.57680842963596
 20
-25.02862662668281
 10
-10.28956348872097
 20
-25.51954481908561
 10
-9.714169991856584
 20
-25.71245426788196
  0
LWPOLYLINE
  5
BF
330
88
100
AcDbEntity
  8
AM_4
100
AcDbPolyline
 90
        3
 70
     0
 43
0.0
 10
-4.005435439930399
 20
-25.92980638748108
 10
-2.812280442190174
 20
-25.52158581641996
 10
-1.6148614487185
 20
-25.02862662668281
  0
LWPOLYLINE
  5
C0
330
88
100
AcDbEntity
  8
AM_4
100
AcDbPolyline
 90
        3
 70
     0
 43
0.0
 10
-1.937970397169518
 20
-19.90278291800382
 10
-1.822888664246386
 20
-20.48952912606606
 10
-1.711049115883266
 20
-21.16666666666666
  0
LWPOLYLINE
  5
C1
330
88
100
AcDbEntity
  8
AM_4
100
AcDbPolyline
 90
        3
 70
     0
 43
0.0
 10
-1.6148614487185
 20
-25.02862662668281
 10
-1.729943181641634
 20
-24.44188041862057
 10
-1.841782730004754
 20
-23.76474287801997
  0
LINE
  5
C2
330
88
100
AcDbEntity
  8
AM_4
100
AcDbLine
 10
-1.6148614487185
 20
-25.02862662668281
 30
0.0
 11
-1.502191683431228
 21
-22.78953426395195
 31
0.0
  0
LWPOLYLINE
  5
C3
330
88
100
AcDbEntity
  8
AM_4
100
AcDbPolyline
 90
        3
 70
     0
 43
0.0
 10
-1.711049115883266
 20
-21.16666666666666
 10
-1.604488401791524
 20
-21.93573115597128
 10
-1.502191683431228
 20
-22.78953426395195
  0
LWPOLYLINE
  5
C4
330
88
100
AcDbEntity
  8
AM_4
100
AcDbPolyline
 90
        3
 70
     0
 43
0.0
 10
-12.01258714337425
 20
-22.14187528073468
 10
-11.91075920864837
 20
-22.99201493995916
 10
-11.80372971092221
 20
-23.76474287801997
  0
LWPOLYLINE
  5
C5
330
88
100
AcDbEntity
  8
AM_4
100
AcDbPolyline
 90
        3
 70
     0
 43
0.0
 10
-1.841782730004754
 20
-23.76474287801997
 10
-1.948343444096496
 20
-22.99567838871535
 10
-2.050640162456792
 20
-22.14187528073468
  0
LINE
  5
C6
330
88
100
AcDbEntity
  8
AM_4
100
AcDbLine
 10
-9.604410158352069
 20
-25.81702273918453
 30
0.0
 11
-9.627425134987583
 21
-26.27440061941368
 31
0.0
  0
LINE
  5
C7
330
88
100
AcDbEntity
  8
AM_4
100
AcDbLine
 10
-4.284185509648246
 20
-26.54326918619597
 30
0.0
 11
-4.261170533012733
 21
-26.08589130596684
 31
0.0
  0
ELLIPSE
  5
C8
330
88
100
AcDbEntity
  8
AM_4
100
AcDbEllipse
 10
-6.932790345682453
 20
-25.95145702257565
 30
0.0
 11
-2.67161981266972
 21
0.134434283391241
 31
0.0
210
0.0
220
0.0
230
1.0
 40
0.4980973490458695
 41
3.141592653589793
 42
6.283185307179586
  0
LINE
  5
C9
330
88
100
AcDbEntity
  8
AM_4
100
AcDbLine
 10
-4.268515277951383
 20
-26.23185382090069
 30
0.0
 11
-4.005017572711808
 21
-25.71263386035262
 31
0.0
  0
LINE
  5
CA
330
88
100
AcDbEntity
  8
AM_4
100
AcDbLine
 10
-9.82179991390348
 20
-25.41993691224195
 30
0.0
 11
-9.611754903290718
 21
-25.96298525411839
 31
0.0
  0
ELLIPSE
  5
CB
330
88
100
AcDbEntity
  8
AM_4
100
AcDbEllipse
 10
-6.897222666487558
 20
-25.24461860286189
 30
0.0
 11
-2.979225606171271
 21
0.1499128197533402
 31
0.0
210
0.0
220
0.0
230
1.0
 40
0.4980973490458724
 41
2.923093487979354
 42
6.50168447279002
  0
LINE
  5
CC
330
88
100
AcDbEntity
  8
AM_4
100
AcDbLine
 10
-12.01258714337425
 20
-22.14187528073468
 30
0.0
 11
-11.89991737808698
 21
-19.90278291800382
 31
0.0
  0
LWPOLYLINE
  5
CD
330
88
100
AcDbEntity
  8
AM_4
100
AcDbPolyline
 90
        4
 70
     0
 43
0.0
 10
-9.640077000996564
 20
-21.59967936855888
 10
-10.55906607900918
 20
-21.85006579186426
 10
-11.47537675849161
 20
-22.04722425576102
 10
-12.01258714337425
 20
-22.14187528073468
  0
LWPOLYLINE
  5
CE
330
88
100
AcDbEntity
  8
AM_4
100
AcDbPolyline
 90
        3
 70
     0
 43
0.0
 10
-9.509343386875077
 20
-19.00160315720556
 10
-8.32095631782051
 20
-18.68813589177963
 10
-7.136833244497391
 20
-18.45940724502976
  0
LWPOLYLINE
  5
CF
330
88
100
AcDbEntity
  8
AM_4
100
AcDbPolyline
 90
        4
 70
     0
 43
0.0
 10
-11.89991737808698
 20
-19.90278291800382
 10
-11.3557430862681
 20
-19.66973779239498
 10
-10.43396345642273
 20
-19.3100588714258
 10
-9.509343386875077
 20
-19.00160315720556
  0
LINE
  5
D0
330
88
100
AcDbEntity
  8
AM_4
100
AcDbLine
 10
-4.085742012237938
 20
-25.87170067373497
 30
0.0
 11
-3.642882000626456
 21
-25.45039974572494
 31
0.0
  0
LINE
  5
D1
330
88
100
AcDbEntity
  8
AM_4
100
AcDbLine
 10
-10.15578196533416
 20
-25.12267458236091
 30
0.0
 11
-9.75745109636232
 21
-25.5863037236482
 31
0.0
  0
ELLIPSE
  5
D2
330
88
100
AcDbEntity
  8
AM_4
100
AcDbEllipse
 10
-6.860686934441763
 20
-24.51854201628126
 30
0.0
 11
-3.603025274274542
 21
0.181302039493134
 31
0.0
210
0.0
220
0.0
230
1.0
 40
0.4980973490458743
 41
2.699386838731177
 42
6.7253911220382
  0
LWPOLYLINE
  5
D3
330
88
100
AcDbEntity
  8
AM_4
100
AcDbPolyline
 90
        3
 70
     0
 43
0.0
 10
-7.249503009784665
 20
-20.69849960776062
 10
-8.441546915072411
 20
-21.18941780016342
 10
-9.640077000996564
 20
-21.59967936855888
  0
ELLIPSE
  5
D4
330
88
100
AcDbEntity
  8
AM_4
100
AcDbEllipse
 10
-6.822756220463391
 20
-23.76474287801991
 30
0.0
 11
-4.993681892840406
 21
0.2512790343760039
 31
0.0
210
0.0
220
0.0
230
1.0
 40
0.4980973490458686
 41
2.164153746080085
 42
7.260624214689276
  0
ELLIPSE
  5
D5
330
88
100
AcDbEntity
  8
AM_4
100
AcDbEllipse
 10
-6.963294855644085
 20
-26.5576748052248
 30
0.0
 11
-2.671619812669666
 21
0.1344342833911432
 31
0.0
210
0.0
220
0.0
230
1.0
 40
0.4980973490458782
 41
3.364363936616725
 42
6.060414024152644
  0
LINE
  5
D6
330
88
100
AcDbEntity
  8
AM_4
100
AcDbLine
 10
-9.55410208279685
 20
-26.13256072618997
 30
0.0
 11
-10.0950163486955
 21
-27.17893317558921
 31
0.0
  0
LINE
  5
D7
330
88
100
AcDbEntity
  8
AM_4
100
AcDbLine
 10
-3.909757379284863
 20
-27.49017164342738
 30
0.0
 11
-4.342899644002065
 21
-26.39478526208512
 31
0.0
  0
ELLIPSE
  5
D8
330
88
100
AcDbEntity
  8
AM_4
100
AcDbEllipse
 10
-7.019946088430201
 20
-27.68350783014455
 30
0.0
 11
-3.170988001953864
 21
0.1595621868288011
 31
0.0
210
0.0
220
0.0
230
1.0
 40
0.4980973490458668
 41
2.907373663476747
 42
6.517404297292707
  0
ELLIPSE
  5
D9
330
88
100
AcDbEntity
  8
AM_4
100
AcDbEllipse
 10
-6.822756220463485
 20
-23.76474287801997
 30
0.0
 11
-4.743997798198465
 21
0.2387150826571696
 31
0.0
210
0.0
220
0.0
230
1.0
 40
0.4980973490458705
 41
2.28756150677
 42
7.137216453999374
  0
LINE
  5
DA
330
88
100
AcDbEntity
  8
AM_4
100
AcDbLine
 10
-3.981982715908216
 20
-25.77299253417115
 30
0.0
 11
-3.795835700963703
 21
-25.70309390689301
 31
0.0
  0
LINE
  5
DB
330
88
100
AcDbEntity
  8
AM_4
100
AcDbLine
 10
-10.0289674824232
 20
-25.38944650828139
 30
0.0
 11
-9.850777496550343
 21
-25.477678351755
 31
0.0
  0
LINE
  5
DC
330
88
100
AcDbEntity
  8
AM_4
100
AcDbLine
 10
-7.249503009784665
 20
-20.69849960776062
 30
0.0
 11
-7.136833244497391
 21
-18.45940724502976
 31
0.0
  0
LWPOLYLINE
  5
DD
330
88
100
AcDbEntity
  8
AM_4
100
AcDbPolyline
 90
        3
 70
     0
 43
0.0
 10
-4.659103510537836
 20
-21.59967936855888
 10
-5.956435258026973
 20
-21.19145879749777
 10
-7.249503009784665
 20
-20.69849960776062
  0
LWPOLYLINE
  5
DE
330
88
100
AcDbEntity
  8
AM_4
100
AcDbPolyline
 90
        3
 70
     0
 43
0.0
 10
-2.050640162456792
 20
-22.14187528073468
 10
-3.351138901569043
 20
-21.91435053949412
 10
-4.659103510537836
 20
-21.59967936855888
  0
LINE
  5
DF
330
88
100
AcDbEntity
  8
AM_4
100
AcDbLine
 10
-2.050640162456792
 20
-22.14187528073468
 30
0.0
 11
-1.937970397169518
 21
-19.90278291800382
 31
0.0
  0
LWPOLYLINE
  5
E0
330
88
100
AcDbEntity
  8
AM_4
100
AcDbPolyline
 90
        3
 70
     0
 43
0.0
 10
-4.528369896416347
 20
-19.00160315720556
 10
-3.23103814892721
 20
-19.40982372826667
 10
-1.937970397169518
 20
-19.90278291800382
  0
LWPOLYLINE
  5
E1
330
88
100
AcDbEntity
  8
AM_4
100
AcDbPolyline
 90
        3
 70
     0
 43
0.0
 10
-7.136833244497391
 20
-18.45940724502976
 10
-5.836334505385141
 20
-18.68693198627032
 10
-4.528369896416347
 20
-19.00160315720556
  0
LINE
  5
E2
330
88
100
AcDbEntity
  8
AM_4
100
AcDbLine
 10
-4.821441886513404
 20
-29.80453724582303
 30
0.0
 11
-3.953984474945928
 21
-28.20527988276968
 31
0.0
  0
LINE
  5
E3
330
88
100
AcDbEntity
  8
AM_4
100
AcDbLine
 10
-10.12279851524518
 20
-27.89486891375826
 30
0.0
 11
-9.420263703454525
 21
-29.57312733020848
 31
0.0
  0
ELLIPSE
  5
E4
330
88
100
AcDbEntity
  8
AM_4
100
AcDbEllipse
 10
-7.107101831177714
 20
-29.41555863771345
 30
0.0
 11
-2.363956622679447
 21
0.118952858872579
 31
0.0
210
0.0
220
0.0
230
1.0
 40
0.4980973490458707
 41
0.0
 42
6.283185307179586
  0
ENDBLK
  5
8B
330
88
100
AcDbEntity
  8
0
100
AcDbBlockEnd
  0
BLOCK
  5
E7
330
E5
100
AcDbEntity
  8
0
100
AcDbBlockBegin
  2
3_125818_0_in_125871_4
 70
     2
 10
0.0
 20
0.0
 30
0.0
  3
3_125818_0_in_125871_4
  1

  0
ATTDEF
  5
E9
330
E5
100
AcDbEntity
  8
AM_6
100
AcDbText
 10
59.97597498430157
 20
16.29999999999999
 30
0.0
 40
0.5
  1
Set Screw Insert Metric Bore - Stainless Steel
100
AcDbAttributeDefinition
  3

  2
NN
 70
     8
280
     0
  0
ATTDEF
  5
EA
330
E5
100
AcDbEntity
  8
AM_6
100
AcDbText
 10
59.97597498430157
 20
15.79999999999999
 30
0.0
 40
0.5
  1
SC Bearing Insert -Metric
100
AcDbAttributeDefinition
  3

  2
NT
 70
     8
280
     0
  0
ATTDEF
  5
EB
330
E5
100
AcDbEntity
  8
AM_6
100
AcDbText
 10
59.97597498430157
 20
15.29999999999999
 30
0.0
 40
0.5
  1
125818
100
AcDbAttributeDefinition
  3

  2
NB
 70
     8
280
     0
  0
ATTDEF
  5
EC
330
E5
100
AcDbEntity
  8
AM_6
100
AcDbText
 10
59.97597498430157
 20
14.79999999999999
 30
0.0
 40
0.5
  1
$PN.
100
AcDbAttributeDefinition
  3

  2
NBSYN
 70
     8
280
     0
  0
ATTDEF
  5
ED
330
E5
100
AcDbEntity
  8
AM_6
100
AcDbText
 10
59.97597498430157
 20
14.29999999999999
 30
0.0
 40
0.5
  1
125818
100
AcDbAttributeDefinition
  3

  2
LINA
 70
     8
280
     0
  0
ATTDEF
  5
EE
330
E5
100
AcDbEntity
  8
AM_6
100
AcDbText
 10
59.97597498430157
 20
13.79999999999999
 30
0.0
 40
0.5
  1
212
100
AcDbAttributeDefinition
  3

  2
SERIES
 70
     8
280
     0
  0
ATTDEF
  5
EF
330
E5
100
AcDbEntity
  8
AM_6
100
AcDbText
 10
59.97597498430157
 20
13.29999999999999
 30
0.0
 40
0.5
  1
60
100
AcDbAttributeDefinition
  3

  2
SS
 70
     8
280
     0
  0
ATTDEF
  5
F0
330
E5
100
AcDbEntity
  8
AM_6
100
AcDbText
 10
59.97597498430157
 20
12.79999999999999
 30
0.0
 40
0.5
  1
125818
100
AcDbAttributeDefinition
  3

  2
PN
 70
     8
280
     0
  0
ATTDEF
  5
F1
330
E5
100
AcDbEntity
  8
AM_6
100
AcDbText
 10
59.97597498430157
 20
12.29999999999999
 30
0.0
 40
0.5
  1
INS-SC-60
100
AcDbAttributeDefinition
  3

  2
DESCRIPTION
 70
     8
280
     0
  0
ATTDEF
  5
F2
330
E5
100
AcDbEntity
  8
AM_6
100
AcDbText
 10
59.97597498430157
 20
11.79999999999999
 30
0.0
 40
0.5
  1
1.13
100
AcDbAttributeDefinition
  3

  2
WEIGHT
 70
     8
280
     0
  0
ATTDEF
  5
F3
330
E5
100
AcDbEntity
  8
AM_6
100
AcDbText
 10
59.97597498430157
 20
11.29999999999999
 30
0.0
 40
0.5
  1
58.7
100
AcDbAttributeDefinition
  3

  2
A
 70
     8
280
     0
  0
ATTDEF
  5
F4
330
E5
100
AcDbEntity
  8
AM_6
100
AcDbText
 10
59.97597498430157
 20
10.79999999999999
 30
0.0
 40
0.5
  1
25.9
100
AcDbAttributeDefinition
  3

  2
C
 70
     8
280
     0
  0
ATTDEF
  5
F5
330
E5
100
AcDbEntity
  8
AM_6
100
AcDbText
 10
59.97597498430157
 20
10.29999999999999
 30
0.0
 40
0.5
  1
110
100
AcDbAttributeDefinition
  3

  2
D
 70
     8
280
     0
  0
ATTDEF
  5
F6
330
E5
100
AcDbEntity
  8
AM_6
100
AcDbText
 10
59.97597498430157
 20
9.799999999999994
 30
0.0
 40
0.5
  1
6.4
100
AcDbAttributeDefinition
  3

  2
J
 70
     8
280
     0
  0
ATTDEF
  5
F7
330
E5
100
AcDbEntity
  8
AM_6
100
AcDbText
 10
59.97597498430157
 20
9.299999999999994
 30
0.0
 40
0.5
  1
75.4
100
AcDbAttributeDefinition
  3

  2
L
 70
     8
280
     0
  0
ATTDEF
  5
F8
330
E5
100
AcDbEntity
  8
AM_6
100
AcDbText
 10
59.97597498430157
 20
8.799999999999994
 30
0.0
 40
0.5
  1
M10 x 1.5
100
AcDbAttributeDefinition
  3

  2
N
 70
     8
280
     0
  0
ATTDEF
  5
F9
330
E5
100
AcDbEntity
  8
AM_6
100
AcDbText
 10
59.97597498430157
 20
8.299999999999994
 30
0.0
 40
0.5
  1
22.9
100
AcDbAttributeDefinition
  3

  2
W
 70
     8
280
     0
  0
ATTDEF
  5
FA
330
E5
100
AcDbEntity
  8
AM_6
100
AcDbText
 10
59.97597498430157
 20
7.799999999999994
 30
0.0
 40
0.5
  1
35.8
100
AcDbAttributeDefinition
  3

  2
Y
 70
     8
280
     0
  0
ATTDEF
  5
FB
330
E5
100
AcDbEntity
  8
AM_6
100
AcDbText
 10
59.97597498430157
 20
7.299999999999994
 30
0.0
 40
0.5
  1
baldor
100
AcDbAttributeDefinition
  3

  2
COMPANY
 70
     8
280
     0
  0
ELLIPSE
  5
FC
330
E5
100
AcDbEntity
  8
AM_9
100
AcDbEllipse
 10
-41.01219330881975
 20
-0.200000000000004
 30
0.0
 11
1.441743277178053E-17
 21
0.2354545454545509
 31
0.0
210
0.0
220
0.0
230
1.0
 40
0.707106781186533
 41
0.0
 42
6.283185307179586
  0
LWPOLYLINE
  5
FD
330
E5
100
AcDbEntity
  8
AM_9
100
AcDbPolyline
 90
       14
 70
     0
 43
0.0
 10
-41.86831521159626
 20
-0.200000000000004
 10
-41.84760214124265
 20
-0.5329445899688243
 10
-41.7783911481633
 20
-0.8886849410575772
 10
-41.67337440009681
 20
-1.202687634491779
 10
-41.53079883207738
 20
-1.499032201988024
 10
-41.35318463464576
 20
-1.773242889334056
 10
-41.14338164574158
 20
-2.0213992909769
 10
-40.90459435116177
 20
-2.239944867734263
 10
-40.64044757862439
 20
-2.425626476197654
 10
-40.35502263589392
 20
-2.575541536290578
 10
-40.05283924138226
 20
-2.687236211038279
 10
-39.70819155542969
 20
-2.763517698805437
 10
-39.36224517199132
 20
-2.789954695386936
 10
-39.34325578870424
 20
-2.789996727663673
  0
LWPOLYLINE
  5
FE
330
E5
100
AcDbEntity
  8
AM_9
100
AcDbPolyline
 90
        3
 70
     0
 43
0.0
 10
-41.86087612177962
 20
-0.0001917138730189
 10
-41.86473233547759
 20
-0.0612782011513314
 10
-41.86831521159626
 20
-0.200000000000004
  0
LWPOLYLINE
  5
FF
330
E5
100
AcDbEntity
  8
AM_9
100
AcDbPolyline
 90
       13
 70
     0
 43
0.0
 10
-39.35089318703885
 20
2.389997357134783
 10
-39.63178642150493
 20
2.373576205757935
 10
-39.96140709947656
 20
2.312539000378219
 10
-40.27490235718658
 20
2.20954943682349
 10
-40.56816748855312
 20
2.068119815122312
 10
-40.83779422405675
 20
1.891811269417459
 10
-41.08098363113925
 20
1.684085875852557
 10
-41.29542393312137
 20
1.448175089838277
 10
-41.47912077490655
 20
1.186984496086901
 10
-41.63017562381248
 20
0.9030726161235094
 10
-41.74652863068093
 20
0.5987548401323438
 10
-41.82571699420018
 20
0.2763732461251514
 10
-41.86087612177962
 20
-0.0001917138730189
  0
LINE
  5
100
330
E5
100
AcDbEntity
  8
AM_9
100
AcDbLine
 10
-39.3472782512987
 20
-2.790000000000012
 30
0.0
 11
-38.73701455593537
 21
-2.790000000000012
 31
0.0
  0
LINE
  5
101
330
E5
100
AcDbEntity
  8
AM_9
100
AcDbLine
 10
-38.0277884113129
 20
2.390000000000005
 30
0.0
 11
-39.3472782512987
 21
2.390000000000005
 31
0.0
  0
LWPOLYLINE
  5
102
330
E5
100
AcDbEntity
  8
AM_9
100
AcDbPolyline
 90
       21
 70
     0
 43
0.0
 10
-38.02669935189318
 20
2.389999988666312
 10
-38.12073046567251
 20
2.3863468225575
 10
-38.43024981370175
 20
2.329375801898178
 10
-38.7373063054585
 20
2.204097326054455
 10
-39.03541003070344
 20
2.015220366110938
 10
-39.31898279459747
 20
1.764580667386873
 10
-39.57704647653581
 20
1.462050433480244
 10
-39.80677067352323
 20
1.10740753702003
 10
-39.99624222312411
 20
0.7173159626663108
 10
-40.14212694313408
 20
0.293326807097395
 10
-40.23658819163634
 20
-0.1447750919068248
 10
-40.27622626059967
 20
-0.588785121664253
 10
-40.2594623371229
 20
-1.022164050778776
 10
-40.18631834555572
 20
-1.430127986289996
 10
-40.05968941430827
 20
-1.803050790238828
 10
-39.8852485336144
 20
-2.124923457332732
 10
-39.667483878509
 20
-2.391935427334469
 10
-39.41645120684048
 20
-2.592353724136518
 10
-39.13708921077333
 20
-2.725389121543711
 10
-38.84079991646086
 20
-2.785607078227121
 10
-38.73811136664087
 20
-2.789999990547248
  0
LWPOLYLINE
  5
103
330
E5
100
AcDbEntity
  8
AM_9
100
AcDbPolyline
 90
       15
 70
     0
 43
0.0
 10
-38.73811136664087
 20
-2.789999990547248
 10
-38.53336396401242
 20
-2.774075475213177
 10
-38.22501707549184
 20
-2.690700502887692
 10
-37.92279005870436
 20
-2.539135723466388
 10
-37.63450938434858
 20
-2.322514133554205
 10
-37.3681594934555
 20
-2.048382663574665
 10
-37.12904451223017
 20
-1.721049119814716
 10
-36.92512322851025
 20
-1.352773868362221
 10
-36.75992407485827
 20
-0.9479310388882025
 10
-36.63988386234423
 20
-0.5230927742580719
 10
-36.56774989081269
 20
-0.0833760247712818
 10
-36.54679478083812
 20
0.3526714117440292
 10
-36.57890790390777
 20
0.7769053259724301
 10
-36.66335773817207
 20
1.173145309555626
 10
-36.85315201589961
 20
1.634458511880474
  0
LINE
  5
104
330
E5
100
AcDbEntity
  8
AM_9
100
AcDbLine
 10
-21.2118934494972
 20
-26.787
 30
0.0
 11
-26.42243365021476
 21
-26.787
 31
0.0
  0
LINE
  5
105
330
E5
100
AcDbEntity
  8
AM_9
100
AcDbLine
 10
-26.42243365021476
 20
-35.163
 30
0.0
 11
-21.21320343559642
 21
-35.163
 31
0.0
  0
LWPOLYLINE
  5
106
330
E5
100
AcDbEntity
  8
AM_9
100
AcDbPolyline
 90
        9
 70
     0
 43
0.0
 10
-23.74004886252015
 20
-32.69752700660408
 10
-23.65542523706347
 20
-32.97261822026692
 10
-23.4163925033469
 20
-33.55674842694749
 10
-23.11212155606941
 20
-34.07238931191186
 10
-22.75071520406556
 20
-34.50113281467871
 10
-22.33668239415625
 20
-34.83085904114304
 10
-21.88146736932052
 20
-35.0513816323958
 10
-21.55231746006837
 20
-35.13489889858557
 10
-21.21320343559642
 20
-35.163
  0
LWPOLYLINE
  5
107
330
E5
100
AcDbEntity
  8
AM_9
100
AcDbPolyline
 90
        9
 70
     0
 43
0.0
 10
-21.21348303763626
 20
-26.78700001866723
 10
-21.36960965666307
 20
-26.79332399548549
 10
-21.85207150189794
 20
-26.8887447041775
 10
-22.30351396790759
 20
-27.09849071470855
 10
-22.71563839473545
 20
-27.41508454797729
 10
-23.08085555131529
 20
-27.83391662715582
 10
-23.38987310866621
 20
-28.3403225821373
 10
-23.63778055402728
 20
-28.92586334021449
 10
-23.73644359213521
 20
-29.23957057713089
  0
LINE
  5
108
330
E5
100
AcDbEntity
  8
AM_9
100
AcDbLine
 10
10.25994567026993
 20
-35.163
 30
0.0
 11
12.78025438943613
 21
-35.163
 31
0.0
  0
LINE
  5
109
330
E5
100
AcDbEntity
  8
AM_9
100
AcDbLine
 10
12.78025438943613
 20
-26.787
 30
0.0
 11
10.26053002840272
 21
-26.78700000000001
 31
0.0
  0
LWPOLYLINE
  5
10A
330
E5
100
AcDbEntity
  8
AM_9
100
AcDbPolyline
 90
        4
 70
     0
 43
0.0
 10
11.54882133213122
 20
-27.02176599327441
 10
10.93649354613993
 20
-26.85023022507362
 10
10.2784989233166
 20
-26.78704330513853
 10
10.26072117651835
 20
-26.78700000184693
  0
LWPOLYLINE
  5
10B
330
E5
100
AcDbEntity
  8
AM_9
100
AcDbPolyline
 90
        4
 70
     0
 43
0.0
 10
10.26026456427181
 20
-35.16299998439472
 10
10.69667589288661
 20
-35.13706359140073
 10
11.33463297050312
 20
-35.00128880052694
 10
11.53661764813915
 20
-34.93282812419074
  0
LWPOLYLINE
  5
10C
330
E5
100
AcDbEntity
  8
AM_9
100
AcDbPolyline
 90
       11
 70
     0
 43
0.0
 10
10.26072117651835
 20
-26.78700000184693
 10
9.61990525370949
 20
-26.8428335986696
 10
8.974118885822335
 20
-27.01323731350724
 10
8.360569672666516
 20
-27.29463013982608
 10
7.796330525932376
 20
-27.67756508850848
 10
7.295062422957852
 20
-28.15694324038747
 10
6.875945137085656
 20
-28.71550247570472
 10
6.552147583226662
 20
-29.34166708088958
 10
6.334869910885266
 20
-30.01466362136601
 10
6.252454351032139
 20
-30.49155312170049
 10
6.224699542463036
 20
-30.975
  0
LWPOLYLINE
  5
10D
330
E5
100
AcDbEntity
  8
AM_9
100
AcDbPolyline
 90
       20
 70
     0
 43
0.0
 10
-21.21320343559642
 20
-35.163
 10
-20.71293347403232
 20
-35.10378495305408
 10
-20.21593407207606
 20
-34.9295732050485
 10
-19.73781650872462
 20
-34.64402859533262
 10
-19.29354275417086
 20
-34.25678348298533
 10
-18.89625795369723
 20
-33.77422595620869
 10
-18.56193342607667
 20
-33.21298291698317
 10
-18.30285284728773
 20
-32.58482064648958
 10
-18.12935878203395
 20
-31.91049205300915
 10
-18.04999006052827
 20
-31.21339312511527
 10
-18.06505020897151
 20
-30.50948512509006
 10
-18.17430617860575
 20
-29.82394405810621
 10
-18.37177116837707
 20
-29.1706596771447
 10
-18.65220674285638
 20
-28.56638774282365
 10
-19.00353462314647
 20
-28.02923654731528
 10
-19.41790841744697
 20
-27.57138216178907
 10
-19.87743181117928
 20
-27.2094455531592
 10
-20.36736699703703
 20
-26.95511882650393
 10
-20.87138093389383
 20
-26.81454926272422
 10
-21.21348303763626
 20
-26.78700001866723
  0
LWPOLYLINE
  5
10E
330
E5
100
AcDbEntity
  8
AM_9
100
AcDbPolyline
 90
       11
 70
     0
 43
0.0
 10
6.224699542463036
 20
-30.975
 10
6.283189974966734
 20
-31.67419034475566
 10
6.454958141472432
 20
-32.35357915067729
 10
6.735759604614741
 20
-32.99333817306533
 10
7.115042895980701
 20
-33.57662720627605
 10
7.585311801999411
 20
-34.08942937498309
 10
8.128926960965122
 20
-34.51483720394872
 10
8.732972308724184
 20
-34.84074097747968
 10
9.376448260446033
 20
-35.05715862204107
 10
10.03611101385397
 20
-35.15576838288012
 10
10.26026456427181
 20
-35.16299998439472
  0
LINE
  5
10F
330
E5
100
AcDbEntity
  8
AM_9
100
AcDbLine
 10
29.99999999999999
 20
-40.892
 30
0.0
 11
29.99999999999999
 21
14.792
 31
0.0
  0
LINE
  5
110
330
E5
100
AcDbEntity
  8
AM_9
100
AcDbLine
 10
-29.99999999999999
 20
14.792
 30
0.0
 11
-29.99999999999999
 21
-40.892
 31
0.0
  0
LINE
  5
111
330
E5
100
AcDbEntity
  8
AM_9
100
AcDbLine
 10
29.99999999999999
 20
14.792
 30
0.0
 11
31.50800000000002
 21
16.29999999999999
 31
0.0
  0
LINE
  5
112
330
E5
100
AcDbEntity
  8
AM_9
100
AcDbLine
 10
-31.50800000000002
 20
16.29999999999999
 30
0.0
 11
-29.99999999999999
 21
14.792
 31
0.0
  0
LINE
  5
113
330
E5
100
AcDbEntity
  8
AM_9
100
AcDbLine
 10
-29.99999999999999
 20
-40.892
 30
0.0
 11
-31.50800000000002
 21
-42.4
 31
0.0
  0
LINE
  5
114
330
E5
100
AcDbEntity
  8
AM_9
100
AcDbLine
 10
31.50800000000002
 20
-42.4
 30
0.0
 11
29.99999999999999
 21
-40.892
 31
0.0
  0
LINE
  5
115
330
E5
100
AcDbEntity
  8
AM_9
100
AcDbLine
 10
-36.19200000000001
 20
16.29999999999999
 30
0.0
 11
-37.69999999999997
 21
14.79199999999999
 31
0.0
  0
LINE
  5
116
330
E5
100
AcDbEntity
  8
AM_9
100
AcDbLine
 10
37.69999999999997
 20
14.79199999999999
 30
0.0
 11
36.19200000000001
 21
16.29999999999999
 31
0.0
  0
LINE
  5
117
330
E5
100
AcDbEntity
  8
AM_9
100
AcDbLine
 10
-36.19200000000001
 20
16.29999999999999
 30
0.0
 11
36.19200000000001
 21
16.29999999999999
 31
0.0
  0
LINE
  5
118
330
E5
100
AcDbEntity
  8
AM_9
100
AcDbLine
 10
37.69999999999997
 20
6.349999999999998
 30
0.0
 11
37.69999999999997
 21
14.79199999999999
 31
0.0
  0
LINE
  5
119
330
E5
100
AcDbEntity
  8
AM_9
100
AcDbLine
 10
-37.69999999999997
 20
14.79199999999999
 30
0.0
 11
-37.69999999999997
 21
6.349999999999998
 31
0.0
  0
LINE
  5
11A
330
E5
100
AcDbEntity
  8
AM_9
100
AcDbLine
 10
-37.69999999999997
 20
14.79199999999999
 30
0.0
 11
37.69999999999997
 21
14.79199999999999
 31
0.0
  0
LINE
  5
11B
330
E5
100
AcDbEntity
  8
AM_9
100
AcDbLine
 10
37.69999999999998
 20
-25.39999999999999
 30
0.0
 11
37.69999999999998
 21
-19.55
 31
0.0
  0
LINE
  5
11C
330
E5
100
AcDbEntity
  8
AM_9
100
AcDbLine
 10
-37.69999999999998
 20
-19.55
 30
0.0
 11
-37.69999999999998
 21
-25.4
 31
0.0
  0
LINE
  5
11D
330
E5
100
AcDbEntity
  8
AM_9
100
AcDbLine
 10
52.40999999999994
 20
-14.08666666666667
 30
0.0
 11
52.40999999999994
 21
-10.63333333333334
 31
0.0
  0
LINE
  5
11E
330
E5
100
AcDbEntity
  8
AM_9
100
AcDbLine
 10
-52.40999999999994
 20
-10.63333333333334
 30
0.0
 11
-52.40999999999994
 21
-14.08666666666667
 31
0.0
  0
LINE
  5
11F
330
E5
100
AcDbEntity
  8
AM_9
100
AcDbLine
 10
-51.71148383473065
 20
-19.55
 30
0.0
 11
51.71148383473065
 21
-19.55
 31
0.0
  0
ARC
  5
120
330
E5
100
AcDbEntity
  8
AM_9
100
AcDbCircle
 10
51.71148383473064
 20
-18.514
 30
0.0
 40
1.036000000000005
100
AcDbArc
 50
270.0
 51
338.5875329531153
  0
ARC
  5
121
330
E5
100
AcDbEntity
  8
AM_9
100
AcDbCircle
 10
-51.71148383473064
 20
-18.514
 30
0.0
 40
1.036000000000008
100
AcDbArc
 50
201.4124670468846
 51
270.0
  0
LINE
  5
122
330
E5
100
AcDbEntity
  8
AM_9
100
AcDbLine
 10
-51.71148383473065
 20
6.349999999999998
 30
0.0
 11
51.71148383473065
 21
6.349999999999998
 31
0.0
  0
ARC
  5
123
330
E5
100
AcDbEntity
  8
AM_9
100
AcDbCircle
 10
51.71148383473064
 20
5.313999999999988
 30
0.0
 40
1.036000000000012
100
AcDbArc
 50
21.41246045403781
 51
90.0
  0
ARC
  5
124
330
E5
100
AcDbEntity
  8
AM_9
100
AcDbCircle
 10
-51.71148383473064
 20
5.313999999999988
 30
0.0
 40
1.03600000000001
100
AcDbArc
 50
90.0
 51
158.5875395459622
  0
ARC
  5
125
330
E5
100
AcDbEntity
  8
AM_9
100
AcDbCircle
 10
21.32999999999591
 20
-6.599999999998804
 30
0.0
 40
33.67000000000423
100
AcDbArc
 50
338.5875329531165
 51
347.1526544670777
  0
ARC
  5
126
330
E5
100
AcDbEntity
  8
AM_9
100
AcDbCircle
 10
-21.32999999999502
 20
-6.599999999998527
 30
0.0
 40
33.67000000000517
100
AcDbArc
 50
192.8473455329224
 51
201.4124670468833
  0
LINE
  5
127
330
E5
100
AcDbEntity
  8
AM_9
100
AcDbLine
 10
-52.67597538503955
 20
-18.89222222222223
 30
0.0
 11
52.67597538503955
 21
-18.89222222222223
 31
0.0
  0
LINE
  5
128
330
E5
100
AcDbEntity
  8
AM_9
100
AcDbLine
 10
-54.15710346988021
 20
-14.08666666666667
 30
0.0
 11
54.15710346988021
 21
-14.08666666666667
 31
0.0
  0
LWPOLYLINE
  5
129
330
E5
100
AcDbEntity
  8
AM_9
100
AcDbPolyline
 90
        6
 70
     0
 43
0.0
 10
-36.85315201589961
 20
1.634458511880474
 10
-37.04280585994955
 20
1.911788386226512
 10
-37.27087682319206
 20
2.131809221587329
 10
-37.53246423628187
 20
2.28697813703198
 10
-37.81988721018854
 20
2.373016339756552
 10
-38.02669935189318
 20
2.389999988666312
  0
ARC
  5
12A
330
E5
100
AcDbEntity
  8
AM_9
100
AcDbCircle
 10
21.33000000000602
 20
-6.599999999999256
 30
0.0
 40
33.6699999999941
100
AcDbArc
 50
353.1200100444617
 51
21.4124668440298
  0
ARC
  5
12B
330
E5
100
AcDbEntity
  8
AM_9
100
AcDbCircle
 10
-21.33000000000005
 20
-6.60000000000002
 30
0.0
 40
33.66999999999994
100
AcDbArc
 50
158.5875331559727
 51
186.8799899555358
  0
LINE
  5
12C
330
E5
100
AcDbEntity
  8
AM_9
100
AcDbLine
 10
-54.75755034731414
 20
-10.63333333333334
 30
0.0
 11
54.75755034731414
 21
-10.63333333333334
 31
0.0
  0
LINE
  5
12D
330
E5
100
AcDbEntity
  8
AM_9
100
AcDbLine
 10
-52.67597542856039
 20
5.692222111241183
 30
0.0
 11
52.67597542856039
 21
5.692222111241183
 31
0.0
  0
ELLIPSE
  5
12E
330
E5
100
AcDbEntity
  8
AM_9
100
AcDbEllipse
 10
-39.3472782512987
 20
-0.199999999999995
 30
0.0
 11
-4.757752814687457E-16
 21
-2.589999999999995
 31
0.0
210
0.0
220
0.0
230
1.0
 40
0.707106781186548
 41
0.0
 42
6.283185307179586
  0
LWPOLYLINE
  5
12F
330
E5
100
AcDbEntity
  8
AM_4
100
AcDbPolyline
 90
        7
 70
     0
 43
0.0
 10
-23.73644359213521
 20
-29.23957057713089
 10
-23.81867911270181
 20
-29.56987618230311
 10
-23.92844040030712
 20
-30.25263436924538
 10
-23.96682062315167
 20
-30.95611607570462
 10
-23.93292372291881
 20
-31.65406063039991
 10
-23.82880601655451
 20
-32.33285455044865
 10
-23.74004886252015
 20
-32.69752700660408
  0
LWPOLYLINE
  5
130
330
E5
100
AcDbEntity
  8
AM_4
100
AcDbPolyline
 90
       17
 70
     0
 43
0.0
 10
11.53661764813915
 20
-34.93282812419074
 10
11.93764052877952
 20
-34.75433357147536
 10
12.49092968052546
 20
-34.40048925219332
 10
12.97925711570534
 20
-33.951744400298
 10
13.39278085690932
 20
-33.41440785800482
 10
13.71794972511004
 20
-32.80794633244567
 10
13.94556910203305
 20
-32.14803366292643
 10
14.07101687918408
 20
-31.45442219399958
 10
14.08994055120962
 20
-30.75274174975786
 10
14.00478162623658
 20
-30.05737125550869
 10
13.81733043358972
 20
-29.39116570254581
 10
13.53340942669869
 20
-28.76915560901501
 10
13.15594476515431
 20
-28.20571522043462
 10
12.69684192251765
 20
-27.71965655889688
 10
12.1622541330004
 20
-27.32308450956763
 10
11.56978387432603
 20
-27.02977489883683
 10
11.54882133213122
 20
-27.02176599327441
  0
LINE
  5
131
330
E5
100
AcDbEntity
  8
AM_4
100
AcDbLine
 10
36.19200000000001
 20
-42.4
 30
0.0
 11
37.69999999999997
 21
-40.892
 31
0.0
  0
LINE
  5
132
330
E5
100
AcDbEntity
  8
AM_4
100
AcDbLine
 10
-37.69999999999997
 20
-40.892
 30
0.0
 11
-36.19200000000001
 21
-42.4
 31
0.0
  0
LINE
  5
133
330
E5
100
AcDbEntity
  8
AM_4
100
AcDbLine
 10
-36.19200000000001
 20
-42.4
 30
0.0
 11
36.19200000000001
 21
-42.4
 31
0.0
  0
LWPOLYLINE
  5
134
330
E5
100
AcDbEntity
  8
AM_4
100
AcDbPolyline
 90
       39
 70
     0
 43
0.0
 10
-28.73876479071937
 20
-27.8264027947557
 10
-28.42767870144245
 20
-27.38058644396314
 10
-28.07135482448254
 20
-27.01099145210937
 10
-27.62488371596777
 20
-26.701691529031
 10
-27.13970927100483
 20
-26.51290585814899
 10
-26.65494295143544
 20
-26.45446588145329
 10
-26.16142142653947
 20
-26.51431664601941
 10
-25.6858313342769
 20
-26.68617256241834
 10
-25.22970427229942
 20
-26.96215822553366
 10
-24.79805687312133
 20
-27.34272353102263
 10
-24.41197800226614
 20
-27.80983123458325
 10
-24.06730767524478
 20
-28.37989185539401
 10
-23.79358356030604
 20
-29.01409172331057
 10
-23.59111723183087
 20
-29.73302623232344
 10
-23.48099932091028
 20
-30.48460863103948
 10
-23.46887300011402
 20
-31.27473452281181
 10
-23.55901490965268
 20
-32.05652953083125
 10
-23.75223877618236
 20
-32.81402080302981
 10
-24.04075864582053
 20
-33.51828238350186
 10
-24.40981193768518
 20
-34.13637574377834
 10
-24.85035769061902
 20
-34.66086338743727
 10
-25.32567543664448
 20
-35.05524662546224
 10
-25.8371193269959
 20
-35.33111712794791
 10
-26.33668052414251
 20
-35.47018530259336
 10
-26.8370228105613
 20
-35.48802952346944
 10
-27.30455911489901
 20
-35.38813615361487
 10
-27.74626267769343
 20
-35.17897898792599
 10
-28.15345426635406
 20
-34.86438688626507
 10
-28.51575576634504
 20
-34.45720726678827
 10
-28.8388078938425
 20
-33.94581512341742
 10
-29.10172741189473
 20
-33.36219381056517
 10
-29.30980165217575
 20
-32.68493632286631
 10
-29.44536635154815
 20
-31.9636440533272
 10
-29.50733264116381
 20
-31.18605511128558
 10
-29.48885600969712
 20
-30.40269557190422
 10
-29.38687020777921
 20
-29.62259031827181
 10
-29.20289407228731
 20
-28.88117650017005
 10
-28.99592997919476
 20
-28.3281898372593
 10
-28.73876479059601
 20
-27.82640279470219
  0
LWPOLYLINE
  5
135
330
E5
100
AcDbEntity
  8
AM_4
100
AcDbPolyline
 90
       39
 70
     0
 43
0.0
 10
13.08742266524003
 20
-26.45921648904888
 10
13.71127650974797
 20
-26.54984857325934
 10
14.30895639374745
 20
-26.74837870086493
 10
14.87195087269854
 20
-27.05391843159848
 10
15.37969242504876
 20
-27.45285546036056
 10
15.83812815905587
 20
-27.95604082367462
 10
16.2165289535376
 20
-28.53248247508549
 10
16.52085854404026
 20
-29.20352758066522
 10
16.72382219641144
 20
-29.9200645062609
 10
16.82274486242165
 20
-30.69512719390212
 10
16.80653153979874
 20
-31.47782404127231
 10
16.67065455885495
 20
-32.26010267807858
 10
16.41815565638093
 20
-33.00567755391827
 10
16.05511267660223
 20
-33.68687816475306
 10
15.58879009748758
 20
-34.28820076121843
 10
15.04862487145973
 20
-34.77209082261909
 10
14.43482065084713
 20
-35.14415354007948
 10
13.80187495353968
 20
-35.37726826060197
 10
13.13629461111127
 20
-35.48778436956371
 10
12.4914487168878
 20
-35.47285531113702
 10
11.85404512544425
 20
-35.34333957303205
 10
11.24924307081205
 20
-35.10572670442178
 10
10.68568137890683
 20
-34.76907802517437
 10
10.16282808386397
 20
-34.32797145927044
 10
9.71158573177659
 20
-33.80646314225037
 10
9.325645835686714
 20
-33.18486695294394
 10
9.039489248482449
 20
-32.50766523962317
 10
8.854935642720196
 20
-31.75702985729327
 10
8.791296132365169
 20
-30.9854508827013
 10
8.854857463394486
 20
-30.19371623642066
 10
9.0456465496212
 20
-29.42400130225716
 10
9.361024754537816
 20
-28.69830732586457
 10
9.791000277323349
 20
-28.03914052291955
 10
10.31087769942517
 20
-27.48252776555228
 10
10.91397068970298
 20
-27.02932779372835
 10
11.54783791803623
 20
-26.7126303707828
 10
12.22088686164556
 20
-26.51755202231097
 10
12.65352741179259
 20
-26.46217046452957
 10
13.08742262184859
 20
-26.45921644312855
  0
LINE
  5
136
330
E5
100
AcDbEntity
  8
AM_4
100
AcDbLine
 10
37.69999999999998
 20
-40.892
 30
0.0
 11
37.69999999999998
 21
-25.39999999999999
 31
0.0
  0
LINE
  5
137
330
E5
100
AcDbEntity
  8
AM_4
100
AcDbLine
 10
-37.69999999999998
 20
-25.4
 30
0.0
 11
-37.69999999999998
 21
-40.892
 31
0.0
  0
LINE
  5
138
330
E5
100
AcDbEntity
  8
AM_4
100
AcDbLine
 10
-37.69999999999998
 20
-40.892
 30
0.0
 11
37.69999999999998
 21
-40.892
 31
0.0
  0
ELLIPSE
  5
139
330
E5
100
AcDbEntity
  8
AM_4
100
AcDbEllipse
 10
-26.42243365021475
 20
-30.975
 30
0.0
 11
2.564410397414561E-16
 21
4.188000000000006
 31
0.0
210
0.0
220
0.0
230
1.0
 40
0.7071067811865469
 41
0.0
 42
6.283185307179586
  0
ELLIPSE
  5
13A
330
E5
100
AcDbEntity
  8
AM_4
100
AcDbEllipse
 10
12.78025438943612
 20
-30.975
 30
0.0
 11
-7.693231192243670E-16
 21
-4.187999999999999
 31
0.0
210
0.0
220
0.0
230
1.0
 40
0.9396926207859086
 41
0.0
 42
6.283185307179586
  0
ENDBLK
  5
E8
330
E5
100
AcDbEntity
  8
0
100
AcDbBlockEnd
  0
BLOCK
  5
13D
330
13B
100
AcDbEntity
  8
0
100
AcDbBlockBegin
  2
4_125871H_0_in_125871_4
 70
     2
 10
0.0
 20
0.0
 30
0.0
  3
4_125871H_0_in_125871_4
  1

  0
ATTDEF
  5
13F
330
13B
100
AcDbEntity
  8
AM_6
100
AcDbText
 10
95.55000000000001
 20
24.78999999999998
 30
0.0
 40
0.5
  1
FC-SC -M-Housing
100
AcDbAttributeDefinition
  3

  2
NN
 70
     8
280
     0
  0
ATTDEF
  5
140
330
13B
100
AcDbEntity
  8
AM_6
100
AcDbText
 10
95.55000000000001
 20
24.28999999999998
 30
0.0
 40
0.5
  1
SC Piloted Flange Bearings -(Normal Duty)
100
AcDbAttributeDefinition
  3

  2
NT
 70
     8
280
     0
  0
ATTDEF
  5
141
330
13B
100
AcDbEntity
  8
AM_6
100
AcDbText
 10
95.55000000000001
 20
23.78999999999998
 30
0.0
 40
0.5
  1
125871H
100
AcDbAttributeDefinition
  3

  2
NB
 70
     8
280
     0
  0
ATTDEF
  5
142
330
13B
100
AcDbEntity
  8
AM_6
100
AcDbText
 10
95.55000000000001
 20
23.28999999999998
 30
0.0
 40
0.5
  1
$PN.H
100
AcDbAttributeDefinition
  3

  2
NBSYN
 70
     8
280
     0
  0
ATTDEF
  5
143
330
13B
100
AcDbEntity
  8
AM_6
100
AcDbText
 10
95.55000000000001
 20
22.78999999999998
 30
0.0
 40
0.5
  1
125871
100
AcDbAttributeDefinition
  3

  2
LINA
 70
     8
280
     0
  0
ATTDEF
  5
144
330
13B
100
AcDbEntity
  8
AM_6
100
AcDbText
 10
95.55000000000001
 20
22.28999999999998
 30
0.0
 40
0.5
  1
212
100
AcDbAttributeDefinition
  3

  2
SERIES
 70
     8
280
     0
  0
ATTDEF
  5
145
330
13B
100
AcDbEntity
  8
AM_6
100
AcDbText
 10
95.55000000000001
 20
21.78999999999998
 30
0.0
 40
0.5
  1
60
100
AcDbAttributeDefinition
  3

  2
SS
 70
     8
280
     0
  0
ATTDEF
  5
146
330
13B
100
AcDbEntity
  8
AM_6
100
AcDbText
 10
95.55000000000001
 20
21.28999999999998
 30
0.0
 40
0.5
  1
125871
100
AcDbAttributeDefinition
  3

  2
PN
 70
     8
280
     0
  0
ATTDEF
  5
147
330
13B
100
AcDbEntity
  8
AM_6
100
AcDbText
 10
95.55000000000001
 20
20.78999999999998
 30
0.0
 40
0.5
  1
FC-SC-60M
100
AcDbAttributeDefinition
  3

  2
DESCRIPTION
 70
     8
280
     0
  0
ATTDEF
  5
148
330
13B
100
AcDbEntity
  8
AM_6
100
AcDbText
 10
95.55000000000001
 20
20.28999999999998
 30
0.0
 40
0.5
  1
58.7
100
AcDbAttributeDefinition
  3

  2
A
 70
     8
280
     0
  0
ATTDEF
  5
149
330
13B
100
AcDbEntity
  8
AM_6
100
AcDbText
 10
95.55000000000001
 20
19.78999999999998
 30
0.0
 40
0.5
  1
181.1
100
AcDbAttributeDefinition
  3

  2
B
 70
     8
280
     0
  0
ATTDEF
  5
14A
330
13B
100
AcDbEntity
  8
AM_6
100
AcDbText
 10
95.55000000000001
 20
19.28999999999998
 30
0.0
 40
0.5
  1
64.5
100
AcDbAttributeDefinition
  3

  2
C
 70
     8
280
     0
  0
ATTDEF
  5
14B
330
13B
100
AcDbEntity
  8
AM_6
100
AcDbText
 10
95.55000000000001
 20
18.78999999999998
 30
0.0
 40
0.5
  1
152.4
100
AcDbAttributeDefinition
  3

  2
D
 70
     8
280
     0
  0
ATTDEF
  5
14C
330
13B
100
AcDbEntity
  8
AM_6
100
AcDbText
 10
95.55000000000001
 20
18.28999999999998
 30
0.0
 40
0.5
  1
22.4
100
AcDbAttributeDefinition
  3

  2
E
 70
     8
280
     0
  0
ATTDEF
  5
14D
330
13B
100
AcDbEntity
  8
AM_6
100
AcDbText
 10
95.55000000000001
 20
17.78999999999998
 30
0.0
 40
0.5
  1
M12
100
AcDbAttributeDefinition
  3

  2
F
 70
     8
280
     0
  0
ATTDEF
  5
14E
330
13B
100
AcDbEntity
  8
AM_6
100
AcDbText
 10
95.55000000000001
 20
17.28999999999998
 30
0.0
 40
0.5
  1
13.5
100
AcDbAttributeDefinition
  3

  2
F1
 70
     8
280
     0
  0
ATTDEF
  5
14F
330
13B
100
AcDbEntity
  8
AM_6
100
AcDbText
 10
95.55000000000001
 20
16.78999999999998
 30
0.0
 40
0.5
  1
42.4
100
AcDbAttributeDefinition
  3

  2
G
 70
     8
280
     0
  0
ATTDEF
  5
150
330
13B
100
AcDbEntity
  8
AM_6
100
AcDbText
 10
95.55000000000001
 20
16.28999999999998
 30
0.0
 40
0.5
  1
25.4
100
AcDbAttributeDefinition
  3

  2
H
 70
     8
280
     0
  0
ATTDEF
  5
151
330
13B
100
AcDbEntity
  8
AM_6
100
AcDbText
 10
95.55000000000001
 20
15.78999999999998
 30
0.0
 40
0.5
  1
6.6
100
AcDbAttributeDefinition
  3

  2
H1
 70
     8
280
     0
  0
ATTDEF
  5
152
330
13B
100
AcDbEntity
  8
AM_6
100
AcDbText
 10
95.55000000000001
 20
15.28999999999998
 30
0.0
 40
0.5
  1
127.00
100
AcDbAttributeDefinition
  3

  2
K
 70
     8
280
     0
  0
ATTDEF
  5
153
330
13B
100
AcDbEntity
  8
AM_6
100
AcDbText
 10
95.55000000000001
 20
14.78999999999998
 30
0.0
 40
0.5
  1
75.4
100
AcDbAttributeDefinition
  3

  2
L
 70
     8
280
     0
  0
ATTDEF
  5
154
330
13B
100
AcDbEntity
  8
AM_6
100
AcDbText
 10
95.55000000000001
 20
14.28999999999998
 30
0.0
 40
0.5
  1
baldor
100
AcDbAttributeDefinition
  3

  2
COMPANY
 70
     8
280
     0
  0
LINE
  5
155
330
13B
100
AcDbEntity
  8
AM_9
100
AcDbLine
 10
-52.63888873357128
 20
-8.670000000000002
 30
0.0
 11
-52.63888873357128
 21
22.4
 31
0.0
  0
LINE
  5
156
330
13B
100
AcDbEntity
  8
AM_9
100
AcDbLine
 10
-24.35461748610938
 20
-8.670000000000003
 30
0.0
 11
-24.35461748610938
 21
22.4
 31
0.0
  0
LINE
  5
157
330
13B
100
AcDbEntity
  8
AM_9
100
AcDbLine
 10
-22.08630624174265
 20
-8.670000000000003
 30
0.0
 11
-52.63888873357128
 21
-8.670000000000002
 31
0.0
  0
LINE
  5
158
330
13B
100
AcDbEntity
  8
AM_9
100
AcDbLine
 10
52.63888873357129
 20
-8.669999999999998
 30
0.0
 11
52.63888873357129
 21
22.4
 31
0.0
  0
LINE
  5
159
330
13B
100
AcDbEntity
  8
AM_9
100
AcDbLine
 10
61.58098946542589
 20
-16.93333333333333
 30
0.0
 11
61.58098946542589
 21
-25.4
 31
0.0
  0
LINE
  5
15A
330
13B
100
AcDbEntity
  8
AM_9
100
AcDbLine
 10
61.6738299139552
 20
-16.93333333333333
 30
0.0
 11
61.6738299139552
 21
-25.4
 31
0.0
  0
LINE
  5
15B
330
13B
100
AcDbEntity
  8
AM_9
100
AcDbLine
 10
61.10503302357208
 20
-16.93333333333333
 30
0.0
 11
61.10503302357208
 21
-25.4
 31
0.0
  0
LINE
  5
15C
330
13B
100
AcDbEntity
  8
AM_9
100
AcDbLine
 10
-61.58098946542588
 20
-16.93333333333333
 30
0.0
 11
-61.58098946542588
 21
-25.4
 31
0.0
  0
LINE
  5
15D
330
13B
100
AcDbEntity
  8
AM_9
100
AcDbLine
 10
-61.67383007138557
 20
-16.93333333333333
 30
0.0
 11
-61.67383007138557
 21
-25.4
 31
0.0
  0
LINE
  5
15E
330
13B
100
AcDbEntity
  8
AM_9
100
AcDbLine
 10
-61.10503302357206
 20
-25.4
 30
0.0
 11
-61.10503302357206
 21
-16.93333333333333
 31
0.0
  0
LINE
  5
15F
330
13B
100
AcDbEntity
  8
AM_9
100
AcDbLine
 10
63.61417170360231
 20
-16.93333333333333
 30
0.0
 11
64.4402021913697
 21
-16.93333333333333
 31
0.0
  0
LINE
  5
160
330
13B
100
AcDbEntity
  8
AM_9
100
AcDbLine
 10
-64.44020219137029
 20
-16.93333333333333
 30
0.0
 11
-63.61417170360173
 21
-16.93333333333333
 31
0.0
  0
LINE
  5
161
330
13B
100
AcDbEntity
  8
AM_9
100
AcDbLine
 10
52.63888873357129
 20
-8.669999999999998
 30
0.0
 11
22.08630624174265
 21
-8.669999999999996
 31
0.0
  0
LINE
  5
162
330
13B
100
AcDbEntity
  8
AM_9
100
AcDbLine
 10
24.35461748610937
 20
-8.669999999999996
 30
0.0
 11
24.35461748610937
 21
22.4
 31
0.0
  0
LINE
  5
163
330
13B
100
AcDbEntity
  8
AM_9
100
AcDbLine
 10
-50.37057748920456
 20
-8.670000000000002
 30
0.0
 11
-50.37057748920456
 21
22.4
 31
0.0
  0
LINE
  5
164
330
13B
100
AcDbEntity
  8
AM_9
100
AcDbLine
 10
22.08630624174265
 20
22.4
 30
0.0
 11
22.08630624174265
 21
-8.669999999999996
 31
0.0
  0
LINE
  5
165
330
13B
100
AcDbEntity
  8
AM_9
100
AcDbLine
 10
50.37057748920456
 20
-8.669999999999998
 30
0.0
 11
50.37057748920458
 21
22.4
 31
0.0
  0
LINE
  5
166
330
13B
100
AcDbEntity
  8
AM_9
100
AcDbLine
 10
-22.08630624174264
 20
22.39999999999998
 30
0.0
 11
-22.08630624174265
 21
-8.670000000000003
 31
0.0
  0
LINE
  5
167
330
13B
100
AcDbEntity
  8
AM_9
100
AcDbLine
 10
55.0
 20
-25.4
 30
0.0
 11
55.0
 21
22.39999999999999
 31
0.0
  0
LINE
  5
168
330
13B
100
AcDbEntity
  8
AM_9
100
AcDbLine
 10
-55.0
 20
22.39999999999999
 30
0.0
 11
-55.0
 21
-25.4
 31
0.0
  0
LINE
  5
169
330
13B
100
AcDbEntity
  8
AM_9
100
AcDbLine
 10
47.13153672641492
 20
0.0000000000000033
 30
0.0
 11
47.13153672641492
 21
-25.4
 31
0.0
  0
LINE
  5
16A
330
13B
100
AcDbEntity
  8
AM_9
100
AcDbLine
 10
60.63153672641492
 20
-25.4
 30
0.0
 11
60.63153672641492
 21
0.0000000000000033
 31
0.0
  0
LINE
  5
16B
330
13B
100
AcDbEntity
  8
AM_9
100
AcDbLine
 10
-60.63153672641492
 20
0.0000000000000033
 30
0.0
 11
-60.63153672641492
 21
-25.4
 31
0.0
  0
LINE
  5
16C
330
13B
100
AcDbEntity
  8
AM_9
100
AcDbLine
 10
-47.13153672641492
 20
-25.4
 30
0.0
 11
-47.13153672641492
 21
0.0000000000000033
 31
0.0
  0
LINE
  5
16D
330
13B
100
AcDbEntity
  8
AM_9
100
AcDbLine
 10
-66.89611654826122
 20
-16.93333333333333
 30
0.0
 11
-66.89611654826122
 21
-25.4
 31
0.0
  0
LINE
  5
16E
330
13B
100
AcDbEntity
  8
AM_9
100
AcDbLine
 10
66.89611654826122
 20
-16.93333333333333
 30
0.0
 11
66.89611654826122
 21
-25.4
 31
0.0
  0
LINE
  5
16F
330
13B
100
AcDbEntity
  8
AM_9
100
AcDbLine
 10
-15.951837554962
 20
-25.4
 30
0.0
 11
-15.951837554962
 21
-16.93333333333333
 31
0.0
  0
LINE
  5
170
330
13B
100
AcDbEntity
  8
AM_9
100
AcDbLine
 10
-2.516943284573413
 20
-25.4
 30
0.0
 11
-10.60302399183936
 21
-25.4
 31
0.0
  0
LINE
  5
173
330
13B
100
AcDbEntity
  8
AM_7
100
AcDbLine
 10
0.0
 20
-45.335
 30
0.0
 11
0.0
 21
24.78999999999998
 31
0.0
  0
LINE
  5
174
330
13B
100
AcDbEntity
  8
AM_7
100
AcDbLine
 10
53.88153672641492
 20
-26.66999999999999
 30
0.0
 11
53.88153672641492
 21
1.270000000000003
 31
0.0
  0
LINE
  5
175
330
13B
100
AcDbEntity
  8
AM_7
100
AcDbLine
 10
-53.88153672641493
 20
-26.67
 30
0.0
 11
-53.88153672641493
 21
1.269999999999997
 31
0.0
  0
LINE
  5
176
330
13B
100
AcDbEntity
  8
AM_4
100
AcDbLine
 10
-69.45
 20
-16.93333333333333
 30
0.0
 11
-69.45
 21
-25.4
 31
0.0
  0
LINE
  5
177
330
13B
100
AcDbEntity
  8
AM_4
100
AcDbLine
 10
69.45
 20
-25.4
 30
0.0
 11
69.45
 21
-16.93333333333333
 31
0.0
  0
LINE
  5
178
330
13B
100
AcDbEntity
  8
AM_4
100
AcDbLine
 10
-62.60400000000001
 20
22.4
 30
0.0
 11
62.60399999998655
 21
22.4
 31
0.0
  0
ARC
  5
179
330
13B
100
AcDbEntity
  8
AM_4
100
AcDbCircle
 10
62.60399999999999
 20
21.50399999999999
 30
0.0
 40
0.8960000000000079
100
AcDbArc
 50
0.0
 51
90.0
  0
ARC
  5
17A
330
13B
100
AcDbEntity
  8
AM_4
100
AcDbCircle
 10
-62.60399999999999
 20
21.50399999999999
 30
0.0
 40
0.8960000000000043
100
AcDbArc
 50
90.0
 51
180.0
  0
LINE
  5
17B
330
13B
100
AcDbEntity
  8
AM_4
100
AcDbLine
 10
-63.5
 20
21.50399999999999
 30
0.0
 11
63.5
 21
21.50399999999999
 31
0.0
  0
LINE
  5
17C
330
13B
100
AcDbEntity
  8
AM_4
100
AcDbLine
 10
63.5
 20
0.0000000000000035
 30
0.0
 11
63.5
 21
21.50399999999999
 31
0.0
  0
LINE
  5
17D
330
13B
100
AcDbEntity
  8
AM_4
100
AcDbLine
 10
-63.5
 20
21.50399999999999
 30
0.0
 11
-63.5
 21
0.0000000000000035
 31
0.0
  0
LINE
  5
17E
330
13B
100
AcDbEntity
  8
AM_4
100
AcDbLine
 10
-68.24153672641494
 20
-16.93333333333333
 30
0.0
 11
-68.24153672641494
 21
-25.4
 31
0.0
  0
LINE
  5
17F
330
13B
100
AcDbEntity
  8
AM_4
100
AcDbLine
 10
68.24153672641492
 20
-25.4
 30
0.0
 11
68.24153672641492
 21
-16.93333333333333
 31
0.0
  0
LINE
  5
180
330
13B
100
AcDbEntity
  8
AM_4
100
AcDbLine
 10
36.41441167529035
 20
-16.93333333333333
 30
0.0
 11
36.41441167529035
 21
-25.4
 31
0.0
  0
LINE
  5
181
330
13B
100
AcDbEntity
  8
AM_4
100
AcDbLine
 10
-36.41441167529033
 20
-16.93333333333333
 30
0.0
 11
-36.41441167529033
 21
-25.4
 31
0.0
  0
LINE
  5
182
330
13B
100
AcDbEntity
  8
AM_4
100
AcDbLine
 10
-31.93182117801188
 20
-16.93333333333333
 30
0.0
 11
-31.93182117801188
 21
-25.4
 31
0.0
  0
LINE
  5
183
330
13B
100
AcDbEntity
  8
AM_4
100
AcDbLine
 10
47.81273848781849
 20
-16.93333333333333
 30
0.0
 11
47.81273848781849
 21
-25.4
 31
0.0
  0
LINE
  5
184
330
13B
100
AcDbEntity
  8
AM_4
100
AcDbLine
 10
-47.81273848781849
 20
-16.93333333333333
 30
0.0
 11
-47.81273848781849
 21
-25.4
 31
0.0
  0
LINE
  5
185
330
13B
100
AcDbEntity
  8
AM_4
100
AcDbLine
 10
31.93182117801188
 20
-16.93333333333333
 30
0.0
 11
31.93182117801188
 21
-25.4
 31
0.0
  0
LINE
  5
186
330
13B
100
AcDbEntity
  8
AM_4
100
AcDbLine
 10
3.972056406872921
 20
-25.4
 30
0.0
 11
3.972056406872921
 21
-16.93333333333333
 31
0.0
  0
LINE
  5
187
330
13B
100
AcDbEntity
  8
AM_4
100
AcDbLine
 10
-17.29302585977659
 20
-16.93333333333333
 30
0.0
 11
-16.01491331474232
 21
-25.4
 31
0.0
  0
LINE
  5
188
330
13B
100
AcDbEntity
  8
AM_4
100
AcDbLine
 10
69.45
 20
-25.4
 30
0.0
 11
-2.516943284573413
 21
-25.4
 31
0.0
  0
LINE
  5
189
330
13B
100
AcDbEntity
  8
AM_4
100
AcDbLine
 10
2.630868102058329
 20
-16.93333333333333
 30
0.0
 11
3.908980647092598
 21
-25.4
 31
0.0
  0
LINE
  5
18A
330
13B
100
AcDbEntity
  8
AM_4
100
AcDbLine
 10
-90.55000000000001
 20
0.0
 30
0.0
 11
90.55000000000001
 21
0.0
 31
0.0
  0
LINE
  5
18B
330
13B
100
AcDbEntity
  8
AM_4
100
AcDbLine
 10
-63.61417170360155
 20
-25.4
 30
0.0
 11
-63.61417170360171
 21
-16.93333333333333
 31
0.0
  0
LINE
  5
18C
330
13B
100
AcDbEntity
  8
AM_4
100
AcDbLine
 10
-63.61417170360171
 20
-16.93333333333333
 30
0.0
 11
63.61417170360231
 21
-16.93333333333333
 31
0.0
  0
LINE
  5
18D
330
13B
100
AcDbEntity
  8
AM_4
100
AcDbLine
 10
63.61417170360231
 20
-16.93333333333333
 30
0.0
 11
63.61417170360262
 21
-25.4
 31
0.0
  0
LINE
  5
18E
330
13B
100
AcDbEntity
  8
AM_4
100
AcDbLine
 10
64.4402021913694
 20
-25.4
 30
0.0
 11
64.4402021913697
 21
-16.93333333333333
 31
0.0
  0
LINE
  5
18F
330
13B
100
AcDbEntity
  8
AM_4
100
AcDbLine
 10
64.4402021913697
 20
-16.93333333333333
 30
0.0
 11
90.55000000000001
 21
-16.93333333333333
 31
0.0
  0
LINE
  5
190
330
13B
100
AcDbEntity
  8
AM_4
100
AcDbLine
 10
-64.44020219137028
 20
-16.93333333333333
 30
0.0
 11
-64.44020219137042
 21
-25.4
 31
0.0
  0
LINE
  5
191
330
13B
100
AcDbEntity
  8
AM_4
100
AcDbLine
 10
-69.45
 20
-25.4
 30
0.0
 11
-10.60302399183936
 21
-25.4
 31
0.0
  0
LINE
  5
192
330
13B
100
AcDbEntity
  8
AM_4
100
AcDbLine
 10
90.55000000000001
 20
-16.93333333333333
 30
0.0
 11
90.55000000000001
 21
0.0
 31
0.0
  0
LINE
  5
193
330
13B
100
AcDbEntity
  8
AM_4
100
AcDbLine
 10
-90.55000000000001
 20
0.0
 30
0.0
 11
-90.55000000000001
 21
-16.93333333333333
 31
0.0
  0
LINE
  5
194
330
13B
100
AcDbEntity
  8
AM_4
100
AcDbLine
 10
-90.55000000000001
 20
-16.93333333333333
 30
0.0
 11
-64.44020219137028
 21
-16.93333333333333
 31
0.0
  0
ENDBLK
  5
13E
330
13B
100
AcDbEntity
  8
0
100
AcDbBlockEnd
  0
ENDSEC
  0
SECTION
  2
ENTITIES
  0
INSERT
  5
6F
330
1F
100
AcDbEntity
  8
0
100
AcDbBlockReference
  2
1_125871_4
 10
0.0
 20
0.0
 30
0.0
  0
POINT
  5
196
330
1F
100
AcDbEntity
  8
ConnectionPoints
100
AcDbPoint
 10
0.0
 20
-42.4
 30
0.0000000000000026
  0
POINT
  5
197
330
1F
100
AcDbEntity
  8
ConnectionPoints
100
AcDbPoint
 10
0.0
 20
-42.4
 30
0.0000000000000026
  0
POINT
  5
198
330
1F
100
AcDbEntity
  8
ConnectionPoints
100
AcDbPoint
 10
-6.692022606341994
 20
-21.16666666666666
 30
76.49016840175028
  0
ENDSEC
  0
SECTION
  2
OBJECTS
  0
DICTIONARY
  5
C
330
0
100
AcDbDictionary
281
     1
  3
ACAD_DETAILVIEWSTYLE
350
1A0
  3
ACAD_GROUP
350
D
  3
ACAD_LAYOUT
350
1A
  3
ACAD_MATERIAL
350
43
  3
ACAD_MLEADERSTYLE
350
6B
  3
ACAD_MLINESTYLE
350
17
  3
ACAD_PLOTSETTINGS
350
19
  3
ACAD_PLOTSTYLENAME
350
E
  3
ACAD_SCALELIST
350
47
  3
ACAD_SECTIONVIEWSTYLE
350
1A1
  3
ACAD_TABLESTYLE
350
69
  3
ACAD_VISUALSTYLE
350
2A
  3
ACDB_RECOMPOSE_DATA
350
19D
  3
AcDbVariableDictionary
350
199
  0
SUN
  5
6D
330
29
100
AcDbSun
 90
        1
290
     0
 63
     7
421
 16777215
 40
1.0
291
     1
 91
  2455826
 92
 54000000
292
     0
 70
     2
 71
   256
280
     1
  0
DICTIONARY
  5
1A0
102
{ACAD_REACTORS
330
C
102
}
330
C
100
AcDbDictionary
281
     1
  0
DICTIONARY
  5
D
102
{ACAD_REACTORS
330
C
102
}
330
C
100
AcDbDictionary
281
     1
  0
DICTIONARY
  5
1A
102
{ACAD_REACTORS
330
C
102
}
330
C
100
AcDbDictionary
281
     1
  3
Layout1
350
1E
  3
Layout2
350
26
  3
Model
350
22
  0
DICTIONARY
  5
43
102
{ACAD_REACTORS
330
C
102
}
330
C
100
AcDbDictionary
281
     1
  3
ByBlock
350
45
  3
ByLayer
350
44
  3
Global
350
46
  0
DICTIONARY
  5
6B
102
{ACAD_REACTORS
330
C
102
}
330
C
100
AcDbDictionary
281
     1
  3
Standard
350
6C
  0
DICTIONARY
  5
17
102
{ACAD_REACTORS
330
C
102
}
330
C
100
AcDbDictionary
281
     1
  3
Standard
350
18
  0
DICTIONARY
  5
19
102
{ACAD_REACTORS
330
C
102
}
330
C
100
AcDbDictionary
281
     1
  0
ACDBDICTIONARYWDFLT
  5
E
102
{ACAD_REACTORS
330
C
102
}
330
C
100
AcDbDictionary
281
     1
  3
Normal
350
F
100
AcDbDictionaryWithDefault
340
F
  0
DICTIONARY
  5
47
102
{ACAD_REACTORS
330
C
102
}
330
C
100
AcDbDictionary
281
     1
  3
A0
350
48
  3
A1
350
49
  3
A2
350
4A
  3
A3
350
4B
  3
A4
350
4C
  3
A5
350
4D
  3
A6
350
4E
  3
A7
350
4F
  3
A8
350
50
  3
A9
350
51
  3
B0
350
52
  3
B1
350
53
  3
B2
350
54
  3
B3
350
55
  3
B4
350
56
  3
B5
350
57
  3
B6
350
58
  3
B7
350
59
  3
B8
350
5A
  3
B9
350
5B
  3
C0
350
5C
  3
C1
350
5D
  3
C2
350
5E
  3
C3
350
5F
  3
C4
350
60
  3
C5
350
61
  3
C6
350
62
  3
C7
350
63
  3
C8
350
64
  3
C9
350
65
  3
D0
350
66
  3
D1
350
67
  3
D2
350
68
  0
DICTIONARY
  5
1A1
102
{ACAD_REACTORS
330
C
102
}
330
C
100
AcDbDictionary
281
     1
  0
DICTIONARY
  5
69
102
{ACAD_REACTORS
330
C
102
}
330
C
100
AcDbDictionary
281
     1
  3
Standard
350
6A
  0
DICTIONARY
  5
2A
102
{ACAD_REACTORS
330
C
102
}
330
C
100
AcDbDictionary
281
     1
  3
2dWireframe
350
2F
  3
Basic
350
32
  3
Brighten
350
36
  3
ColorChange
350
3A
  3
Conceptual
350
34
  3
Dim
350
35
  3
EdgeColorOff
350
3D
  3
Facepattern
350
39
  3
Flat
350
2B
  3
FlatWithEdges
350
2C
  3
Gouraud
350
2D
  3
GouraudWithEdges
350
2E
  3
Hidden
350
31
  3
JitterOff
350
3B
  3
Linepattern
350
38
  3
OverhangOff
350
3C
  3
Realistic
350
33
  3
Shaded
350
42
  3
Shaded with edges
350
41
  3
Shades of Gray
350
3E
  3
Sketchy
350
3F
  3
Thicken
350
37
  3
Wireframe
350
30
  3
X-Ray
350
40
  0
XRECORD
  5
19D
102
{ACAD_REACTORS
330
C
102
}
330
C
100
AcDbXrecord
280
     1
 90
        1
330
6A
  0
DICTIONARY
  5
199
102
{ACAD_REACTORS
330
C
102
}
330
C
100
AcDbDictionary
281
     1
  3
CANNOSCALE
350
19A
  3
CMLEADERSTYLE
350
19F
  3
CTABLESTYLE
350
19E
  0
LAYOUT
  5
1E
102
{ACAD_REACTORS
330
1A
102
}
330
1A
100
AcDbPlotSettings
  1

  2
none_device
  4

  6

 40
0.0
 41
0.0
 42
0.0
 43
0.0
 44
0.0
 45
0.0
 46
0.0
 47
0.0
 48
0.0
 49
0.0
140
0.0
141
0.0
142
1.0
143
1.0
 70
   688
 72
     1
 73
     0
 74
     5
  7

 75
    16
 76
     0
 77
     2
 78
   300
147
1.0
148
0.0
149
0.0
100
AcDbLayout
  1
Layout1
 70
     1
 71
     1
 10
0.0
 20
0.0
 11
420.0
 21
297.0
 12
0.0
 22
0.0
 32
0.0
 14
1.000000000000000E+20
 24
1.000000000000000E+20
 34
1.000000000000000E+20
 15
-1.000000000000000E+20
 25
-1.000000000000000E+20
 35
-1.000000000000000E+20
146
0.0
 13
0.0
 23
0.0
 33
0.0
 16
1.0
 26
0.0
 36
0.0
 17
0.0
 27
1.0
 37
0.0
 76
     0
330
1B
  0
LAYOUT
  5
26
102
{ACAD_REACTORS
330
1A
102
}
330
1A
100
AcDbPlotSettings
  1

  2
none_device
  4

  6

 40
0.0
 41
0.0
 42
0.0
 43
0.0
 44
0.0
 45
0.0
 46
0.0
 47
0.0
 48
0.0
 49
0.0
140
0.0
141
0.0
142
1.0
143
1.0
 70
   688
 72
     1
 73
     0
 74
     5
  7

 75
    16
 76
     0
 77
     2
 78
   300
147
1.0
148
0.0
149
0.0
100
AcDbLayout
  1
Layout2
 70
     1
 71
     2
 10
0.0
 20
0.0
 11
0.0
 21
0.0
 12
0.0
 22
0.0
 32
0.0
 14
0.0
 24
0.0
 34
0.0
 15
0.0
 25
0.0
 35
0.0
146
0.0
 13
0.0
 23
0.0
 33
0.0
 16
1.0
 26
0.0
 36
0.0
 17
0.0
 27
1.0
 37
0.0
 76
     0
330
23
  0
LAYOUT
  5
22
102
{ACAD_REACTORS
330
1A
102
}
330
1A
100
AcDbPlotSettings
  1

  2
none_device
  4
Letter_(8.50_x_11.00_Inches)
  6

 40
6.35
 41
6.35
 42
6.35000508
 43
6.35000508
 44
215.9
 45
279.4
 46
0.0
 47
0.0
 48
0.0
 49
0.0
140
0.0
141
0.0
142
1.0
143
1.0
 70
  1712
 72
     1
 73
     0
 74
     0
  7

 75
     0
 76
     0
 77
     2
 78
   300
147
1.0
148
0.0
149
0.0
100
AcDbLayout
  1
Model
 70
     1
 71
     0
 10
0.0
 20
0.0
 11
420.0
 21
297.0
 12
0.0
 22
0.0
 32
0.0
 14
1.000000000000000E+20
 24
1.000000000000000E+20
 34
1.000000000000000E+20
 15
-1.000000000000000E+20
 25
-1.000000000000000E+20
 35
-1.000000000000000E+20
146
0.0
 13
0.0
 23
0.0
 33
0.0
 16
1.0
 26
0.0
 36
0.0
 17
0.0
 27
1.0
 37
0.0
 76
     0
330
1F
331
29
  0
MATERIAL
  5
45
102
{ACAD_REACTORS
330
43
102
}
330
43
100
AcDbMaterial
  1
ByBlock
 72
     1
 94
      127
  0
MATERIAL
  5
44
102
{ACAD_REACTORS
330
43
102
}
330
43
100
AcDbMaterial
  1
ByLayer
 72
     1
 94
      127
  0
MATERIAL
  5
46
102
{ACAD_REACTORS
330
43
102
}
330
43
100
AcDbMaterial
  1
Global
 72
     1
 94
      127
  0
MLEADERSTYLE
  5
6C
102
{ACAD_REACTORS
330
6B
102
}
330
6B
100
AcDbMLeaderStyle
179
     2
170
     2
171
     1
172
     0
 90
        2
 40
0.0
 41
0.0
173
     1
 91
-1056964608
340
14
 92
       -2
290
     1
 42
2.0
291
     1
 43
8.0
  3
Standard
341
0
 44
4.0
300

342
11
174
     1
178
     6
175
     1
176
     0
 93
-1056964608
 45
4.0
292
     0
297
     0
 46
4.0
343
0
 94
-1056964608
 47
1.0
 49
1.0
140
1.0
293
     1
141
0.0
294
     1
177
     0
142
1.0
295
     0
296
     0
143
3.75
271
     0
272
     9
273
     9
298
     0
  0
MLINESTYLE
  5
18
102
{ACAD_REACTORS
330
17
102
}
330
17
100
AcDbMlineStyle
  2
Standard
 70
     0
  3

 62
   256
 51
90.0
 52
90.0
 71
     2
 49
0.5
 62
   256
  6
BYLAYER
 49
-0.5
 62
   256
  6
BYLAYER
  0
ACDBPLACEHOLDER
  5
F
102
{ACAD_REACTORS
330
E
102
}
330
E
  0
SCALE
  5
48
102
{ACAD_REACTORS
330
47
102
}
330
47
100
AcDbScale
 70
     0
300
1:1
140
1.0
141
1.0
290
     1
  0
SCALE
  5
49
102
{ACAD_REACTORS
330
47
102
}
330
47
100
AcDbScale
 70
     0
300
1:2
140
1.0
141
2.0
290
     0
  0
SCALE
  5
4A
102
{ACAD_REACTORS
330
47
102
}
330
47
100
AcDbScale
 70
     0
300
1:4
140
1.0
141
4.0
290
     0
  0
SCALE
  5
4B
102
{ACAD_REACTORS
330
47
102
}
330
47
100
AcDbScale
 70
     0
300
1:5
140
1.0
141
5.0
290
     0
  0
SCALE
  5
4C
102
{ACAD_REACTORS
330
47
102
}
330
47
100
AcDbScale
 70
     0
300
1:8
140
1.0
141
8.0
290
     0
  0
SCALE
  5
4D
102
{ACAD_REACTORS
330
47
102
}
330
47
100
AcDbScale
 70
     0
300
1:10
140
1.0
141
10.0
290
     0
  0
SCALE
  5
4E
102
{ACAD_REACTORS
330
47
102
}
330
47
100
AcDbScale
 70
     0
300
1:16
140
1.0
141
16.0
290
     0
  0
SCALE
  5
4F
102
{ACAD_REACTORS
330
47
102
}
330
47
100
AcDbScale
 70
     0
300
1:20
140
1.0
141
20.0
290
     0
  0
SCALE
  5
50
102
{ACAD_REACTORS
330
47
102
}
330
47
100
AcDbScale
 70
     0
300
1:30
140
1.0
141
30.0
290
     0
  0
SCALE
  5
51
102
{ACAD_REACTORS
330
47
102
}
330
47
100
AcDbScale
 70
     0
300
1:40
140
1.0
141
40.0
290
     0
  0
SCALE
  5
52
102
{ACAD_REACTORS
330
47
102
}
330
47
100
AcDbScale
 70
     0
300
1:50
140
1.0
141
50.0
290
     0
  0
SCALE
  5
53
102
{ACAD_REACTORS
330
47
102
}
330
47
100
AcDbScale
 70
     0
300
1:100
140
1.0
141
100.0
290
     0
  0
SCALE
  5
54
102
{ACAD_REACTORS
330
47
102
}
330
47
100
AcDbScale
 70
     0
300
2:1
140
2.0
141
1.0
290
     0
  0
SCALE
  5
55
102
{ACAD_REACTORS
330
47
102
}
330
47
100
AcDbScale
 70
     0
300
4:1
140
4.0
141
1.0
290
     0
  0
SCALE
  5
56
102
{ACAD_REACTORS
330
47
102
}
330
47
100
AcDbScale
 70
     0
300
8:1
140
8.0
141
1.0
290
     0
  0
SCALE
  5
57
102
{ACAD_REACTORS
330
47
102
}
330
47
100
AcDbScale
 70
     0
300
10:1
140
10.0
141
1.0
290
     0
  0
SCALE
  5
58
102
{ACAD_REACTORS
330
47
102
}
330
47
100
AcDbScale
 70
     0
300
100:1
140
100.0
141
1.0
290
     0
  0
SCALE
  5
59
102
{ACAD_REACTORS
330
47
102
}
330
47
100
AcDbScale
 70
     0
300
1/128" = 1'-0"
140
0.0078125
141
12.0
290
     0
  0
SCALE
  5
5A
102
{ACAD_REACTORS
330
47
102
}
330
47
100
AcDbScale
 70
     0
300
1/64" = 1'-0"
140
0.015625
141
12.0
290
     0
  0
SCALE
  5
5B
102
{ACAD_REACTORS
330
47
102
}
330
47
100
AcDbScale
 70
     0
300
1/32" = 1'-0"
140
0.03125
141
12.0
290
     0
  0
SCALE
  5
5C
102
{ACAD_REACTORS
330
47
102
}
330
47
100
AcDbScale
 70
     0
300
1/16" = 1'-0"
140
0.0625
141
12.0
290
     0
  0
SCALE
  5
5D
102
{ACAD_REACTORS
330
47
102
}
330
47
100
AcDbScale
 70
     0
300
3/32" = 1'-0"
140
0.09375
141
12.0
290
     0
  0
SCALE
  5
5E
102
{ACAD_REACTORS
330
47
102
}
330
47
100
AcDbScale
 70
     0
300
1/8" = 1'-0"
140
0.125
141
12.0
290
     0
  0
SCALE
  5
5F
102
{ACAD_REACTORS
330
47
102
}
330
47
100
AcDbScale
 70
     0
300
3/16" = 1'-0"
140
0.1875
141
12.0
290
     0
  0
SCALE
  5
60
102
{ACAD_REACTORS
330
47
102
}
330
47
100
AcDbScale
 70
     0
300
1/4" = 1'-0"
140
0.25
141
12.0
290
     0
  0
SCALE
  5
61
102
{ACAD_REACTORS
330
47
102
}
330
47
100
AcDbScale
 70
     0
300
3/8" = 1'-0"
140
0.375
141
12.0
290
     0
  0
SCALE
  5
62
102
{ACAD_REACTORS
330
47
102
}
330
47
100
AcDbScale
 70
     0
300
1/2" = 1'-0"
140
0.5
141
12.0
290
     0
  0
SCALE
  5
63
102
{ACAD_REACTORS
330
47
102
}
330
47
100
AcDbScale
 70
     0
300
3/4" = 1'-0"
140
0.75
141
12.0
290
     0
  0
SCALE
  5
64
102
{ACAD_REACTORS
330
47
102
}
330
47
100
AcDbScale
 70
     0
300
1" = 1'-0"
140
1.0
141
12.0
290
     0
  0
SCALE
  5
65
102
{ACAD_REACTORS
330
47
102
}
330
47
100
AcDbScale
 70
     0
300
1-1/2" = 1'-0"
140
1.5
141
12.0
290
     0
  0
SCALE
  5
66
102
{ACAD_REACTORS
330
47
102
}
330
47
100
AcDbScale
 70
     0
300
3" = 1'-0"
140
3.0
141
12.0
290
     0
  0
SCALE
  5
67
102
{ACAD_REACTORS
330
47
102
}
330
47
100
AcDbScale
 70
     0
300
6" = 1'-0"
140
6.0
141
12.0
290
     0
  0
SCALE
  5
68
102
{ACAD_REACTORS
330
47
102
}
330
47
100
AcDbScale
 70
     0
300
1'-0" = 1'-0"
140
12.0
141
12.0
290
     0
  0
TABLESTYLE
  5
6A
102
{ACAD_REACTORS
330
69
102
}
102
{ACAD_XDICTIONARY
360
19B
102
}
330
69
100
AcDbTableStyle
  3
Standard
 70
     0
 71
     0
 40
0.06
 41
0.06
280
     0
281
     0
  7
Standard
140
4.5
170
     2
 62
     0
 63
   257
283
     0
 90
        4
 91
        0
  1

274
    -2
284
     1
 64
     0
275
    -2
285
     1
 65
     0
276
    -2
286
     1
 66
     0
277
    -2
287
     1
 67
     0
278
    -2
288
     1
 68
     0
279
    -2
289
     1
 69
     0
  7
Standard
140
6.0
170
     5
 62
     0
 63
   257
283
     0
 90
        4
 91
        0
  1

274
    -2
284
     1
 64
     0
275
    -2
285
     1
 65
     0
276
    -2
286
     1
 66
     0
277
    -2
287
     1
 67
     0
278
    -2
288
     1
 68
     0
279
    -2
289
     1
 69
     0
  7
Standard
140
4.5
170
     5
 62
     0
 63
   257
283
     0
 90
        4
 91
        0
  1

274
    -2
284
     1
 64
     0
275
    -2
285
     1
 65
     0
276
    -2
286
     1
 66
     0
277
    -2
287
     1
 67
     0
278
    -2
288
     1
 68
     0
279
    -2
289
     1
 69
     0
  0
VISUALSTYLE
  5
2F
102
{ACAD_REACTORS
330
2A
102
}
330
2A
100
AcDbVisualStyle
  2
2dWireframe
 70
     4
177
     3
291
     0
 70
    58
 90
        0
176
     1
 90
        2
176
     1
 90
        0
176
     1
 90
        0
176
     1
 40
0.6
176
     1
 40
30.0
176
     1
 62
     7
420
 16777215
176
     1
 90
        1
176
     1
 90
        4
176
     1
 62
     7
176
     1
 62
   257
176
     1
 90
        1
176
     1
 90
        1
176
     1
 40
1.0
176
     1
 90
        0
176
     1
 62
   257
176
     1
 40
1.0
176
     1
 90
        1
176
     1
 90
        6
176
     1
 90
        2
176
     1
 62
     7
176
     1
 90
        5
176
     1
 90
        0
176
     1
 90
        0
176
     1
290
     0
176
     1
 90
        1
176
     1
 40
0.0
176
     1
 90
        0
176
     1
290
     1
176
     1
290
     1
176
     1
290
     0
176
     1
290
     0
176
     1
290
     0
176
     1
290
     0
176
     1
290
     0
176
     1
290
     0
176
     1
290
     0
176
     1
 90
       50
176
     1
 40
0.0
176
     1
 40
1.0
176
     1
 90
        0
176
     1
 62
    18
420
        0
176
     1
 90
       50
176
     1
 90
        3
176
     1
 62
     5
420
      255
176
     1
290
     0
176
     1
 90
       50
176
     1
 90
       50
176
     1
 90
       50
176
     1
290
     0
176
     1
 90
       50
176
     1
 62
   256
176
     0
 40
1.0
176
     0
 90
        2
176
     1
  1
strokes_ogs.tif
176
     1
290
     0
176
     1
 40
1.0
176
     1
 40
1.0
176
     1
  0
VISUALSTYLE
  5
32
102
{ACAD_REACTORS
330
2A
102
}
330
2A
100
AcDbVisualStyle
  2
Basic
 70
     7
177
     3
291
     1
 70
    58
 90
        1
176
     1
 90
        0
176
     1
 90
        1
176
     1
 90
        0
176
     1
 40
0.6
176
     1
 40
30.0
176
     1
 62
     7
420
 16777215
176
     1
 90
        0
176
     1
 90
        4
176
     1
 62
     7
176
     1
 62
   257
176
     1
 90
        1
176
     1
 90
        1
176
     1
 40
1.0
176
     1
 90
        8
176
     1
 62
     7
176
     1
 40
1.0
176
     1
 90
        1
176
     1
 90
        6
176
     1
 90
        2
176
     1
 62
     7
176
     1
 90
        5
176
     1
 90
        0
176
     1
 90
        0
176
     1
290
     0
176
     1
 90
        1
176
     1
 40
0.0
176
     1
 90
        0
176
     1
290
     0
176
     1
290
     1
176
     1
290
     1
176
     1
290
     0
176
     1
290
     0
176
     1
290
     0
176
     1
290
     0
176
     1
290
     0
176
     1
290
     0
176
     1
 90
       50
176
     1
 40
0.0
176
     1
 40
1.0
176
     1
 90
        0
176
     1
 62
    18
420
        0
176
     1
 90
       50
176
     1
 90
        3
176
     1
 62
     5
420
      255
176
     1
290
     0
176
     1
 90
       50
176
     1
 90
       50
176
     1
 90
       50
176
     1
290
     0
176
     1
 90
       50
176
     1
 62
   256
176
     0
 40
1.0
176
     0
 90
        2
176
     1
  1
strokes_ogs.tif
176
     1
290
     0
176
     1
 40
1.0
176
     1
 40
1.0
176
     1
  0
VISUALSTYLE
  5
36
102
{ACAD_REACTORS
330
2A
102
}
330
2A
100
AcDbVisualStyle
  2
Brighten
 70
    12
177
     3
291
     1
 70
    58
 90
        2
176
     1
 90
        2
176
     1
 90
        0
176
     1
 90
        0
176
     1
 40
0.6
176
     1
 40
30.0
176
     1
 62
     7
420
 16777215
176
     1
 90
        1
176
     1
 90
        4
176
     1
 62
     7
176
     1
 62
   257
176
     1
 90
        1
176
     1
 90
        1
176
     1
 40
1.0
176
     1
 90
        8
176
     1
 62
     7
176
     1
 40
1.0
176
     1
 90
        1
176
     1
 90
        6
176
     1
 90
        2
176
     1
 62
     7
176
     1
 90
        5
176
     1
 90
        0
176
     1
 90
        0
176
     1
290
     0
176
     1
 90
        1
176
     1
 40
50.0
176
     1
 90
        0
176
     1
290
     0
176
     1
290
     1
176
     1
290
     1
176
     1
290
     0
176
     1
290
     0
176
     1
290
     0
176
     1
290
     0
176
     1
290
     0
176
     1
290
     0
176
     1
 90
       50
176
     1
 40
0.0
176
     1
 40
1.0
176
     1
 90
        0
176
     1
 62
    18
420
        0
176
     1
 90
       50
176
     1
 90
        3
176
     1
 62
     5
420
      255
176
     1
290
     0
176
     1
 90
       50
176
     1
 90
       50
176
     1
 90
       50
176
     1
290
     0
176
     1
 90
       50
176
     1
 62
   256
176
     0
 40
1.0
176
     0
 90
        2
176
     1
  1
strokes_ogs.tif
176
     1
290
     0
176
     1
 40
1.0
176
     1
 40
1.0
176
     1
  0
VISUALSTYLE
  5
3A
102
{ACAD_REACTORS
330
2A
102
}
330
2A
100
AcDbVisualStyle
  2
ColorChange
 70
    16
177
     3
291
     1
 70
    58
 90
        2
176
     1
 90
        2
176
     1
 90
        3
176
     1
 90
        0
176
     1
 40
0.6
176
     1
 40
30.0
176
     1
 62
     8
420
  8421504
176
     1
 90
        1
176
     1
 90
        4
176
     1
 62
     7
176
     1
 62
   257
176
     1
 90
        1
176
     1
 90
        1
176
     1
 40
1.0
176
     1
 90
        8
176
     1
 62
     8
420
  8421504
176
     1
 40
1.0
176
     1
 90
        1
176
     1
 90
        6
176
     1
 90
        2
176
     1
 62
     7
176
     1
 90
        5
176
     1
 90
        0
176
     1
 90
        0
176
     1
290
     0
176
     1
 90
        1
176
     1
 40
0.0
176
     1
 90
        0
176
     1
290
     0
176
     1
290
     1
176
     1
290
     1
176
     1
290
     0
176
     1
290
     0
176
     1
290
     0
176
     1
290
     0
176
     1
290
     0
176
     1
290
     0
176
     1
 90
       50
176
     1
 40
0.0
176
     1
 40
1.0
176
     1
 90
        0
176
     1
 62
    18
420
        0
176
     1
 90
       50
176
     1
 90
        3
176
     1
 62
     5
420
      255
176
     1
290
     0
176
     1
 90
       50
176
     1
 90
       50
176
     1
 90
       50
176
     1
290
     0
176
     1
 90
       50
176
     1
 62
   256
176
     0
 40
1.0
176
     0
 90
        2
176
     1
  1
strokes_ogs.tif
176
     1
290
     0
176
     1
 40
1.0
176
     1
 40
1.0
176
     1
  0
VISUALSTYLE
  5
34
102
{ACAD_REACTORS
330
2A
102
}
330
2A
100
AcDbVisualStyle
  2
Conceptual
 70
     9
177
     3
291
     0
 70
    58
 90
        3
176
     1
 90
        2
176
     1
 90
        0
176
     1
 90
        0
176
     1
 40
0.6
176
     1
 40
30.0
176
     1
 62
     7
420
 16777215
176
     1
 90
        2
176
     1
 90
        2
176
     1
 62
     7
176
     1
 62
   257
176
     1
 90
        1
176
     1
 90
        1
176
     1
 40
179.0
176
     1
 90
        8
176
     1
 62
     7
176
     1
 40
1.0
176
     1
 90
        1
176
     1
 90
        6
176
     1
 90
        2
176
     1
 62
     7
176
     1
 90
        3
176
     1
 90
        0
176
     1
 90
        0
176
     1
290
     0
176
     1
 90
        1
176
     1
 40
0.0
176
     1
 90
        0
176
     1
290
     0
176
     1
290
     1
176
     1
290
     1
176
     1
290
     0
176
     1
290
     0
176
     1
290
     0
176
     1
290
     0
176
     1
290
     0
176
     1
290
     0
176
     1
 90
       50
176
     1
 40
0.0
176
     1
 40
1.0
176
     1
 90
        0
176
     1
 62
    18
420
        0
176
     1
 90
       50
176
     1
 90
        3
176
     1
 62
     5
420
      255
176
     1
290
     0
176
     1
 90
       50
176
     1
 90
       50
176
     1
 90
       50
176
     1
290
     0
176
     1
 90
       50
176
     1
 62
   256
176
     0
 40
1.0
176
     0
 90
        2
176
     1
  1
strokes_ogs.tif
176
     1
290
     0
176
     1
 40
1.0
176
     1
 40
1.0
176
     1
  0
VISUALSTYLE
  5
35
102
{ACAD_REACTORS
330
2A
102
}
330
2A
100
AcDbVisualStyle
  2
Dim
 70
    11
177
     3
291
     1
 70
    58
 90
        2
176
     1
 90
        2
176
     1
 90
        0
176
     1
 90
        0
176
     1
 40
0.6
176
     1
 40
30.0
176
     1
 62
     7
420
 16777215
176
     1
 90
        1
176
     1
 90
        4
176
     1
 62
     7
176
     1
 62
   257
176
     1
 90
        1
176
     1
 90
        1
176
     1
 40
1.0
176
     1
 90
        8
176
     1
 62
     7
176
     1
 40
1.0
176
     1
 90
        1
176
     1
 90
        6
176
     1
 90
        2
176
     1
 62
     7
176
     1
 90
        5
176
     1
 90
        0
176
     1
 90
        0
176
     1
290
     0
176
     1
 90
        1
176
     1
 40
-50.0
176
     1
 90
        0
176
     1
290
     0
176
     1
290
     1
176
     1
290
     1
176
     1
290
     0
176
     1
290
     0
176
     1
290
     0
176
     1
290
     0
176
     1
290
     0
176
     1
290
     0
176
     1
 90
       50
176
     1
 40
0.0
176
     1
 40
1.0
176
     1
 90
        0
176
     1
 62
    18
420
        0
176
     1
 90
       50
176
     1
 90
        3
176
     1
 62
     5
420
      255
176
     1
290
     0
176
     1
 90
       50
176
     1
 90
       50
176
     1
 90
       50
176
     1
290
     0
176
     1
 90
       50
176
     1
 62
   256
176
     0
 40
1.0
176
     0
 90
        2
176
     1
  1
strokes_ogs.tif
176
     1
290
     0
176
     1
 40
1.0
176
     1
 40
1.0
176
     1
  0
VISUALSTYLE
  5
3D
102
{ACAD_REACTORS
330
2A
102
}
330
2A
100
AcDbVisualStyle
  2
EdgeColorOff
 70
    22
177
     3
291
     1
 70
    58
 90
        2
176
     0
 90
        2
176
     0
 90
        0
176
     0
 90
        0
176
     0
 40
0.6
176
     0
 40
30.0
176
     0
 62
     7
420
 16777215
176
     0
 90
        1
176
     0
 90
        4
176
     0
 62
     7
176
     0
 62
   257
176
     0
 90
        1
176
     0
 90
        1
176
     0
 40
1.0
176
     0
 90
        8
176
     2
 62
     7
176
     0
 40
1.0
176
     0
 90
        1
176
     0
 90
        6
176
     0
 90
        2
176
     0
 62
     7
176
     0
 90
        5
176
     0
 90
        0
176
     0
 90
        0
176
     0
290
     0
176
     0
 90
        1
176
     0
 40
0.0
176
     0
 90
        0
176
     0
290
     0
176
     0
290
     1
176
     0
290
     1
176
     0
290
     0
176
     0
290
     0
176
     0
290
     0
176
     0
290
     0
176
     0
290
     0
176
     0
290
     0
176
     0
 90
       50
176
     0
 40
0.0
176
     0
 40
1.0
176
     0
 90
        0
176
     0
 62
    18
420
        0
176
     0
 90
       50
176
     0
 90
        3
176
     0
 62
     5
420
      255
176
     0
290
     0
176
     0
 90
       50
176
     0
 90
       50
176
     0
 90
       50
176
     0
290
     0
176
     0
 90
       50
176
     0
 62
   256
176
     0
 40
1.0
176
     0
 90
        2
176
     0
  1
strokes_ogs.tif
176
     0
290
     0
176
     0
 40
1.0
176
     0
 40
1.0
176
     0
  0
VISUALSTYLE
  5
39
102
{ACAD_REACTORS
330
2A
102
}
330
2A
100
AcDbVisualStyle
  2
Facepattern
 70
    15
177
     3
291
     1
 70
    58
 90
        2
176
     1
 90
        2
176
     1
 90
        0
176
     1
 90
        0
176
     1
 40
0.6
176
     1
 40
30.0
176
     1
 62
     7
420
 16777215
176
     1
 90
        1
176
     1
 90
        4
176
     1
 62
     7
176
     1
 62
   257
176
     1
 90
        1
176
     1
 90
        1
176
     1
 40
1.0
176
     1
 90
        8
176
     1
 62
     7
176
     1
 40
1.0
176
     1
 90
        1
176
     1
 90
        6
176
     1
 90
        2
176
     1
 62
     7
176
     1
 90
        5
176
     1
 90
        0
176
     1
 90
        0
176
     1
290
     0
176
     1
 90
        1
176
     1
 40
0.0
176
     1
 90
        0
176
     1
290
     0
176
     1
290
     1
176
     1
290
     1
176
     1
290
     0
176
     1
290
     0
176
     1
290
     0
176
     1
290
     0
176
     1
290
     0
176
     1
290
     0
176
     1
 90
       50
176
     1
 40
0.0
176
     1
 40
1.0
176
     1
 90
        0
176
     1
 62
    18
420
        0
176
     1
 90
       50
176
     1
 90
        3
176
     1
 62
     5
420
      255
176
     1
290
     0
176
     1
 90
       50
176
     1
 90
       50
176
     1
 90
       50
176
     1
290
     0
176
     1
 90
       50
176
     1
 62
   256
176
     0
 40
1.0
176
     0
 90
        2
176
     1
  1
strokes_ogs.tif
176
     1
290
     0
176
     1
 40
1.0
176
     1
 40
1.0
176
     1
  0
VISUALSTYLE
  5
2B
102
{ACAD_REACTORS
330
2A
102
}
330
2A
100
AcDbVisualStyle
  2
Flat
 70
     0
177
     3
291
     1
 70
    58
 90
        2
176
     1
 90
        1
176
     1
 90
        1
176
     1
 90
        2
176
     1
 40
0.6
176
     1
 40
30.0
176
     1
 62
     7
420
 16777215
176
     1
 90
        0
176
     1
 90
        0
176
     1
 62
     7
176
     1
 62
   257
176
     1
 90
        1
176
     1
 90
        1
176
     1
 40
1.0
176
     1
 90
        8
176
     1
 62
     7
176
     1
 40
1.0
176
     1
 90
        1
176
     1
 90
        6
176
     1
 90
        2
176
     1
 62
     7
176
     1
 90
        5
176
     1
 90
        0
176
     1
 90
        0
176
     1
290
     0
176
     1
 90
       13
176
     1
 40
0.0
176
     1
 90
        0
176
     1
290
     0
176
     1
290
     1
176
     1
290
     1
176
     1
290
     0
176
     1
290
     0
176
     1
290
     0
176
     1
290
     0
176
     1
290
     0
176
     1
290
     0
176
     1
 90
       50
176
     1
 40
0.0
176
     1
 40
1.0
176
     1
 90
        0
176
     1
 62
    18
420
        0
176
     1
 90
       50
176
     1
 90
        3
176
     1
 62
     5
420
      255
176
     1
290
     0
176
     1
 90
       50
176
     1
 90
       50
176
     1
 90
       50
176
     1
290
     0
176
     1
 90
       50
176
     1
 62
   256
176
     0
 40
1.0
176
     0
 90
        2
176
     1
  1
strokes_ogs.tif
176
     1
290
     0
176
     1
 40
1.0
176
     1
 40
1.0
176
     1
  0
VISUALSTYLE
  5
2C
102
{ACAD_REACTORS
330
2A
102
}
330
2A
100
AcDbVisualStyle
  2
FlatWithEdges
 70
     1
177
     3
291
     1
 70
    58
 90
        2
176
     1
 90
        1
176
     1
 90
        1
176
     1
 90
        2
176
     1
 40
0.6
176
     1
 40
30.0
176
     1
 62
     7
420
 16777215
176
     1
 90
        1
176
     1
 90
        0
176
     1
 62
     7
176
     1
 62
   257
176
     1
 90
        1
176
     1
 90
        1
176
     1
 40
1.0
176
     1
 90
        0
176
     1
 62
   257
176
     1
 40
1.0
176
     1
 90
        1
176
     1
 90
        6
176
     1
 90
        2
176
     1
 62
     7
176
     1
 90
        5
176
     1
 90
        0
176
     1
 90
        0
176
     1
290
     0
176
     1
 90
       13
176
     1
 40
0.0
176
     1
 90
        0
176
     1
290
     0
176
     1
290
     1
176
     1
290
     1
176
     1
290
     0
176
     1
290
     0
176
     1
290
     0
176
     1
290
     0
176
     1
290
     0
176
     1
290
     0
176
     1
 90
       50
176
     1
 40
0.0
176
     1
 40
1.0
176
     1
 90
        0
176
     1
 62
    18
420
        0
176
     1
 90
       50
176
     1
 90
        3
176
     1
 62
     5
420
      255
176
     1
290
     0
176
     1
 90
       50
176
     1
 90
       50
176
     1
 90
       50
176
     1
290
     0
176
     1
 90
       50
176
     1
 62
   256
176
     0
 40
1.0
176
     0
 90
        2
176
     1
  1
strokes_ogs.tif
176
     1
290
     0
176
     1
 40
1.0
176
     1
 40
1.0
176
     1
  0
VISUALSTYLE
  5
2D
102
{ACAD_REACTORS
330
2A
102
}
330
2A
100
AcDbVisualStyle
  2
Gouraud
 70
     2
177
     3
291
     1
 70
    58
 90
        2
176
     1
 90
        2
176
     1
 90
        1
176
     1
 90
        2
176
     1
 40
0.6
176
     1
 40
30.0
176
     1
 62
     7
420
 16777215
176
     1
 90
        0
176
     1
 90
        0
176
     1
 62
     7
176
     1
 62
   257
176
     1
 90
        1
176
     1
 90
        1
176
     1
 40
1.0
176
     1
 90
        0
176
     1
 62
     7
176
     1
 40
1.0
176
     1
 90
        1
176
     1
 90
        6
176
     1
 90
        2
176
     1
 62
     7
176
     1
 90
        5
176
     1
 90
        0
176
     1
 90
        0
176
     1
290
     0
176
     1
 90
       13
176
     1
 40
0.0
176
     1
 90
        0
176
     1
290
     0
176
     1
290
     1
176
     1
290
     1
176
     1
290
     0
176
     1
290
     0
176
     1
290
     0
176
     1
290
     0
176
     1
290
     0
176
     1
290
     0
176
     1
 90
       50
176
     1
 40
0.0
176
     1
 40
1.0
176
     1
 90
        0
176
     1
 62
    18
420
        0
176
     1
 90
       50
176
     1
 90
        3
176
     1
 62
     5
420
      255
176
     1
290
     0
176
     1
 90
       50
176
     1
 90
       50
176
     1
 90
       50
176
     1
290
     0
176
     1
 90
       50
176
     1
 62
   256
176
     0
 40
1.0
176
     0
 90
        2
176
     1
  1
strokes_ogs.tif
176
     1
290
     0
176
     1
 40
1.0
176
     1
 40
1.0
176
     1
  0
VISUALSTYLE
  5
2E
102
{ACAD_REACTORS
330
2A
102
}
330
2A
100
AcDbVisualStyle
  2
GouraudWithEdges
 70
     3
177
     3
291
     1
 70
    58
 90
        2
176
     1
 90
        2
176
     1
 90
        1
176
     1
 90
        2
176
     1
 40
0.6
176
     1
 40
30.0
176
     1
 62
     7
420
 16777215
176
     1
 90
        1
176
     1
 90
        0
176
     1
 62
     7
176
     1
 62
   257
176
     1
 90
        1
176
     1
 90
        1
176
     1
 40
1.0
176
     1
 90
        0
176
     1
 62
   257
176
     1
 40
1.0
176
     1
 90
        1
176
     1
 90
        6
176
     1
 90
        2
176
     1
 62
     7
176
     1
 90
        5
176
     1
 90
        0
176
     1
 90
        0
176
     1
290
     0
176
     1
 90
       13
176
     1
 40
0.0
176
     1
 90
        0
176
     1
290
     0
176
     1
290
     1
176
     1
290
     1
176
     1
290
     0
176
     1
290
     0
176
     1
290
     0
176
     1
290
     0
176
     1
290
     0
176
     1
290
     0
176
     1
 90
       50
176
     1
 40
0.0
176
     1
 40
1.0
176
     1
 90
        0
176
     1
 62
    18
420
        0
176
     1
 90
       50
176
     1
 90
        3
176
     1
 62
     5
420
      255
176
     1
290
     0
176
     1
 90
       50
176
     1
 90
       50
176
     1
 90
       50
176
     1
290
     0
176
     1
 90
       50
176
     1
 62
   256
176
     0
 40
1.0
176
     0
 90
        2
176
     1
  1
strokes_ogs.tif
176
     1
290
     0
176
     1
 40
1.0
176
     1
 40
1.0
176
     1
  0
VISUALSTYLE
  5
31
102
{ACAD_REACTORS
330
2A
102
}
330
2A
100
AcDbVisualStyle
  2
Hidden
 70
     6
177
     3
291
     0
 70
    58
 90
        1
176
     1
 90
        2
176
     1
 90
        2
176
     1
 90
        0
176
     1
 40
0.6
176
     1
 40
30.0
176
     1
 62
     7
420
 16777215
176
     1
 90
        2
176
     1
 90
        2
176
     1
 62
     7
176
     1
 62
   257
176
     1
 90
        2
176
     1
 90
        1
176
     1
 40
40.0
176
     1
 90
        0
176
     1
 62
   257
176
     1
 40
1.0
176
     1
 90
        1
176
     1
 90
        6
176
     1
 90
        2
176
     1
 62
     7
176
     1
 90
        3
176
     1
 90
        0
176
     1
 90
        0
176
     1
290
     0
176
     1
 90
        1
176
     1
 40
0.0
176
     1
 90
        0
176
     1
290
     0
176
     1
290
     1
176
     1
290
     1
176
     1
290
     0
176
     1
290
     0
176
     1
290
     0
176
     1
290
     0
176
     1
290
     0
176
     1
290
     0
176
     1
 90
       50
176
     1
 40
0.0
176
     1
 40
1.0
176
     1
 90
        0
176
     1
 62
    18
420
        0
176
     1
 90
       50
176
     1
 90
        3
176
     1
 62
     5
420
      255
176
     1
290
     0
176
     1
 90
       50
176
     1
 90
       50
176
     1
 90
       50
176
     1
290
     0
176
     1
 90
       50
176
     1
 62
   256
176
     0
 40
1.0
176
     0
 90
        2
176
     1
  1
strokes_ogs.tif
176
     1
290
     0
176
     1
 40
1.0
176
     1
 40
1.0
176
     1
  0
VISUALSTYLE
  5
3B
102
{ACAD_REACTORS
330
2A
102
}
330
2A
100
AcDbVisualStyle
  2
JitterOff
 70
    20
177
     3
291
     1
 70
    58
 90
        2
176
     0
 90
        2
176
     0
 90
        0
176
     0
 90
        0
176
     0
 40
0.6
176
     0
 40
30.0
176
     0
 62
     7
420
 16777215
176
     0
 90
        1
176
     0
 90
        4
176
     0
 62
     7
176
     0
 62
   257
176
     0
 90
        1
176
     0
 90
        1
176
     0
 40
1.0
176
     0
 90
       10
176
     2
 62
     7
176
     0
 40
1.0
176
     0
 90
        1
176
     0
 90
        6
176
     0
 90
        2
176
     0
 62
     7
176
     0
 90
        5
176
     0
 90
        0
176
     0
 90
        0
176
     0
290
     0
176
     0
 90
        1
176
     0
 40
0.0
176
     0
 90
        0
176
     0
290
     0
176
     0
290
     1
176
     0
290
     1
176
     0
290
     0
176
     0
290
     0
176
     0
290
     0
176
     0
290
     0
176
     0
290
     0
176
     0
290
     0
176
     0
 90
       50
176
     0
 40
0.0
176
     0
 40
1.0
176
     0
 90
        0
176
     0
 62
    18
420
        0
176
     0
 90
       50
176
     0
 90
        3
176
     0
 62
     5
420
      255
176
     0
290
     0
176
     0
 90
       50
176
     0
 90
       50
176
     0
 90
       50
176
     0
290
     0
176
     0
 90
       50
176
     0
 62
   256
176
     0
 40
1.0
176
     0
 90
        2
176
     0
  1
strokes_ogs.tif
176
     0
290
     0
176
     0
 40
1.0
176
     0
 40
1.0
176
     0
  0
VISUALSTYLE
  5
38
102
{ACAD_REACTORS
330
2A
102
}
330
2A
100
AcDbVisualStyle
  2
Linepattern
 70
    14
177
     3
291
     1
 70
    58
 90
        2
176
     1
 90
        2
176
     1
 90
        0
176
     1
 90
        0
176
     1
 40
0.6
176
     1
 40
30.0
176
     1
 62
     7
420
 16777215
176
     1
 90
        1
176
     1
 90
        4
176
     1
 62
     7
176
     1
 62
   257
176
     1
 90
        7
176
     1
 90
        7
176
     1
 40
1.0
176
     1
 90
        8
176
     1
 62
     7
176
     1
 40
1.0
176
     1
 90
        1
176
     1
 90
        6
176
     1
 90
        2
176
     1
 62
     7
176
     1
 90
        5
176
     1
 90
        0
176
     1
 90
        0
176
     1
290
     0
176
     1
 90
        1
176
     1
 40
0.0
176
     1
 90
        0
176
     1
290
     0
176
     1
290
     1
176
     1
290
     1
176
     1
290
     0
176
     1
290
     0
176
     1
290
     0
176
     1
290
     0
176
     1
290
     0
176
     1
290
     0
176
     1
 90
       50
176
     1
 40
0.0
176
     1
 40
1.0
176
     1
 90
        0
176
     1
 62
    18
420
        0
176
     1
 90
       50
176
     1
 90
        3
176
     1
 62
     5
420
      255
176
     1
290
     0
176
     1
 90
       50
176
     1
 90
       50
176
     1
 90
       50
176
     1
290
     0
176
     1
 90
       50
176
     1
 62
   256
176
     0
 40
1.0
176
     0
 90
        2
176
     1
  1
strokes_ogs.tif
176
     1
290
     0
176
     1
 40
1.0
176
     1
 40
1.0
176
     1
  0
VISUALSTYLE
  5
3C
102
{ACAD_REACTORS
330
2A
102
}
330
2A
100
AcDbVisualStyle
  2
OverhangOff
 70
    21
177
     3
291
     1
 70
    58
 90
        2
176
     0
 90
        2
176
     0
 90
        0
176
     0
 90
        0
176
     0
 40
0.6
176
     0
 40
30.0
176
     0
 62
     7
420
 16777215
176
     0
 90
        1
176
     0
 90
        4
176
     0
 62
     7
176
     0
 62
   257
176
     0
 90
        1
176
     0
 90
        1
176
     0
 40
1.0
176
     0
 90
        9
176
     2
 62
     7
176
     0
 40
1.0
176
     0
 90
        1
176
     0
 90
        6
176
     0
 90
        2
176
     0
 62
     7
176
     0
 90
        5
176
     0
 90
        0
176
     0
 90
        0
176
     0
290
     0
176
     0
 90
        1
176
     0
 40
0.0
176
     0
 90
        0
176
     0
290
     0
176
     0
290
     1
176
     0
290
     1
176
     0
290
     0
176
     0
290
     0
176
     0
290
     0
176
     0
290
     0
176
     0
290
     0
176
     0
290
     0
176
     0
 90
       50
176
     0
 40
0.0
176
     0
 40
1.0
176
     0
 90
        0
176
     0
 62
    18
420
        0
176
     0
 90
       50
176
     0
 90
        3
176
     0
 62
     5
420
      255
176
     0
290
     0
176
     0
 90
       50
176
     0
 90
       50
176
     0
 90
       50
176
     0
290
     0
176
     0
 90
       50
176
     0
 62
   256
176
     0
 40
1.0
176
     0
 90
        2
176
     0
  1
strokes_ogs.tif
176
     0
290
     0
176
     0
 40
1.0
176
     0
 40
1.0
176
     0
  0
VISUALSTYLE
  5
33
102
{ACAD_REACTORS
330
2A
102
}
330
2A
100
AcDbVisualStyle
  2
Realistic
 70
     8
177
     3
291
     0
 70
    58
 90
        2
176
     1
 90
        3
176
     1
 90
        0
176
     1
 90
        2
176
     1
 40
0.6
176
     1
 40
30.0
176
     1
 62
     7
420
 16777215
176
     1
 90
        0
176
     1
 90
        0
176
     1
 62
     7
176
     1
 62
   257
176
     1
 90
        1
176
     1
 90
        1
176
     1
 40
1.0
176
     1
 90
        8
176
     1
 62
   257
176
     1
 40
1.0
176
     1
 90
        1
176
     1
 90
        6
176
     1
 90
        2
176
     1
 62
     7
176
     1
 90
        3
176
     1
 90
        0
176
     1
 90
        0
176
     1
290
     0
176
     1
 90
       13
176
     1
 40
0.0
176
     1
 90
        0
176
     1
290
     0
176
     1
290
     1
176
     1
290
     1
176
     1
290
     0
176
     1
290
     0
176
     1
290
     0
176
     1
290
     0
176
     1
290
     0
176
     1
290
     0
176
     1
 90
       50
176
     1
 40
0.0
176
     1
 40
1.0
176
     1
 90
        0
176
     1
 62
    18
420
        0
176
     1
 90
       50
176
     1
 90
        3
176
     1
 62
     5
420
      255
176
     1
290
     0
176
     1
 90
       50
176
     1
 90
       50
176
     1
 90
       50
176
     1
290
     0
176
     1
 90
       50
176
     1
 62
   256
176
     0
 40
1.0
176
     0
 90
        2
176
     1
  1
strokes_ogs.tif
176
     1
290
     0
176
     1
 40
1.0
176
     1
 40
1.0
176
     1
  0
VISUALSTYLE
  5
42
102
{ACAD_REACTORS
330
2A
102
}
330
2A
100
AcDbVisualStyle
  2
Shaded
 70
    27
177
     3
291
     0
 70
    58
 90
        2
176
     1
 90
        2
176
     1
 90
        1
176
     1
 90
        2
176
     1
 40
0.6
176
     1
 40
30.0
176
     1
 62
     7
420
 16777215
176
     1
 90
        0
176
     1
 90
        4
176
     1
 62
     7
176
     1
 62
   257
176
     1
 90
        1
176
     1
 90
        1
176
     1
 40
1.0
176
     1
 90
        8
176
     1
 62
   257
176
     1
 40
1.0
176
     1
 90
        1
176
     1
 90
        6
176
     1
 90
        2
176
     1
 62
     8
420
  7895160
176
     1
 90
        3
176
     1
 90
        0
176
     1
 90
        0
176
     1
290
     0
176
     1
 90
        5
176
     1
 40
0.0
176
     1
 90
        0
176
     1
290
     0
176
     1
290
     1
176
     1
290
     1
176
     1
290
     0
176
     1
290
     0
176
     1
290
     0
176
     1
290
     0
176
     1
290
     0
176
     1
290
     0
176
     1
 90
       50
176
     1
 40
0.0
176
     1
 40
1.0
176
     1
 90
        0
176
     1
 62
    18
420
        0
176
     1
 90
       50
176
     1
 90
        3
176
     1
 62
     5
420
      255
176
     1
290
     0
176
     1
 90
       50
176
     1
 90
       50
176
     1
 90
       50
176
     1
290
     0
176
     1
 90
       50
176
     1
 62
   256
176
     0
 40
1.0
176
     0
 90
        2
176
     1
  1
strokes_ogs.tif
176
     1
290
     0
176
     1
 40
1.0
176
     1
 40
1.0
176
     1
  0
VISUALSTYLE
  5
41
102
{ACAD_REACTORS
330
2A
102
}
330
2A
100
AcDbVisualStyle
  2
Shaded with edges
 70
    26
177
     3
291
     0
 70
    58
 90
        2
176
     1
 90
        2
176
     1
 90
        1
176
     1
 90
        2
176
     1
 40
0.6
176
     1
 40
30.0
176
     1
 62
     7
420
 16777215
176
     1
 90
        1
176
     1
 90
       10
176
     1
 62
     7
176
     1
 62
   257
176
     1
 90
        2
176
     1
 90
        1
176
     1
 40
1.0
176
     1
 90
        8
176
     1
 62
   257
176
     1
 40
1.0
176
     1
 90
        1
176
     1
 90
        6
176
     1
 90
        2
176
     1
 62
     7
176
     1
 90
        3
176
     1
 90
        0
176
     1
 90
        0
176
     1
290
     0
176
     1
 90
        5
176
     1
 40
0.0
176
     1
 90
        0
176
     1
290
     0
176
     1
290
     1
176
     1
290
     1
176
     1
290
     0
176
     1
290
     0
176
     1
290
     0
176
     1
290
     0
176
     1
290
     0
176
     1
290
     0
176
     1
 90
       50
176
     1
 40
0.0
176
     1
 40
1.0
176
     1
 90
        0
176
     1
 62
    18
420
        0
176
     1
 90
       50
176
     1
 90
        3
176
     1
 62
     5
420
      255
176
     1
290
     0
176
     1
 90
       50
176
     1
 90
       50
176
     1
 90
       50
176
     1
290
     0
176
     1
 90
       50
176
     1
 62
   256
176
     0
 40
1.0
176
     0
 90
        2
176
     1
  1
strokes_ogs.tif
176
     1
290
     0
176
     1
 40
1.0
176
     1
 40
1.0
176
     1
  0
VISUALSTYLE
  5
3E
102
{ACAD_REACTORS
330
2A
102
}
330
2A
100
AcDbVisualStyle
  2
Shades of Gray
 70
    23
177
     3
291
     0
 70
    58
 90
        2
176
     1
 90
        2
176
     1
 90
        3
176
     1
 90
        0
176
     1
 40
0.6
176
     1
 40
30.0
176
     1
 62
     7
420
 16777215
176
     1
 90
        2
176
     1
 90
        2
176
     1
 62
     7
176
     1
 62
     7
176
     1
 90
        1
176
     1
 90
        1
176
     1
 40
40.0
176
     1
 90
        8
176
     1
 62
     7
176
     1
 40
1.0
176
     1
 90
        1
176
     1
 90
        6
176
     1
 90
        2
176
     1
 62
     7
176
     1
 90
        3
176
     1
 90
        0
176
     1
 90
        0
176
     1
290
     0
176
     1
 90
        1
176
     1
 40
0.0
176
     1
 90
        0
176
     1
290
     0
176
     1
290
     1
176
     1
290
     1
176
     1
290
     0
176
     1
290
     0
176
     1
290
     0
176
     1
290
     0
176
     1
290
     0
176
     1
290
     0
176
     1
 90
       50
176
     1
 40
0.0
176
     1
 40
1.0
176
     1
 90
        0
176
     1
 62
    18
420
        0
176
     1
 90
       50
176
     1
 90
        3
176
     1
 62
     5
420
      255
176
     1
290
     0
176
     1
 90
       50
176
     1
 90
       50
176
     1
 90
       50
176
     1
290
     0
176
     1
 90
       50
176
     1
 62
   256
176
     0
 40
1.0
176
     0
 90
        2
176
     1
  1
strokes_ogs.tif
176
     1
290
     0
176
     1
 40
1.0
176
     1
 40
1.0
176
     1
  0
VISUALSTYLE
  5
3F
102
{ACAD_REACTORS
330
2A
102
}
330
2A
100
AcDbVisualStyle
  2
Sketchy
 70
    24
177
     3
291
     0
 70
    58
 90
        1
176
     1
 90
        2
176
     1
 90
        2
176
     1
 90
        0
176
     1
 40
0.6
176
     1
 40
30.0
176
     1
 62
     7
420
 16777215
176
     1
 90
        2
176
     1
 90
        2
176
     1
 62
     7
176
     1
 62
     7
176
     1
 90
        1
176
     1
 90
        1
176
     1
 40
40.0
176
     1
 90
       11
176
     1
 62
     7
176
     1
 40
1.0
176
     1
 90
        1
176
     1
 90
        6
176
     1
 90
        2
176
     1
 62
     7
176
     1
 90
        6
176
     1
 90
        0
176
     1
 90
        0
176
     1
290
     0
176
     1
 90
        1
176
     1
 40
0.0
176
     1
 90
        0
176
     1
290
     0
176
     1
290
     1
176
     1
290
     1
176
     1
290
     0
176
     1
290
     0
176
     1
290
     0
176
     1
290
     0
176
     1
290
     0
176
     1
290
     0
176
     1
 90
       50
176
     1
 40
0.0
176
     1
 40
1.0
176
     1
 90
        0
176
     1
 62
    18
420
        0
176
     1
 90
       50
176
     1
 90
        3
176
     1
 62
     5
420
      255
176
     1
290
     0
176
     1
 90
       50
176
     1
 90
       50
176
     1
 90
       50
176
     1
290
     0
176
     1
 90
       50
176
     1
 62
   256
176
     0
 40
1.0
176
     0
 90
        2
176
     1
  1
strokes_ogs.tif
176
     1
290
     0
176
     1
 40
1.0
176
     1
 40
1.0
176
     1
  0
VISUALSTYLE
  5
37
102
{ACAD_REACTORS
330
2A
102
}
330
2A
100
AcDbVisualStyle
  2
Thicken
 70
    13
177
     3
291
     1
 70
    58
 90
        2
176
     1
 90
        2
176
     1
 90
        0
176
     1
 90
        0
176
     1
 40
0.6
176
     1
 40
30.0
176
     1
 62
     7
420
 16777215
176
     1
 90
        1
176
     1
 90
        4
176
     1
 62
     7
176
     1
 62
   257
176
     1
 90
        1
176
     1
 90
        1
176
     1
 40
1.0
176
     1
 90
       12
176
     1
 62
     7
176
     1
 40
1.0
176
     1
 90
        1
176
     1
 90
        6
176
     1
 90
        2
176
     1
 62
     7
176
     1
 90
        5
176
     1
 90
        0
176
     1
 90
        0
176
     1
290
     0
176
     1
 90
        1
176
     1
 40
0.0
176
     1
 90
        0
176
     1
290
     0
176
     1
290
     1
176
     1
290
     1
176
     1
290
     0
176
     1
290
     0
176
     1
290
     0
176
     1
290
     0
176
     1
290
     0
176
     1
290
     0
176
     1
 90
       50
176
     1
 40
0.0
176
     1
 40
1.0
176
     1
 90
        0
176
     1
 62
    18
420
        0
176
     1
 90
       50
176
     1
 90
        3
176
     1
 62
     5
420
      255
176
     1
290
     0
176
     1
 90
       50
176
     1
 90
       50
176
     1
 90
       50
176
     1
290
     0
176
     1
 90
       50
176
     1
 62
   256
176
     0
 40
1.0
176
     0
 90
        2
176
     1
  1
strokes_ogs.tif
176
     1
290
     0
176
     1
 40
1.0
176
     1
 40
1.0
176
     1
  0
VISUALSTYLE
  5
30
102
{ACAD_REACTORS
330
2A
102
}
330
2A
100
AcDbVisualStyle
  2
Wireframe
 70
     5
177
     3
291
     0
 70
    58
 90
        0
176
     1
 90
        2
176
     1
 90
        0
176
     1
 90
        0
176
     1
 40
0.6
176
     1
 40
30.0
176
     1
 62
     7
420
 16777215
176
     1
 90
        1
176
     1
 90
        4
176
     1
 62
     7
176
     1
 62
   257
176
     1
 90
        1
176
     1
 90
        1
176
     1
 40
1.0
176
     1
 90
        0
176
     1
 62
   257
176
     1
 40
1.0
176
     1
 90
        1
176
     1
 90
        6
176
     1
 90
        2
176
     1
 62
     7
176
     1
 90
        3
176
     1
 90
        0
176
     1
 90
        0
176
     1
290
     0
176
     1
 90
        1
176
     1
 40
0.0
176
     1
 90
        0
176
     1
290
     0
176
     1
290
     1
176
     1
290
     1
176
     1
290
     0
176
     1
290
     0
176
     1
290
     0
176
     1
290
     0
176
     1
290
     0
176
     1
290
     0
176
     1
 90
       50
176
     1
 40
0.0
176
     1
 40
1.0
176
     1
 90
        0
176
     1
 62
    18
420
        0
176
     1
 90
       50
176
     1
 90
        3
176
     1
 62
     5
420
      255
176
     1
290
     0
176
     1
 90
       50
176
     1
 90
       50
176
     1
 90
       50
176
     1
290
     0
176
     1
 90
       50
176
     1
 62
   256
176
     0
 40
1.0
176
     0
 90
        2
176
     1
  1
strokes_ogs.tif
176
     1
290
     0
176
     1
 40
1.0
176
     1
 40
1.0
176
     1
  0
VISUALSTYLE
  5
40
102
{ACAD_REACTORS
330
2A
102
}
330
2A
100
AcDbVisualStyle
  2
X-Ray
 70
    25
177
     3
291
     0
 70
    58
 90
        2
176
     1
 90
        2
176
     1
 90
        1
176
     1
 90
        1
176
     1
 40
0.5
176
     1
 40
30.0
176
     1
 62
     7
420
 16777215
176
     1
 90
        1
176
     1
 90
        0
176
     1
 62
     7
176
     1
 62
   257
176
     1
 90
        1
176
     1
 90
        1
176
     1
 40
1.0
176
     1
 90
        8
176
     1
 62
     7
176
     1
 40
1.0
176
     1
 90
        1
176
     1
 90
        6
176
     1
 90
        2
176
     1
 62
     7
176
     1
 90
        3
176
     1
 90
        0
176
     1
 90
        0
176
     1
290
     0
176
     1
 90
       13
176
     1
 40
0.0
176
     1
 90
        0
176
     1
290
     0
176
     1
290
     1
176
     1
290
     1
176
     1
290
     0
176
     1
290
     0
176
     1
290
     0
176
     1
290
     0
176
     1
290
     0
176
     1
290
     0
176
     1
 90
       50
176
     1
 40
0.0
176
     1
 40
1.0
176
     1
 90
        0
176
     1
 62
    18
420
        0
176
     1
 90
       50
176
     1
 90
        3
176
     1
 62
     5
420
      255
176
     1
290
     0
176
     1
 90
       50
176
     1
 90
       50
176
     1
 90
       50
176
     1
290
     0
176
     1
 90
       50
176
     1
 62
   256
176
     0
 40
1.0
176
     0
 90
        2
176
     1
  1
strokes_ogs.tif
176
     1
290
     0
176
     1
 40
1.0
176
     1
 40
1.0
176
     1
  0
DICTIONARYVAR
  5
19A
102
{ACAD_REACTORS
330
199
102
}
330
199
100
DictionaryVariables
280
     0
  1
1:1
  0
DICTIONARYVAR
  5
19F
102
{ACAD_REACTORS
330
199
102
}
330
199
100
DictionaryVariables
280
     0
  1
Standard
  0
DICTIONARYVAR
  5
19E
102
{ACAD_REACTORS
330
199
102
}
330
199
100
DictionaryVariables
280
     0
  1
Standard
  0
DICTIONARY
  5
19B
330
6A
100
AcDbDictionary
280
     1
281
     1
  3
ACAD_ROUNDTRIP_2008_TABLESTYLE_CELLSTYLEMAP
360
19C
  0
CELLSTYLEMAP
  5
19C
102
{ACAD_REACTORS
330
19B
102
}
330
19B
100
AcDbCellStyleMap
 90
        3
300
CELLSTYLE
  1
TABLEFORMAT_BEGIN
 90
        5
170
     1
 91
        0
 92
    32768
 62
   257
 93
        1
300
CONTENTFORMAT
  1
CONTENTFORMAT_BEGIN
 90
        0
 91
        0
 92
        4
 93
        0
300

 40
0.0
140
1.0
 94
        5
 62
     0
340
11
144
6.0
309
CONTENTFORMAT_END
171
     1
301
MARGIN
  1
CELLMARGIN_BEGIN
 40
1.5
 40
1.5
 40
1.5
 40
1.5
 40
1.5
 40
1.5
309
CELLMARGIN_END
 94
        6
 95
        1
302
GRIDFORMAT
  1
GRIDFORMAT_BEGIN
 90
        0
 91
        1
 62
     0
 92
       -2
340
14
 93
        0
 40
0.045
309
GRIDFORMAT_END
 95
        2
302
GRIDFORMAT
  1
GRIDFORMAT_BEGIN
 90
        0
 91
        1
 62
     0
 92
       -2
340
14
 93
        0
 40
0.045
309
GRIDFORMAT_END
 95
        4
302
GRIDFORMAT
  1
GRIDFORMAT_BEGIN
 90
        0
 91
        1
 62
     0
 92
       -2
340
14
 93
        0
 40
0.045
309
GRIDFORMAT_END
 95
        8
302
GRIDFORMAT
  1
GRIDFORMAT_BEGIN
 90
        0
 91
        1
 62
     0
 92
       -2
340
14
 93
        0
 40
0.045
309
GRIDFORMAT_END
 95
       16
302
GRIDFORMAT
  1
GRIDFORMAT_BEGIN
 90
        0
 91
        1
 62
     0
 92
       -2
340
14
 93
        0
 40
0.045
309
GRIDFORMAT_END
 95
       32
302
GRIDFORMAT
  1
GRIDFORMAT_BEGIN
 90
        0
 91
        1
 62
     0
 92
       -2
340
14
 93
        0
 40
0.045
309
GRIDFORMAT_END
309
TABLEFORMAT_END
  1
CELLSTYLE_BEGIN
 90
        1
 91
        1
300
_TITLE
309
CELLSTYLE_END
300
CELLSTYLE
  1
TABLEFORMAT_BEGIN
 90
        5
170
     1
 91
        0
 92
        0
 62
   257
 93
        1
300
CONTENTFORMAT
  1
CONTENTFORMAT_BEGIN
 90
        0
 91
        0
 92
        4
 93
        0
300

 40
0.0
140
1.0
 94
        5
 62
     0
340
11
144
4.5
309
CONTENTFORMAT_END
171
     1
301
MARGIN
  1
CELLMARGIN_BEGIN
 40
1.5
 40
1.5
 40
1.5
 40
1.5
 40
1.5
 40
1.5
309
CELLMARGIN_END
 94
        6
 95
        1
302
GRIDFORMAT
  1
GRIDFORMAT_BEGIN
 90
        0
 91
        1
 62
     0
 92
       -2
340
14
 93
        0
 40
0.045
309
GRIDFORMAT_END
 95
        2
302
GRIDFORMAT
  1
GRIDFORMAT_BEGIN
 90
        0
 91
        1
 62
     0
 92
       -2
340
14
 93
        0
 40
0.045
309
GRIDFORMAT_END
 95
        4
302
GRIDFORMAT
  1
GRIDFORMAT_BEGIN
 90
        0
 91
        1
 62
     0
 92
       -2
340
14
 93
        0
 40
0.045
309
GRIDFORMAT_END
 95
        8
302
GRIDFORMAT
  1
GRIDFORMAT_BEGIN
 90
        0
 91
        1
 62
     0
 92
       -2
340
14
 93
        0
 40
0.045
309
GRIDFORMAT_END
 95
       16
302
GRIDFORMAT
  1
GRIDFORMAT_BEGIN
 90
        0
 91
        1
 62
     0
 92
       -2
340
14
 93
        0
 40
0.045
309
GRIDFORMAT_END
 95
       32
302
GRIDFORMAT
  1
GRIDFORMAT_BEGIN
 90
        0
 91
        1
 62
     0
 92
       -2
340
14
 93
        0
 40
0.045
309
GRIDFORMAT_END
309
TABLEFORMAT_END
  1
CELLSTYLE_BEGIN
 90
        2
 91
        1
300
_HEADER
309
CELLSTYLE_END
300
CELLSTYLE
  1
TABLEFORMAT_BEGIN
 90
        5
170
     1
 91
        0
 92
        0
 62
   257
 93
        1
300
CONTENTFORMAT
  1
CONTENTFORMAT_BEGIN
 90
        0
 91
        0
 92
        4
 93
        0
300

 40
0.0
140
1.0
 94
        2
 62
     0
340
11
144
4.5
309
CONTENTFORMAT_END
171
     1
301
MARGIN
  1
CELLMARGIN_BEGIN
 40
1.5
 40
1.5
 40
1.5
 40
1.5
 40
1.5
 40
1.5
309
CELLMARGIN_END
 94
        6
 95
        1
302
GRIDFORMAT
  1
GRIDFORMAT_BEGIN
 90
        0
 91
        1
 62
     0
 92
       -2
340
14
 93
        0
 40
0.045
309
GRIDFORMAT_END
 95
        2
302
GRIDFORMAT
  1
GRIDFORMAT_BEGIN
 90
        0
 91
        1
 62
     0
 92
       -2
340
14
 93
        0
 40
0.045
309
GRIDFORMAT_END
 95
        4
302
GRIDFORMAT
  1
GRIDFORMAT_BEGIN
 90
        0
 91
        1
 62
     0
 92
       -2
340
14
 93
        0
 40
0.045
309
GRIDFORMAT_END
 95
        8
302
GRIDFORMAT
  1
GRIDFORMAT_BEGIN
 90
        0
 91
        1
 62
     0
 92
       -2
340
14
 93
        0
 40
0.045
309
GRIDFORMAT_END
 95
       16
302
GRIDFORMAT
  1
GRIDFORMAT_BEGIN
 90
        0
 91
        1
 62
     0
 92
       -2
340
14
 93
        0
 40
0.045
309
GRIDFORMAT_END
 95
       32
302
GRIDFORMAT
  1
GRIDFORMAT_BEGIN
 90
        0
 91
        1
 62
     0
 92
       -2
340
14
 93
        0
 40
0.045
309
GRIDFORMAT_END
309
TABLEFORMAT_END
  1
CELLSTYLE_BEGIN
 90
        3
 91
        2
300
_DATA
309
CELLSTYLE_END
  0
ENDSEC
  0
EOF