0
SECTION
  2
HEADER
  9
$ACADVER
  1
AC1027
  9
$ACADMAINTVER
 70
     8
  9
$DWGCODEPAGE
  3
ANSI_1252
  9
$REQUIREDVERSIONS
160
                 0
  9
$COMMENTS
  1
File was created by Cadenas
  9
$CUSTOMPROPERTYTAG
  1
NN
  9
$CUSTOMPROPERTY
  1
Set Screw Flange Cartridge Metric Bore
  9
$CUSTOMPROPERTYTAG
  1
NT
  9
$CUSTOMPROPERTY
  1
SC Piloted Flange Bearings -(Normal Duty)
  9
$CUSTOMPROPERTYTAG
  1
NB
  9
$CUSTOMPROPERTY
  1
125870
  9
$CUSTOMPROPERTYTAG
  1
NBSYN
  9
$CUSTOMPROPERTY
  1
$PN.
  9
$CUSTOMPROPERTYTAG
  1
LINA
  9
$CUSTOMPROPERTY
  1
125870
  9
$CUSTOMPROPERTYTAG
  1
SERIES
  9
$CUSTOMPROPERTY
  1
211
  9
$CUSTOMPROPERTYTAG
  1
SS
  9
$CUSTOMPROPERTY
  1
55
  9
$CUSTOMPROPERTYTAG
  1
PN
  9
$CUSTOMPROPERTY
  1
125870
  9
$CUSTOMPROPERTYTAG
  1
DESCRIPTION
  9
$CUSTOMPROPERTY
  1
FC-SC-55M
  9
$CUSTOMPROPERTYTAG
  1
WEIGHT
  9
$CUSTOMPROPERTY
  1
3.3
  9
$CUSTOMPROPERTYTAG
  1
A
  9
$CUSTOMPROPERTY
  1
56.4
  9
$CUSTOMPROPERTYTAG
  1
B
  9
$CUSTOMPROPERTY
  1
162.1
  9
$CUSTOMPROPERTYTAG
  1
C
  9
$CUSTOMPROPERTY
  1
59.7
  9
$CUSTOMPROPERTYTAG
  1
D
  9
$CUSTOMPROPERTY
  1
136.7
  9
$CUSTOMPROPERTYTAG
  1
E
  9
$CUSTOMPROPERTY
  1
16.0
  9
$CUSTOMPROPERTYTAG
  1
F
  9
$CUSTOMPROPERTY
  1
M12
  9
$CUSTOMPROPERTYTAG
  1
G
  9
$CUSTOMPROPERTY
  1
43.7
  9
$CUSTOMPROPERTYTAG
  1
H
  9
$CUSTOMPROPERTY
  1
25.4
  9
$CUSTOMPROPERTYTAG
  1
K
  9
$CUSTOMPROPERTY
  1
114.30 / 114.25
  9
$CUSTOMPROPERTYTAG
  1
L
  9
$CUSTOMPROPERTY
  1
68.8
  9
$CUSTOMPROPERTYTAG
  1
COMPANY
  9
$CUSTOMPROPERTY
  1
baldor
  9
$INSBASE
 10
0.0
 20
0.0
 30
0.0
  9
$EXTMIN
 10
1.000000000000000E+20
 20
1.000000000000000E+20
 30
1.000000000000000E+20
  9
$EXTMAX
 10
-1.000000000000000E+20
 20
-1.000000000000000E+20
 30
-1.000000000000000E+20
  9
$LIMMIN
 10
0.0
 20
0.0
  9
$LIMMAX
 10
420.0
 20
297.0
  9
$ORTHOMODE
 70
     0
  9
$REGENMODE
 70
     1
  9
$FILLMODE
 70
     1
  9
$QTEXTMODE
 70
     0
  9
$MIRRTEXT
 70
     1
  9
$LTSCALE
 40
1.0
  9
$ATTMODE
 70
     1
  9
$TEXTSIZE
 40
2.5
  9
$TRACEWID
 40
1.0
  9
$TEXTSTYLE
  7
Standard
  9
$CLAYER
  8
0
  9
$CELTYPE
  6
ByLayer
  9
$CECOLOR
 62
   256
  9
$CELTSCALE
 40
1.0
  9
$DISPSILH
 70
     0
  9
$DIMSCALE
 40
1.0
  9
$DIMASZ
 40
2.5
  9
$DIMEXO
 40
0.625
  9
$DIMDLI
 40
3.75
  9
$DIMRND
 40
0.0
  9
$DIMDLE
 40
0.0
  9
$DIMEXE
 40
1.25
  9
$DIMTP
 40
0.0
  9
$DIMTM
 40
0.0
  9
$DIMTXT
 40
2.5
  9
$DIMCEN
 40
2.5
  9
$DIMTSZ
 40
0.0
  9
$DIMTOL
 70
     0
  9
$DIMLIM
 70
     0
  9
$DIMTIH
 70
     0
  9
$DIMTOH
 70
     0
  9
$DIMSE1
 70
     0
  9
$DIMSE2
 70
     0
  9
$DIMTAD
 70
     1
  9
$DIMZIN
 70
     8
  9
$DIMBLK
  1

  9
$DIMASO
 70
     1
  9
$DIMSHO
 70
     1
  9
$DIMPOST
  1

  9
$DIMAPOST
  1

  9
$DIMALT
 70
     0
  9
$DIMALTD
 70
     3
  9
$DIMALTF
 40
0.03937007874016
  9
$DIMLFAC
 40
1.0
  9
$DIMTOFL
 70
     1
  9
$DIMTVP
 40
0.0
  9
$DIMTIX
 70
     0
  9
$DIMSOXD
 70
     0
  9
$DIMSAH
 70
     0
  9
$DIMBLK1
  1

  9
$DIMBLK2
  1

  9
$DIMSTYLE
  2
ISO-25
  9
$DIMCLRD
 70
     0
  9
$DIMCLRE
 70
     0
  9
$DIMCLRT
 70
     0
  9
$DIMTFAC
 40
1.0
  9
$DIMGAP
 40
0.625
  9
$DIMJUST
 70
     0
  9
$DIMSD1
 70
     0
  9
$DIMSD2
 70
     0
  9
$DIMTOLJ
 70
     0
  9
$DIMTZIN
 70
     8
  9
$DIMALTZ
 70
     0
  9
$DIMALTTZ
 70
     0
  9
$DIMUPT
 70
     0
  9
$DIMDEC
 70
     2
  9
$DIMTDEC
 70
     2
  9
$DIMALTU
 70
     2
  9
$DIMALTTD
 70
     3
  9
$DIMTXSTY
  7
Standard
  9
$DIMAUNIT
 70
     0
  9
$DIMADEC
 70
     0
  9
$DIMALTRND
 40
0.0
  9
$DIMAZIN
 70
     0
  9
$DIMDSEP
 70
    44
  9
$DIMATFIT
 70
     3
  9
$DIMFRAC
 70
     0
  9
$DIMLDRBLK
  1

  9
$DIMLUNIT
 70
     2
  9
$DIMLWD
 70
    -2
  9
$DIMLWE
 70
    -2
  9
$DIMTMOVE
 70
     0
  9
$DIMFXL
 40
1.0
  9
$DIMFXLON
 70
     0
  9
$DIMJOGANG
 40
0.7853981633974483
  9
$DIMTFILL
 70
     0
  9
$DIMTFILLCLR
 70
     0
  9
$DIMARCSYM
 70
     0
  9
$DIMLTYPE
  6

  9
$DIMLTEX1
  6

  9
$DIMLTEX2
  6

  9
$DIMTXTDIRECTION
 70
     0
  9
$LUNITS
 70
     2
  9
$LUPREC
 70
     4
  9
$SKETCHINC
 40
1.0
  9
$FILLETRAD
 40
10.0
  9
$AUNITS
 70
     0
  9
$AUPREC
 70
     0
  9
$MENU
  1
.
  9
$ELEVATION
 40
0.0
  9
$PELEVATION
 40
0.0
  9
$THICKNESS
 40
0.0
  9
$LIMCHECK
 70
     0
  9
$CHAMFERA
 40
0.0
  9
$CHAMFERB
 40
0.0
  9
$CHAMFERC
 40
0.0
  9
$CHAMFERD
 40
0.0
  9
$SKPOLY
 70
     0
  9
$TDCREATE
 40
2458168.986761262
  9
$TDUCREATE
 40
2458168.945094595
  9
$TDUPDATE
 40
2458168.986761447
  9
$TDUUPDATE
 40
2458168.94509478
  9
$TDINDWG
 40
0.0000000116
  9
$TDUSRTIMER
 40
0.0000000116
  9
$USRTIMER
 70
     1
  9
$ANGBASE
 50
0.0
  9
$ANGDIR
 70
     0
  9
$PDMODE
 70
     0
  9
$PDSIZE
 40
0.0
  9
$PLINEWID
 40
0.0
  9
$SPLFRAME
 70
     0
  9
$SPLINETYPE
 70
     6
  9
$SPLINESEGS
 70
     8
  9
$HANDSEED
  5
1B2
  9
$SURFTAB1
 70
     6
  9
$SURFTAB2
 70
     6
  9
$SURFTYPE
 70
     6
  9
$SURFU
 70
     6
  9
$SURFV
 70
     6
  9
$UCSBASE
  2

  9
$UCSNAME
  2

  9
$UCSORG
 10
0.0
 20
0.0
 30
0.0
  9
$UCSXDIR
 10
1.0
 20
0.0
 30
0.0
  9
$UCSYDIR
 10
0.0
 20
1.0
 30
0.0
  9
$UCSORTHOREF
  2

  9
$UCSORTHOVIEW
 70
     0
  9
$UCSORGTOP
 10
0.0
 20
0.0
 30
0.0
  9
$UCSORGBOTTOM
 10
0.0
 20
0.0
 30
0.0
  9
$UCSORGLEFT
 10
0.0
 20
0.0
 30
0.0
  9
$UCSORGRIGHT
 10
0.0
 20
0.0
 30
0.0
  9
$UCSORGFRONT
 10
0.0
 20
0.0
 30
0.0
  9
$UCSORGBACK
 10
0.0
 20
0.0
 30
0.0
  9
$PUCSBASE
  2

  9
$PUCSNAME
  2

  9
$PUCSORG
 10
0.0
 20
0.0
 30
0.0
  9
$PUCSXDIR
 10
1.0
 20
0.0
 30
0.0
  9
$PUCSYDIR
 10
0.0
 20
1.0
 30
0.0
  9
$PUCSORTHOREF
  2

  9
$PUCSORTHOVIEW
 70
     0
  9
$PUCSORGTOP
 10
0.0
 20
0.0
 30
0.0
  9
$PUCSORGBOTTOM
 10
0.0
 20
0.0
 30
0.0
  9
$PUCSORGLEFT
 10
0.0
 20
0.0
 30
0.0
  9
$PUCSORGRIGHT
 10
0.0
 20
0.0
 30
0.0
  9
$PUCSORGFRONT
 10
0.0
 20
0.0
 30
0.0
  9
$PUCSORGBACK
 10
0.0
 20
0.0
 30
0.0
  9
$USERI1
 70
     0
  9
$USERI2
 70
     0
  9
$USERI3
 70
     0
  9
$USERI4
 70
     0
  9
$USERI5
 70
     0
  9
$USERR1
 40
0.0
  9
$USERR2
 40
0.0
  9
$USERR3
 40
0.0
  9
$USERR4
 40
0.0
  9
$USERR5
 40
0.0
  9
$WORLDVIEW
 70
     1
  9
$SHADEDGE
 70
     3
  9
$SHADEDIF
 70
    70
  9
$TILEMODE
 70
     1
  9
$MAXACTVP
 70
    64
  9
$PINSBASE
 10
0.0
 20
0.0
 30
0.0
  9
$PLIMCHECK
 70
     0
  9
$PEXTMIN
 10
1.000000000000000E+20
 20
1.000000000000000E+20
 30
1.000000000000000E+20
  9
$PEXTMAX
 10
-1.000000000000000E+20
 20
-1.000000000000000E+20
 30
-1.000000000000000E+20
  9
$PLIMMIN
 10
0.0
 20
0.0
  9
$PLIMMAX
 10
420.0
 20
297.0
  9
$UNITMODE
 70
     0
  9
$VISRETAIN
 70
     1
  9
$PLINEGEN
 70
     0
  9
$PSLTSCALE
 70
     1
  9
$TREEDEPTH
 70
  3020
  9
$CMLSTYLE
  2
Standard
  9
$CMLJUST
 70
     0
  9
$CMLSCALE
 40
20.0
  9
$PROXYGRAPHICS
 70
     1
  9
$MEASUREMENT
 70
     1
  9
$CELWEIGHT
370
    -1
  9
$ENDCAPS
280
     0
  9
$JOINSTYLE
280
     0
  9
$LWDISPLAY
290
     0
  9
$INSUNITS
 70
     4
  9
$HYPERLINKBASE
  1

  9
$STYLESHEET
  1

  9
$XEDIT
290
     1
  9
$CEPSNTYPE
380
     0
  9
$PSTYLEMODE
290
     1
  9
$FINGERPRINTGUID
  2
{136BDE59-8F18-4E28-BDBA-0EAC0C297F60}
  9
$VERSIONGUID
  2
{FAEB1C32-E019-11D5-929B-00C0DF256EC4}
  9
$EXTNAMES
290
     1
  9
$PSVPSCALE
 40
0.0
  9
$OLESTARTUP
290
     0
  9
$SORTENTS
280
   127
  9
$INDEXCTL
280
     0
  9
$HIDETEXT
280
     1
  9
$XCLIPFRAME
280
     2
  9
$HALOGAP
280
     0
  9
$OBSCOLOR
 70
   257
  9
$OBSLTYPE
280
     0
  9
$INTERSECTIONDISPLAY
280
     0
  9
$INTERSECTIONCOLOR
 70
   257
  9
$DIMASSOC
280
     2
  9
$PROJECTNAME
  1

  9
$CAMERADISPLAY
290
     0
  9
$LENSLENGTH
 40
50.0
  9
$CAMERAHEIGHT
 40
0.0
  9
$STEPSPERSEC
 40
2.0
  9
$STEPSIZE
 40
6.0
  9
$3DDWFPREC
 40
2.0
  9
$PSOLWIDTH
 40
5.0
  9
$PSOLHEIGHT
 40
80.0
  9
$LOFTANG1
 40
1.570796326794897
  9
$LOFTANG2
 40
1.570796326794897
  9
$LOFTMAG1
 40
0.0
  9
$LOFTMAG2
 40
0.0
  9
$LOFTPARAM
 70
     7
  9
$LOFTNORMALS
280
     1
  9
$LATITUDE
 40
37.795
  9
$LONGITUDE
 40
-122.394
  9
$NORTHDIRECTION
 40
0.0
  9
$TIMEZONE
 70
 -8000
  9
$LIGHTGLYPHDISPLAY
280
     1
  9
$TILEMODELIGHTSYNCH
280
     1
  9
$CMATERIAL
347
44
  9
$SOLIDHIST
280
     0
  9
$SHOWHIST
280
     1
  9
$DWFFRAME
280
     2
  9
$DGNFRAME
280
     2
  9
$REALWORLDSCALE
290
     1
  9
$INTERFERECOLOR
 62
   256
  9
$CSHADOW
280
     0
  9
$SHADOWPLANELOCATION
 40
0.0
  0
ENDSEC
  0
SECTION
  2
CLASSES
  0
CLASS
  1
ACDBDICTIONARYWDFLT
  2
AcDbDictionaryWithDefault
  3
ObjectDBX Classes
 90
        0
 91
        4
280
     0
281
     0
  0
CLASS
  1
VISUALSTYLE
  2
AcDbVisualStyle
  3
ObjectDBX Classes
 90
     4095
 91
        4
280
     0
281
     0
  0
CLASS
  1
MATERIAL
  2
AcDbMaterial
  3
ObjectDBX Classes
 90
     1153
 91
        4
280
     0
281
     0
  0
CLASS
  1
SCALE
  2
AcDbScale
  3
ObjectDBX Classes
 90
     1153
 91
        4
280
     0
281
     0
  0
CLASS
  1
TABLESTYLE
  2
AcDbTableStyle
  3
ObjectDBX Classes
 90
     4095
 91
        4
280
     0
281
     0
  0
CLASS
  1
MLEADERSTYLE
  2
AcDbMLeaderStyle
  3
ACDB_MLEADERSTYLE_CLASS
 90
     4095
 91
        4
280
     0
281
     0
  0
CLASS
  1
SUN
  2
AcDbSun
  3
SCENEOE
 90
     1153
 91
        4
280
     0
281
     0
  0
CLASS
  1
DICTIONARYVAR
  2
AcDbDictionaryVar
  3
ObjectDBX Classes
 90
        0
 91
        4
280
     0
281
     0
  0
CLASS
  1
CELLSTYLEMAP
  2
AcDbCellStyleMap
  3
ObjectDBX Classes
 90
     1152
 91
        4
280
     0
281
     0
  0
ENDSEC
  0
SECTION
  2
TABLES
  0
TABLE
  2
VPORT
  5
8
330
0
100
AcDbSymbolTable
 70
     1
  0
VPORT
  5
29
330
8
100
AcDbSymbolTableRecord
100
AcDbViewportTableRecord
  2
*Active
 70
     0
 10
0.0
 20
0.0
 11
1.0
 21
1.0
 12
-14.22499999999997
 22
0.0
 13
0.0
 23
0.0
 14
10.0
 24
10.0
 15
10.0
 25
10.0
 16
0.0
 26
0.0
 36
1.0
 17
0.0
 27
0.0
 37
0.0
 40
165.342
 41
0.3984577421344843
 42
50.0
 43
0.0
 44
0.0
 50
0.0
 51
0.0
 71
     0
 72
   100
 73
     1
 74
     3
 75
     0
 76
     0
 77
     0
 78
     0
281
     0
 65
     1
110
0.0
120
0.0
130
0.0
111
1.0
121
0.0
131
0.0
112
0.0
122
1.0
132
0.0
 79
     0
146
0.0
348
2F
 60
     3
 61
     5
292
     1
282
     1
141
0.0
142
0.0
 63
   250
361
6D
  0
ENDTAB
  0
TABLE
  2
LTYPE
  5
5
330
0
100
AcDbSymbolTable
 70
     3
  0
LTYPE
  5
14
330
5
100
AcDbSymbolTableRecord
100
AcDbLinetypeTableRecord
  2
ByBlock
 70
     0
  3

 72
    65
 73
     0
 40
0.0
  0
LTYPE
  5
15
330
5
100
AcDbSymbolTableRecord
100
AcDbLinetypeTableRecord
  2
ByLayer
 70
     0
  3

 72
    65
 73
     0
 40
0.0
  0
LTYPE
  5
16
330
5
100
AcDbSymbolTableRecord
100
AcDbLinetypeTableRecord
  2
Continuous
 70
     0
  3
Solid line
 72
    65
 73
     0
 40
0.0
  0
LTYPE
  5
94
330
5
100
AcDbSymbolTableRecord
100
AcDbLinetypeTableRecord
  2
Dashed
 70
     0
  3

 72
    65
 73
     2
 40
2.0
 49
1.0
 74
     0
 49
-1.0
 74
     0
  0
LTYPE
  5
184
330
5
100
AcDbSymbolTableRecord
100
AcDbLinetypeTableRecord
  2
Center
 70
     0
  3

 72
    65
 73
     4
 40
1.5
 49
0.45
 74
     0
 49
-0.5
 74
     0
 49
0.05
 74
     0
 49
-0.5
 74
     0
  0
ENDTAB
  0
TABLE
  2
LAYER
  5
2
330
0
100
AcDbSymbolTable
 70
     6
  0
LAYER
  5
10
330
2
100
AcDbSymbolTableRecord
100
AcDbLayerTableRecord
  2
0
 70
     0
 62
     7
  6
Continuous
370
    -3
390
F
347
46
348
0
  0
LAYER
  5
72
330
2
100
AcDbSymbolTableRecord
100
AcDbLayerTableRecord
  2
AM_6
 70
     0
 62
    -2
  6
Continuous
370
    35
390
F
347
46
348
0
  0
LAYER
  5
95
330
2
100
AcDbSymbolTableRecord
100
AcDbLayerTableRecord
  2
AM_9
 70
     0
 62
     6
  6
Dashed
370
    25
390
F
347
46
348
0
  0
LAYER
  5
CD
330
2
100
AcDbSymbolTableRecord
100
AcDbLayerTableRecord
  2
AM_4
 70
     0
 62
     7
  6
Continuous
370
    50
390
F
347
46
348
0
  0
LAYER
  5
185
330
2
100
AcDbSymbolTableRecord
100
AcDbLayerTableRecord
  2
AM_7
 70
     0
 62
     7
  6
Center
370
    25
390
F
347
46
348
0
  0
LAYER
  5
1A5
330
2
100
AcDbSymbolTableRecord
100
AcDbLayerTableRecord
  2
ConnectionPoints
 70
     0
 62
     7
  6
Continuous
370
    50
390
F
347
46
348
0
  0
ENDTAB
  0
TABLE
  2
STYLE
  5
3
330
0
100
AcDbSymbolTable
 70
     1
  0
STYLE
  5
11
330
3
100
AcDbSymbolTableRecord
100
AcDbTextStyleTableRecord
  2
Standard
 70
     0
 40
0.0
 41
1.0
 50
0.0
 71
     0
 42
2.5
  3
txt
  4

  0
ENDTAB
  0
TABLE
  2
VIEW
  5
6
330
0
100
AcDbSymbolTable
 70
     0
  0
ENDTAB
  0
TABLE
  2
UCS
  5
7
330
0
100
AcDbSymbolTable
 70
     0
  0
ENDTAB
  0
TABLE
  2
APPID
  5
9
330
0
100
AcDbSymbolTable
 70
     1
  0
APPID
  5
12
330
9
100
AcDbSymbolTableRecord
100
AcDbRegAppTableRecord
  2
ACAD
 70
     0
  0
ENDTAB
  0
TABLE
  2
DIMSTYLE
  5
A
330
0
100
AcDbSymbolTable
 70
     1
100
AcDbDimStyleTable
  0
DIMSTYLE
105
27
330
A
100
AcDbSymbolTableRecord
100
AcDbDimStyleTableRecord
  2
ISO-25
 70
     0
 41
2.5
 42
0.625
 43
3.75
 44
1.25
 73
     0
 74
     0
 77
     1
 78
     8
140
2.5
141
2.5
143
0.03937007874016
147
0.625
171
     3
172
     1
178
     0
271
     2
272
     2
274
     3
278
    44
283
     0
284
     8
340
11
  0
ENDTAB
  0
TABLE
  2
BLOCK_RECORD
  5
1
330
0
100
AcDbSymbolTable
 70
     5
  0
BLOCK_RECORD
  5
1F
330
1
100
AcDbSymbolTableRecord
100
AcDbBlockTableRecord
  2
*Model_Space
340
22
 70
     0
280
     1
281
     0
  0
BLOCK_RECORD
  5
1B
330
1
100
AcDbSymbolTableRecord
100
AcDbBlockTableRecord
  2
*Paper_Space
340
1E
 70
     0
280
     1
281
     0
  0
BLOCK_RECORD
  5
23
330
1
100
AcDbSymbolTableRecord
100
AcDbBlockTableRecord
  2
*Paper_Space0
340
26
 70
     0
280
     1
281
     0
  0
BLOCK_RECORD
  5
6E
330
1
100
AcDbSymbolTableRecord
100
AcDbBlockTableRecord
  2
1_125870_2
340
0
102
{BLKREFS
331
6F
102
}
 70
     0
280
     1
281
     0
  0
BLOCK_RECORD
  5
88
330
1
100
AcDbSymbolTableRecord
100
AcDbBlockTableRecord
  2
2_405015E_Metric_0_in_125870_2
340
0
102
{BLKREFS
331
89
102
}
 70
     0
280
     1
281
     0
  0
BLOCK_RECORD
  5
EF
330
1
100
AcDbSymbolTableRecord
100
AcDbBlockTableRecord
  2
3_125816_0_in_125870_2
340
0
102
{BLKREFS
331
F0
102
}
 70
     0
280
     1
281
     0
  0
BLOCK_RECORD
  5
14E
330
1
100
AcDbSymbolTableRecord
100
AcDbBlockTableRecord
  2
4_125870H_0_in_125870_2
340
0
102
{BLKREFS
331
14F
102
}
 70
     0
280
     1
281
     0
  0
ENDTAB
  0
ENDSEC
  0
SECTION
  2
BLOCKS
  0
BLOCK
  5
20
330
1F
100
AcDbEntity
  8
0
100
AcDbBlockBegin
  2
*Model_Space
 70
     0
 10
0.0
 20
0.0
 30
0.0
  3
*Model_Space
  1

  0
ENDBLK
  5
21
330
1F
100
AcDbEntity
  8
0
100
AcDbBlockEnd
  0
BLOCK
  5
1C
330
1B
100
AcDbEntity
 67
     1
  8
0
100
AcDbBlockBegin
  2
*Paper_Space
 70
     0
 10
0.0
 20
0.0
 30
0.0
  3
*Paper_Space
  1

  0
ENDBLK
  5
1D
330
1B
100
AcDbEntity
 67
     1
  8
0
100
AcDbBlockEnd
  0
BLOCK
  5
24
330
23
100
AcDbEntity
  8
0
100
AcDbBlockBegin
  2
*Paper_Space0
 70
     0
 10
0.0
 20
0.0
 30
0.0
  3
*Paper_Space0
  1

  0
ENDBLK
  5
25
330
23
100
AcDbEntity
  8
0
100
AcDbBlockEnd
  0
BLOCK
  5
70
330
6E
100
AcDbEntity
  8
0
100
AcDbBlockBegin
  2
1_125870_2
 70
     2
 10
0.0
 20
0.0
 30
0.0
  3
1_125870_2
  1

  0
ATTDEF
  5
73
330
6E
100
AcDbEntity
  8
AM_6
100
AcDbText
 10
23.07
 20
81.05
 30
0.0
 40
0.5
  1
Set Screw Flange Cartridge Metric Bore
100
AcDbAttributeDefinition
  3

  2
NN
 70
     8
280
     0
  0
ATTDEF
  5
74
330
6E
100
AcDbEntity
  8
AM_6
100
AcDbText
 10
23.07
 20
80.55
 30
0.0
 40
0.5
  1
SC Piloted Flange Bearings -(Normal Duty)
100
AcDbAttributeDefinition
  3

  2
NT
 70
     8
280
     0
  0
ATTDEF
  5
75
330
6E
100
AcDbEntity
  8
AM_6
100
AcDbText
 10
23.07
 20
80.05
 30
0.0
 40
0.5
  1
125870
100
AcDbAttributeDefinition
  3

  2
NB
 70
     8
280
     0
  0
ATTDEF
  5
76
330
6E
100
AcDbEntity
  8
AM_6
100
AcDbText
 10
23.07
 20
79.55
 30
0.0
 40
0.5
  1
$PN.
100
AcDbAttributeDefinition
  3

  2
NBSYN
 70
     8
280
     0
  0
ATTDEF
  5
77
330
6E
100
AcDbEntity
  8
AM_6
100
AcDbText
 10
23.07
 20
79.05
 30
0.0
 40
0.5
  1
125870
100
AcDbAttributeDefinition
  3

  2
LINA
 70
     8
280
     0
  0
ATTDEF
  5
78
330
6E
100
AcDbEntity
  8
AM_6
100
AcDbText
 10
23.07
 20
78.55
 30
0.0
 40
0.5
  1
211
100
AcDbAttributeDefinition
  3

  2
SERIES
 70
     8
280
     0
  0
ATTDEF
  5
79
330
6E
100
AcDbEntity
  8
AM_6
100
AcDbText
 10
23.07
 20
78.05
 30
0.0
 40
0.5
  1
55
100
AcDbAttributeDefinition
  3

  2
SS
 70
     8
280
     0
  0
ATTDEF
  5
7A
330
6E
100
AcDbEntity
  8
AM_6
100
AcDbText
 10
23.07
 20
77.55
 30
0.0
 40
0.5
  1
125870
100
AcDbAttributeDefinition
  3

  2
PN
 70
     8
280
     0
  0
ATTDEF
  5
7B
330
6E
100
AcDbEntity
  8
AM_6
100
AcDbText
 10
23.07
 20
77.05
 30
0.0
 40
0.5
  1
FC-SC-55M
100
AcDbAttributeDefinition
  3

  2
DESCRIPTION
 70
     8
280
     0
  0
ATTDEF
  5
7C
330
6E
100
AcDbEntity
  8
AM_6
100
AcDbText
 10
23.07
 20
76.55
 30
0.0
 40
0.5
  1
3.3
100
AcDbAttributeDefinition
  3

  2
WEIGHT
 70
     8
280
     0
  0
ATTDEF
  5
7D
330
6E
100
AcDbEntity
  8
AM_6
100
AcDbText
 10
23.07
 20
76.05
 30
0.0
 40
0.5
  1
56.4
100
AcDbAttributeDefinition
  3

  2
A
 70
     8
280
     0
  0
ATTDEF
  5
7E
330
6E
100
AcDbEntity
  8
AM_6
100
AcDbText
 10
23.07
 20
75.55
 30
0.0
 40
0.5
  1
162.1
100
AcDbAttributeDefinition
  3

  2
B
 70
     8
280
     0
  0
ATTDEF
  5
7F
330
6E
100
AcDbEntity
  8
AM_6
100
AcDbText
 10
23.07
 20
75.05
 30
0.0
 40
0.5
  1
59.7
100
AcDbAttributeDefinition
  3

  2
C
 70
     8
280
     0
  0
ATTDEF
  5
80
330
6E
100
AcDbEntity
  8
AM_6
100
AcDbText
 10
23.07
 20
74.55
 30
0.0
 40
0.5
  1
136.7
100
AcDbAttributeDefinition
  3

  2
D
 70
     8
280
     0
  0
ATTDEF
  5
81
330
6E
100
AcDbEntity
  8
AM_6
100
AcDbText
 10
23.07
 20
74.05
 30
0.0
 40
0.5
  1
16.0
100
AcDbAttributeDefinition
  3

  2
E
 70
     8
280
     0
  0
ATTDEF
  5
82
330
6E
100
AcDbEntity
  8
AM_6
100
AcDbText
 10
23.07
 20
73.55
 30
0.0
 40
0.5
  1
M12
100
AcDbAttributeDefinition
  3

  2
F
 70
     8
280
     0
  0
ATTDEF
  5
83
330
6E
100
AcDbEntity
  8
AM_6
100
AcDbText
 10
23.07
 20
73.05
 30
0.0
 40
0.5
  1
43.7
100
AcDbAttributeDefinition
  3

  2
G
 70
     8
280
     0
  0
ATTDEF
  5
84
330
6E
100
AcDbEntity
  8
AM_6
100
AcDbText
 10
23.07
 20
72.55
 30
0.0
 40
0.5
  1
25.4
100
AcDbAttributeDefinition
  3

  2
H
 70
     8
280
     0
  0
ATTDEF
  5
85
330
6E
100
AcDbEntity
  8
AM_6
100
AcDbText
 10
23.07
 20
72.05
 30
0.0
 40
0.5
  1
114.30 / 114.25
100
AcDbAttributeDefinition
  3

  2
K
 70
     8
280
     0
  0
ATTDEF
  5
86
330
6E
100
AcDbEntity
  8
AM_6
100
AcDbText
 10
23.07
 20
71.55
 30
0.0
 40
0.5
  1
68.8
100
AcDbAttributeDefinition
  3

  2
L
 70
     8
280
     0
  0
ATTDEF
  5
87
330
6E
100
AcDbEntity
  8
AM_6
100
AcDbText
 10
23.07
 20
71.05
 30
0.0
 40
0.5
  1
baldor
100
AcDbAttributeDefinition
  3

  2
COMPANY
 70
     8
280
     0
  0
INSERT
  5
89
330
6E
100
AcDbEntity
  8
0
100
AcDbBlockReference
  2
2_405015E_Metric_0_in_125870_2
 10
0.0
 20
0.0
 30
0.0
  0
INSERT
  5
F0
330
6E
100
AcDbEntity
  8
0
100
AcDbBlockReference
  2
3_125816_0_in_125870_2
 10
0.0
 20
0.0
 30
0.0
  0
INSERT
  5
14F
330
6E
100
AcDbEntity
  8
0
100
AcDbBlockReference
  2
4_125870H_0_in_125870_2
 10
0.0
 20
0.0
 30
0.0
  0
ENDBLK
  5
71
330
6E
100
AcDbEntity
  8
0
100
AcDbBlockEnd
  0
BLOCK
  5
8A
330
88
100
AcDbEntity
  8
0
100
AcDbBlockBegin
  2
2_405015E_Metric_0_in_125870_2
 70
     2
 10
0.0
 20
0.0
 30
0.0
  3
2_405015E_Metric_0_in_125870_2
  1

  0
ATTDEF
  5
8C
330
88
100
AcDbEntity
  8
AM_6
100
AcDbText
 10
-8.258593722663338
 20
75.46679075270471
 30
0.0
 40
0.5
  1
405015E -Metric
100
AcDbAttributeDefinition
  3

  2
NN
 70
     8
280
     0
  0
ATTDEF
  5
8D
330
88
100
AcDbEntity
  8
AM_6
100
AcDbText
 10
-8.258593722663338
 20
74.96679075270471
 30
0.0
 40
0.5
  1
Grease Fitting
100
AcDbAttributeDefinition
  3

  2
NT
 70
     8
280
     0
  0
ATTDEF
  5
8E
330
88
100
AcDbEntity
  8
AM_6
100
AcDbText
 10
-8.258593722663338
 20
74.46679075270471
 30
0.0
 40
0.5
  1
405015E-Metric
100
AcDbAttributeDefinition
  3

  2
NB
 70
     8
280
     0
  0
ATTDEF
  5
8F
330
88
100
AcDbEntity
  8
AM_6
100
AcDbText
 10
-8.258593722663338
 20
73.96679075270471
 30
0.0
 40
0.5
  1
$MN.-Metric
100
AcDbAttributeDefinition
  3

  2
NBSYN
 70
     8
280
     0
  0
ATTDEF
  5
90
330
88
100
AcDbEntity
  8
AM_6
100
AcDbText
 10
-8.258593722663338
 20
73.46679075270471
 30
0.0
 40
0.5
  1
405015E
100
AcDbAttributeDefinition
  3

  2
LINA
 70
     8
280
     0
  0
ATTDEF
  5
91
330
88
100
AcDbEntity
  8
AM_6
100
AcDbText
 10
-8.258593722663338
 20
72.96679075270471
 30
0.0
 40
0.5
  1
405015E
100
AcDbAttributeDefinition
  3

  2
MN
 70
     8
280
     0
  0
ATTDEF
  5
92
330
88
100
AcDbEntity
  8
AM_6
100
AcDbText
 10
-8.258593722663338
 20
72.46679075270471
 30
0.0
 40
0.5
  1
1/8 x 27PTF
100
AcDbAttributeDefinition
  3

  2
T
 70
     8
280
     0
  0
ATTDEF
  5
93
330
88
100
AcDbEntity
  8
AM_6
100
AcDbText
 10
-8.258593722663338
 20
71.96679075270471
 30
0.0
 40
0.5
  1
baldor
100
AcDbAttributeDefinition
  3

  2
COMPANY
 70
     8
280
     0
  0
LINE
  5
96
330
88
100
AcDbEntity
  8
AM_9
100
AcDbLine
 10
-25.02862662668282
 20
67.13483124141791
 30
0.0
 11
-22.78953426395195
 21
65.84700993124454
 31
0.0
  0
LINE
  5
97
330
88
100
AcDbEntity
  8
AM_9
100
AcDbLine
 10
-22.14187528073469
 20
72.11580473187665
 30
0.0
 11
-19.90278291800383
 21
70.82798342170327
 31
0.0
  0
LWPOLYLINE
  5
98
330
88
100
AcDbEntity
  8
AM_9
100
AcDbPolyline
 90
        3
 70
     0
 43
0.0
 10
-21.12723664333129
 20
68.30263066298502
 10
-20.49235548299722
 20
69.50675351773295
 10
-19.90278291800383
 20
70.82798342170327
  0
LINE
  5
99
330
88
100
AcDbEntity
  8
AM_9
100
AcDbLine
 10
-21.20959168180046
 20
68.16058625213904
 30
0.0
 11
-21.12723664333129
 21
68.30263066298502
 31
0.0
  0
LWPOLYLINE
  5
9A
330
88
100
AcDbEntity
  8
AM_9
100
AcDbPolyline
 90
        3
 70
     0
 43
0.0
 10
-22.14187528073469
 20
72.11580473187665
 10
-22.99201493995917
 20
70.95190611207772
 10
-23.76474287801998
 20
69.7285533551294
  0
LWPOLYLINE
  5
9B
330
88
100
AcDbEntity
  8
AM_9
100
AcDbPolyline
 90
        3
 70
     0
 43
0.0
 10
-22.78953426395195
 20
65.84700993124454
 10
-21.93939460472748
 20
67.01090855104347
 10
-21.20959168180046
 20
68.16058625213904
  0
LWPOLYLINE
  5
9C
330
88
100
AcDbEntity
  8
AM_9
100
AcDbPolyline
 90
        3
 70
     0
 43
0.0
 10
-23.76474287801998
 20
69.7285533551294
 10
-24.43905406168942
 20
68.45606114538826
 10
-25.02862662668282
 20
67.13483124141791
  0
LWPOLYLINE
  5
9D
330
88
100
AcDbEntity
  8
AM_9
100
AcDbPolyline
 90
        3
 70
     0
 43
0.0
 10
-25.02862662668282
 20
67.13483124141791
 10
-25.51954481908561
 20
66.6992096669942
 10
-25.92980638748108
 20
66.21071259415451
  0
LWPOLYLINE
  5
9E
330
88
100
AcDbEntity
  8
AM_9
100
AcDbPolyline
 90
        3
 70
     0
 43
0.0
 10
-23.28385170388042
 20
64.78634134893711
 10
-23.01826291070183
 20
65.25734639201612
 10
-22.78953426395195
 20
65.84700993124454
  0
LINE
  5
9F
330
88
100
AcDbEntity
  8
AM_9
100
AcDbLine
 10
-23.33173017612776
 20
64.71642054701688
 30
0.0
 11
-23.28385170388042
 21
64.78634134893711
 31
0.0
  0
LWPOLYLINE
  5
A0
330
88
100
AcDbEntity
  8
AM_9
100
AcDbPolyline
 90
        4
 70
     0
 43
0.0
 10
-21.59967936855888
 20
73.6821728298426
 10
-21.85006579186427
 20
73.10028619616858
 10
-22.04722425576103
 20
72.4877853272069
 10
-22.14187528073469
 20
72.11580473187665
  0
LINE
  5
A1
330
88
100
AcDbEntity
  8
AM_9
100
AcDbLine
 10
-19.03870358552292
 20
72.11395857703312
 30
0.0
 11
-19.00160315720557
 21
72.18788078270498
 31
0.0
  0
LWPOLYLINE
  5
A2
330
88
100
AcDbEntity
  8
AM_9
100
AcDbPolyline
 90
        4
 70
     0
 43
0.0
 10
-19.90278291800383
 20
70.82798342170327
 10
-19.66973779239498
 20
71.1203661965207
 10
-19.31005887142581
 20
71.63722336057802
 10
-19.03870358552292
 20
72.11395857703312
  0
LWPOLYLINE
  5
A3
330
88
100
AcDbEntity
  8
AM_9
100
AcDbPolyline
 90
        3
 70
     0
 43
0.0
 10
-20.69849960776062
 20
75.0420701908443
 10
-21.18941780016342
 20
74.38953894877156
 10
-21.59967936855888
 20
73.6821728298426
  0
ELLIPSE
  5
A4
330
88
100
AcDbEntity
  8
AM_9
100
AcDbEllipse
 10
-23.7647428780199
 20
70.16433206886774
 30
0.0
 11
2.492854874235721
 21
4.33424440658328
 31
0.0
210
0.0
220
0.0
230
1.0
 40
0.0435778713738266
 41
2.978075468988019
 42
6.446702491781028
  0
LWPOLYLINE
  5
A5
330
88
100
AcDbEntity
  8
AM_9
100
AcDbPolyline
 90
        3
 70
     0
 43
0.0
 10
-18.70228761682463
 20
72.9056503511907
 10
-18.68813589177964
 20
72.94669598457335
 10
-18.53993722299219
 20
73.43387581404184
  0
LINE
  5
A6
330
88
100
AcDbEntity
  8
AM_9
100
AcDbLine
 10
-19.00160315720557
 20
72.18788078270498
 30
0.0
 11
-18.96266282137279
 21
72.26833627119673
 31
0.0
  0
LINE
  5
A7
330
88
100
AcDbEntity
  8
AM_9
100
AcDbLine
 10
-18.67631720435696
 20
72.92878483175521
 30
0.0
 11
-18.53924393255446
 21
73.43644190992552
 31
0.0
  0
LINE
  5
A8
330
88
100
AcDbEntity
  8
AM_9
100
AcDbLine
 10
-18.53993722299219
 20
73.43387581404184
 30
0.0
 11
-18.45940724502976
 21
73.75424888067091
 31
0.0
  0
LWPOLYLINE
  5
A9
330
88
100
AcDbEntity
  8
AM_9
100
AcDbPolyline
 90
        3
 70
     0
 43
0.0
 10
-25.92980638748108
 20
66.21071259415451
 10
-26.243273652907
 20
65.66978674915526
 10
-26.47200229965688
 20
65.08012320992684
  0
LINE
  5
AA
330
88
100
AcDbEntity
  8
AM_9
100
AcDbLine
 10
-24.23290993692602
 20
63.79230189975348
 30
0.0
 11
-23.74579869581626
 21
64.2240718091882
 31
0.0
  0
LINE
  5
AB
330
88
100
AcDbEntity
  8
AM_9
100
AcDbLine
 10
-23.74585816062367
 20
64.22401172007626
 30
0.0
 11
-23.59552170648741
 21
64.37592649308652
 31
0.0
  0
LINE
  5
AC
330
88
100
AcDbEntity
  8
AM_9
100
AcDbLine
 10
-23.37432426442914
 20
64.65709100504507
 30
0.0
 11
-23.33173017612776
 21
64.71642054701688
 31
0.0
  0
LWPOLYLINE
  5
AD
330
88
100
AcDbEntity
  8
AM_9
100
AcDbPolyline
 90
        3
 70
     0
 43
0.0
 10
-23.74579869581626
 20
64.2240718091882
 10
-23.74199174452322
 20
64.2279234741772
 10
-23.57431013296534
 20
64.40806524490506
  0
ELLIPSE
  5
AE
330
88
100
AcDbEntity
  8
AM_9
100
AcDbEllipse
 10
-25.95145702257569
 20
71.42202787520853
 30
0.0
 11
1.333677357716144
 21
2.318820757522076
 31
0.0
210
0.0
220
0.0
230
1.0
 40
0.0435778713738264
 41
3.125131793902368
 42
6.299646166867031
  0
LINE
  5
AF
330
88
100
AcDbEntity
  8
AM_9
100
AcDbLine
 10
-23.75944016273235
 20
73.60200977714103
 30
0.0
 11
-23.76054013359444
 21
73.602188140744
 31
0.0
  0
ELLIPSE
  5
B0
330
88
100
AcDbEntity
  8
AM_9
100
AcDbEllipse
 10
-25.2446186028619
 20
71.0154874417239
 30
0.0
 11
1.487234716420374
 21
2.585805863607547
 31
0.0
210
0.0
220
0.0
230
1.0
 40
0.0435778713738236
 41
3.109091580146371
 42
6.315686380623012
  0
ELLIPSE
  5
B1
330
88
100
AcDbEntity
  8
AM_9
100
AcDbEllipse
 10
-29.41555863771344
 20
73.41441727139201
 30
0.0
 11
1.180091346582824
 21
2.051785834404811
 31
0.0
210
0.0
220
0.0
230
1.0
 40
0.043577871373922
 41
3.123968396721806
 42
6.300809564047523
  0
LINE
  5
B2
330
88
100
AcDbEntity
  8
AM_9
100
AcDbLine
 10
-27.89050446879414
 20
69.45138770795205
 30
0.0
 11
-27.88946919484746
 21
69.45122656873126
 31
0.0
  0
ELLIPSE
  5
B3
330
88
100
AcDbEntity
  8
AM_9
100
AcDbEllipse
 10
-27.68350783014457
 20
72.41822257330027
 30
0.0
 11
1.582962845139721
 21
2.752245198180403
 31
0.0
210
0.0
220
0.0
230
1.0
 40
0.0435778713738511
 41
3.158370097695855
 42
6.266407863073518
  0
ELLIPSE
  5
B4
330
88
100
AcDbEntity
  8
AM_9
100
AcDbEllipse
 10
-26.55767480521487
 20
71.77069601973436
 30
0.0
 11
1.333677357725952
 21
2.318820757715867
 31
0.0
210
0.0
220
0.0
230
1.0
 40
0.0435778713743152
 41
3.141592653589793
 42
6.283185307179586
  0
LINE
  5
B5
330
88
100
AcDbEntity
  8
AM_9
100
AcDbLine
 10
-18.65875234650153
 20
73.86890286905793
 30
0.0
 11
-18.45940724502976
 21
73.75424888067091
 31
0.0
  0
LWPOLYLINE
  5
B6
330
88
100
AcDbEntity
  8
AM_9
100
AcDbPolyline
 90
        3
 70
     0
 43
0.0
 10
-18.45940724502976
 20
73.75424888067091
 10
-18.68693198627032
 20
73.1671356996423
 10
-19.00160315720557
 20
72.62365949644327
  0
LINE
  5
B7
330
88
100
AcDbEntity
  8
AM_9
100
AcDbLine
 10
-26.32162065673117
 20
67.47708046158533
 30
0.0
 11
-26.32065715387363
 21
67.47485059253889
 31
0.0
  0
LINE
  5
B8
330
88
100
AcDbEntity
  8
AM_9
100
AcDbLine
 10
-22.72528368371502
 20
73.72600765493715
 30
0.0
 11
-22.72769561994126
 21
73.72571918074138
 31
0.0
  0
ELLIPSE
  5
B9
330
88
100
AcDbEntity
  8
AM_9
100
AcDbEllipse
 10
-24.51854201628125
 20
70.59788211352026
 30
0.0
 11
1.798636619174187
 21
3.127230063290996
 31
0.0
210
0.0
220
0.0
230
1.0
 40
0.0435778713738116
 41
3.084310991309358
 42
6.340466969460085
  0
LINE
  5
BA
330
88
100
AcDbEntity
  8
AM_9
100
AcDbLine
 10
-24.43225503839778
 20
63.90695588814049
 30
0.0
 11
-24.23290993692602
 21
63.79230189975348
 31
0.0
  0
LWPOLYLINE
  5
BB
330
88
100
AcDbEntity
  8
AM_9
100
AcDbPolyline
 90
        4
 70
     0
 43
0.0
 10
-23.33173017612776
 20
65.15219926075518
 10
-23.63918351401816
 20
64.6031348500192
 10
-23.99986481131718
 20
64.08468467457091
 10
-24.23290993692602
 20
63.79230189975348
  0
LWPOLYLINE
  5
BC
330
88
100
AcDbEntity
  8
AM_9
100
AcDbPolyline
 90
        3
 70
     0
 43
0.0
 10
-19.00160315720557
 20
72.62365949644327
 10
-19.40982372826667
 20
72.13723132569696
 10
-19.90278291800382
 20
71.69954084917985
  0
LWPOLYLINE
  5
BD
330
88
100
AcDbEntity
  8
AM_9
100
AcDbPolyline
 90
        3
 70
     0
 43
0.0
 10
-22.78953426395195
 20
66.71856735872113
 10
-23.01705900519251
 20
65.91454451004348
 10
-23.33173017612776
 20
65.15219926075518
  0
LINE
  5
BE
330
88
100
AcDbEntity
  8
AM_9
100
AcDbLine
 10
-26.15366024659237
 20
66.17080741597243
 30
0.0
 11
-26.1393434123094
 21
66.059461565442
 31
0.0
  0
LINE
  5
BF
330
88
100
AcDbEntity
  8
AM_9
100
AcDbLine
 10
-21.41068757797158
 20
74.28101923109607
 30
0.0
 11
-21.5141310217543
 21
74.23740359040832
 31
0.0
  0
LINE
  5
C0
330
88
100
AcDbEntity
  8
AM_9
100
AcDbLine
 10
-13.25951647204617
 20
68.91432792772646
 30
0.0
 11
-13.47929828043951
 21
69.73228068756094
 31
0.0
  0
LINE
  5
C1
330
88
100
AcDbEntity
  8
AM_9
100
AcDbLine
 10
-18.21921341898229
 20
61.49114684169012
 30
0.0
 11
-17.40168030621664
 21
61.71248452522642
 31
0.0
  0
LINE
  5
C2
330
88
100
AcDbEntity
  8
AM_9
100
AcDbLine
 10
-13.48463764382171
 20
69.74057071861937
 30
0.0
 11
-18.6986713966169
 21
72.96047211340407
 31
0.0
  0
LINE
  5
C3
330
88
100
AcDbEntity
  8
AM_9
100
AcDbLine
 10
-23.63415218020538
 20
64.37931474192825
 30
0.0
 11
-18.22906400465147
 21
61.49159335960771
 31
0.0
  0
LINE
  5
C4
330
88
100
AcDbEntity
  8
AM_9
100
AcDbLine
 10
-19.91270950658409
 20
71.70525015913232
 30
0.0
 11
-19.90278291800382
 21
71.69954084917985
 31
0.0
  0
LINE
  5
C5
330
88
100
AcDbEntity
  8
AM_9
100
AcDbLine
 10
-22.79946085253222
 20
66.72427666867357
 30
0.0
 11
-22.78953426395195
 21
66.71856735872113
 31
0.0
  0
LWPOLYLINE
  5
C6
330
88
100
AcDbEntity
  8
AM_9
100
AcDbPolyline
 90
        3
 70
     0
 43
0.0
 10
-21.16666666666666
 20
69.10581873546836
 10
-21.93573115597129
 20
67.88782419998016
 10
-22.78953426395195
 20
66.71856735872113
  0
LWPOLYLINE
  5
C7
330
88
100
AcDbEntity
  8
AM_9
100
AcDbPolyline
 90
        3
 70
     0
 43
0.0
 10
-19.90278291800382
 20
71.69954084917985
 10
-20.48952912606606
 20
70.38415062277605
 10
-21.16666666666666
 20
69.10581873546836
  0
ELLIPSE
  5
C8
330
88
100
AcDbEntity
  8
AM_9
100
AcDbEllipse
 10
-21.16666666666666
 20
68.67004002173006
 30
0.0
 11
2.492854874235793
 21
4.334244406583366
 31
0.0
210
0.0
220
0.0
230
1.0
 40
0.0435778713738338
 41
0.0
 42
6.283185307179586
  0
ELLIPSE
  5
C9
330
88
100
AcDbEntity
  8
AM_9
100
AcDbEllipse
 10
-23.76474287801811
 20
70.16433206886661
 30
0.0
 11
2.368212130523974
 21
4.117532186254448
 31
0.0
210
0.0
220
0.0
230
1.0
 40
0.043577871374283
 41
0.0
 42
6.283185307179586
  0
ELLIPSE
  5
CA
330
88
100
AcDbEntity
  8
AM_9
100
AcDbEllipse
 10
-15.33744967379358
 20
65.31734676530222
 30
0.0
 11
2.073054998933133
 21
3.604352233468732
 31
0.0
210
0.0
220
0.0
230
1.0
 40
0.0435778713738253
 41
0.0
 42
6.283185307179586
  0
ELLIPSE
  5
CB
330
88
100
AcDbEntity
  8
AM_9
100
AcDbEllipse
 10
-21.16666666666658
 20
68.67004002173012
 30
0.0
 11
2.467742684620055
 21
4.290582672198495
 31
0.0
210
0.0
220
0.0
230
1.0
 40
0.0435778713738326
 41
0.0
 42
6.283185307179586
  0
ELLIPSE
  5
CC
330
88
100
AcDbEntity
  8
AM_9
100
AcDbEllipse
 10
-15.85709583605351
 20
65.61622295846297
 30
0.0
 11
2.372215384484558
 21
4.124492511648979
 31
0.0
210
0.0
220
0.0
230
1.0
 40
0.0435778713738303
 41
0.0
 42
6.283185307179586
  0
ELLIPSE
  5
CE
330
88
100
AcDbEntity
  8
AM_4
100
AcDbEllipse
 10
-23.76474287801977
 20
70.164332068868
 30
0.0
 11
2.492854874235547
 21
4.334244406582996
 31
0.0
210
0.0
220
0.0
230
1.0
 40
0.0435778713738338
 41
0.1635171846012744
 42
2.978075468988122
  0
LINE
  5
CF
330
88
100
AcDbEntity
  8
AM_4
100
AcDbLine
 10
-21.18551659869339
 20
74.610395521088
 30
0.0
 11
-21.33588783819923
 21
74.45844559751123
 31
0.0
  0
LINE
  5
D0
330
88
100
AcDbEntity
  8
AM_4
100
AcDbLine
 10
-21.18560805567687
 20
74.61030310391568
 30
0.0
 11
-20.69849960776062
 21
75.0420701908443
 31
0.0
  0
LINE
  5
D1
330
88
100
AcDbEntity
  8
AM_4
100
AcDbLine
 10
-26.25509234032968
 20
65.90558725884257
 30
0.0
 11
-26.39216561213218
 21
65.39793018067225
 31
0.0
  0
LWPOLYLINE
  5
D2
330
88
100
AcDbEntity
  8
AM_4
100
AcDbPolyline
 90
        4
 70
     0
 43
0.0
 10
-26.39129874106226
 20
65.40113827489306
 10
-26.37735127468322
 20
65.4521038052571
 10
-26.18085768276815
 20
66.06281754609591
 10
-25.92980638748108
 20
66.6464913078928
  0
LINE
  5
D3
330
88
100
AcDbEntity
  8
AM_4
100
AcDbLine
 10
-24.61861136258915
 20
73.74132698640535
 30
0.0
 11
-25.22399744750865
 21
74.08951677706271
 31
0.0
  0
LINE
  5
D4
330
88
100
AcDbEntity
  8
AM_4
100
AcDbLine
 10
-27.89135216294094
 20
69.45187526201856
 30
0.0
 11
-27.28596607802145
 21
69.1036854713612
 31
0.0
  0
ELLIPSE
  5
D5
330
88
100
AcDbEntity
  8
AM_4
100
AcDbEllipse
 10
-26.55767480522481
 20
71.77069601954065
 30
0.0
 11
1.333677357716148
 21
2.318820757522076
 31
0.0
210
0.0
220
0.0
230
1.0
 40
0.0435778713738252
 41
0.0
 42
3.141592653589793
  0
ELLIPSE
  5
D6
330
88
100
AcDbEntity
  8
AM_4
100
AcDbEllipse
 10
-25.9514570225757
 20
71.42202787520858
 30
0.0
 11
1.333677357716156
 21
2.31882075752202
 31
0.0
210
0.0
220
0.0
230
1.0
 40
0.0435778713738175
 41
0.0164608596874318
 42
3.12513179390307
  0
LINE
  5
D7
330
88
100
AcDbEntity
  8
AM_4
100
AcDbLine
 10
-27.28661698061227
 20
69.10447790685875
 30
0.0
 11
-26.73421392080468
 21
68.43195977629874
 31
0.0
  0
LINE
  5
D8
330
88
100
AcDbEntity
  8
AM_4
100
AcDbLine
 10
-23.76054013359444
 20
73.602188140744
 30
0.0
 11
-24.61962363010592
 21
73.74149112864556
 31
0.0
  0
ELLIPSE
  5
D9
330
88
100
AcDbEntity
  8
AM_4
100
AcDbEllipse
 10
-29.41555863771346
 20
73.414417271392
 30
0.0
 11
1.180091346582838
 21
2.051785834404825
 31
0.0
210
0.0
220
0.0
230
1.0
 40
0.04357787137383
 41
0.0176242568679754
 42
3.123968396721925
  0
LINE
  5
DA
330
88
100
AcDbEntity
  8
AM_4
100
AcDbLine
 10
-30.59704245890954
 20
71.36385638168642
 30
0.0
 11
-29.26833852694001
 21
69.66762050380801
 31
0.0
  0
LINE
  5
DB
330
88
100
AcDbEntity
  8
AM_4
100
AcDbLine
 10
-26.10290451503558
 20
75.1712560352231
 30
0.0
 11
-28.23722630965707
 21
75.46679075270471
 31
0.0
  0
ELLIPSE
  5
DC
330
88
100
AcDbEntity
  8
AM_4
100
AcDbEllipse
 10
-27.68350783014456
 20
72.41822257330027
 30
0.0
 11
1.582962845139722
 21
2.752245198180404
 31
0.0
210
0.0
220
0.0
230
1.0
 40
0.0435778713738269
 41
6.266407863073577
 42
9.441555404875428
  0
LINE
  5
DD
330
88
100
AcDbEntity
  8
AM_4
100
AcDbLine
 10
-25.22314975336186
 20
74.08902922299619
 30
0.0
 11
-26.09875562635263
 21
75.16892313606495
 31
0.0
  0
LINE
  5
DE
330
88
100
AcDbEntity
  8
AM_4
100
AcDbLine
 10
-29.26423575053783
 20
69.66520743075083
 30
0.0
 11
-27.89050446879414
 21
69.45138770795205
 31
0.0
  0
LINE
  5
DF
330
88
100
AcDbEntity
  8
AM_4
100
AcDbLine
 10
-20.69849960776062
 20
75.0420701908443
 30
0.0
 11
-18.65875234650153
 21
73.86890286905793
 31
0.0
  0
LWPOLYLINE
  5
E0
330
88
100
AcDbEntity
  8
AM_4
100
AcDbPolyline
 90
        3
 70
     0
 43
0.0
 10
-21.59967936855888
 20
74.11795154358089
 10
-21.19145879749778
 20
74.60437971432718
 10
-21.18560805567687
 20
74.61030310391568
  0
ELLIPSE
  5
E1
330
88
100
AcDbEntity
  8
AM_4
100
AcDbEllipse
 10
-25.24461860286196
 20
71.01548744172388
 30
0.0
 11
1.487234716420429
 21
2.585805863607562
 31
0.0
210
0.0
220
0.0
230
1.0
 40
0.043577871373823
 41
0.032501073443453
 42
3.109091580146935
  0
LINE
  5
E2
330
88
100
AcDbEntity
  8
AM_4
100
AcDbLine
 10
-26.73472959417743
 20
68.43315321758743
 30
0.0
 11
-26.32162065673117
 21
67.47708046158533
 31
0.0
  0
LINE
  5
E3
330
88
100
AcDbEntity
  8
AM_4
100
AcDbLine
 10
-22.72769561994126
 20
73.72571918074138
 30
0.0
 11
-23.76183101849307
 21
73.60203374736538
 31
0.0
  0
LINE
  5
E4
330
88
100
AcDbEntity
  8
AM_4
100
AcDbLine
 10
-26.47200229965688
 20
65.08012320992684
 30
0.0
 11
-26.39129874106226
 21
65.40113827489306
 31
0.0
  0
LINE
  5
E5
330
88
100
AcDbEntity
  8
AM_4
100
AcDbLine
 10
-26.47200229965688
 20
65.08012320992684
 30
0.0
 11
-24.43225503839778
 21
63.90695588814049
 31
0.0
  0
LWPOLYLINE
  5
E6
330
88
100
AcDbEntity
  8
AM_4
100
AcDbPolyline
 90
        3
 70
     0
 43
0.0
 10
-22.14187528073469
 20
72.98736215935322
 10
-21.91435053949413
 20
73.57447534038187
 10
-21.59967936855888
 20
74.11795154358089
  0
LWPOLYLINE
  5
E7
330
88
100
AcDbEntity
  8
AM_4
100
AcDbPolyline
 90
        3
 70
     0
 43
0.0
 10
-25.92980638748108
 20
66.6464913078928
 10
-25.52158581641997
 20
67.35080883550825
 10
-25.02862662668282
 20
68.0063886688945
  0
ELLIPSE
  5
E8
330
88
100
AcDbEntity
  8
AM_4
100
AcDbEllipse
 10
-24.51854201628122
 20
70.59788211352028
 30
0.0
 11
1.798636619174149
 21
3.127230063290993
 31
0.0
210
0.0
220
0.0
230
1.0
 40
0.0435778713738295
 41
0.0572816622803174
 42
3.084310991309096
  0
LINE
  5
E9
330
88
100
AcDbEntity
  8
AM_4
100
AcDbLine
 10
-26.32203057283151
 20
67.48026848876623
 30
0.0
 11
-26.15366024659237
 21
66.17080741597243
 31
0.0
  0
LINE
  5
EA
330
88
100
AcDbEntity
  8
AM_4
100
AcDbLine
 10
-21.5141310217543
 20
74.23740359040832
 30
0.0
 11
-22.73065738734336
 21
73.72447038837632
 31
0.0
  0
LINE
  5
EB
330
88
100
AcDbEntity
  8
AM_4
100
AcDbLine
 10
-22.14187528073469
 20
72.98736215935322
 30
0.0
 11
-19.91270950658409
 21
71.70525015913232
 31
0.0
  0
LWPOLYLINE
  5
EC
330
88
100
AcDbEntity
  8
AM_4
100
AcDbPolyline
 90
        3
 70
     0
 43
0.0
 10
-23.76474287801998
 20
70.60011078260598
 10
-22.99567838871536
 20
71.8181053180942
 10
-22.14187528073469
 20
72.98736215935322
  0
LWPOLYLINE
  5
ED
330
88
100
AcDbEntity
  8
AM_4
100
AcDbPolyline
 90
        3
 70
     0
 43
0.0
 10
-25.02862662668282
 20
68.0063886688945
 10
-24.44188041862057
 20
69.32177889529832
 10
-23.76474287801998
 20
70.60011078260598
  0
LINE
  5
EE
330
88
100
AcDbEntity
  8
AM_4
100
AcDbLine
 10
-25.02862662668282
 20
68.0063886688945
 30
0.0
 11
-22.79946085253222
 21
66.72427666867357
 31
0.0
  0
ENDBLK
  5
8B
330
88
100
AcDbEntity
  8
0
100
AcDbBlockEnd
  0
BLOCK
  5
F1
330
EF
100
AcDbEntity
  8
0
100
AcDbBlockBegin
  2
3_125816_0_in_125870_2
 70
     2
 10
0.0
 20
0.0
 30
0.0
  3
3_125816_0_in_125870_2
  1

  0
ATTDEF
  5
F3
330
EF
100
AcDbEntity
  8
AM_6
100
AcDbText
 10
17.69999999999998
 20
49.98108159025712
 30
0.0
 40
0.5
  1
Set Screw Insert Metric Bore - Stainless Steel
100
AcDbAttributeDefinition
  3

  2
NN
 70
     8
280
     0
  0
ATTDEF
  5
F4
330
EF
100
AcDbEntity
  8
AM_6
100
AcDbText
 10
17.69999999999998
 20
49.48108159025712
 30
0.0
 40
0.5
  1
SC Bearing Insert -Metric
100
AcDbAttributeDefinition
  3

  2
NT
 70
     8
280
     0
  0
ATTDEF
  5
F5
330
EF
100
AcDbEntity
  8
AM_6
100
AcDbText
 10
17.69999999999998
 20
48.98108159025712
 30
0.0
 40
0.5
  1
125816
100
AcDbAttributeDefinition
  3

  2
NB
 70
     8
280
     0
  0
ATTDEF
  5
F6
330
EF
100
AcDbEntity
  8
AM_6
100
AcDbText
 10
17.69999999999998
 20
48.48108159025712
 30
0.0
 40
0.5
  1
$PN.
100
AcDbAttributeDefinition
  3

  2
NBSYN
 70
     8
280
     0
  0
ATTDEF
  5
F7
330
EF
100
AcDbEntity
  8
AM_6
100
AcDbText
 10
17.69999999999998
 20
47.98108159025712
 30
0.0
 40
0.5
  1
125816
100
AcDbAttributeDefinition
  3

  2
LINA
 70
     8
280
     0
  0
ATTDEF
  5
F8
330
EF
100
AcDbEntity
  8
AM_6
100
AcDbText
 10
17.69999999999998
 20
47.48108159025712
 30
0.0
 40
0.5
  1
211
100
AcDbAttributeDefinition
  3

  2
SERIES
 70
     8
280
     0
  0
ATTDEF
  5
F9
330
EF
100
AcDbEntity
  8
AM_6
100
AcDbText
 10
17.69999999999998
 20
46.98108159025712
 30
0.0
 40
0.5
  1
55
100
AcDbAttributeDefinition
  3

  2
SS
 70
     8
280
     0
  0
ATTDEF
  5
FA
330
EF
100
AcDbEntity
  8
AM_6
100
AcDbText
 10
17.69999999999998
 20
46.48108159025712
 30
0.0
 40
0.5
  1
125816
100
AcDbAttributeDefinition
  3

  2
PN
 70
     8
280
     0
  0
ATTDEF
  5
FB
330
EF
100
AcDbEntity
  8
AM_6
100
AcDbText
 10
17.69999999999998
 20
45.98108159025712
 30
0.0
 40
0.5
  1
INS-SC-55
100
AcDbAttributeDefinition
  3

  2
DESCRIPTION
 70
     8
280
     0
  0
ATTDEF
  5
FC
330
EF
100
AcDbEntity
  8
AM_6
100
AcDbText
 10
17.69999999999998
 20
45.48108159025712
 30
0.0
 40
0.5
  1
0.89
100
AcDbAttributeDefinition
  3

  2
WEIGHT
 70
     8
280
     0
  0
ATTDEF
  5
FD
330
EF
100
AcDbEntity
  8
AM_6
100
AcDbText
 10
17.69999999999998
 20
44.98108159025712
 30
0.0
 40
0.5
  1
56.4
100
AcDbAttributeDefinition
  3

  2
A
 70
     8
280
     0
  0
ATTDEF
  5
FE
330
EF
100
AcDbEntity
  8
AM_6
100
AcDbText
 10
17.69999999999998
 20
44.48108159025712
 30
0.0
 40
0.5
  1
23.9
100
AcDbAttributeDefinition
  3

  2
C
 70
     8
280
     0
  0
ATTDEF
  5
FF
330
EF
100
AcDbEntity
  8
AM_6
100
AcDbText
 10
17.69999999999998
 20
43.98108159025712
 30
0.0
 40
0.5
  1
100
100
AcDbAttributeDefinition
  3

  2
D
 70
     8
280
     0
  0
ATTDEF
  5
100
330
EF
100
AcDbEntity
  8
AM_6
100
AcDbText
 10
17.69999999999998
 20
43.48108159025712
 30
0.0
 40
0.5
  1
6.4
100
AcDbAttributeDefinition
  3

  2
J
 70
     8
280
     0
  0
ATTDEF
  5
101
330
EF
100
AcDbEntity
  8
AM_6
100
AcDbText
 10
17.69999999999998
 20
42.98108159025712
 30
0.0
 40
0.5
  1
68.8
100
AcDbAttributeDefinition
  3

  2
L
 70
     8
280
     0
  0
ATTDEF
  5
102
330
EF
100
AcDbEntity
  8
AM_6
100
AcDbText
 10
17.69999999999998
 20
42.48108159025712
 30
0.0
 40
0.5
  1
M10 x 1.5
100
AcDbAttributeDefinition
  3

  2
N
 70
     8
280
     0
  0
ATTDEF
  5
103
330
EF
100
AcDbEntity
  8
AM_6
100
AcDbText
 10
17.69999999999998
 20
41.98108159025712
 30
0.0
 40
0.5
  1
22.1
100
AcDbAttributeDefinition
  3

  2
W
 70
     8
280
     0
  0
ATTDEF
  5
104
330
EF
100
AcDbEntity
  8
AM_6
100
AcDbText
 10
17.69999999999998
 20
41.48108159025712
 30
0.0
 40
0.5
  1
34.3
100
AcDbAttributeDefinition
  3

  2
Y
 70
     8
280
     0
  0
ATTDEF
  5
105
330
EF
100
AcDbEntity
  8
AM_6
100
AcDbText
 10
17.69999999999998
 20
40.98108159025712
 30
0.0
 40
0.5
  1
baldor
100
AcDbAttributeDefinition
  3

  2
COMPANY
 70
     8
280
     0
  0
ELLIPSE
  5
106
330
EF
100
AcDbEntity
  8
AM_9
100
AcDbEllipse
 10
-3.000000000000008
 20
-37.29988270759038
 30
0.0
 11
-0.2172727272727299
 21
3.237615958726084E-9
 31
0.0
210
0.0
220
0.0
230
1.0
 40
0.7071067811865348
 41
0.0
 42
6.283185307179586
  0
LWPOLYLINE
  5
107
330
EF
100
AcDbEntity
  8
AM_9
100
AcDbPolyline
 90
       26
 70
     0
 43
0.0
 10
-5.389997055580379
 20
-35.76719783999603
 10
-5.370627828989006
 20
-36.06022027356415
 10
-5.309943483864239
 20
-36.3627171143057
 10
-5.210954293269868
 20
-36.64991385984784
 10
-5.076904278868851
 20
-36.91810375976616
 10
-4.911067598316165
 20
-37.16421297945152
 10
-4.716613755965645
 20
-37.38571784207878
 10
-4.496489066400165
 20
-37.58052839497535
 10
-4.253334397180398
 20
-37.74682734216388
 10
-3.989475560921848
 20
-37.88286177555512
 10
-3.707033659004487
 20
-37.98670555933053
 10
-3.408189618236362
 20
-38.0560429547067
 10
-3.095586667033989
 20
-38.08805194045912
 10
-2.772806365004339
 20
-38.07946351087892
 10
-2.444924460746653
 20
-38.02687834759928
 10
-2.119132699148004
 20
-37.92751831213494
 10
-1.84308531817697
 20
-37.80136761625555
 10
-1.586777727991741
 20
-37.64253243890018
 10
-1.353928077173544
 20
-37.4536054283325
 10
-1.147856955021819
 20
-37.23748096082439
 10
-0.97160464086243
 20
-36.99743109214097
 10
-0.8279002706583528
 20
-36.73714561876622
 10
-0.7190757398759153
 20
-36.46072342508036
 10
-0.6418793874395802
 20
-36.14361805502784
 10
-0.6108093539406254
 20
-35.82429617498907
 10
-0.6100021964012616
 20
-35.76036683222149
  0
ELLIPSE
  5
108
330
EF
100
AcDbEntity
  8
AM_9
100
AcDbEllipse
 10
-3.000000000000029
 20
-35.76353251937596
 30
0.0
 11
2.389999999999974
 21
0.0
 31
0.0
210
0.0
220
0.0
230
1.0
 40
0.7071067811865452
 41
1.570796326794897
 42
3.141592653589793
  0
LINE
  5
109
330
EF
100
AcDbEntity
  8
AM_9
100
AcDbLine
 10
-0.6100000000000133
 20
-35.76353251937597
 30
0.0
 11
-0.6100000000000133
 21
-34.45887581875291
 31
0.0
  0
LINE
  5
10A
330
EF
100
AcDbEntity
  8
AM_9
100
AcDbLine
 10
-5.390000000000001
 20
-35.17056227228866
 30
0.0
 11
-5.390000000000001
 21
-35.76353251937597
 31
0.0
  0
LWPOLYLINE
  5
10B
330
EF
100
AcDbEntity
  8
AM_9
100
AcDbPolyline
 90
       21
 70
     0
 43
0.0
 10
-0.6100000141659058
 20
-34.45761350248641
 10
-0.6121682889260738
 20
-34.39046001656671
 10
-0.6602352145686565
 20
-34.12184475449126
 10
-0.7710020563763843
 20
-33.87631904276972
 10
-0.9402130467816399
 20
-33.65748626534031
 10
-1.166427258503192
 20
-33.46911396353081
 10
-1.440554425572329
 20
-33.31783561781758
 10
-1.763823291457006
 20
-33.20509488117192
 10
-2.120308636118474
 20
-33.1369013433813
 10
-2.510111806495205
 20
-33.11507794899476
 10
-2.913858184689231
 20
-33.14147160185829
 10
-3.325127710733724
 20
-33.21704813557555
 10
-3.727584050068861
 20
-33.33926965891544
 10
-4.107623112495904
 20
-33.50490291212642
 10
-4.456051404590884
 20
-33.70965359690366
 10
-4.757267345839661
 20
-33.94480449026975
 10
-5.008249783195746
 20
-34.20655428437546
 10
-5.197333985564834
 20
-34.48283816360486
 10
-5.324471262737869
 20
-34.77029147556493
 10
-5.384302668445748
 20
-35.05681468608166
 10
-5.389999996634051
 20
-35.17150143871338
  0
LWPOLYLINE
  5
10C
330
EF
100
AcDbEntity
  8
AM_9
100
AcDbPolyline
 90
       15
 70
     0
 43
0.0
 10
-5.389999996634051
 20
-35.17150143871338
 10
-5.378140293438952
 20
-35.33824591205973
 10
-5.305892321277422
 20
-35.60470978014404
 10
-5.170882350135882
 20
-35.8506401356876
 10
-4.975870608239567
 20
-36.06911226487317
 10
-4.727742840163798
 20
-36.25377524122327
 10
-4.42986752958499
 20
-36.40024198632097
 10
-4.093819901097039
 20
-36.50294698539886
 10
-3.722555342641289
 20
-36.55905291709206
 10
-3.332104408924912
 20
-36.56576562238169
 10
-2.926010567968936
 20
-36.52118117405364
 10
-2.522399478700621
 20
-36.42681542848455
 10
-2.128090615612142
 20
-36.28279219446778
 10
-1.758823683550144
 20
-36.09471197253836
 10
-1.324478521384608
 20
-35.78442335325093
  0
ELLIPSE
  5
10D
330
EF
100
AcDbEntity
  8
AM_9
100
AcDbEllipse
 10
-3.000000000000008
 20
-35.76353251937597
 30
0.0
 11
2.389999999999997
 21
0.0
 31
0.0
210
0.0
220
0.0
230
1.0
 40
0.7071067811865476
 41
3.141592653589793
 42
6.283185307179586
  0
ELLIPSE
  5
10E
330
EF
100
AcDbEntity
  8
AM_9
100
AcDbEllipse
 10
-32.52500000000001
 20
24.06615881273949
 30
0.0
 11
4.187999999999995
 21
0.0
 31
0.0
210
0.0
220
0.0
230
1.0
 40
0.7071067811865479
 41
3.141592653589793
 42
4.71238898038469
  0
LINE
  5
10F
330
EF
100
AcDbEntity
  8
AM_9
100
AcDbLine
 10
-28.33700000000001
 20
19.445167292864
 30
0.0
 11
-28.33700000000001
 21
24.06615881273951
 31
0.0
  0
LINE
  5
110
330
EF
100
AcDbEntity
  8
AM_9
100
AcDbLine
 10
-36.713
 20
24.06615881273951
 30
0.0
 11
-36.713
 21
19.44394221740378
 31
0.0
  0
ELLIPSE
  5
111
330
EF
100
AcDbEntity
  8
AM_9
100
AcDbEllipse
 10
-32.525
 20
24.06615881273952
 30
0.0
 11
4.187999999999992
 21
0.0
 31
0.0
210
0.0
220
0.0
230
1.0
 40
0.7071067811865459
 41
5.341766014021411
 42
7.658602601997398
  0
ELLIPSE
  5
112
330
EF
100
AcDbEntity
  8
AM_9
100
AcDbEllipse
 10
-32.52500000000001
 20
24.06615881273968
 30
0.0
 11
4.187999999999999
 21
0.0
 31
0.0
210
0.0
220
0.0
230
1.0
 40
0.7071067811865048
 41
1.375417294817808
 42
3.141592653589793
  0
ELLIPSE
  5
113
330
EF
100
AcDbEntity
  8
AM_9
100
AcDbEllipse
 10
-32.52500000000003
 20
24.06615881273951
 30
0.0
 11
4.188000000000063
 21
0.0
 31
0.0
210
0.0
220
0.0
230
1.0
 40
0.707106781186539
 41
4.71238898038469
 42
5.341766014021414
  0
LWPOLYLINE
  5
114
330
EF
100
AcDbEntity
  8
AM_9
100
AcDbPolyline
 90
       21
 70
     0
 43
0.0
 10
-36.71299998520505
 20
19.44518756090405
 10
-36.68747490281287
 20
19.76915169901946
 10
-36.55264728677022
 20
20.23899938855433
 10
-36.30702880781055
 20
20.67572149958245
 10
-35.95467882766436
 20
21.07004321832127
 10
-35.50763129921576
 20
21.41284765221096
 10
-34.97118965893423
 20
21.69967953482504
 10
-34.36537366741305
 20
21.92273727687785
 10
-33.70563622600086
 20
22.07775676948269
 10
-33.01185769349357
 20
22.16298728950081
 10
-32.31085713540498
 20
22.17649236732787
 10
-31.61594538929851
 20
22.12012404330573
 10
-30.95056984116498
 20
21.99472858291688
 10
-30.32904535214871
 20
21.80286495736639
 10
-29.76498659980177
 20
21.54440471277553
 10
-29.27791555060663
 20
21.22555183952979
 10
-28.8793703166049
 20
20.84763664760113
 10
-28.58396379068214
 20
20.42150154356944
 10
-28.40237548836192
 20
19.9578521021308
 10
-28.33711604222496
 20
19.46746889777918
 10
-28.33700000441301
 20
19.44557242941211
  0
LWPOLYLINE
  5
115
330
EF
100
AcDbEntity
  8
AM_9
100
AcDbPolyline
 90
       11
 70
     0
 43
0.0
 10
-28.33700000441301
 20
19.44557242941211
 10
-28.3907326308175
 20
18.96866655012094
 10
-28.55869132956799
 20
18.47146074159414
 10
-28.8373265843243
 20
17.99165197755537
 10
-29.21728563179887
 20
17.54405294548645
 10
-29.69431845305433
 20
17.14048618936702
 10
-30.25080984290787
 20
16.79907473344485
 10
-30.87596138161043
 20
16.53222860373279
 10
-31.54854226825986
 20
16.35127222627219
 10
-32.03331040396535
 20
16.28097712020981
 10
-32.52500000000001
 20
16.25725610563742
  0
LINE
  5
116
330
EF
100
AcDbEntity
  8
AM_9
100
AcDbLine
 10
-28.62425249088746
 20
31.46080152498437
 30
0.0
 11
-28.32479414179228
 21
31.72289934532584
 31
0.0
  0
LINE
  5
117
330
EF
100
AcDbEntity
  8
AM_9
100
AcDbLine
 10
-36.72929973799104
 20
31.72648247123028
 30
0.0
 11
-36.42574750911255
 21
31.46080152498437
 31
0.0
  0
ELLIPSE
  5
118
330
EF
100
AcDbEntity
  8
AM_9
100
AcDbEllipse
 10
-32.52500000000001
 20
31.9821453402621
 30
0.0
 11
4.187999999999995
 21
0.0
 31
0.0
210
0.0
220
0.0
230
1.0
 40
0.3420201433256692
 41
3.51411961944245
 42
5.910658341326926
  0
ELLIPSE
  5
119
330
EF
100
AcDbEntity
  8
AM_9
100
AcDbEllipse
 10
-32.52500000000325
 20
31.98214534026584
 30
0.0
 11
4.188000000003434
 21
0.0
 31
0.0
210
0.0
220
0.0
230
1.0
 40
0.3420201433259245
 41
-0.3725269658545587
 42
-0.3063298544788413
  0
LINE
  5
11A
330
EF
100
AcDbEntity
  8
AM_9
100
AcDbLine
 10
-28.33700000000001
 20
25.84118933832029
 30
0.0
 11
-28.33700000000001
 21
31.9821453402621
 31
0.0
  0
LINE
  5
11B
330
EF
100
AcDbEntity
  8
AM_9
100
AcDbLine
 10
-36.713
 20
31.9821453402621
 30
0.0
 11
-36.713
 21
25.83956130362949
 31
0.0
  0
ELLIPSE
  5
11C
330
EF
100
AcDbEntity
  8
AM_9
100
AcDbEllipse
 10
-32.52499999999777
 20
31.98214534026392
 30
0.0
 11
4.188000000002326
 21
0.0
 31
0.0
210
0.0
220
0.0
230
1.0
 40
0.3420201433257877
 41
3.427255861756565
 42
3.514119619443322
  0
LWPOLYLINE
  5
11D
330
EF
100
AcDbEntity
  8
AM_9
100
AcDbPolyline
 90
       21
 70
     0
 43
0.0
 10
-36.71299998520505
 20
25.84166746955609
 10
-36.68747490281287
 20
25.68000191995406
 10
-36.55264728677022
 20
25.42693626898204
 10
-36.30702880781055
 20
25.17098822562741
 10
-35.95467882766436
 20
24.92086289310032
 10
-35.50763129921576
 20
24.68793080213241
 10
-34.97118965893423
 20
24.48094520419914
 10
-34.36537366741305
 20
24.31194009576488
 10
-33.70563622600086
 20
24.1901891470042
 10
-33.01185769349357
 20
24.1215523317277
 10
-32.31085713540498
 20
24.11067902597404
 10
-31.61594538929851
 20
24.15617605823414
 10
-30.95056984116498
 20
24.25587095671585
 10
-30.32904535214871
 20
24.4036688732419
 10
-29.76498659980177
 20
24.59437320241598
 10
-29.27791555060664
 20
24.81711624572534
 10
-28.8793703166049
 20
25.06414318227666
 10
-28.58396379068214
 20
25.32261921117255
 10
-28.40237548836192
 20
25.58096123070434
 10
-28.33711604222496
 20
25.83086757284094
 10
-28.33700000441301
 20
25.84148131471661
  0
LWPOLYLINE
  5
11E
330
EF
100
AcDbEntity
  8
AM_9
100
AcDbPolyline
 90
       11
 70
     0
 43
0.0
 10
-28.33700000441301
 20
25.84148131471661
 10
-28.39073263081751
 20
26.06166254504354
 10
-28.55869132956799
 20
26.27049640582905
 10
-28.83732658432431
 20
26.45275505625852
 10
-29.21728563179887
 20
26.6071219524608
 10
-29.69431845305433
 20
26.73376453804679
 10
-30.25080984290787
 20
26.83216814966049
 10
-30.87596138161043
 20
26.90369019055526
 10
-31.54854226825986
 20
26.94950408031501
 10
-32.03331040396535
 20
26.96677026145785
 10
-32.52500000000001
 20
26.97250417652544
  0
LWPOLYLINE
  5
11F
330
EF
100
AcDbEntity
  8
AM_9
100
AcDbPolyline
 90
       11
 70
     0
 43
0.0
 10
-32.52500000000001
 20
16.25725610563742
 10
-33.22345735671454
 20
16.30546779846162
 10
-33.9021158506304
 20
16.44658772855134
 10
-34.54114352959085
 20
16.67618116970286
 10
-35.12384223392554
 20
16.98406187215931
 10
-35.63686963259524
 20
17.36274902562001
 10
-36.06265106352416
 20
17.79574588430894
 10
-36.38932146073591
 20
18.27109477508306
 10
-36.6064469271238
 20
18.77035229826254
 10
-36.70556764036248
 20
19.2734969160427
 10
-36.71299998520505
 20
19.44518756090405
  0
LWPOLYLINE
  5
120
330
EF
100
AcDbEntity
  8
AM_9
100
AcDbPolyline
 90
       11
 70
     0
 43
0.0
 10
-32.52500000000001
 20
26.97250417652544
 10
-33.22345735671454
 20
26.96084372343962
 10
-33.9021158506304
 20
26.9256139496043
 10
-34.54114352959085
 20
26.86568822919552
 10
-35.12384223392554
 20
26.77984492702169
 10
-35.63686963259524
 20
26.66540180009877
 10
-36.06265106352416
 20
26.52220277636099
 10
-36.3893214607359
 20
26.3487279335409
 10
-36.6064469271238
 20
26.14753838193264
 10
-36.70556764036248
 20
25.92318522996943
 10
-36.71299998520505
 20
25.84166746955609
  0
LINE
  5
121
330
EF
100
AcDbEntity
  8
AM_9
100
AcDbLine
 10
-42.32400000000001
 20
-27.5
 30
0.0
 11
11.32399999999998
 21
-27.5
 31
0.0
  0
LINE
  5
122
330
EF
100
AcDbEntity
  8
AM_9
100
AcDbLine
 10
11.32399999999998
 20
27.5
 30
0.0
 11
-42.32400000000001
 21
27.5
 31
0.0
  0
LINE
  5
123
330
EF
100
AcDbEntity
  8
AM_9
100
AcDbLine
 10
11.32399999999998
 20
-27.5
 30
0.0
 11
12.69999999999998
 21
-28.876
 31
0.0
  0
LINE
  5
124
330
EF
100
AcDbEntity
  8
AM_9
100
AcDbLine
 10
12.69999999999998
 20
28.876
 30
0.0
 11
11.32399999999998
 21
27.5
 31
0.0
  0
LINE
  5
125
330
EF
100
AcDbEntity
  8
AM_9
100
AcDbLine
 10
-42.32400000000001
 20
27.5
 30
0.0
 11
-43.7
 21
28.876
 31
0.0
  0
LINE
  5
126
330
EF
100
AcDbEntity
  8
AM_9
100
AcDbLine
 10
-43.7
 20
-28.876
 30
0.0
 11
-42.32400000000001
 21
-27.5
 31
0.0
  0
LWPOLYLINE
  5
127
330
EF
100
AcDbEntity
  8
AM_9
100
AcDbPolyline
 90
       22
 70
     0
 43
0.0
 10
-34.6208012330212
 20
26.86462213528159
 10
-35.0658474479383
 20
26.70763055186163
 10
-35.6937820038571
 20
26.40104935723146
 10
-36.22750610925578
 20
26.02257324524598
 10
-36.62830696920344
 20
25.60004623521261
 10
-36.90936590223744
 20
25.12739094685627
 10
-37.05102372630736
 20
24.64964425765167
 10
-37.07096924801289
 20
24.15210704609576
 10
-36.9732439923342
 20
23.67095938020454
 10
-36.76680637764182
 20
23.19948738373088
 10
-36.45550021379525
 20
22.74888409426017
 10
-36.05223126294008
 20
22.33448424621574
 10
-35.54324890371345
 20
21.95159221706766
 10
-34.96194470478896
 20
21.63096707452455
 10
-34.28326017696072
 20
21.36920789660609
 10
-33.55966876349716
 20
21.19414508494005
 10
-32.77587619231452
 20
21.11035585550531
 10
-31.98524459526793
 20
21.12890625050551
 10
-31.19561441678396
 20
21.25385291185839
 10
-30.44400968189647
 20
21.48042474533711
 10
-29.87584904659357
 20
21.73635966979617
 10
-29.36032784575941
 20
22.04977586373637
  0
LWPOLYLINE
  5
128
330
EF
100
AcDbEntity
  8
AM_9
100
AcDbPolyline
 90
        8
 70
     0
 43
0.0
 10
-30.39599946419091
 20
26.85431484805685
 10
-30.51785682549783
 20
26.89112488731945
 10
-31.24011940053852
 20
27.05666964864853
 10
-31.99595333363392
 20
27.14718156514201
 10
-32.79364274792343
 20
27.16034727796896
 10
-33.58387858823087
 20
27.09218824685605
 10
-34.35131374193204
 20
26.94046697594504
 10
-34.6208012330212
 20
26.86462213528159
  0
LWPOLYLINE
  5
129
330
EF
100
AcDbEntity
  8
AM_9
100
AcDbPolyline
 90
       13
 70
     0
 43
0.0
 10
-29.36032784575941
 20
22.04977586373637
 10
-28.91050024193219
 20
22.4139312098307
 10
-28.53696414984866
 20
22.81996567388057
 10
-28.22377623946361
 20
23.31239602482565
 10
-28.03206960135922
 20
23.82838661112938
 10
-27.97219923054711
 20
24.3215134617585
 10
-28.03067012969689
 20
24.8050691616993
 10
-28.20050933557246
 20
25.25236859267806
 10
-28.47374207899777
 20
25.66675666671491
 10
-28.8514793169847
 20
26.04687596074739
 10
-29.31526484658306
 20
26.37713523613775
 10
-29.88433430096685
 20
26.66607869359174
 10
-30.39599946419091
 20
26.85431484805685
  0
LINE
  5
12A
330
EF
100
AcDbEntity
  8
AM_9
100
AcDbLine
 10
-25.39999999999999
 20
-34.40000000000001
 30
0.0
 11
-21.35
 21
-34.40000000000001
 31
0.0
  0
LINE
  5
12B
330
EF
100
AcDbEntity
  8
AM_9
100
AcDbLine
 10
-21.35
 20
34.40000000000001
 30
0.0
 11
-25.39999999999999
 21
34.40000000000001
 31
0.0
  0
LINE
  5
12C
330
EF
100
AcDbEntity
  8
AM_9
100
AcDbLine
 10
12.69999999999997
 20
33.02400000000001
 30
0.0
 11
11.32399999999997
 21
34.40000000000001
 31
0.0
  0
LINE
  5
12D
330
EF
100
AcDbEntity
  8
AM_9
100
AcDbLine
 10
11.32399999999997
 20
-34.40000000000001
 30
0.0
 11
12.69999999999997
 21
-33.02400000000001
 31
0.0
  0
LINE
  5
12E
330
EF
100
AcDbEntity
  8
AM_9
100
AcDbLine
 10
12.69999999999997
 20
33.02400000000001
 30
0.0
 11
12.69999999999997
 21
-33.02400000000001
 31
0.0
  0
LINE
  5
12F
330
EF
100
AcDbEntity
  8
AM_9
100
AcDbLine
 10
2.549999999999995
 20
-34.40000000000001
 30
0.0
 11
11.32399999999997
 21
-34.40000000000001
 31
0.0
  0
LINE
  5
130
330
EF
100
AcDbEntity
  8
AM_9
100
AcDbLine
 10
11.32399999999997
 20
34.40000000000001
 30
0.0
 11
2.549999999999995
 21
34.40000000000001
 31
0.0
  0
LINE
  5
131
330
EF
100
AcDbEntity
  8
AM_9
100
AcDbLine
 10
11.32399999999997
 20
34.40000000000001
 30
0.0
 11
11.32399999999997
 21
-34.40000000000001
 31
0.0
  0
LINE
  5
132
330
EF
100
AcDbEntity
  8
AM_9
100
AcDbLine
 10
-16.75333333333334
 20
-47.61000000000003
 30
0.0
 11
-13.56666666666668
 21
-47.61000000000003
 31
0.0
  0
LINE
  5
133
330
EF
100
AcDbEntity
  8
AM_9
100
AcDbLine
 10
-13.56666666666668
 20
47.61000000000003
 30
0.0
 11
-16.75333333333334
 21
47.61000000000003
 31
0.0
  0
LINE
  5
134
330
EF
100
AcDbEntity
  8
AM_9
100
AcDbLine
 10
2.549999999999993
 20
46.96542330695223
 30
0.0
 11
2.549999999999993
 21
-46.96542330695223
 31
0.0
  0
ARC
  5
135
330
EF
100
AcDbEntity
  8
AM_9
100
AcDbCircle
 10
1.593999999999986
 20
-46.96542330695224
 30
0.0
 40
0.9560000000000012
100
AcDbArc
 50
291.4124670468849
 51
0.0000008537736463
  0
ARC
  5
136
330
EF
100
AcDbEntity
  8
AM_9
100
AcDbCircle
 10
1.593999999999987
 20
46.96542330695224
 30
0.0
 40
0.9560000000000066
100
AcDbArc
 50
0.0
 51
68.58753295311513
  0
LINE
  5
137
330
EF
100
AcDbEntity
  8
AM_9
100
AcDbLine
 10
-21.35000000000001
 20
46.96542332119775
 30
0.0
 11
-21.35000000000001
 21
-46.96542332119775
 31
0.0
  0
ARC
  5
138
330
EF
100
AcDbEntity
  8
AM_9
100
AcDbCircle
 10
-20.39400000000002
 20
-46.96542330695224
 30
0.0
 40
0.9559999999999889
100
AcDbArc
 50
180.0
 51
248.5875329531163
  0
ARC
  5
139
330
EF
100
AcDbEntity
  8
AM_9
100
AcDbCircle
 10
-20.39400000000002
 20
46.96542330695224
 30
0.0
 40
0.9559999999999935
100
AcDbArc
 50
111.4124670468837
 51
180.0
  0
ARC
  5
13A
330
EF
100
AcDbEntity
  8
AM_9
100
AcDbCircle
 10
-9.400000000000267
 20
-18.93000000000108
 30
0.0
 40
31.06999999999891
100
AcDbArc
 50
248.5875329531156
 51
256.3099227445072
  0
ARC
  5
13B
330
EF
100
AcDbEntity
  8
AM_9
100
AcDbCircle
 10
-9.40000000000065
 20
18.93000000000229
 30
0.0
 40
31.06999999999764
100
AcDbArc
 50
103.6900772554926
 51
111.4124670468845
  0
LINE
  5
13C
330
EF
100
AcDbEntity
  8
AM_9
100
AcDbLine
 10
-20.74301587301589
 20
47.85543674526818
 30
0.0
 11
-20.74301587301589
 21
-47.85543674526818
 31
0.0
  0
LINE
  5
13D
330
EF
100
AcDbEntity
  8
AM_9
100
AcDbLine
 10
-16.75333333333334
 20
49.11730509483896
 30
0.0
 11
-16.75333333333334
 21
-49.11730509483896
 31
0.0
  0
LWPOLYLINE
  5
13E
330
EF
100
AcDbEntity
  8
AM_9
100
AcDbPolyline
 90
        6
 70
     0
 43
0.0
 10
-1.324478521384608
 20
-35.78442335325093
 10
-1.065861052189502
 20
-35.52843738871618
 10
-0.8594445327795852
 20
-35.25254054503782
 10
-0.712334973829231
 20
-34.96413940100815
 10
-0.6287318483766645
 20
-34.67222498052489
 10
-0.6100000141659058
 20
-34.45761350248641
  0
ARC
  5
13F
330
EF
100
AcDbEntity
  8
AM_9
100
AcDbCircle
 10
-9.40000000000066
 20
-18.92999999999457
 30
0.0
 40
31.07000000000531
100
AcDbArc
 50
262.2930851783904
 51
291.4124670468815
  0
ARC
  5
140
330
EF
100
AcDbEntity
  8
AM_9
100
AcDbCircle
 10
-9.39999999999997
 20
18.9300000000003
 30
0.0
 40
31.06999999999972
100
AcDbArc
 50
68.5875329531158
 51
97.70691482161223
  0
LINE
  5
141
330
EF
100
AcDbEntity
  8
AM_9
100
AcDbLine
 10
-13.56666666666668
 20
49.71934537934981
 30
0.0
 11
-13.56666666666668
 21
-49.71934537934981
 31
0.0
  0
LINE
  5
142
330
EF
100
AcDbEntity
  8
AM_9
100
AcDbLine
 10
1.943015873015871
 20
47.85543674526818
 30
0.0
 11
1.943015873015871
 21
-47.85543674526818
 31
0.0
  0
LWPOLYLINE
  5
143
330
EF
100
AcDbEntity
  8
AM_4
100
AcDbPolyline
 90
       15
 70
     0
 43
0.0
 10
-28.3206474899404
 20
31.72652866405545
 10
-28.57824180455807
 20
31.53329331548225
 10
-28.97723491512118
 20
31.30902686255677
 10
-29.48193612588775
 20
31.09715762679734
 10
-30.05947128850105
 20
30.91614727778527
 10
-30.73485773508207
 20
30.7656409077706
 10
-31.45589255067659
 20
30.66301309226916
 10
-32.23830828620893
 20
30.61211087346011
 10
-33.02852924959347
 20
30.62006353474562
 10
-33.81925428941284
 20
30.68931029876957
 10
-34.57299294831537
 20
30.81619469850374
 10
-35.26153241687946
 20
30.99444413427851
 10
-35.86920490363957
 20
31.2160031022881
 10
-36.35661581073708
 20
31.46163828527125
 10
-36.72943695344021
 20
31.72660256763227
  0
LWPOLYLINE
  5
144
330
EF
100
AcDbEntity
  8
AM_4
100
AcDbPolyline
 90
       24
 70
     0
 43
0.0
 10
-36.72943695344021
 20
31.72660256763227
 10
-36.73064229756592
 20
31.72765845596381
 10
-36.96256262611011
 20
31.98574035589578
 10
-37.07101396116875
 20
32.24179989185876
 10
-37.05360528678627
 20
32.47345867864615
 10
-36.92213036561931
 20
32.68860587624835
 10
-36.68351550979946
 20
32.87979714373324
 10
-36.34690334845158
 20
33.04723275054678
 10
-35.90521425455697
 20
33.193858012267
 10
-35.38372412413878
 20
33.31341827868518
 10
-34.75928319124897
 20
33.41112067161956
 10
-34.07914948150456
 20
33.4805493812251
 10
-33.32222093847961
 20
33.52432330865068
 10
-32.54401410777732
 20
33.53928778057465
 10
-31.74392055627063
 20
33.52492484949587
 10
-30.96583609467129
 20
33.48015133077681
 10
-30.23187249206304
 20
33.40346099819573
 10
-29.56506330973516
 20
33.29348271175223
 10
-29.00285091636364
 20
33.1524854592903
 10
-28.54543558285319
 20
32.97768829518883
 10
-28.22795060636
 20
32.78157165153963
 10
-28.03332474941129
 20
32.55869380045402
 10
-27.97947472007681
 20
32.40958772657501
 10
-27.9770568230582
 20
32.25379026543432
  0
ELLIPSE
  5
145
330
EF
100
AcDbEntity
  8
AM_4
100
AcDbEllipse
 10
-32.52499999999999
 20
31.98214534026209
 30
0.0
 11
4.188000000000017
 21
0.0
 31
0.0
210
0.0
220
0.0
230
1.0
 40
0.3420201433256675
 41
5.97685545270279
 42
9.42477796076938
  0
ELLIPSE
  5
146
330
EF
100
AcDbEntity
  8
AM_4
100
AcDbEllipse
 10
-32.52499999999984
 20
31.98214534026197
 30
0.0
 11
4.188000000000159
 21
0.0
 31
0.0
210
0.0
220
0.0
230
1.0
 40
0.3420201433256652
 41
3.141592653589793
 42
3.4272558617555
  0
LWPOLYLINE
  5
147
330
EF
100
AcDbEntity
  8
AM_4
100
AcDbPolyline
 90
        4
 70
     0
 43
0.0
 10
-27.9770568230582
 20
32.25379026543432
 10
-28.06946107462991
 20
32.01379654550975
 10
-28.27160301242778
 20
31.77108778700879
 10
-28.3206474899404
 20
31.72652866405545
  0
LINE
  5
148
330
EF
100
AcDbEntity
  8
AM_4
100
AcDbLine
 10
-42.32400000000001
 20
-34.40000000000001
 30
0.0
 11
-25.39999999999999
 21
-34.40000000000001
 31
0.0
  0
LINE
  5
149
330
EF
100
AcDbEntity
  8
AM_4
100
AcDbLine
 10
-25.39999999999999
 20
34.40000000000001
 30
0.0
 11
-42.32400000000001
 21
34.40000000000001
 31
0.0
  0
LINE
  5
14A
330
EF
100
AcDbEntity
  8
AM_4
100
AcDbLine
 10
-43.7
 20
-33.02400000000001
 30
0.0
 11
-42.32400000000001
 21
-34.40000000000001
 31
0.0
  0
LINE
  5
14B
330
EF
100
AcDbEntity
  8
AM_4
100
AcDbLine
 10
-42.32400000000001
 20
34.40000000000001
 30
0.0
 11
-43.7
 21
33.02400000000001
 31
0.0
  0
LINE
  5
14C
330
EF
100
AcDbEntity
  8
AM_4
100
AcDbLine
 10
-43.7
 20
33.02400000000001
 30
0.0
 11
-43.7
 21
-33.02400000000001
 31
0.0
  0
LINE
  5
14D
330
EF
100
AcDbEntity
  8
AM_4
100
AcDbLine
 10
-42.32400000000001
 20
34.40000000000001
 30
0.0
 11
-42.32400000000001
 21
-34.40000000000001
 31
0.0
  0
ENDBLK
  5
F2
330
EF
100
AcDbEntity
  8
0
100
AcDbBlockEnd
  0
BLOCK
  5
150
330
14E
100
AcDbEntity
  8
0
100
AcDbBlockBegin
  2
4_125870H_0_in_125870_2
 70
     2
 10
0.0
 20
0.0
 30
0.0
  3
4_125870H_0_in_125870_2
  1

  0
ATTDEF
  5
152
330
14E
100
AcDbEntity
  8
AM_6
100
AcDbText
 10
23.07
 20
81.05
 30
0.0
 40
0.5
  1
FC-SC -M-Housing
100
AcDbAttributeDefinition
  3

  2
NN
 70
     8
280
     0
  0
ATTDEF
  5
153
330
14E
100
AcDbEntity
  8
AM_6
100
AcDbText
 10
23.07
 20
80.55
 30
0.0
 40
0.5
  1
SC Piloted Flange Bearings -(Normal Duty)
100
AcDbAttributeDefinition
  3

  2
NT
 70
     8
280
     0
  0
ATTDEF
  5
154
330
14E
100
AcDbEntity
  8
AM_6
100
AcDbText
 10
23.07
 20
80.05
 30
0.0
 40
0.5
  1
125870H
100
AcDbAttributeDefinition
  3

  2
NB
 70
     8
280
     0
  0
ATTDEF
  5
155
330
14E
100
AcDbEntity
  8
AM_6
100
AcDbText
 10
23.07
 20
79.55
 30
0.0
 40
0.5
  1
$PN.H
100
AcDbAttributeDefinition
  3

  2
NBSYN
 70
     8
280
     0
  0
ATTDEF
  5
156
330
14E
100
AcDbEntity
  8
AM_6
100
AcDbText
 10
23.07
 20
79.05
 30
0.0
 40
0.5
  1
125870
100
AcDbAttributeDefinition
  3

  2
LINA
 70
     8
280
     0
  0
ATTDEF
  5
157
330
14E
100
AcDbEntity
  8
AM_6
100
AcDbText
 10
23.07
 20
78.55
 30
0.0
 40
0.5
  1
211
100
AcDbAttributeDefinition
  3

  2
SERIES
 70
     8
280
     0
  0
ATTDEF
  5
158
330
14E
100
AcDbEntity
  8
AM_6
100
AcDbText
 10
23.07
 20
78.05
 30
0.0
 40
0.5
  1
55
100
AcDbAttributeDefinition
  3

  2
SS
 70
     8
280
     0
  0
ATTDEF
  5
159
330
14E
100
AcDbEntity
  8
AM_6
100
AcDbText
 10
23.07
 20
77.55
 30
0.0
 40
0.5
  1
125870
100
AcDbAttributeDefinition
  3

  2
PN
 70
     8
280
     0
  0
ATTDEF
  5
15A
330
14E
100
AcDbEntity
  8
AM_6
100
AcDbText
 10
23.07
 20
77.05
 30
0.0
 40
0.5
  1
FC-SC-55M
100
AcDbAttributeDefinition
  3

  2
DESCRIPTION
 70
     8
280
     0
  0
ATTDEF
  5
15B
330
14E
100
AcDbEntity
  8
AM_6
100
AcDbText
 10
23.07
 20
76.55
 30
0.0
 40
0.5
  1
56.4
100
AcDbAttributeDefinition
  3

  2
A
 70
     8
280
     0
  0
ATTDEF
  5
15C
330
14E
100
AcDbEntity
  8
AM_6
100
AcDbText
 10
23.07
 20
76.05
 30
0.0
 40
0.5
  1
162.1
100
AcDbAttributeDefinition
  3

  2
B
 70
     8
280
     0
  0
ATTDEF
  5
15D
330
14E
100
AcDbEntity
  8
AM_6
100
AcDbText
 10
23.07
 20
75.55
 30
0.0
 40
0.5
  1
59.7
100
AcDbAttributeDefinition
  3

  2
C
 70
     8
280
     0
  0
ATTDEF
  5
15E
330
14E
100
AcDbEntity
  8
AM_6
100
AcDbText
 10
23.07
 20
75.05
 30
0.0
 40
0.5
  1
136.7
100
AcDbAttributeDefinition
  3

  2
D
 70
     8
280
     0
  0
ATTDEF
  5
15F
330
14E
100
AcDbEntity
  8
AM_6
100
AcDbText
 10
23.07
 20
74.55
 30
0.0
 40
0.5
  1
16.0
100
AcDbAttributeDefinition
  3

  2
E
 70
     8
280
     0
  0
ATTDEF
  5
160
330
14E
100
AcDbEntity
  8
AM_6
100
AcDbText
 10
23.07
 20
74.05
 30
0.0
 40
0.5
  1
M12
100
AcDbAttributeDefinition
  3

  2
F
 70
     8
280
     0
  0
ATTDEF
  5
161
330
14E
100
AcDbEntity
  8
AM_6
100
AcDbText
 10
23.07
 20
73.55
 30
0.0
 40
0.5
  1
13.5
100
AcDbAttributeDefinition
  3

  2
F1
 70
     8
280
     0
  0
ATTDEF
  5
162
330
14E
100
AcDbEntity
  8
AM_6
100
AcDbText
 10
23.07
 20
73.05
 30
0.0
 40
0.5
  1
43.7
100
AcDbAttributeDefinition
  3

  2
G
 70
     8
280
     0
  0
ATTDEF
  5
163
330
14E
100
AcDbEntity
  8
AM_6
100
AcDbText
 10
23.07
 20
72.55
 30
0.0
 40
0.5
  1
25.4
100
AcDbAttributeDefinition
  3

  2
H
 70
     8
280
     0
  0
ATTDEF
  5
164
330
14E
100
AcDbEntity
  8
AM_6
100
AcDbText
 10
23.07
 20
72.05
 30
0.0
 40
0.5
  1
9.6
100
AcDbAttributeDefinition
  3

  2
H1
 70
     8
280
     0
  0
ATTDEF
  5
165
330
14E
100
AcDbEntity
  8
AM_6
100
AcDbText
 10
23.07
 20
71.55
 30
0.0
 40
0.5
  1
114.30
100
AcDbAttributeDefinition
  3

  2
K
 70
     8
280
     0
  0
ATTDEF
  5
166
330
14E
100
AcDbEntity
  8
AM_6
100
AcDbText
 10
23.07
 20
71.05
 30
0.0
 40
0.5
  1
68.8
100
AcDbAttributeDefinition
  3

  2
L
 70
     8
280
     0
  0
ATTDEF
  5
167
330
14E
100
AcDbEntity
  8
AM_6
100
AcDbText
 10
23.07
 20
70.55
 30
0.0
 40
0.5
  1
baldor
100
AcDbAttributeDefinition
  3

  2
COMPANY
 70
     8
280
     0
  0
LINE
  5
168
330
14E
100
AcDbEntity
  8
AM_9
100
AcDbLine
 10
-10.91
 20
-47.93826791456849
 30
0.0
 11
16.0
 21
-47.93826791456849
 31
0.0
  0
LINE
  5
169
330
14E
100
AcDbEntity
  8
AM_9
100
AcDbLine
 10
-10.91
 20
-22.01101927106177
 30
0.0
 11
16.0
 21
-22.01101927106177
 31
0.0
  0
LINE
  5
16A
330
14E
100
AcDbEntity
  8
AM_9
100
AcDbLine
 10
-10.91
 20
-47.93826791456849
 30
0.0
 11
-10.91
 21
-19.92929960489756
 31
0.0
  0
LINE
  5
16B
330
14E
100
AcDbEntity
  8
AM_9
100
AcDbLine
 10
-16.93333333333333
 20
75.10292921353204
 30
0.0
 11
-25.4
 21
60.49403597497493
 31
0.0
  0
LINE
  5
16C
330
14E
100
AcDbEntity
  8
AM_9
100
AcDbLine
 10
-25.4
 20
59.68003764634778
 30
0.0
 11
-16.93333333333333
 21
59.68003764634778
 31
0.0
  0
LINE
  5
16D
330
14E
100
AcDbEntity
  8
AM_9
100
AcDbLine
 10
-10.91
 20
47.93826791456849
 30
0.0
 11
16.0
 21
47.93826791456849
 31
0.0
  0
LINE
  5
16E
330
14E
100
AcDbEntity
  8
AM_9
100
AcDbLine
 10
-16.93333333333333
 20
-54.8743073510862
 30
0.0
 11
-25.4
 21
-54.8743073510862
 31
0.0
  0
LINE
  5
16F
330
14E
100
AcDbEntity
  8
AM_9
100
AcDbLine
 10
-16.93333333333333
 20
-54.94700683876298
 30
0.0
 11
-25.4
 21
-54.94700683876298
 31
0.0
  0
LINE
  5
170
330
14E
100
AcDbEntity
  8
AM_9
100
AcDbLine
 10
-16.93333333333333
 20
-54.3983509092324
 30
0.0
 11
-25.4
 21
-54.3983509092324
 31
0.0
  0
LINE
  5
171
330
14E
100
AcDbEntity
  8
AM_9
100
AcDbLine
 10
-16.93333333333333
 20
54.87430735108621
 30
0.0
 11
-25.4
 21
54.87430735108621
 31
0.0
  0
LINE
  5
172
330
14E
100
AcDbEntity
  8
AM_9
100
AcDbLine
 10
-16.93333333333333
 20
54.94700677851485
 30
0.0
 11
-25.4
 21
54.94700677851485
 31
0.0
  0
LINE
  5
173
330
14E
100
AcDbEntity
  8
AM_9
100
AcDbLine
 10
-25.4
 20
54.39835090923238
 30
0.0
 11
-16.93333333333333
 21
54.39835090923238
 31
0.0
  0
LINE
  5
174
330
14E
100
AcDbEntity
  8
AM_9
100
AcDbLine
 10
-16.93333333333333
 20
-56.92154693376832
 30
0.0
 11
-16.93333333333333
 21
-57.69783353529674
 31
0.0
  0
LINE
  5
175
330
14E
100
AcDbEntity
  8
AM_9
100
AcDbLine
 10
-16.93333333333333
 20
57.69783353529655
 30
0.0
 11
-16.93333333333333
 21
56.92154693376847
 31
0.0
  0
LINE
  5
176
330
14E
100
AcDbEntity
  8
AM_9
100
AcDbLine
 10
-10.91
 20
19.92929960489754
 30
0.0
 11
-10.91
 21
47.93826791456849
 31
0.0
  0
LINE
  5
177
330
14E
100
AcDbEntity
  8
AM_9
100
AcDbLine
 10
-10.91
 20
22.01101927106172
 30
0.0
 11
16.0
 21
22.01101927106172
 31
0.0
  0
LINE
  5
178
330
14E
100
AcDbEntity
  8
AM_9
100
AcDbLine
 10
-10.91
 20
-19.92929960489756
 30
0.0
 11
16.0
 21
-19.92929960489757
 31
0.0
  0
LINE
  5
179
330
14E
100
AcDbEntity
  8
AM_9
100
AcDbLine
 10
16.0
 20
45.85654824840429
 30
0.0
 11
-10.91
 21
45.85654824840429
 31
0.0
  0
LINE
  5
17A
330
14E
100
AcDbEntity
  8
AM_9
100
AcDbLine
 10
-10.91
 20
19.92929960489754
 30
0.0
 11
16.0
 21
19.92929960489755
 31
0.0
  0
LINE
  5
17B
330
14E
100
AcDbEntity
  8
AM_9
100
AcDbLine
 10
16.0
 20
-45.85654824840429
 30
0.0
 11
-10.91
 21
-45.85654824840429
 31
0.0
  0
LINE
  5
17C
330
14E
100
AcDbEntity
  8
AM_9
100
AcDbLine
 10
-25.4
 20
-50.0
 30
0.0
 11
16.0
 21
-50.0
 31
0.0
  0
LINE
  5
17D
330
14E
100
AcDbEntity
  8
AM_9
100
AcDbLine
 10
16.0
 20
50.0
 30
0.0
 11
-25.4
 21
50.0
 31
0.0
  0
LINE
  5
17E
330
14E
100
AcDbEntity
  8
AM_9
100
AcDbLine
 10
0.000000000000003
 20
55.08074849410053
 30
0.0
 11
-25.4
 21
55.08074849410053
 31
0.0
  0
LINE
  5
17F
330
14E
100
AcDbEntity
  8
AM_9
100
AcDbLine
 10
-25.4
 20
41.58074849410053
 30
0.0
 11
0.000000000000003
 21
41.58074849410053
 31
0.0
  0
LINE
  5
180
330
14E
100
AcDbEntity
  8
AM_9
100
AcDbLine
 10
0.000000000000003
 20
-41.58074849410051
 30
0.0
 11
-25.4
 21
-41.58074849410051
 31
0.0
  0
LINE
  5
181
330
14E
100
AcDbEntity
  8
AM_9
100
AcDbLine
 10
-25.4
 20
-55.08074849410051
 30
0.0
 11
0.000000000000003
 21
-55.08074849410051
 31
0.0
  0
LINE
  5
182
330
14E
100
AcDbEntity
  8
AM_9
100
AcDbLine
 10
-16.93333333333333
 20
-59.84992046733635
 30
0.0
 11
-25.4
 21
-59.84992046733635
 31
0.0
  0
LINE
  5
183
330
14E
100
AcDbEntity
  8
AM_9
100
AcDbLine
 10
-16.93333333333333
 20
59.84992046733634
 30
0.0
 11
-25.4
 21
59.84992046733634
 31
0.0
  0
LINE
  5
186
330
14E
100
AcDbEntity
  8
AM_7
100
AcDbLine
 10
-46.52
 20
0.0
 30
0.0
 11
18.07
 21
0.0
 31
0.0
  0
LINE
  5
187
330
14E
100
AcDbEntity
  8
AM_7
100
AcDbLine
 10
-26.67
 20
48.33074849410053
 30
0.0
 11
1.269999999999997
 21
48.33074849410053
 31
0.0
  0
LINE
  5
188
330
14E
100
AcDbEntity
  8
AM_7
100
AcDbLine
 10
-26.67
 20
-48.33074849410051
 30
0.0
 11
1.269999999999997
 21
-48.33074849410051
 31
0.0
  0
LINE
  5
189
330
14E
100
AcDbEntity
  8
AM_4
100
AcDbLine
 10
-16.93333333333333
 20
76.8460440684852
 30
0.0
 11
-25.4
 21
62.2371508299281
 31
0.0
  0
LINE
  5
18A
330
14E
100
AcDbEntity
  8
AM_4
100
AcDbLine
 10
-25.4
 20
-61.59999999999999
 30
0.0
 11
-16.93333333333333
 21
-61.59999999999999
 31
0.0
  0
LINE
  5
18B
330
14E
100
AcDbEntity
  8
AM_4
100
AcDbLine
 10
-25.4
 20
61.42315250130094
 30
0.0
 11
-16.93333333333333
 21
61.42315250130095
 31
0.0
  0
LINE
  5
18C
330
14E
100
AcDbEntity
  8
AM_4
100
AcDbLine
 10
-25.4
 20
-61.04074849410053
 30
0.0
 11
-16.93333333333333
 21
-61.04074849410053
 31
0.0
  0
LINE
  5
18D
330
14E
100
AcDbEntity
  8
AM_4
100
AcDbLine
 10
-16.93333333333333
 20
61.04074849410052
 30
0.0
 11
-25.4
 21
61.04074849410052
 31
0.0
  0
LINE
  5
18E
330
14E
100
AcDbEntity
  8
AM_4
100
AcDbLine
 10
16.0
 20
56.51000000000001
 30
0.0
 11
16.0
 21
-56.51000000000001
 31
0.0
  0
ARC
  5
18F
330
14E
100
AcDbEntity
  8
AM_4
100
AcDbCircle
 10
15.35999999999999
 20
-56.50999999999998
 30
0.0
 40
0.6400000000000148
100
AcDbArc
 50
270.0
 51
0.0
  0
ARC
  5
190
330
14E
100
AcDbEntity
  8
AM_4
100
AcDbCircle
 10
15.35999999999999
 20
56.50999999999998
 30
0.0
 40
0.6400000000000095
100
AcDbArc
 50
0.0
 51
90.0
  0
LINE
  5
191
330
14E
100
AcDbEntity
  8
AM_4
100
AcDbLine
 10
0.0
 20
-57.15
 30
0.0
 11
15.36
 21
-57.15
 31
0.0
  0
LINE
  5
192
330
14E
100
AcDbEntity
  8
AM_4
100
AcDbLine
 10
15.36
 20
57.15
 30
0.0
 11
0.0
 21
57.15
 31
0.0
  0
LINE
  5
193
330
14E
100
AcDbEntity
  8
AM_4
100
AcDbLine
 10
15.36
 20
57.15
 30
0.0
 11
15.36
 21
-57.15
 31
0.0
  0
LINE
  5
194
330
14E
100
AcDbEntity
  8
AM_4
100
AcDbLine
 10
-16.93333333333333
 20
-32.28903362579967
 30
0.0
 11
-25.4
 21
-32.28903362579967
 31
0.0
  0
LINE
  5
195
330
14E
100
AcDbEntity
  8
AM_4
100
AcDbLine
 10
-16.93333333333333
 20
32.28903362579965
 30
0.0
 11
-25.4
 21
32.28903362579965
 31
0.0
  0
LINE
  5
196
330
14E
100
AcDbEntity
  8
AM_4
100
AcDbLine
 10
-16.93333333333333
 20
-42.95927038737624
 30
0.0
 11
-25.4
 21
-42.95927038737624
 31
0.0
  0
LINE
  5
197
330
14E
100
AcDbEntity
  8
AM_4
100
AcDbLine
 10
-16.93333333333333
 20
42.95927038737621
 30
0.0
 11
-25.4
 21
42.95927038737621
 31
0.0
  0
LINE
  5
198
330
14E
100
AcDbEntity
  8
AM_4
100
AcDbLine
 10
-16.93333333333333
 20
-27.84576172565301
 30
0.0
 11
-25.4
 21
-27.84576172565301
 31
0.0
  0
LINE
  5
199
330
14E
100
AcDbEntity
  8
AM_4
100
AcDbLine
 10
-16.93333333333333
 20
27.84576160676763
 30
0.0
 11
-25.4
 21
27.84576160676763
 31
0.0
  0
LINE
  5
19A
330
14E
100
AcDbEntity
  8
AM_4
100
AcDbLine
 10
-16.93333333333333
 20
57.69783353529655
 30
0.0
 11
-25.4
 21
57.69783353529643
 31
0.0
  0
LINE
  5
19B
330
14E
100
AcDbEntity
  8
AM_4
100
AcDbLine
 10
-25.4
 20
62.2371508299281
 30
0.0
 11
-25.4
 21
-61.59999999999999
 31
0.0
  0
LINE
  5
19C
330
14E
100
AcDbEntity
  8
AM_4
100
AcDbLine
 10
-25.4
 20
56.9215469337686
 30
0.0
 11
-16.93333333333333
 21
56.92154693376847
 31
0.0
  0
LINE
  5
19D
330
14E
100
AcDbEntity
  8
AM_4
100
AcDbLine
 10
-16.93333333333333
 20
56.92154693376847
 30
0.0
 11
-16.93333333333333
 21
-56.92154693376832
 31
0.0
  0
LINE
  5
19E
330
14E
100
AcDbEntity
  8
AM_4
100
AcDbLine
 10
-16.93333333333333
 20
-56.92154693376832
 30
0.0
 11
-25.4
 21
-56.92154693376863
 31
0.0
  0
LINE
  5
19F
330
14E
100
AcDbEntity
  8
AM_4
100
AcDbLine
 10
-25.4
 20
-57.69783353529645
 30
0.0
 11
-16.93333333333333
 21
-57.69783353529674
 31
0.0
  0
LINE
  5
1A0
330
14E
100
AcDbEntity
  8
AM_4
100
AcDbLine
 10
-16.93333333333333
 20
-57.69783353529674
 30
0.0
 11
-16.93333333333333
 21
-81.05
 31
0.0
  0
LINE
  5
1A1
330
14E
100
AcDbEntity
  8
AM_4
100
AcDbLine
 10
-16.93333333333333
 20
-81.05
 30
0.0
 11
0.0
 21
-81.05
 31
0.0
  0
LINE
  5
1A2
330
14E
100
AcDbEntity
  8
AM_4
100
AcDbLine
 10
0.0
 20
81.05
 30
0.0
 11
-16.93333333333333
 21
81.05
 31
0.0
  0
LINE
  5
1A3
330
14E
100
AcDbEntity
  8
AM_4
100
AcDbLine
 10
-16.93333333333333
 20
81.05
 30
0.0
 11
-16.93333333333333
 21
57.69783353529655
 31
0.0
  0
LINE
  5
1A4
330
14E
100
AcDbEntity
  8
AM_4
100
AcDbLine
 10
0.0
 20
81.05
 30
0.0
 11
0.0
 21
-81.05
 31
0.0
  0
ENDBLK
  5
151
330
14E
100
AcDbEntity
  8
0
100
AcDbBlockEnd
  0
ENDSEC
  0
SECTION
  2
ENTITIES
  0
INSERT
  5
6F
330
1F
100
AcDbEntity
  8
0
100
AcDbBlockReference
  2
1_125870_2
 10
0.0
 20
0.0
 30
0.0
  0
POINT
  5
1A6
330
1F
100
AcDbEntity
  8
ConnectionPoints
100
AcDbPoint
 10
-43.7
 20
0.0
 30
0.0000000000000027
  0
POINT
  5
1A7
330
1F
100
AcDbEntity
  8
ConnectionPoints
100
AcDbPoint
 10
-43.7
 20
0.0
 30
0.0000000000000027
  0
POINT
  5
1A8
330
1F
100
AcDbEntity
  8
ConnectionPoints
100
AcDbPoint
 10
-21.16666666666666
 20
68.67004002173007
 30
-6.007850025772876
  0
ENDSEC
  0
SECTION
  2
OBJECTS
  0
DICTIONARY
  5
C
330
0
100
AcDbDictionary
281
     1
  3
ACAD_DETAILVIEWSTYLE
350
1B0
  3
ACAD_GROUP
350
D
  3
ACAD_LAYOUT
350
1A
  3
ACAD_MATERIAL
350
43
  3
ACAD_MLEADERSTYLE
350
6B
  3
ACAD_MLINESTYLE
350
17
  3
ACAD_PLOTSETTINGS
350
19
  3
ACAD_PLOTSTYLENAME
350
E
  3
ACAD_SCALELIST
350
47
  3
ACAD_SECTIONVIEWSTYLE
350
1B1
  3
ACAD_TABLESTYLE
350
69
  3
ACAD_VISUALSTYLE
350
2A
  3
ACDB_RECOMPOSE_DATA
350
1AD
  3
AcDbVariableDictionary
350
1A9
  0
SUN
  5
6D
330
29
100
AcDbSun
 90
        1
290
     0
 63
     7
421
 16777215
 40
1.0
291
     1
 91
  2455826
 92
 54000000
292
     0
 70
     2
 71
   256
280
     1
  0
DICTIONARY
  5
1B0
102
{ACAD_REACTORS
330
C
102
}
330
C
100
AcDbDictionary
281
     1
  0
DICTIONARY
  5
D
102
{ACAD_REACTORS
330
C
102
}
330
C
100
AcDbDictionary
281
     1
  0
DICTIONARY
  5
1A
102
{ACAD_REACTORS
330
C
102
}
330
C
100
AcDbDictionary
281
     1
  3
Layout1
350
1E
  3
Layout2
350
26
  3
Model
350
22
  0
DICTIONARY
  5
43
102
{ACAD_REACTORS
330
C
102
}
330
C
100
AcDbDictionary
281
     1
  3
ByBlock
350
45
  3
ByLayer
350
44
  3
Global
350
46
  0
DICTIONARY
  5
6B
102
{ACAD_REACTORS
330
C
102
}
330
C
100
AcDbDictionary
281
     1
  3
Standard
350
6C
  0
DICTIONARY
  5
17
102
{ACAD_REACTORS
330
C
102
}
330
C
100
AcDbDictionary
281
     1
  3
Standard
350
18
  0
DICTIONARY
  5
19
102
{ACAD_REACTORS
330
C
102
}
330
C
100
AcDbDictionary
281
     1
  0
ACDBDICTIONARYWDFLT
  5
E
102
{ACAD_REACTORS
330
C
102
}
330
C
100
AcDbDictionary
281
     1
  3
Normal
350
F
100
AcDbDictionaryWithDefault
340
F
  0
DICTIONARY
  5
47
102
{ACAD_REACTORS
330
C
102
}
330
C
100
AcDbDictionary
281
     1
  3
A0
350
48
  3
A1
350
49
  3
A2
350
4A
  3
A3
350
4B
  3
A4
350
4C
  3
A5
350
4D
  3
A6
350
4E
  3
A7
350
4F
  3
A8
350
50
  3
A9
350
51
  3
B0
350
52
  3
B1
350
53
  3
B2
350
54
  3
B3
350
55
  3
B4
350
56
  3
B5
350
57
  3
B6
350
58
  3
B7
350
59
  3
B8
350
5A
  3
B9
350
5B
  3
C0
350
5C
  3
C1
350
5D
  3
C2
350
5E
  3
C3
350
5F
  3
C4
350
60
  3
C5
350
61
  3
C6
350
62
  3
C7
350
63
  3
C8
350
64
  3
C9
350
65
  3
D0
350
66
  3
D1
350
67
  3
D2
350
68
  0
DICTIONARY
  5
1B1
102
{ACAD_REACTORS
330
C
102
}
330
C
100
AcDbDictionary
281
     1
  0
DICTIONARY
  5
69
102
{ACAD_REACTORS
330
C
102
}
330
C
100
AcDbDictionary
281
     1
  3
Standard
350
6A
  0
DICTIONARY
  5
2A
102
{ACAD_REACTORS
330
C
102
}
330
C
100
AcDbDictionary
281
     1
  3
2dWireframe
350
2F
  3
Basic
350
32
  3
Brighten
350
36
  3
ColorChange
350
3A
  3
Conceptual
350
34
  3
Dim
350
35
  3
EdgeColorOff
350
3D
  3
Facepattern
350
39
  3
Flat
350
2B
  3
FlatWithEdges
350
2C
  3
Gouraud
350
2D
  3
GouraudWithEdges
350
2E
  3
Hidden
350
31
  3
JitterOff
350
3B
  3
Linepattern
350
38
  3
OverhangOff
350
3C
  3
Realistic
350
33
  3
Shaded
350
42
  3
Shaded with edges
350
41
  3
Shades of Gray
350
3E
  3
Sketchy
350
3F
  3
Thicken
350
37
  3
Wireframe
350
30
  3
X-Ray
350
40
  0
XRECORD
  5
1AD
102
{ACAD_REACTORS
330
C
102
}
330
C
100
AcDbXrecord
280
     1
 90
        1
330
6A
  0
DICTIONARY
  5
1A9
102
{ACAD_REACTORS
330
C
102
}
330
C
100
AcDbDictionary
281
     1
  3
CANNOSCALE
350
1AA
  3
CMLEADERSTYLE
350
1AF
  3
CTABLESTYLE
350
1AE
  0
LAYOUT
  5
1E
102
{ACAD_REACTORS
330
1A
102
}
330
1A
100
AcDbPlotSettings
  1

  2
none_device
  4

  6

 40
0.0
 41
0.0
 42
0.0
 43
0.0
 44
0.0
 45
0.0
 46
0.0
 47
0.0
 48
0.0
 49
0.0
140
0.0
141
0.0
142
1.0
143
1.0
 70
   688
 72
     1
 73
     0
 74
     5
  7

 75
    16
 76
     0
 77
     2
 78
   300
147
1.0
148
0.0
149
0.0
100
AcDbLayout
  1
Layout1
 70
     1
 71
     1
 10
0.0
 20
0.0
 11
420.0
 21
297.0
 12
0.0
 22
0.0
 32
0.0
 14
1.000000000000000E+20
 24
1.000000000000000E+20
 34
1.000000000000000E+20
 15
-1.000000000000000E+20
 25
-1.000000000000000E+20
 35
-1.000000000000000E+20
146
0.0
 13
0.0
 23
0.0
 33
0.0
 16
1.0
 26
0.0
 36
0.0
 17
0.0
 27
1.0
 37
0.0
 76
     0
330
1B
  0
LAYOUT
  5
26
102
{ACAD_REACTORS
330
1A
102
}
330
1A
100
AcDbPlotSettings
  1

  2
none_device
  4

  6

 40
0.0
 41
0.0
 42
0.0
 43
0.0
 44
0.0
 45
0.0
 46
0.0
 47
0.0
 48
0.0
 49
0.0
140
0.0
141
0.0
142
1.0
143
1.0
 70
   688
 72
     1
 73
     0
 74
     5
  7

 75
    16
 76
     0
 77
     2
 78
   300
147
1.0
148
0.0
149
0.0
100
AcDbLayout
  1
Layout2
 70
     1
 71
     2
 10
0.0
 20
0.0
 11
0.0
 21
0.0
 12
0.0
 22
0.0
 32
0.0
 14
0.0
 24
0.0
 34
0.0
 15
0.0
 25
0.0
 35
0.0
146
0.0
 13
0.0
 23
0.0
 33
0.0
 16
1.0
 26
0.0
 36
0.0
 17
0.0
 27
1.0
 37
0.0
 76
     0
330
23
  0
LAYOUT
  5
22
102
{ACAD_REACTORS
330
1A
102
}
330
1A
100
AcDbPlotSettings
  1

  2
none_device
  4
Letter_(8.50_x_11.00_Inches)
  6

 40
6.35
 41
6.35
 42
6.35000508
 43
6.35000508
 44
215.9
 45
279.4
 46
0.0
 47
0.0
 48
0.0
 49
0.0
140
0.0
141
0.0
142
1.0
143
1.0
 70
  1712
 72
     1
 73
     0
 74
     0
  7

 75
     0
 76
     0
 77
     2
 78
   300
147
1.0
148
0.0
149
0.0
100
AcDbLayout
  1
Model
 70
     1
 71
     0
 10
0.0
 20
0.0
 11
420.0
 21
297.0
 12
0.0
 22
0.0
 32
0.0
 14
1.000000000000000E+20
 24
1.000000000000000E+20
 34
1.000000000000000E+20
 15
-1.000000000000000E+20
 25
-1.000000000000000E+20
 35
-1.000000000000000E+20
146
0.0
 13
0.0
 23
0.0
 33
0.0
 16
1.0
 26
0.0
 36
0.0
 17
0.0
 27
1.0
 37
0.0
 76
     0
330
1F
331
29
  0
MATERIAL
  5
45
102
{ACAD_REACTORS
330
43
102
}
330
43
100
AcDbMaterial
  1
ByBlock
 72
     1
 94
      127
  0
MATERIAL
  5
44
102
{ACAD_REACTORS
330
43
102
}
330
43
100
AcDbMaterial
  1
ByLayer
 72
     1
 94
      127
  0
MATERIAL
  5
46
102
{ACAD_REACTORS
330
43
102
}
330
43
100
AcDbMaterial
  1
Global
 72
     1
 94
      127
  0
MLEADERSTYLE
  5
6C
102
{ACAD_REACTORS
330
6B
102
}
330
6B
100
AcDbMLeaderStyle
179
     2
170
     2
171
     1
172
     0
 90
        2
 40
0.0
 41
0.0
173
     1
 91
-1056964608
340
14
 92
       -2
290
     1
 42
2.0
291
     1
 43
8.0
  3
Standard
341
0
 44
4.0
300

342
11
174
     1
178
     6
175
     1
176
     0
 93
-1056964608
 45
4.0
292
     0
297
     0
 46
4.0
343
0
 94
-1056964608
 47
1.0
 49
1.0
140
1.0
293
     1
141
0.0
294
     1
177
     0
142
1.0
295
     0
296
     0
143
3.75
271
     0
272
     9
273
     9
298
     0
  0
MLINESTYLE
  5
18
102
{ACAD_REACTORS
330
17
102
}
330
17
100
AcDbMlineStyle
  2
Standard
 70
     0
  3

 62
   256
 51
90.0
 52
90.0
 71
     2
 49
0.5
 62
   256
  6
BYLAYER
 49
-0.5
 62
   256
  6
BYLAYER
  0
ACDBPLACEHOLDER
  5
F
102
{ACAD_REACTORS
330
E
102
}
330
E
  0
SCALE
  5
48
102
{ACAD_REACTORS
330
47
102
}
330
47
100
AcDbScale
 70
     0
300
1:1
140
1.0
141
1.0
290
     1
  0
SCALE
  5
49
102
{ACAD_REACTORS
330
47
102
}
330
47
100
AcDbScale
 70
     0
300
1:2
140
1.0
141
2.0
290
     0
  0
SCALE
  5
4A
102
{ACAD_REACTORS
330
47
102
}
330
47
100
AcDbScale
 70
     0
300
1:4
140
1.0
141
4.0
290
     0
  0
SCALE
  5
4B
102
{ACAD_REACTORS
330
47
102
}
330
47
100
AcDbScale
 70
     0
300
1:5
140
1.0
141
5.0
290
     0
  0
SCALE
  5
4C
102
{ACAD_REACTORS
330
47
102
}
330
47
100
AcDbScale
 70
     0
300
1:8
140
1.0
141
8.0
290
     0
  0
SCALE
  5
4D
102
{ACAD_REACTORS
330
47
102
}
330
47
100
AcDbScale
 70
     0
300
1:10
140
1.0
141
10.0
290
     0
  0
SCALE
  5
4E
102
{ACAD_REACTORS
330
47
102
}
330
47
100
AcDbScale
 70
     0
300
1:16
140
1.0
141
16.0
290
     0
  0
SCALE
  5
4F
102
{ACAD_REACTORS
330
47
102
}
330
47
100
AcDbScale
 70
     0
300
1:20
140
1.0
141
20.0
290
     0
  0
SCALE
  5
50
102
{ACAD_REACTORS
330
47
102
}
330
47
100
AcDbScale
 70
     0
300
1:30
140
1.0
141
30.0
290
     0
  0
SCALE
  5
51
102
{ACAD_REACTORS
330
47
102
}
330
47
100
AcDbScale
 70
     0
300
1:40
140
1.0
141
40.0
290
     0
  0
SCALE
  5
52
102
{ACAD_REACTORS
330
47
102
}
330
47
100
AcDbScale
 70
     0
300
1:50
140
1.0
141
50.0
290
     0
  0
SCALE
  5
53
102
{ACAD_REACTORS
330
47
102
}
330
47
100
AcDbScale
 70
     0
300
1:100
140
1.0
141
100.0
290
     0
  0
SCALE
  5
54
102
{ACAD_REACTORS
330
47
102
}
330
47
100
AcDbScale
 70
     0
300
2:1
140
2.0
141
1.0
290
     0
  0
SCALE
  5
55
102
{ACAD_REACTORS
330
47
102
}
330
47
100
AcDbScale
 70
     0
300
4:1
140
4.0
141
1.0
290
     0
  0
SCALE
  5
56
102
{ACAD_REACTORS
330
47
102
}
330
47
100
AcDbScale
 70
     0
300
8:1
140
8.0
141
1.0
290
     0
  0
SCALE
  5
57
102
{ACAD_REACTORS
330
47
102
}
330
47
100
AcDbScale
 70
     0
300
10:1
140
10.0
141
1.0
290
     0
  0
SCALE
  5
58
102
{ACAD_REACTORS
330
47
102
}
330
47
100
AcDbScale
 70
     0
300
100:1
140
100.0
141
1.0
290
     0
  0
SCALE
  5
59
102
{ACAD_REACTORS
330
47
102
}
330
47
100
AcDbScale
 70
     0
300
1/128" = 1'-0"
140
0.0078125
141
12.0
290
     0
  0
SCALE
  5
5A
102
{ACAD_REACTORS
330
47
102
}
330
47
100
AcDbScale
 70
     0
300
1/64" = 1'-0"
140
0.015625
141
12.0
290
     0
  0
SCALE
  5
5B
102
{ACAD_REACTORS
330
47
102
}
330
47
100
AcDbScale
 70
     0
300
1/32" = 1'-0"
140
0.03125
141
12.0
290
     0
  0
SCALE
  5
5C
102
{ACAD_REACTORS
330
47
102
}
330
47
100
AcDbScale
 70
     0
300
1/16" = 1'-0"
140
0.0625
141
12.0
290
     0
  0
SCALE
  5
5D
102
{ACAD_REACTORS
330
47
102
}
330
47
100
AcDbScale
 70
     0
300
3/32" = 1'-0"
140
0.09375
141
12.0
290
     0
  0
SCALE
  5
5E
102
{ACAD_REACTORS
330
47
102
}
330
47
100
AcDbScale
 70
     0
300
1/8" = 1'-0"
140
0.125
141
12.0
290
     0
  0
SCALE
  5
5F
102
{ACAD_REACTORS
330
47
102
}
330
47
100
AcDbScale
 70
     0
300
3/16" = 1'-0"
140
0.1875
141
12.0
290
     0
  0
SCALE
  5
60
102
{ACAD_REACTORS
330
47
102
}
330
47
100
AcDbScale
 70
     0
300
1/4" = 1'-0"
140
0.25
141
12.0
290
     0
  0
SCALE
  5
61
102
{ACAD_REACTORS
330
47
102
}
330
47
100
AcDbScale
 70
     0
300
3/8" = 1'-0"
140
0.375
141
12.0
290
     0
  0
SCALE
  5
62
102
{ACAD_REACTORS
330
47
102
}
330
47
100
AcDbScale
 70
     0
300
1/2" = 1'-0"
140
0.5
141
12.0
290
     0
  0
SCALE
  5
63
102
{ACAD_REACTORS
330
47
102
}
330
47
100
AcDbScale
 70
     0
300
3/4" = 1'-0"
140
0.75
141
12.0
290
     0
  0
SCALE
  5
64
102
{ACAD_REACTORS
330
47
102
}
330
47
100
AcDbScale
 70
     0
300
1" = 1'-0"
140
1.0
141
12.0
290
     0
  0
SCALE
  5
65
102
{ACAD_REACTORS
330
47
102
}
330
47
100
AcDbScale
 70
     0
300
1-1/2" = 1'-0"
140
1.5
141
12.0
290
     0
  0
SCALE
  5
66
102
{ACAD_REACTORS
330
47
102
}
330
47
100
AcDbScale
 70
     0
300
3" = 1'-0"
140
3.0
141
12.0
290
     0
  0
SCALE
  5
67
102
{ACAD_REACTORS
330
47
102
}
330
47
100
AcDbScale
 70
     0
300
6" = 1'-0"
140
6.0
141
12.0
290
     0
  0
SCALE
  5
68
102
{ACAD_REACTORS
330
47
102
}
330
47
100
AcDbScale
 70
     0
300
1'-0" = 1'-0"
140
12.0
141
12.0
290
     0
  0
TABLESTYLE
  5
6A
102
{ACAD_REACTORS
330
69
102
}
102
{ACAD_XDICTIONARY
360
1AB
102
}
330
69
100
AcDbTableStyle
  3
Standard
 70
     0
 71
     0
 40
0.06
 41
0.06
280
     0
281
     0
  7
Standard
140
4.5
170
     2
 62
     0
 63
   257
283
     0
 90
        4
 91
        0
  1

274
    -2
284
     1
 64
     0
275
    -2
285
     1
 65
     0
276
    -2
286
     1
 66
     0
277
    -2
287
     1
 67
     0
278
    -2
288
     1
 68
     0
279
    -2
289
     1
 69
     0
  7
Standard
140
6.0
170
     5
 62
     0
 63
   257
283
     0
 90
        4
 91
        0
  1

274
    -2
284
     1
 64
     0
275
    -2
285
     1
 65
     0
276
    -2
286
     1
 66
     0
277
    -2
287
     1
 67
     0
278
    -2
288
     1
 68
     0
279
    -2
289
     1
 69
     0
  7
Standard
140
4.5
170
     5
 62
     0
 63
   257
283
     0
 90
        4
 91
        0
  1

274
    -2
284
     1
 64
     0
275
    -2
285
     1
 65
     0
276
    -2
286
     1
 66
     0
277
    -2
287
     1
 67
     0
278
    -2
288
     1
 68
     0
279
    -2
289
     1
 69
     0
  0
VISUALSTYLE
  5
2F
102
{ACAD_REACTORS
330
2A
102
}
330
2A
100
AcDbVisualStyle
  2
2dWireframe
 70
     4
177
     3
291
     0
 70
    58
 90
        0
176
     1
 90
        2
176
     1
 90
        0
176
     1
 90
        0
176
     1
 40
0.6
176
     1
 40
30.0
176
     1
 62
     7
420
 16777215
176
     1
 90
        1
176
     1
 90
        4
176
     1
 62
     7
176
     1
 62
   257
176
     1
 90
        1
176
     1
 90
        1
176
     1
 40
1.0
176
     1
 90
        0
176
     1
 62
   257
176
     1
 40
1.0
176
     1
 90
        1
176
     1
 90
        6
176
     1
 90
        2
176
     1
 62
     7
176
     1
 90
        5
176
     1
 90
        0
176
     1
 90
        0
176
     1
290
     0
176
     1
 90
        1
176
     1
 40
0.0
176
     1
 90
        0
176
     1
290
     1
176
     1
290
     1
176
     1
290
     0
176
     1
290
     0
176
     1
290
     0
176
     1
290
     0
176
     1
290
     0
176
     1
290
     0
176
     1
290
     0
176
     1
 90
       50
176
     1
 40
0.0
176
     1
 40
1.0
176
     1
 90
        0
176
     1
 62
    18
420
        0
176
     1
 90
       50
176
     1
 90
        3
176
     1
 62
     5
420
      255
176
     1
290
     0
176
     1
 90
       50
176
     1
 90
       50
176
     1
 90
       50
176
     1
290
     0
176
     1
 90
       50
176
     1
 62
   256
176
     0
 40
1.0
176
     0
 90
        2
176
     1
  1
strokes_ogs.tif
176
     1
290
     0
176
     1
 40
1.0
176
     1
 40
1.0
176
     1
  0
VISUALSTYLE
  5
32
102
{ACAD_REACTORS
330
2A
102
}
330
2A
100
AcDbVisualStyle
  2
Basic
 70
     7
177
     3
291
     1
 70
    58
 90
        1
176
     1
 90
        0
176
     1
 90
        1
176
     1
 90
        0
176
     1
 40
0.6
176
     1
 40
30.0
176
     1
 62
     7
420
 16777215
176
     1
 90
        0
176
     1
 90
        4
176
     1
 62
     7
176
     1
 62
   257
176
     1
 90
        1
176
     1
 90
        1
176
     1
 40
1.0
176
     1
 90
        8
176
     1
 62
     7
176
     1
 40
1.0
176
     1
 90
        1
176
     1
 90
        6
176
     1
 90
        2
176
     1
 62
     7
176
     1
 90
        5
176
     1
 90
        0
176
     1
 90
        0
176
     1
290
     0
176
     1
 90
        1
176
     1
 40
0.0
176
     1
 90
        0
176
     1
290
     0
176
     1
290
     1
176
     1
290
     1
176
     1
290
     0
176
     1
290
     0
176
     1
290
     0
176
     1
290
     0
176
     1
290
     0
176
     1
290
     0
176
     1
 90
       50
176
     1
 40
0.0
176
     1
 40
1.0
176
     1
 90
        0
176
     1
 62
    18
420
        0
176
     1
 90
       50
176
     1
 90
        3
176
     1
 62
     5
420
      255
176
     1
290
     0
176
     1
 90
       50
176
     1
 90
       50
176
     1
 90
       50
176
     1
290
     0
176
     1
 90
       50
176
     1
 62
   256
176
     0
 40
1.0
176
     0
 90
        2
176
     1
  1
strokes_ogs.tif
176
     1
290
     0
176
     1
 40
1.0
176
     1
 40
1.0
176
     1
  0
VISUALSTYLE
  5
36
102
{ACAD_REACTORS
330
2A
102
}
330
2A
100
AcDbVisualStyle
  2
Brighten
 70
    12
177
     3
291
     1
 70
    58
 90
        2
176
     1
 90
        2
176
     1
 90
        0
176
     1
 90
        0
176
     1
 40
0.6
176
     1
 40
30.0
176
     1
 62
     7
420
 16777215
176
     1
 90
        1
176
     1
 90
        4
176
     1
 62
     7
176
     1
 62
   257
176
     1
 90
        1
176
     1
 90
        1
176
     1
 40
1.0
176
     1
 90
        8
176
     1
 62
     7
176
     1
 40
1.0
176
     1
 90
        1
176
     1
 90
        6
176
     1
 90
        2
176
     1
 62
     7
176
     1
 90
        5
176
     1
 90
        0
176
     1
 90
        0
176
     1
290
     0
176
     1
 90
        1
176
     1
 40
50.0
176
     1
 90
        0
176
     1
290
     0
176
     1
290
     1
176
     1
290
     1
176
     1
290
     0
176
     1
290
     0
176
     1
290
     0
176
     1
290
     0
176
     1
290
     0
176
     1
290
     0
176
     1
 90
       50
176
     1
 40
0.0
176
     1
 40
1.0
176
     1
 90
        0
176
     1
 62
    18
420
        0
176
     1
 90
       50
176
     1
 90
        3
176
     1
 62
     5
420
      255
176
     1
290
     0
176
     1
 90
       50
176
     1
 90
       50
176
     1
 90
       50
176
     1
290
     0
176
     1
 90
       50
176
     1
 62
   256
176
     0
 40
1.0
176
     0
 90
        2
176
     1
  1
strokes_ogs.tif
176
     1
290
     0
176
     1
 40
1.0
176
     1
 40
1.0
176
     1
  0
VISUALSTYLE
  5
3A
102
{ACAD_REACTORS
330
2A
102
}
330
2A
100
AcDbVisualStyle
  2
ColorChange
 70
    16
177
     3
291
     1
 70
    58
 90
        2
176
     1
 90
        2
176
     1
 90
        3
176
     1
 90
        0
176
     1
 40
0.6
176
     1
 40
30.0
176
     1
 62
     8
420
  8421504
176
     1
 90
        1
176
     1
 90
        4
176
     1
 62
     7
176
     1
 62
   257
176
     1
 90
        1
176
     1
 90
        1
176
     1
 40
1.0
176
     1
 90
        8
176
     1
 62
     8
420
  8421504
176
     1
 40
1.0
176
     1
 90
        1
176
     1
 90
        6
176
     1
 90
        2
176
     1
 62
     7
176
     1
 90
        5
176
     1
 90
        0
176
     1
 90
        0
176
     1
290
     0
176
     1
 90
        1
176
     1
 40
0.0
176
     1
 90
        0
176
     1
290
     0
176
     1
290
     1
176
     1
290
     1
176
     1
290
     0
176
     1
290
     0
176
     1
290
     0
176
     1
290
     0
176
     1
290
     0
176
     1
290
     0
176
     1
 90
       50
176
     1
 40
0.0
176
     1
 40
1.0
176
     1
 90
        0
176
     1
 62
    18
420
        0
176
     1
 90
       50
176
     1
 90
        3
176
     1
 62
     5
420
      255
176
     1
290
     0
176
     1
 90
       50
176
     1
 90
       50
176
     1
 90
       50
176
     1
290
     0
176
     1
 90
       50
176
     1
 62
   256
176
     0
 40
1.0
176
     0
 90
        2
176
     1
  1
strokes_ogs.tif
176
     1
290
     0
176
     1
 40
1.0
176
     1
 40
1.0
176
     1
  0
VISUALSTYLE
  5
34
102
{ACAD_REACTORS
330
2A
102
}
330
2A
100
AcDbVisualStyle
  2
Conceptual
 70
     9
177
     3
291
     0
 70
    58
 90
        3
176
     1
 90
        2
176
     1
 90
        0
176
     1
 90
        0
176
     1
 40
0.6
176
     1
 40
30.0
176
     1
 62
     7
420
 16777215
176
     1
 90
        2
176
     1
 90
        2
176
     1
 62
     7
176
     1
 62
   257
176
     1
 90
        1
176
     1
 90
        1
176
     1
 40
179.0
176
     1
 90
        8
176
     1
 62
     7
176
     1
 40
1.0
176
     1
 90
        1
176
     1
 90
        6
176
     1
 90
        2
176
     1
 62
     7
176
     1
 90
        3
176
     1
 90
        0
176
     1
 90
        0
176
     1
290
     0
176
     1
 90
        1
176
     1
 40
0.0
176
     1
 90
        0
176
     1
290
     0
176
     1
290
     1
176
     1
290
     1
176
     1
290
     0
176
     1
290
     0
176
     1
290
     0
176
     1
290
     0
176
     1
290
     0
176
     1
290
     0
176
     1
 90
       50
176
     1
 40
0.0
176
     1
 40
1.0
176
     1
 90
        0
176
     1
 62
    18
420
        0
176
     1
 90
       50
176
     1
 90
        3
176
     1
 62
     5
420
      255
176
     1
290
     0
176
     1
 90
       50
176
     1
 90
       50
176
     1
 90
       50
176
     1
290
     0
176
     1
 90
       50
176
     1
 62
   256
176
     0
 40
1.0
176
     0
 90
        2
176
     1
  1
strokes_ogs.tif
176
     1
290
     0
176
     1
 40
1.0
176
     1
 40
1.0
176
     1
  0
VISUALSTYLE
  5
35
102
{ACAD_REACTORS
330
2A
102
}
330
2A
100
AcDbVisualStyle
  2
Dim
 70
    11
177
     3
291
     1
 70
    58
 90
        2
176
     1
 90
        2
176
     1
 90
        0
176
     1
 90
        0
176
     1
 40
0.6
176
     1
 40
30.0
176
     1
 62
     7
420
 16777215
176
     1
 90
        1
176
     1
 90
        4
176
     1
 62
     7
176
     1
 62
   257
176
     1
 90
        1
176
     1
 90
        1
176
     1
 40
1.0
176
     1
 90
        8
176
     1
 62
     7
176
     1
 40
1.0
176
     1
 90
        1
176
     1
 90
        6
176
     1
 90
        2
176
     1
 62
     7
176
     1
 90
        5
176
     1
 90
        0
176
     1
 90
        0
176
     1
290
     0
176
     1
 90
        1
176
     1
 40
-50.0
176
     1
 90
        0
176
     1
290
     0
176
     1
290
     1
176
     1
290
     1
176
     1
290
     0
176
     1
290
     0
176
     1
290
     0
176
     1
290
     0
176
     1
290
     0
176
     1
290
     0
176
     1
 90
       50
176
     1
 40
0.0
176
     1
 40
1.0
176
     1
 90
        0
176
     1
 62
    18
420
        0
176
     1
 90
       50
176
     1
 90
        3
176
     1
 62
     5
420
      255
176
     1
290
     0
176
     1
 90
       50
176
     1
 90
       50
176
     1
 90
       50
176
     1
290
     0
176
     1
 90
       50
176
     1
 62
   256
176
     0
 40
1.0
176
     0
 90
        2
176
     1
  1
strokes_ogs.tif
176
     1
290
     0
176
     1
 40
1.0
176
     1
 40
1.0
176
     1
  0
VISUALSTYLE
  5
3D
102
{ACAD_REACTORS
330
2A
102
}
330
2A
100
AcDbVisualStyle
  2
EdgeColorOff
 70
    22
177
     3
291
     1
 70
    58
 90
        2
176
     0
 90
        2
176
     0
 90
        0
176
     0
 90
        0
176
     0
 40
0.6
176
     0
 40
30.0
176
     0
 62
     7
420
 16777215
176
     0
 90
        1
176
     0
 90
        4
176
     0
 62
     7
176
     0
 62
   257
176
     0
 90
        1
176
     0
 90
        1
176
     0
 40
1.0
176
     0
 90
        8
176
     2
 62
     7
176
     0
 40
1.0
176
     0
 90
        1
176
     0
 90
        6
176
     0
 90
        2
176
     0
 62
     7
176
     0
 90
        5
176
     0
 90
        0
176
     0
 90
        0
176
     0
290
     0
176
     0
 90
        1
176
     0
 40
0.0
176
     0
 90
        0
176
     0
290
     0
176
     0
290
     1
176
     0
290
     1
176
     0
290
     0
176
     0
290
     0
176
     0
290
     0
176
     0
290
     0
176
     0
290
     0
176
     0
290
     0
176
     0
 90
       50
176
     0
 40
0.0
176
     0
 40
1.0
176
     0
 90
        0
176
     0
 62
    18
420
        0
176
     0
 90
       50
176
     0
 90
        3
176
     0
 62
     5
420
      255
176
     0
290
     0
176
     0
 90
       50
176
     0
 90
       50
176
     0
 90
       50
176
     0
290
     0
176
     0
 90
       50
176
     0
 62
   256
176
     0
 40
1.0
176
     0
 90
        2
176
     0
  1
strokes_ogs.tif
176
     0
290
     0
176
     0
 40
1.0
176
     0
 40
1.0
176
     0
  0
VISUALSTYLE
  5
39
102
{ACAD_REACTORS
330
2A
102
}
330
2A
100
AcDbVisualStyle
  2
Facepattern
 70
    15
177
     3
291
     1
 70
    58
 90
        2
176
     1
 90
        2
176
     1
 90
        0
176
     1
 90
        0
176
     1
 40
0.6
176
     1
 40
30.0
176
     1
 62
     7
420
 16777215
176
     1
 90
        1
176
     1
 90
        4
176
     1
 62
     7
176
     1
 62
   257
176
     1
 90
        1
176
     1
 90
        1
176
     1
 40
1.0
176
     1
 90
        8
176
     1
 62
     7
176
     1
 40
1.0
176
     1
 90
        1
176
     1
 90
        6
176
     1
 90
        2
176
     1
 62
     7
176
     1
 90
        5
176
     1
 90
        0
176
     1
 90
        0
176
     1
290
     0
176
     1
 90
        1
176
     1
 40
0.0
176
     1
 90
        0
176
     1
290
     0
176
     1
290
     1
176
     1
290
     1
176
     1
290
     0
176
     1
290
     0
176
     1
290
     0
176
     1
290
     0
176
     1
290
     0
176
     1
290
     0
176
     1
 90
       50
176
     1
 40
0.0
176
     1
 40
1.0
176
     1
 90
        0
176
     1
 62
    18
420
        0
176
     1
 90
       50
176
     1
 90
        3
176
     1
 62
     5
420
      255
176
     1
290
     0
176
     1
 90
       50
176
     1
 90
       50
176
     1
 90
       50
176
     1
290
     0
176
     1
 90
       50
176
     1
 62
   256
176
     0
 40
1.0
176
     0
 90
        2
176
     1
  1
strokes_ogs.tif
176
     1
290
     0
176
     1
 40
1.0
176
     1
 40
1.0
176
     1
  0
VISUALSTYLE
  5
2B
102
{ACAD_REACTORS
330
2A
102
}
330
2A
100
AcDbVisualStyle
  2
Flat
 70
     0
177
     3
291
     1
 70
    58
 90
        2
176
     1
 90
        1
176
     1
 90
        1
176
     1
 90
        2
176
     1
 40
0.6
176
     1
 40
30.0
176
     1
 62
     7
420
 16777215
176
     1
 90
        0
176
     1
 90
        0
176
     1
 62
     7
176
     1
 62
   257
176
     1
 90
        1
176
     1
 90
        1
176
     1
 40
1.0
176
     1
 90
        8
176
     1
 62
     7
176
     1
 40
1.0
176
     1
 90
        1
176
     1
 90
        6
176
     1
 90
        2
176
     1
 62
     7
176
     1
 90
        5
176
     1
 90
        0
176
     1
 90
        0
176
     1
290
     0
176
     1
 90
       13
176
     1
 40
0.0
176
     1
 90
        0
176
     1
290
     0
176
     1
290
     1
176
     1
290
     1
176
     1
290
     0
176
     1
290
     0
176
     1
290
     0
176
     1
290
     0
176
     1
290
     0
176
     1
290
     0
176
     1
 90
       50
176
     1
 40
0.0
176
     1
 40
1.0
176
     1
 90
        0
176
     1
 62
    18
420
        0
176
     1
 90
       50
176
     1
 90
        3
176
     1
 62
     5
420
      255
176
     1
290
     0
176
     1
 90
       50
176
     1
 90
       50
176
     1
 90
       50
176
     1
290
     0
176
     1
 90
       50
176
     1
 62
   256
176
     0
 40
1.0
176
     0
 90
        2
176
     1
  1
strokes_ogs.tif
176
     1
290
     0
176
     1
 40
1.0
176
     1
 40
1.0
176
     1
  0
VISUALSTYLE
  5
2C
102
{ACAD_REACTORS
330
2A
102
}
330
2A
100
AcDbVisualStyle
  2
FlatWithEdges
 70
     1
177
     3
291
     1
 70
    58
 90
        2
176
     1
 90
        1
176
     1
 90
        1
176
     1
 90
        2
176
     1
 40
0.6
176
     1
 40
30.0
176
     1
 62
     7
420
 16777215
176
     1
 90
        1
176
     1
 90
        0
176
     1
 62
     7
176
     1
 62
   257
176
     1
 90
        1
176
     1
 90
        1
176
     1
 40
1.0
176
     1
 90
        0
176
     1
 62
   257
176
     1
 40
1.0
176
     1
 90
        1
176
     1
 90
        6
176
     1
 90
        2
176
     1
 62
     7
176
     1
 90
        5
176
     1
 90
        0
176
     1
 90
        0
176
     1
290
     0
176
     1
 90
       13
176
     1
 40
0.0
176
     1
 90
        0
176
     1
290
     0
176
     1
290
     1
176
     1
290
     1
176
     1
290
     0
176
     1
290
     0
176
     1
290
     0
176
     1
290
     0
176
     1
290
     0
176
     1
290
     0
176
     1
 90
       50
176
     1
 40
0.0
176
     1
 40
1.0
176
     1
 90
        0
176
     1
 62
    18
420
        0
176
     1
 90
       50
176
     1
 90
        3
176
     1
 62
     5
420
      255
176
     1
290
     0
176
     1
 90
       50
176
     1
 90
       50
176
     1
 90
       50
176
     1
290
     0
176
     1
 90
       50
176
     1
 62
   256
176
     0
 40
1.0
176
     0
 90
        2
176
     1
  1
strokes_ogs.tif
176
     1
290
     0
176
     1
 40
1.0
176
     1
 40
1.0
176
     1
  0
VISUALSTYLE
  5
2D
102
{ACAD_REACTORS
330
2A
102
}
330
2A
100
AcDbVisualStyle
  2
Gouraud
 70
     2
177
     3
291
     1
 70
    58
 90
        2
176
     1
 90
        2
176
     1
 90
        1
176
     1
 90
        2
176
     1
 40
0.6
176
     1
 40
30.0
176
     1
 62
     7
420
 16777215
176
     1
 90
        0
176
     1
 90
        0
176
     1
 62
     7
176
     1
 62
   257
176
     1
 90
        1
176
     1
 90
        1
176
     1
 40
1.0
176
     1
 90
        0
176
     1
 62
     7
176
     1
 40
1.0
176
     1
 90
        1
176
     1
 90
        6
176
     1
 90
        2
176
     1
 62
     7
176
     1
 90
        5
176
     1
 90
        0
176
     1
 90
        0
176
     1
290
     0
176
     1
 90
       13
176
     1
 40
0.0
176
     1
 90
        0
176
     1
290
     0
176
     1
290
     1
176
     1
290
     1
176
     1
290
     0
176
     1
290
     0
176
     1
290
     0
176
     1
290
     0
176
     1
290
     0
176
     1
290
     0
176
     1
 90
       50
176
     1
 40
0.0
176
     1
 40
1.0
176
     1
 90
        0
176
     1
 62
    18
420
        0
176
     1
 90
       50
176
     1
 90
        3
176
     1
 62
     5
420
      255
176
     1
290
     0
176
     1
 90
       50
176
     1
 90
       50
176
     1
 90
       50
176
     1
290
     0
176
     1
 90
       50
176
     1
 62
   256
176
     0
 40
1.0
176
     0
 90
        2
176
     1
  1
strokes_ogs.tif
176
     1
290
     0
176
     1
 40
1.0
176
     1
 40
1.0
176
     1
  0
VISUALSTYLE
  5
2E
102
{ACAD_REACTORS
330
2A
102
}
330
2A
100
AcDbVisualStyle
  2
GouraudWithEdges
 70
     3
177
     3
291
     1
 70
    58
 90
        2
176
     1
 90
        2
176
     1
 90
        1
176
     1
 90
        2
176
     1
 40
0.6
176
     1
 40
30.0
176
     1
 62
     7
420
 16777215
176
     1
 90
        1
176
     1
 90
        0
176
     1
 62
     7
176
     1
 62
   257
176
     1
 90
        1
176
     1
 90
        1
176
     1
 40
1.0
176
     1
 90
        0
176
     1
 62
   257
176
     1
 40
1.0
176
     1
 90
        1
176
     1
 90
        6
176
     1
 90
        2
176
     1
 62
     7
176
     1
 90
        5
176
     1
 90
        0
176
     1
 90
        0
176
     1
290
     0
176
     1
 90
       13
176
     1
 40
0.0
176
     1
 90
        0
176
     1
290
     0
176
     1
290
     1
176
     1
290
     1
176
     1
290
     0
176
     1
290
     0
176
     1
290
     0
176
     1
290
     0
176
     1
290
     0
176
     1
290
     0
176
     1
 90
       50
176
     1
 40
0.0
176
     1
 40
1.0
176
     1
 90
        0
176
     1
 62
    18
420
        0
176
     1
 90
       50
176
     1
 90
        3
176
     1
 62
     5
420
      255
176
     1
290
     0
176
     1
 90
       50
176
     1
 90
       50
176
     1
 90
       50
176
     1
290
     0
176
     1
 90
       50
176
     1
 62
   256
176
     0
 40
1.0
176
     0
 90
        2
176
     1
  1
strokes_ogs.tif
176
     1
290
     0
176
     1
 40
1.0
176
     1
 40
1.0
176
     1
  0
VISUALSTYLE
  5
31
102
{ACAD_REACTORS
330
2A
102
}
330
2A
100
AcDbVisualStyle
  2
Hidden
 70
     6
177
     3
291
     0
 70
    58
 90
        1
176
     1
 90
        2
176
     1
 90
        2
176
     1
 90
        0
176
     1
 40
0.6
176
     1
 40
30.0
176
     1
 62
     7
420
 16777215
176
     1
 90
        2
176
     1
 90
        2
176
     1
 62
     7
176
     1
 62
   257
176
     1
 90
        2
176
     1
 90
        1
176
     1
 40
40.0
176
     1
 90
        0
176
     1
 62
   257
176
     1
 40
1.0
176
     1
 90
        1
176
     1
 90
        6
176
     1
 90
        2
176
     1
 62
     7
176
     1
 90
        3
176
     1
 90
        0
176
     1
 90
        0
176
     1
290
     0
176
     1
 90
        1
176
     1
 40
0.0
176
     1
 90
        0
176
     1
290
     0
176
     1
290
     1
176
     1
290
     1
176
     1
290
     0
176
     1
290
     0
176
     1
290
     0
176
     1
290
     0
176
     1
290
     0
176
     1
290
     0
176
     1
 90
       50
176
     1
 40
0.0
176
     1
 40
1.0
176
     1
 90
        0
176
     1
 62
    18
420
        0
176
     1
 90
       50
176
     1
 90
        3
176
     1
 62
     5
420
      255
176
     1
290
     0
176
     1
 90
       50
176
     1
 90
       50
176
     1
 90
       50
176
     1
290
     0
176
     1
 90
       50
176
     1
 62
   256
176
     0
 40
1.0
176
     0
 90
        2
176
     1
  1
strokes_ogs.tif
176
     1
290
     0
176
     1
 40
1.0
176
     1
 40
1.0
176
     1
  0
VISUALSTYLE
  5
3B
102
{ACAD_REACTORS
330
2A
102
}
330
2A
100
AcDbVisualStyle
  2
JitterOff
 70
    20
177
     3
291
     1
 70
    58
 90
        2
176
     0
 90
        2
176
     0
 90
        0
176
     0
 90
        0
176
     0
 40
0.6
176
     0
 40
30.0
176
     0
 62
     7
420
 16777215
176
     0
 90
        1
176
     0
 90
        4
176
     0
 62
     7
176
     0
 62
   257
176
     0
 90
        1
176
     0
 90
        1
176
     0
 40
1.0
176
     0
 90
       10
176
     2
 62
     7
176
     0
 40
1.0
176
     0
 90
        1
176
     0
 90
        6
176
     0
 90
        2
176
     0
 62
     7
176
     0
 90
        5
176
     0
 90
        0
176
     0
 90
        0
176
     0
290
     0
176
     0
 90
        1
176
     0
 40
0.0
176
     0
 90
        0
176
     0
290
     0
176
     0
290
     1
176
     0
290
     1
176
     0
290
     0
176
     0
290
     0
176
     0
290
     0
176
     0
290
     0
176
     0
290
     0
176
     0
290
     0
176
     0
 90
       50
176
     0
 40
0.0
176
     0
 40
1.0
176
     0
 90
        0
176
     0
 62
    18
420
        0
176
     0
 90
       50
176
     0
 90
        3
176
     0
 62
     5
420
      255
176
     0
290
     0
176
     0
 90
       50
176
     0
 90
       50
176
     0
 90
       50
176
     0
290
     0
176
     0
 90
       50
176
     0
 62
   256
176
     0
 40
1.0
176
     0
 90
        2
176
     0
  1
strokes_ogs.tif
176
     0
290
     0
176
     0
 40
1.0
176
     0
 40
1.0
176
     0
  0
VISUALSTYLE
  5
38
102
{ACAD_REACTORS
330
2A
102
}
330
2A
100
AcDbVisualStyle
  2
Linepattern
 70
    14
177
     3
291
     1
 70
    58
 90
        2
176
     1
 90
        2
176
     1
 90
        0
176
     1
 90
        0
176
     1
 40
0.6
176
     1
 40
30.0
176
     1
 62
     7
420
 16777215
176
     1
 90
        1
176
     1
 90
        4
176
     1
 62
     7
176
     1
 62
   257
176
     1
 90
        7
176
     1
 90
        7
176
     1
 40
1.0
176
     1
 90
        8
176
     1
 62
     7
176
     1
 40
1.0
176
     1
 90
        1
176
     1
 90
        6
176
     1
 90
        2
176
     1
 62
     7
176
     1
 90
        5
176
     1
 90
        0
176
     1
 90
        0
176
     1
290
     0
176
     1
 90
        1
176
     1
 40
0.0
176
     1
 90
        0
176
     1
290
     0
176
     1
290
     1
176
     1
290
     1
176
     1
290
     0
176
     1
290
     0
176
     1
290
     0
176
     1
290
     0
176
     1
290
     0
176
     1
290
     0
176
     1
 90
       50
176
     1
 40
0.0
176
     1
 40
1.0
176
     1
 90
        0
176
     1
 62
    18
420
        0
176
     1
 90
       50
176
     1
 90
        3
176
     1
 62
     5
420
      255
176
     1
290
     0
176
     1
 90
       50
176
     1
 90
       50
176
     1
 90
       50
176
     1
290
     0
176
     1
 90
       50
176
     1
 62
   256
176
     0
 40
1.0
176
     0
 90
        2
176
     1
  1
strokes_ogs.tif
176
     1
290
     0
176
     1
 40
1.0
176
     1
 40
1.0
176
     1
  0
VISUALSTYLE
  5
3C
102
{ACAD_REACTORS
330
2A
102
}
330
2A
100
AcDbVisualStyle
  2
OverhangOff
 70
    21
177
     3
291
     1
 70
    58
 90
        2
176
     0
 90
        2
176
     0
 90
        0
176
     0
 90
        0
176
     0
 40
0.6
176
     0
 40
30.0
176
     0
 62
     7
420
 16777215
176
     0
 90
        1
176
     0
 90
        4
176
     0
 62
     7
176
     0
 62
   257
176
     0
 90
        1
176
     0
 90
        1
176
     0
 40
1.0
176
     0
 90
        9
176
     2
 62
     7
176
     0
 40
1.0
176
     0
 90
        1
176
     0
 90
        6
176
     0
 90
        2
176
     0
 62
     7
176
     0
 90
        5
176
     0
 90
        0
176
     0
 90
        0
176
     0
290
     0
176
     0
 90
        1
176
     0
 40
0.0
176
     0
 90
        0
176
     0
290
     0
176
     0
290
     1
176
     0
290
     1
176
     0
290
     0
176
     0
290
     0
176
     0
290
     0
176
     0
290
     0
176
     0
290
     0
176
     0
290
     0
176
     0
 90
       50
176
     0
 40
0.0
176
     0
 40
1.0
176
     0
 90
        0
176
     0
 62
    18
420
        0
176
     0
 90
       50
176
     0
 90
        3
176
     0
 62
     5
420
      255
176
     0
290
     0
176
     0
 90
       50
176
     0
 90
       50
176
     0
 90
       50
176
     0
290
     0
176
     0
 90
       50
176
     0
 62
   256
176
     0
 40
1.0
176
     0
 90
        2
176
     0
  1
strokes_ogs.tif
176
     0
290
     0
176
     0
 40
1.0
176
     0
 40
1.0
176
     0
  0
VISUALSTYLE
  5
33
102
{ACAD_REACTORS
330
2A
102
}
330
2A
100
AcDbVisualStyle
  2
Realistic
 70
     8
177
     3
291
     0
 70
    58
 90
        2
176
     1
 90
        3
176
     1
 90
        0
176
     1
 90
        2
176
     1
 40
0.6
176
     1
 40
30.0
176
     1
 62
     7
420
 16777215
176
     1
 90
        0
176
     1
 90
        0
176
     1
 62
     7
176
     1
 62
   257
176
     1
 90
        1
176
     1
 90
        1
176
     1
 40
1.0
176
     1
 90
        8
176
     1
 62
   257
176
     1
 40
1.0
176
     1
 90
        1
176
     1
 90
        6
176
     1
 90
        2
176
     1
 62
     7
176
     1
 90
        3
176
     1
 90
        0
176
     1
 90
        0
176
     1
290
     0
176
     1
 90
       13
176
     1
 40
0.0
176
     1
 90
        0
176
     1
290
     0
176
     1
290
     1
176
     1
290
     1
176
     1
290
     0
176
     1
290
     0
176
     1
290
     0
176
     1
290
     0
176
     1
290
     0
176
     1
290
     0
176
     1
 90
       50
176
     1
 40
0.0
176
     1
 40
1.0
176
     1
 90
        0
176
     1
 62
    18
420
        0
176
     1
 90
       50
176
     1
 90
        3
176
     1
 62
     5
420
      255
176
     1
290
     0
176
     1
 90
       50
176
     1
 90
       50
176
     1
 90
       50
176
     1
290
     0
176
     1
 90
       50
176
     1
 62
   256
176
     0
 40
1.0
176
     0
 90
        2
176
     1
  1
strokes_ogs.tif
176
     1
290
     0
176
     1
 40
1.0
176
     1
 40
1.0
176
     1
  0
VISUALSTYLE
  5
42
102
{ACAD_REACTORS
330
2A
102
}
330
2A
100
AcDbVisualStyle
  2
Shaded
 70
    27
177
     3
291
     0
 70
    58
 90
        2
176
     1
 90
        2
176
     1
 90
        1
176
     1
 90
        2
176
     1
 40
0.6
176
     1
 40
30.0
176
     1
 62
     7
420
 16777215
176
     1
 90
        0
176
     1
 90
        4
176
     1
 62
     7
176
     1
 62
   257
176
     1
 90
        1
176
     1
 90
        1
176
     1
 40
1.0
176
     1
 90
        8
176
     1
 62
   257
176
     1
 40
1.0
176
     1
 90
        1
176
     1
 90
        6
176
     1
 90
        2
176
     1
 62
     8
420
  7895160
176
     1
 90
        3
176
     1
 90
        0
176
     1
 90
        0
176
     1
290
     0
176
     1
 90
        5
176
     1
 40
0.0
176
     1
 90
        0
176
     1
290
     0
176
     1
290
     1
176
     1
290
     1
176
     1
290
     0
176
     1
290
     0
176
     1
290
     0
176
     1
290
     0
176
     1
290
     0
176
     1
290
     0
176
     1
 90
       50
176
     1
 40
0.0
176
     1
 40
1.0
176
     1
 90
        0
176
     1
 62
    18
420
        0
176
     1
 90
       50
176
     1
 90
        3
176
     1
 62
     5
420
      255
176
     1
290
     0
176
     1
 90
       50
176
     1
 90
       50
176
     1
 90
       50
176
     1
290
     0
176
     1
 90
       50
176
     1
 62
   256
176
     0
 40
1.0
176
     0
 90
        2
176
     1
  1
strokes_ogs.tif
176
     1
290
     0
176
     1
 40
1.0
176
     1
 40
1.0
176
     1
  0
VISUALSTYLE
  5
41
102
{ACAD_REACTORS
330
2A
102
}
330
2A
100
AcDbVisualStyle
  2
Shaded with edges
 70
    26
177
     3
291
     0
 70
    58
 90
        2
176
     1
 90
        2
176
     1
 90
        1
176
     1
 90
        2
176
     1
 40
0.6
176
     1
 40
30.0
176
     1
 62
     7
420
 16777215
176
     1
 90
        1
176
     1
 90
       10
176
     1
 62
     7
176
     1
 62
   257
176
     1
 90
        2
176
     1
 90
        1
176
     1
 40
1.0
176
     1
 90
        8
176
     1
 62
   257
176
     1
 40
1.0
176
     1
 90
        1
176
     1
 90
        6
176
     1
 90
        2
176
     1
 62
     7
176
     1
 90
        3
176
     1
 90
        0
176
     1
 90
        0
176
     1
290
     0
176
     1
 90
        5
176
     1
 40
0.0
176
     1
 90
        0
176
     1
290
     0
176
     1
290
     1
176
     1
290
     1
176
     1
290
     0
176
     1
290
     0
176
     1
290
     0
176
     1
290
     0
176
     1
290
     0
176
     1
290
     0
176
     1
 90
       50
176
     1
 40
0.0
176
     1
 40
1.0
176
     1
 90
        0
176
     1
 62
    18
420
        0
176
     1
 90
       50
176
     1
 90
        3
176
     1
 62
     5
420
      255
176
     1
290
     0
176
     1
 90
       50
176
     1
 90
       50
176
     1
 90
       50
176
     1
290
     0
176
     1
 90
       50
176
     1
 62
   256
176
     0
 40
1.0
176
     0
 90
        2
176
     1
  1
strokes_ogs.tif
176
     1
290
     0
176
     1
 40
1.0
176
     1
 40
1.0
176
     1
  0
VISUALSTYLE
  5
3E
102
{ACAD_REACTORS
330
2A
102
}
330
2A
100
AcDbVisualStyle
  2
Shades of Gray
 70
    23
177
     3
291
     0
 70
    58
 90
        2
176
     1
 90
        2
176
     1
 90
        3
176
     1
 90
        0
176
     1
 40
0.6
176
     1
 40
30.0
176
     1
 62
     7
420
 16777215
176
     1
 90
        2
176
     1
 90
        2
176
     1
 62
     7
176
     1
 62
     7
176
     1
 90
        1
176
     1
 90
        1
176
     1
 40
40.0
176
     1
 90
        8
176
     1
 62
     7
176
     1
 40
1.0
176
     1
 90
        1
176
     1
 90
        6
176
     1
 90
        2
176
     1
 62
     7
176
     1
 90
        3
176
     1
 90
        0
176
     1
 90
        0
176
     1
290
     0
176
     1
 90
        1
176
     1
 40
0.0
176
     1
 90
        0
176
     1
290
     0
176
     1
290
     1
176
     1
290
     1
176
     1
290
     0
176
     1
290
     0
176
     1
290
     0
176
     1
290
     0
176
     1
290
     0
176
     1
290
     0
176
     1
 90
       50
176
     1
 40
0.0
176
     1
 40
1.0
176
     1
 90
        0
176
     1
 62
    18
420
        0
176
     1
 90
       50
176
     1
 90
        3
176
     1
 62
     5
420
      255
176
     1
290
     0
176
     1
 90
       50
176
     1
 90
       50
176
     1
 90
       50
176
     1
290
     0
176
     1
 90
       50
176
     1
 62
   256
176
     0
 40
1.0
176
     0
 90
        2
176
     1
  1
strokes_ogs.tif
176
     1
290
     0
176
     1
 40
1.0
176
     1
 40
1.0
176
     1
  0
VISUALSTYLE
  5
3F
102
{ACAD_REACTORS
330
2A
102
}
330
2A
100
AcDbVisualStyle
  2
Sketchy
 70
    24
177
     3
291
     0
 70
    58
 90
        1
176
     1
 90
        2
176
     1
 90
        2
176
     1
 90
        0
176
     1
 40
0.6
176
     1
 40
30.0
176
     1
 62
     7
420
 16777215
176
     1
 90
        2
176
     1
 90
        2
176
     1
 62
     7
176
     1
 62
     7
176
     1
 90
        1
176
     1
 90
        1
176
     1
 40
40.0
176
     1
 90
       11
176
     1
 62
     7
176
     1
 40
1.0
176
     1
 90
        1
176
     1
 90
        6
176
     1
 90
        2
176
     1
 62
     7
176
     1
 90
        6
176
     1
 90
        0
176
     1
 90
        0
176
     1
290
     0
176
     1
 90
        1
176
     1
 40
0.0
176
     1
 90
        0
176
     1
290
     0
176
     1
290
     1
176
     1
290
     1
176
     1
290
     0
176
     1
290
     0
176
     1
290
     0
176
     1
290
     0
176
     1
290
     0
176
     1
290
     0
176
     1
 90
       50
176
     1
 40
0.0
176
     1
 40
1.0
176
     1
 90
        0
176
     1
 62
    18
420
        0
176
     1
 90
       50
176
     1
 90
        3
176
     1
 62
     5
420
      255
176
     1
290
     0
176
     1
 90
       50
176
     1
 90
       50
176
     1
 90
       50
176
     1
290
     0
176
     1
 90
       50
176
     1
 62
   256
176
     0
 40
1.0
176
     0
 90
        2
176
     1
  1
strokes_ogs.tif
176
     1
290
     0
176
     1
 40
1.0
176
     1
 40
1.0
176
     1
  0
VISUALSTYLE
  5
37
102
{ACAD_REACTORS
330
2A
102
}
330
2A
100
AcDbVisualStyle
  2
Thicken
 70
    13
177
     3
291
     1
 70
    58
 90
        2
176
     1
 90
        2
176
     1
 90
        0
176
     1
 90
        0
176
     1
 40
0.6
176
     1
 40
30.0
176
     1
 62
     7
420
 16777215
176
     1
 90
        1
176
     1
 90
        4
176
     1
 62
     7
176
     1
 62
   257
176
     1
 90
        1
176
     1
 90
        1
176
     1
 40
1.0
176
     1
 90
       12
176
     1
 62
     7
176
     1
 40
1.0
176
     1
 90
        1
176
     1
 90
        6
176
     1
 90
        2
176
     1
 62
     7
176
     1
 90
        5
176
     1
 90
        0
176
     1
 90
        0
176
     1
290
     0
176
     1
 90
        1
176
     1
 40
0.0
176
     1
 90
        0
176
     1
290
     0
176
     1
290
     1
176
     1
290
     1
176
     1
290
     0
176
     1
290
     0
176
     1
290
     0
176
     1
290
     0
176
     1
290
     0
176
     1
290
     0
176
     1
 90
       50
176
     1
 40
0.0
176
     1
 40
1.0
176
     1
 90
        0
176
     1
 62
    18
420
        0
176
     1
 90
       50
176
     1
 90
        3
176
     1
 62
     5
420
      255
176
     1
290
     0
176
     1
 90
       50
176
     1
 90
       50
176
     1
 90
       50
176
     1
290
     0
176
     1
 90
       50
176
     1
 62
   256
176
     0
 40
1.0
176
     0
 90
        2
176
     1
  1
strokes_ogs.tif
176
     1
290
     0
176
     1
 40
1.0
176
     1
 40
1.0
176
     1
  0
VISUALSTYLE
  5
30
102
{ACAD_REACTORS
330
2A
102
}
330
2A
100
AcDbVisualStyle
  2
Wireframe
 70
     5
177
     3
291
     0
 70
    58
 90
        0
176
     1
 90
        2
176
     1
 90
        0
176
     1
 90
        0
176
     1
 40
0.6
176
     1
 40
30.0
176
     1
 62
     7
420
 16777215
176
     1
 90
        1
176
     1
 90
        4
176
     1
 62
     7
176
     1
 62
   257
176
     1
 90
        1
176
     1
 90
        1
176
     1
 40
1.0
176
     1
 90
        0
176
     1
 62
   257
176
     1
 40
1.0
176
     1
 90
        1
176
     1
 90
        6
176
     1
 90
        2
176
     1
 62
     7
176
     1
 90
        3
176
     1
 90
        0
176
     1
 90
        0
176
     1
290
     0
176
     1
 90
        1
176
     1
 40
0.0
176
     1
 90
        0
176
     1
290
     0
176
     1
290
     1
176
     1
290
     1
176
     1
290
     0
176
     1
290
     0
176
     1
290
     0
176
     1
290
     0
176
     1
290
     0
176
     1
290
     0
176
     1
 90
       50
176
     1
 40
0.0
176
     1
 40
1.0
176
     1
 90
        0
176
     1
 62
    18
420
        0
176
     1
 90
       50
176
     1
 90
        3
176
     1
 62
     5
420
      255
176
     1
290
     0
176
     1
 90
       50
176
     1
 90
       50
176
     1
 90
       50
176
     1
290
     0
176
     1
 90
       50
176
     1
 62
   256
176
     0
 40
1.0
176
     0
 90
        2
176
     1
  1
strokes_ogs.tif
176
     1
290
     0
176
     1
 40
1.0
176
     1
 40
1.0
176
     1
  0
VISUALSTYLE
  5
40
102
{ACAD_REACTORS
330
2A
102
}
330
2A
100
AcDbVisualStyle
  2
X-Ray
 70
    25
177
     3
291
     0
 70
    58
 90
        2
176
     1
 90
        2
176
     1
 90
        1
176
     1
 90
        1
176
     1
 40
0.5
176
     1
 40
30.0
176
     1
 62
     7
420
 16777215
176
     1
 90
        1
176
     1
 90
        0
176
     1
 62
     7
176
     1
 62
   257
176
     1
 90
        1
176
     1
 90
        1
176
     1
 40
1.0
176
     1
 90
        8
176
     1
 62
     7
176
     1
 40
1.0
176
     1
 90
        1
176
     1
 90
        6
176
     1
 90
        2
176
     1
 62
     7
176
     1
 90
        3
176
     1
 90
        0
176
     1
 90
        0
176
     1
290
     0
176
     1
 90
       13
176
     1
 40
0.0
176
     1
 90
        0
176
     1
290
     0
176
     1
290
     1
176
     1
290
     1
176
     1
290
     0
176
     1
290
     0
176
     1
290
     0
176
     1
290
     0
176
     1
290
     0
176
     1
290
     0
176
     1
 90
       50
176
     1
 40
0.0
176
     1
 40
1.0
176
     1
 90
        0
176
     1
 62
    18
420
        0
176
     1
 90
       50
176
     1
 90
        3
176
     1
 62
     5
420
      255
176
     1
290
     0
176
     1
 90
       50
176
     1
 90
       50
176
     1
 90
       50
176
     1
290
     0
176
     1
 90
       50
176
     1
 62
   256
176
     0
 40
1.0
176
     0
 90
        2
176
     1
  1
strokes_ogs.tif
176
     1
290
     0
176
     1
 40
1.0
176
     1
 40
1.0
176
     1
  0
DICTIONARYVAR
  5
1AA
102
{ACAD_REACTORS
330
1A9
102
}
330
1A9
100
DictionaryVariables
280
     0
  1
1:1
  0
DICTIONARYVAR
  5
1AF
102
{ACAD_REACTORS
330
1A9
102
}
330
1A9
100
DictionaryVariables
280
     0
  1
Standard
  0
DICTIONARYVAR
  5
1AE
102
{ACAD_REACTORS
330
1A9
102
}
330
1A9
100
DictionaryVariables
280
     0
  1
Standard
  0
DICTIONARY
  5
1AB
330
6A
100
AcDbDictionary
280
     1
281
     1
  3
ACAD_ROUNDTRIP_2008_TABLESTYLE_CELLSTYLEMAP
360
1AC
  0
CELLSTYLEMAP
  5
1AC
102
{ACAD_REACTORS
330
1AB
102
}
330
1AB
100
AcDbCellStyleMap
 90
        3
300
CELLSTYLE
  1
TABLEFORMAT_BEGIN
 90
        5
170
     1
 91
        0
 92
    32768
 62
   257
 93
        1
300
CONTENTFORMAT
  1
CONTENTFORMAT_BEGIN
 90
        0
 91
        0
 92
        4
 93
        0
300

 40
0.0
140
1.0
 94
        5
 62
     0
340
11
144
6.0
309
CONTENTFORMAT_END
171
     1
301
MARGIN
  1
CELLMARGIN_BEGIN
 40
1.5
 40
1.5
 40
1.5
 40
1.5
 40
1.5
 40
1.5
309
CELLMARGIN_END
 94
        6
 95
        1
302
GRIDFORMAT
  1
GRIDFORMAT_BEGIN
 90
        0
 91
        1
 62
     0
 92
       -2
340
14
 93
        0
 40
0.045
309
GRIDFORMAT_END
 95
        2
302
GRIDFORMAT
  1
GRIDFORMAT_BEGIN
 90
        0
 91
        1
 62
     0
 92
       -2
340
14
 93
        0
 40
0.045
309
GRIDFORMAT_END
 95
        4
302
GRIDFORMAT
  1
GRIDFORMAT_BEGIN
 90
        0
 91
        1
 62
     0
 92
       -2
340
14
 93
        0
 40
0.045
309
GRIDFORMAT_END
 95
        8
302
GRIDFORMAT
  1
GRIDFORMAT_BEGIN
 90
        0
 91
        1
 62
     0
 92
       -2
340
14
 93
        0
 40
0.045
309
GRIDFORMAT_END
 95
       16
302
GRIDFORMAT
  1
GRIDFORMAT_BEGIN
 90
        0
 91
        1
 62
     0
 92
       -2
340
14
 93
        0
 40
0.045
309
GRIDFORMAT_END
 95
       32
302
GRIDFORMAT
  1
GRIDFORMAT_BEGIN
 90
        0
 91
        1
 62
     0
 92
       -2
340
14
 93
        0
 40
0.045
309
GRIDFORMAT_END
309
TABLEFORMAT_END
  1
CELLSTYLE_BEGIN
 90
        1
 91
        1
300
_TITLE
309
CELLSTYLE_END
300
CELLSTYLE
  1
TABLEFORMAT_BEGIN
 90
        5
170
     1
 91
        0
 92
        0
 62
   257
 93
        1
300
CONTENTFORMAT
  1
CONTENTFORMAT_BEGIN
 90
        0
 91
        0
 92
        4
 93
        0
300

 40
0.0
140
1.0
 94
        5
 62
     0
340
11
144
4.5
309
CONTENTFORMAT_END
171
     1
301
MARGIN
  1
CELLMARGIN_BEGIN
 40
1.5
 40
1.5
 40
1.5
 40
1.5
 40
1.5
 40
1.5
309
CELLMARGIN_END
 94
        6
 95
        1
302
GRIDFORMAT
  1
GRIDFORMAT_BEGIN
 90
        0
 91
        1
 62
     0
 92
       -2
340
14
 93
        0
 40
0.045
309
GRIDFORMAT_END
 95
        2
302
GRIDFORMAT
  1
GRIDFORMAT_BEGIN
 90
        0
 91
        1
 62
     0
 92
       -2
340
14
 93
        0
 40
0.045
309
GRIDFORMAT_END
 95
        4
302
GRIDFORMAT
  1
GRIDFORMAT_BEGIN
 90
        0
 91
        1
 62
     0
 92
       -2
340
14
 93
        0
 40
0.045
309
GRIDFORMAT_END
 95
        8
302
GRIDFORMAT
  1
GRIDFORMAT_BEGIN
 90
        0
 91
        1
 62
     0
 92
       -2
340
14
 93
        0
 40
0.045
309
GRIDFORMAT_END
 95
       16
302
GRIDFORMAT
  1
GRIDFORMAT_BEGIN
 90
        0
 91
        1
 62
     0
 92
       -2
340
14
 93
        0
 40
0.045
309
GRIDFORMAT_END
 95
       32
302
GRIDFORMAT
  1
GRIDFORMAT_BEGIN
 90
        0
 91
        1
 62
     0
 92
       -2
340
14
 93
        0
 40
0.045
309
GRIDFORMAT_END
309
TABLEFORMAT_END
  1
CELLSTYLE_BEGIN
 90
        2
 91
        1
300
_HEADER
309
CELLSTYLE_END
300
CELLSTYLE
  1
TABLEFORMAT_BEGIN
 90
        5
170
     1
 91
        0
 92
        0
 62
   257
 93
        1
300
CONTENTFORMAT
  1
CONTENTFORMAT_BEGIN
 90
        0
 91
        0
 92
        4
 93
        0
300

 40
0.0
140
1.0
 94
        2
 62
     0
340
11
144
4.5
309
CONTENTFORMAT_END
171
     1
301
MARGIN
  1
CELLMARGIN_BEGIN
 40
1.5
 40
1.5
 40
1.5
 40
1.5
 40
1.5
 40
1.5
309
CELLMARGIN_END
 94
        6
 95
        1
302
GRIDFORMAT
  1
GRIDFORMAT_BEGIN
 90
        0
 91
        1
 62
     0
 92
       -2
340
14
 93
        0
 40
0.045
309
GRIDFORMAT_END
 95
        2
302
GRIDFORMAT
  1
GRIDFORMAT_BEGIN
 90
        0
 91
        1
 62
     0
 92
       -2
340
14
 93
        0
 40
0.045
309
GRIDFORMAT_END
 95
        4
302
GRIDFORMAT
  1
GRIDFORMAT_BEGIN
 90
        0
 91
        1
 62
     0
 92
       -2
340
14
 93
        0
 40
0.045
309
GRIDFORMAT_END
 95
        8
302
GRIDFORMAT
  1
GRIDFORMAT_BEGIN
 90
        0
 91
        1
 62
     0
 92
       -2
340
14
 93
        0
 40
0.045
309
GRIDFORMAT_END
 95
       16
302
GRIDFORMAT
  1
GRIDFORMAT_BEGIN
 90
        0
 91
        1
 62
     0
 92
       -2
340
14
 93
        0
 40
0.045
309
GRIDFORMAT_END
 95
       32
302
GRIDFORMAT
  1
GRIDFORMAT_BEGIN
 90
        0
 91
        1
 62
     0
 92
       -2
340
14
 93
        0
 40
0.045
309
GRIDFORMAT_END
309
TABLEFORMAT_END
  1
CELLSTYLE_BEGIN
 90
        3
 91
        2
300
_DATA
309
CELLSTYLE_END
  0
ENDSEC
  0
EOF