0
SECTION
  2
HEADER
  9
$ACADVER
  1
AC1027
  9
$ACADMAINTVER
 70
     8
  9
$DWGCODEPAGE
  3
ANSI_1252
  9
$REQUIREDVERSIONS
160
                 0
  9
$COMMENTS
  1
File was created by Cadenas
  9
$CUSTOMPROPERTYTAG
  1
NN
  9
$CUSTOMPROPERTY
  1
Set Screw Two-Bolt Pillow Block Metric Bore
  9
$CUSTOMPROPERTYTAG
  1
NT
  9
$CUSTOMPROPERTY
  1
SC Pillow Block Bearings -(Normal Duty)
  9
$CUSTOMPROPERTYTAG
  1
NB
  9
$CUSTOMPROPERTY
  1
125861
  9
$CUSTOMPROPERTYTAG
  1
NBSYN
  9
$CUSTOMPROPERTY
  1
$PN.
  9
$CUSTOMPROPERTYTAG
  1
LINA
  9
$CUSTOMPROPERTY
  1
125861
  9
$CUSTOMPROPERTYTAG
  1
SERIES
  9
$CUSTOMPROPERTY
  1
214
  9
$CUSTOMPROPERTYTAG
  1
SS
  9
$CUSTOMPROPERTY
  1
70
  9
$CUSTOMPROPERTYTAG
  1
PN
  9
$CUSTOMPROPERTY
  1
125861
  9
$CUSTOMPROPERTYTAG
  1
DESCRIPTION
  9
$CUSTOMPROPERTY
  1
P2B-SC-70M
  9
$CUSTOMPROPERTYTAG
  1
WEIGHT
  9
$CUSTOMPROPERTY
  1
6.9
  9
$CUSTOMPROPERTYTAG
  1
LF
  9
$CUSTOMPROPERTY
  1
RE-LUBE
  9
$CUSTOMPROPERTYTAG
  1
A
  9
$CUSTOMPROPERTY
  1
64.5
  9
$CUSTOMPROPERTYTAG
  1
B
  9
$CUSTOMPROPERTY
  1
273.1
  9
$CUSTOMPROPERTYTAG
  1
C
  9
$CUSTOMPROPERTY
  1
68.3
  9
$CUSTOMPROPERTYTAG
  1
DMIN
  9
$CUSTOMPROPERTY
  1
190.5
  9
$CUSTOMPROPERTYTAG
  1
DMAX
  9
$CUSTOMPROPERTY
  1
215.9
  9
$CUSTOMPROPERTYTAG
  1
F
  9
$CUSTOMPROPERTY
  1
M18
  9
$CUSTOMPROPERTYTAG
  1
G
  9
$CUSTOMPROPERTY
  1
33.5
  9
$CUSTOMPROPERTYTAG
  1
H
  9
$CUSTOMPROPERTY
  1
23.9
  9
$CUSTOMPROPERTYTAG
  1
J
  9
$CUSTOMPROPERTY
  1
154.7
  9
$CUSTOMPROPERTYTAG
  1
L
  9
$CUSTOMPROPERTY
  1
84.1
  9
$CUSTOMPROPERTYTAG
  1
M
  9
$CUSTOMPROPERTY
  1
76.2
  9
$CUSTOMPROPERTYTAG
  1
R
  9
$CUSTOMPROPERTY
  1
26.9
  9
$CUSTOMPROPERTYTAG
  1
S
  9
$CUSTOMPROPERTY
  1
37.6
  9
$CUSTOMPROPERTYTAG
  1
U
  9
$CUSTOMPROPERTY
  1
124.0
  9
$CUSTOMPROPERTYTAG
  1
V
  9
$CUSTOMPROPERTY
  1
247.9
  9
$CUSTOMPROPERTYTAG
  1
W
  9
$CUSTOMPROPERTY
  1
23.9
  9
$CUSTOMPROPERTYTAG
  1
X
  9
$CUSTOMPROPERTY
  1
3.0
  9
$CUSTOMPROPERTYTAG
  1
COMPANY
  9
$CUSTOMPROPERTY
  1
baldor
  9
$INSBASE
 10
0.0
 20
0.0
 30
0.0
  9
$EXTMIN
 10
1.000000000000000E+20
 20
1.000000000000000E+20
 30
1.000000000000000E+20
  9
$EXTMAX
 10
-1.000000000000000E+20
 20
-1.000000000000000E+20
 30
-1.000000000000000E+20
  9
$LIMMIN
 10
0.0
 20
0.0
  9
$LIMMAX
 10
420.0
 20
297.0
  9
$ORTHOMODE
 70
     0
  9
$REGENMODE
 70
     1
  9
$FILLMODE
 70
     1
  9
$QTEXTMODE
 70
     0
  9
$MIRRTEXT
 70
     1
  9
$LTSCALE
 40
1.0
  9
$ATTMODE
 70
     1
  9
$TEXTSIZE
 40
2.5
  9
$TRACEWID
 40
1.0
  9
$TEXTSTYLE
  7
Standard
  9
$CLAYER
  8
0
  9
$CELTYPE
  6
ByLayer
  9
$CECOLOR
 62
   256
  9
$CELTSCALE
 40
1.0
  9
$DISPSILH
 70
     0
  9
$DIMSCALE
 40
1.0
  9
$DIMASZ
 40
2.5
  9
$DIMEXO
 40
0.625
  9
$DIMDLI
 40
3.75
  9
$DIMRND
 40
0.0
  9
$DIMDLE
 40
0.0
  9
$DIMEXE
 40
1.25
  9
$DIMTP
 40
0.0
  9
$DIMTM
 40
0.0
  9
$DIMTXT
 40
2.5
  9
$DIMCEN
 40
2.5
  9
$DIMTSZ
 40
0.0
  9
$DIMTOL
 70
     0
  9
$DIMLIM
 70
     0
  9
$DIMTIH
 70
     0
  9
$DIMTOH
 70
     0
  9
$DIMSE1
 70
     0
  9
$DIMSE2
 70
     0
  9
$DIMTAD
 70
     1
  9
$DIMZIN
 70
     8
  9
$DIMBLK
  1

  9
$DIMASO
 70
     1
  9
$DIMSHO
 70
     1
  9
$DIMPOST
  1

  9
$DIMAPOST
  1

  9
$DIMALT
 70
     0
  9
$DIMALTD
 70
     3
  9
$DIMALTF
 40
0.03937007874016
  9
$DIMLFAC
 40
1.0
  9
$DIMTOFL
 70
     1
  9
$DIMTVP
 40
0.0
  9
$DIMTIX
 70
     0
  9
$DIMSOXD
 70
     0
  9
$DIMSAH
 70
     0
  9
$DIMBLK1
  1

  9
$DIMBLK2
  1

  9
$DIMSTYLE
  2
ISO-25
  9
$DIMCLRD
 70
     0
  9
$DIMCLRE
 70
     0
  9
$DIMCLRT
 70
     0
  9
$DIMTFAC
 40
1.0
  9
$DIMGAP
 40
0.625
  9
$DIMJUST
 70
     0
  9
$DIMSD1
 70
     0
  9
$DIMSD2
 70
     0
  9
$DIMTOLJ
 70
     0
  9
$DIMTZIN
 70
     8
  9
$DIMALTZ
 70
     0
  9
$DIMALTTZ
 70
     0
  9
$DIMUPT
 70
     0
  9
$DIMDEC
 70
     2
  9
$DIMTDEC
 70
     2
  9
$DIMALTU
 70
     2
  9
$DIMALTTD
 70
     3
  9
$DIMTXSTY
  7
Standard
  9
$DIMAUNIT
 70
     0
  9
$DIMADEC
 70
     0
  9
$DIMALTRND
 40
0.0
  9
$DIMAZIN
 70
     0
  9
$DIMDSEP
 70
    44
  9
$DIMATFIT
 70
     3
  9
$DIMFRAC
 70
     0
  9
$DIMLDRBLK
  1

  9
$DIMLUNIT
 70
     2
  9
$DIMLWD
 70
    -2
  9
$DIMLWE
 70
    -2
  9
$DIMTMOVE
 70
     0
  9
$DIMFXL
 40
1.0
  9
$DIMFXLON
 70
     0
  9
$DIMJOGANG
 40
0.7853981633974483
  9
$DIMTFILL
 70
     0
  9
$DIMTFILLCLR
 70
     0
  9
$DIMARCSYM
 70
     0
  9
$DIMLTYPE
  6

  9
$DIMLTEX1
  6

  9
$DIMLTEX2
  6

  9
$DIMTXTDIRECTION
 70
     0
  9
$LUNITS
 70
     2
  9
$LUPREC
 70
     4
  9
$SKETCHINC
 40
1.0
  9
$FILLETRAD
 40
10.0
  9
$AUNITS
 70
     0
  9
$AUPREC
 70
     0
  9
$MENU
  1
.
  9
$ELEVATION
 40
0.0
  9
$PELEVATION
 40
0.0
  9
$THICKNESS
 40
0.0
  9
$LIMCHECK
 70
     0
  9
$CHAMFERA
 40
0.0
  9
$CHAMFERB
 40
0.0
  9
$CHAMFERC
 40
0.0
  9
$CHAMFERD
 40
0.0
  9
$SKPOLY
 70
     0
  9
$TDCREATE
 40
2458168.986512836
  9
$TDUCREATE
 40
2458168.944846169
  9
$TDUPDATE
 40
2458168.986513021
  9
$TDUUPDATE
 40
2458168.944846354
  9
$TDINDWG
 40
0.0000000116
  9
$TDUSRTIMER
 40
0.0000000116
  9
$USRTIMER
 70
     1
  9
$ANGBASE
 50
0.0
  9
$ANGDIR
 70
     0
  9
$PDMODE
 70
     0
  9
$PDSIZE
 40
0.0
  9
$PLINEWID
 40
0.0
  9
$SPLFRAME
 70
     0
  9
$SPLINETYPE
 70
     6
  9
$SPLINESEGS
 70
     8
  9
$HANDSEED
  5
18F
  9
$SURFTAB1
 70
     6
  9
$SURFTAB2
 70
     6
  9
$SURFTYPE
 70
     6
  9
$SURFU
 70
     6
  9
$SURFV
 70
     6
  9
$UCSBASE
  2

  9
$UCSNAME
  2

  9
$UCSORG
 10
0.0
 20
0.0
 30
0.0
  9
$UCSXDIR
 10
1.0
 20
0.0
 30
0.0
  9
$UCSYDIR
 10
0.0
 20
1.0
 30
0.0
  9
$UCSORTHOREF
  2

  9
$UCSORTHOVIEW
 70
     0
  9
$UCSORGTOP
 10
0.0
 20
0.0
 30
0.0
  9
$UCSORGBOTTOM
 10
0.0
 20
0.0
 30
0.0
  9
$UCSORGLEFT
 10
0.0
 20
0.0
 30
0.0
  9
$UCSORGRIGHT
 10
0.0
 20
0.0
 30
0.0
  9
$UCSORGFRONT
 10
0.0
 20
0.0
 30
0.0
  9
$UCSORGBACK
 10
0.0
 20
0.0
 30
0.0
  9
$PUCSBASE
  2

  9
$PUCSNAME
  2

  9
$PUCSORG
 10
0.0
 20
0.0
 30
0.0
  9
$PUCSXDIR
 10
1.0
 20
0.0
 30
0.0
  9
$PUCSYDIR
 10
0.0
 20
1.0
 30
0.0
  9
$PUCSORTHOREF
  2

  9
$PUCSORTHOVIEW
 70
     0
  9
$PUCSORGTOP
 10
0.0
 20
0.0
 30
0.0
  9
$PUCSORGBOTTOM
 10
0.0
 20
0.0
 30
0.0
  9
$PUCSORGLEFT
 10
0.0
 20
0.0
 30
0.0
  9
$PUCSORGRIGHT
 10
0.0
 20
0.0
 30
0.0
  9
$PUCSORGFRONT
 10
0.0
 20
0.0
 30
0.0
  9
$PUCSORGBACK
 10
0.0
 20
0.0
 30
0.0
  9
$USERI1
 70
     0
  9
$USERI2
 70
     0
  9
$USERI3
 70
     0
  9
$USERI4
 70
     0
  9
$USERI5
 70
     0
  9
$USERR1
 40
0.0
  9
$USERR2
 40
0.0
  9
$USERR3
 40
0.0
  9
$USERR4
 40
0.0
  9
$USERR5
 40
0.0
  9
$WORLDVIEW
 70
     1
  9
$SHADEDGE
 70
     3
  9
$SHADEDIF
 70
    70
  9
$TILEMODE
 70
     1
  9
$MAXACTVP
 70
    64
  9
$PINSBASE
 10
0.0
 20
0.0
 30
0.0
  9
$PLIMCHECK
 70
     0
  9
$PEXTMIN
 10
1.000000000000000E+20
 20
1.000000000000000E+20
 30
1.000000000000000E+20
  9
$PEXTMAX
 10
-1.000000000000000E+20
 20
-1.000000000000000E+20
 30
-1.000000000000000E+20
  9
$PLIMMIN
 10
0.0
 20
0.0
  9
$PLIMMAX
 10
420.0
 20
297.0
  9
$UNITMODE
 70
     0
  9
$VISRETAIN
 70
     1
  9
$PLINEGEN
 70
     0
  9
$PSLTSCALE
 70
     1
  9
$TREEDEPTH
 70
  3020
  9
$CMLSTYLE
  2
Standard
  9
$CMLJUST
 70
     0
  9
$CMLSCALE
 40
20.0
  9
$PROXYGRAPHICS
 70
     1
  9
$MEASUREMENT
 70
     1
  9
$CELWEIGHT
370
    -1
  9
$ENDCAPS
280
     0
  9
$JOINSTYLE
280
     0
  9
$LWDISPLAY
290
     0
  9
$INSUNITS
 70
     4
  9
$HYPERLINKBASE
  1

  9
$STYLESHEET
  1

  9
$XEDIT
290
     1
  9
$CEPSNTYPE
380
     0
  9
$PSTYLEMODE
290
     1
  9
$FINGERPRINTGUID
  2
{FD980DC9-D728-4E30-800C-7984A05BB5F2}
  9
$VERSIONGUID
  2
{FAEB1C32-E019-11D5-929B-00C0DF256EC4}
  9
$EXTNAMES
290
     1
  9
$PSVPSCALE
 40
0.0
  9
$OLESTARTUP
290
     0
  9
$SORTENTS
280
   127
  9
$INDEXCTL
280
     0
  9
$HIDETEXT
280
     1
  9
$XCLIPFRAME
280
     2
  9
$HALOGAP
280
     0
  9
$OBSCOLOR
 70
   257
  9
$OBSLTYPE
280
     0
  9
$INTERSECTIONDISPLAY
280
     0
  9
$INTERSECTIONCOLOR
 70
   257
  9
$DIMASSOC
280
     2
  9
$PROJECTNAME
  1

  9
$CAMERADISPLAY
290
     0
  9
$LENSLENGTH
 40
50.0
  9
$CAMERAHEIGHT
 40
0.0
  9
$STEPSPERSEC
 40
2.0
  9
$STEPSIZE
 40
6.0
  9
$3DDWFPREC
 40
2.0
  9
$PSOLWIDTH
 40
5.0
  9
$PSOLHEIGHT
 40
80.0
  9
$LOFTANG1
 40
1.570796326794897
  9
$LOFTANG2
 40
1.570796326794897
  9
$LOFTMAG1
 40
0.0
  9
$LOFTMAG2
 40
0.0
  9
$LOFTPARAM
 70
     7
  9
$LOFTNORMALS
280
     1
  9
$LATITUDE
 40
37.795
  9
$LONGITUDE
 40
-122.394
  9
$NORTHDIRECTION
 40
0.0
  9
$TIMEZONE
 70
 -8000
  9
$LIGHTGLYPHDISPLAY
280
     1
  9
$TILEMODELIGHTSYNCH
280
     1
  9
$CMATERIAL
347
44
  9
$SOLIDHIST
280
     0
  9
$SHOWHIST
280
     1
  9
$DWFFRAME
280
     2
  9
$DGNFRAME
280
     2
  9
$REALWORLDSCALE
290
     1
  9
$INTERFERECOLOR
 62
   256
  9
$CSHADOW
280
     0
  9
$SHADOWPLANELOCATION
 40
0.0
  0
ENDSEC
  0
SECTION
  2
CLASSES
  0
CLASS
  1
ACDBDICTIONARYWDFLT
  2
AcDbDictionaryWithDefault
  3
ObjectDBX Classes
 90
        0
 91
        4
280
     0
281
     0
  0
CLASS
  1
VISUALSTYLE
  2
AcDbVisualStyle
  3
ObjectDBX Classes
 90
     4095
 91
        4
280
     0
281
     0
  0
CLASS
  1
MATERIAL
  2
AcDbMaterial
  3
ObjectDBX Classes
 90
     1153
 91
        4
280
     0
281
     0
  0
CLASS
  1
SCALE
  2
AcDbScale
  3
ObjectDBX Classes
 90
     1153
 91
        4
280
     0
281
     0
  0
CLASS
  1
TABLESTYLE
  2
AcDbTableStyle
  3
ObjectDBX Classes
 90
     4095
 91
        4
280
     0
281
     0
  0
CLASS
  1
MLEADERSTYLE
  2
AcDbMLeaderStyle
  3
ACDB_MLEADERSTYLE_CLASS
 90
     4095
 91
        4
280
     0
281
     0
  0
CLASS
  1
SUN
  2
AcDbSun
  3
SCENEOE
 90
     1153
 91
        4
280
     0
281
     0
  0
CLASS
  1
DICTIONARYVAR
  2
AcDbDictionaryVar
  3
ObjectDBX Classes
 90
        0
 91
        4
280
     0
281
     0
  0
CLASS
  1
CELLSTYLEMAP
  2
AcDbCellStyleMap
  3
ObjectDBX Classes
 90
     1152
 91
        4
280
     0
281
     0
  0
ENDSEC
  0
SECTION
  2
TABLES
  0
TABLE
  2
VPORT
  5
8
330
0
100
AcDbSymbolTable
 70
     1
  0
VPORT
  5
29
330
8
100
AcDbSymbolTableRecord
100
AcDbViewportTableRecord
  2
*Active
 70
     0
 10
0.0
 20
0.0
 11
1.0
 21
1.0
 12
0.0
 22
1.149996486080283
 13
0.0
 23
0.0
 14
10.0
 24
10.0
 15
10.0
 25
10.0
 16
0.0
 26
0.0
 36
1.0
 17
0.0
 27
0.0
 37
0.0
 40
157.7939928316038
 41
1.765352374961946
 42
50.0
 43
0.0
 44
0.0
 50
0.0
 51
0.0
 71
     0
 72
   100
 73
     1
 74
     3
 75
     0
 76
     0
 77
     0
 78
     0
281
     0
 65
     1
110
0.0
120
0.0
130
0.0
111
1.0
121
0.0
131
0.0
112
0.0
122
1.0
132
0.0
 79
     0
146
0.0
348
2F
 60
     3
 61
     5
292
     1
282
     1
141
0.0
142
0.0
 63
   250
361
6D
  0
ENDTAB
  0
TABLE
  2
LTYPE
  5
5
330
0
100
AcDbSymbolTable
 70
     3
  0
LTYPE
  5
14
330
5
100
AcDbSymbolTableRecord
100
AcDbLinetypeTableRecord
  2
ByBlock
 70
     0
  3

 72
    65
 73
     0
 40
0.0
  0
LTYPE
  5
15
330
5
100
AcDbSymbolTableRecord
100
AcDbLinetypeTableRecord
  2
ByLayer
 70
     0
  3

 72
    65
 73
     0
 40
0.0
  0
LTYPE
  5
16
330
5
100
AcDbSymbolTableRecord
100
AcDbLinetypeTableRecord
  2
Continuous
 70
     0
  3
Solid line
 72
    65
 73
     0
 40
0.0
  0
LTYPE
  5
9C
330
5
100
AcDbSymbolTableRecord
100
AcDbLinetypeTableRecord
  2
Dashed
 70
     0
  3

 72
    65
 73
     2
 40
2.0
 49
1.0
 74
     0
 49
-1.0
 74
     0
  0
LTYPE
  5
AA
330
5
100
AcDbSymbolTableRecord
100
AcDbLinetypeTableRecord
  2
Center
 70
     0
  3

 72
    65
 73
     4
 40
1.5
 49
0.45
 74
     0
 49
-0.5
 74
     0
 49
0.05
 74
     0
 49
-0.5
 74
     0
  0
ENDTAB
  0
TABLE
  2
LAYER
  5
2
330
0
100
AcDbSymbolTable
 70
     7
  0
LAYER
  5
10
330
2
100
AcDbSymbolTableRecord
100
AcDbLayerTableRecord
  2
0
 70
     0
 62
     7
  6
Continuous
370
    -3
390
F
347
46
348
0
  0
LAYER
  5
72
330
2
100
AcDbSymbolTableRecord
100
AcDbLayerTableRecord
  2
AM_6
 70
     0
 62
    -2
  6
Continuous
370
    35
390
F
347
46
348
0
  0
LAYER
  5
9D
330
2
100
AcDbSymbolTableRecord
100
AcDbLayerTableRecord
  2
AM_9
 70
     0
 62
     6
  6
Dashed
370
    25
390
F
347
46
348
0
  0
LAYER
  5
A4
330
2
100
AcDbSymbolTableRecord
100
AcDbLayerTableRecord
  2
AM_5
 70
     0
 62
     3
  6
Continuous
370
    25
390
F
347
46
348
0
  0
LAYER
  5
AB
330
2
100
AcDbSymbolTableRecord
100
AcDbLayerTableRecord
  2
AM_7
 70
     0
 62
     7
  6
Center
370
    25
390
F
347
46
348
0
  0
LAYER
  5
AD
330
2
100
AcDbSymbolTableRecord
100
AcDbLayerTableRecord
  2
AM_4
 70
     0
 62
     7
  6
Continuous
370
    50
390
F
347
46
348
0
  0
LAYER
  5
182
330
2
100
AcDbSymbolTableRecord
100
AcDbLayerTableRecord
  2
ConnectionPoints
 70
     0
 62
     7
  6
Continuous
370
    50
390
F
347
46
348
0
  0
ENDTAB
  0
TABLE
  2
STYLE
  5
3
330
0
100
AcDbSymbolTable
 70
     1
  0
STYLE
  5
11
330
3
100
AcDbSymbolTableRecord
100
AcDbTextStyleTableRecord
  2
Standard
 70
     0
 40
0.0
 41
1.0
 50
0.0
 71
     0
 42
2.5
  3
txt
  4

  0
ENDTAB
  0
TABLE
  2
VIEW
  5
6
330
0
100
AcDbSymbolTable
 70
     0
  0
ENDTAB
  0
TABLE
  2
UCS
  5
7
330
0
100
AcDbSymbolTable
 70
     0
  0
ENDTAB
  0
TABLE
  2
APPID
  5
9
330
0
100
AcDbSymbolTable
 70
     1
  0
APPID
  5
12
330
9
100
AcDbSymbolTableRecord
100
AcDbRegAppTableRecord
  2
ACAD
 70
     0
  0
ENDTAB
  0
TABLE
  2
DIMSTYLE
  5
A
330
0
100
AcDbSymbolTable
 70
     1
100
AcDbDimStyleTable
  0
DIMSTYLE
105
27
330
A
100
AcDbSymbolTableRecord
100
AcDbDimStyleTableRecord
  2
ISO-25
 70
     0
 41
2.5
 42
0.625
 43
3.75
 44
1.25
 73
     0
 74
     0
 77
     1
 78
     8
140
2.5
141
2.5
143
0.03937007874016
147
0.625
171
     3
172
     1
178
     0
271
     2
272
     2
274
     3
278
    44
283
     0
284
     8
340
11
  0
ENDTAB
  0
TABLE
  2
BLOCK_RECORD
  5
1
330
0
100
AcDbSymbolTable
 70
     5
  0
BLOCK_RECORD
  5
1F
330
1
100
AcDbSymbolTableRecord
100
AcDbBlockTableRecord
  2
*Model_Space
340
22
 70
     0
280
     1
281
     0
  0
BLOCK_RECORD
  5
1B
330
1
100
AcDbSymbolTableRecord
100
AcDbBlockTableRecord
  2
*Paper_Space
340
1E
 70
     0
280
     1
281
     0
  0
BLOCK_RECORD
  5
23
330
1
100
AcDbSymbolTableRecord
100
AcDbBlockTableRecord
  2
*Paper_Space0
340
26
 70
     0
280
     1
281
     0
  0
BLOCK_RECORD
  5
6E
330
1
100
AcDbSymbolTableRecord
100
AcDbBlockTableRecord
  2
1_125861_0
340
0
102
{BLKREFS
331
6F
102
}
 70
     0
280
     1
281
     0
  0
BLOCK_RECORD
  5
90
330
1
100
AcDbSymbolTableRecord
100
AcDbBlockTableRecord
  2
2_405015E_Metric_0_in_125861_0
340
0
102
{BLKREFS
331
91
102
}
 70
     0
280
     1
281
     0
  0
BLOCK_RECORD
  5
D8
330
1
100
AcDbSymbolTableRecord
100
AcDbBlockTableRecord
  2
3_125820_0_in_125861_0
340
0
102
{BLKREFS
331
D9
102
}
 70
     0
280
     1
281
     0
  0
BLOCK_RECORD
  5
113
330
1
100
AcDbSymbolTableRecord
100
AcDbBlockTableRecord
  2
4_125861H_0_in_125861_0
340
0
102
{BLKREFS
331
114
102
}
 70
     0
280
     1
281
     0
  0
ENDTAB
  0
ENDSEC
  0
SECTION
  2
BLOCKS
  0
BLOCK
  5
20
330
1F
100
AcDbEntity
  8
0
100
AcDbBlockBegin
  2
*Model_Space
 70
     0
 10
0.0
 20
0.0
 30
0.0
  3
*Model_Space
  1

  0
ENDBLK
  5
21
330
1F
100
AcDbEntity
  8
0
100
AcDbBlockEnd
  0
BLOCK
  5
1C
330
1B
100
AcDbEntity
 67
     1
  8
0
100
AcDbBlockBegin
  2
*Paper_Space
 70
     0
 10
0.0
 20
0.0
 30
0.0
  3
*Paper_Space
  1

  0
ENDBLK
  5
1D
330
1B
100
AcDbEntity
 67
     1
  8
0
100
AcDbBlockEnd
  0
BLOCK
  5
24
330
23
100
AcDbEntity
  8
0
100
AcDbBlockBegin
  2
*Paper_Space0
 70
     0
 10
0.0
 20
0.0
 30
0.0
  3
*Paper_Space0
  1

  0
ENDBLK
  5
25
330
23
100
AcDbEntity
  8
0
100
AcDbBlockEnd
  0
BLOCK
  5
70
330
6E
100
AcDbEntity
  8
0
100
AcDbBlockBegin
  2
1_125861_0
 70
     2
 10
0.0
 20
0.0
 30
0.0
  3
1_125861_0
  1

  0
ATTDEF
  5
73
330
6E
100
AcDbEntity
  8
AM_6
100
AcDbText
 10
141.55
 20
78.4999929721606
 30
0.0
 40
0.5
  1
Set Screw Two-Bolt Pillow Block Metric Bore
100
AcDbAttributeDefinition
  3

  2
NN
 70
     8
280
     0
  0
ATTDEF
  5
74
330
6E
100
AcDbEntity
  8
AM_6
100
AcDbText
 10
141.55
 20
77.9999929721606
 30
0.0
 40
0.5
  1
SC Pillow Block Bearings -(Normal Duty)
100
AcDbAttributeDefinition
  3

  2
NT
 70
     8
280
     0
  0
ATTDEF
  5
75
330
6E
100
AcDbEntity
  8
AM_6
100
AcDbText
 10
141.55
 20
77.4999929721606
 30
0.0
 40
0.5
  1
125861
100
AcDbAttributeDefinition
  3

  2
NB
 70
     8
280
     0
  0
ATTDEF
  5
76
330
6E
100
AcDbEntity
  8
AM_6
100
AcDbText
 10
141.55
 20
76.9999929721606
 30
0.0
 40
0.5
  1
$PN.
100
AcDbAttributeDefinition
  3

  2
NBSYN
 70
     8
280
     0
  0
ATTDEF
  5
77
330
6E
100
AcDbEntity
  8
AM_6
100
AcDbText
 10
141.55
 20
76.4999929721606
 30
0.0
 40
0.5
  1
125861
100
AcDbAttributeDefinition
  3

  2
LINA
 70
     8
280
     0
  0
ATTDEF
  5
78
330
6E
100
AcDbEntity
  8
AM_6
100
AcDbText
 10
141.55
 20
75.9999929721606
 30
0.0
 40
0.5
  1
214
100
AcDbAttributeDefinition
  3

  2
SERIES
 70
     8
280
     0
  0
ATTDEF
  5
79
330
6E
100
AcDbEntity
  8
AM_6
100
AcDbText
 10
141.55
 20
75.4999929721606
 30
0.0
 40
0.5
  1
70
100
AcDbAttributeDefinition
  3

  2
SS
 70
     8
280
     0
  0
ATTDEF
  5
7A
330
6E
100
AcDbEntity
  8
AM_6
100
AcDbText
 10
141.55
 20
74.9999929721606
 30
0.0
 40
0.5
  1
125861
100
AcDbAttributeDefinition
  3

  2
PN
 70
     8
280
     0
  0
ATTDEF
  5
7B
330
6E
100
AcDbEntity
  8
AM_6
100
AcDbText
 10
141.55
 20
74.4999929721606
 30
0.0
 40
0.5
  1
P2B-SC-70M
100
AcDbAttributeDefinition
  3

  2
DESCRIPTION
 70
     8
280
     0
  0
ATTDEF
  5
7C
330
6E
100
AcDbEntity
  8
AM_6
100
AcDbText
 10
141.55
 20
73.9999929721606
 30
0.0
 40
0.5
  1
6.9
100
AcDbAttributeDefinition
  3

  2
WEIGHT
 70
     8
280
     0
  0
ATTDEF
  5
7D
330
6E
100
AcDbEntity
  8
AM_6
100
AcDbText
 10
141.55
 20
73.4999929721606
 30
0.0
 40
0.5
  1
RE-LUBE
100
AcDbAttributeDefinition
  3

  2
LF
 70
     8
280
     0
  0
ATTDEF
  5
7E
330
6E
100
AcDbEntity
  8
AM_6
100
AcDbText
 10
141.55
 20
72.9999929721606
 30
0.0
 40
0.5
  1
64.5
100
AcDbAttributeDefinition
  3

  2
A
 70
     8
280
     0
  0
ATTDEF
  5
7F
330
6E
100
AcDbEntity
  8
AM_6
100
AcDbText
 10
141.55
 20
72.4999929721606
 30
0.0
 40
0.5
  1
273.1
100
AcDbAttributeDefinition
  3

  2
B
 70
     8
280
     0
  0
ATTDEF
  5
80
330
6E
100
AcDbEntity
  8
AM_6
100
AcDbText
 10
141.55
 20
71.9999929721606
 30
0.0
 40
0.5
  1
68.3
100
AcDbAttributeDefinition
  3

  2
C
 70
     8
280
     0
  0
ATTDEF
  5
81
330
6E
100
AcDbEntity
  8
AM_6
100
AcDbText
 10
141.55
 20
71.4999929721606
 30
0.0
 40
0.5
  1
190.5
100
AcDbAttributeDefinition
  3

  2
DMIN
 70
     8
280
     0
  0
ATTDEF
  5
82
330
6E
100
AcDbEntity
  8
AM_6
100
AcDbText
 10
141.55
 20
70.9999929721606
 30
0.0
 40
0.5
  1
215.9
100
AcDbAttributeDefinition
  3

  2
DMAX
 70
     8
280
     0
  0
ATTDEF
  5
83
330
6E
100
AcDbEntity
  8
AM_6
100
AcDbText
 10
141.55
 20
70.4999929721606
 30
0.0
 40
0.5
  1
M18
100
AcDbAttributeDefinition
  3

  2
F
 70
     8
280
     0
  0
ATTDEF
  5
84
330
6E
100
AcDbEntity
  8
AM_6
100
AcDbText
 10
141.55
 20
69.9999929721606
 30
0.0
 40
0.5
  1
33.5
100
AcDbAttributeDefinition
  3

  2
G
 70
     8
280
     0
  0
ATTDEF
  5
85
330
6E
100
AcDbEntity
  8
AM_6
100
AcDbText
 10
141.55
 20
69.4999929721606
 30
0.0
 40
0.5
  1
23.9
100
AcDbAttributeDefinition
  3

  2
H
 70
     8
280
     0
  0
ATTDEF
  5
86
330
6E
100
AcDbEntity
  8
AM_6
100
AcDbText
 10
141.55
 20
68.9999929721606
 30
0.0
 40
0.5
  1
154.7
100
AcDbAttributeDefinition
  3

  2
J
 70
     8
280
     0
  0
ATTDEF
  5
87
330
6E
100
AcDbEntity
  8
AM_6
100
AcDbText
 10
141.55
 20
68.4999929721606
 30
0.0
 40
0.5
  1
84.1
100
AcDbAttributeDefinition
  3

  2
L
 70
     8
280
     0
  0
ATTDEF
  5
88
330
6E
100
AcDbEntity
  8
AM_6
100
AcDbText
 10
141.55
 20
67.9999929721606
 30
0.0
 40
0.5
  1
76.2
100
AcDbAttributeDefinition
  3

  2
M
 70
     8
280
     0
  0
ATTDEF
  5
89
330
6E
100
AcDbEntity
  8
AM_6
100
AcDbText
 10
141.55
 20
67.4999929721606
 30
0.0
 40
0.5
  1
26.9
100
AcDbAttributeDefinition
  3

  2
R
 70
     8
280
     0
  0
ATTDEF
  5
8A
330
6E
100
AcDbEntity
  8
AM_6
100
AcDbText
 10
141.55
 20
66.9999929721606
 30
0.0
 40
0.5
  1
37.6
100
AcDbAttributeDefinition
  3

  2
S
 70
     8
280
     0
  0
ATTDEF
  5
8B
330
6E
100
AcDbEntity
  8
AM_6
100
AcDbText
 10
141.55
 20
66.4999929721606
 30
0.0
 40
0.5
  1
124.0
100
AcDbAttributeDefinition
  3

  2
U
 70
     8
280
     0
  0
ATTDEF
  5
8C
330
6E
100
AcDbEntity
  8
AM_6
100
AcDbText
 10
141.55
 20
65.9999929721606
 30
0.0
 40
0.5
  1
247.9
100
AcDbAttributeDefinition
  3

  2
V
 70
     8
280
     0
  0
ATTDEF
  5
8D
330
6E
100
AcDbEntity
  8
AM_6
100
AcDbText
 10
141.55
 20
65.4999929721606
 30
0.0
 40
0.5
  1
23.9
100
AcDbAttributeDefinition
  3

  2
W
 70
     8
280
     0
  0
ATTDEF
  5
8E
330
6E
100
AcDbEntity
  8
AM_6
100
AcDbText
 10
141.55
 20
64.9999929721606
 30
0.0
 40
0.5
  1
3.0
100
AcDbAttributeDefinition
  3

  2
X
 70
     8
280
     0
  0
ATTDEF
  5
8F
330
6E
100
AcDbEntity
  8
AM_6
100
AcDbText
 10
141.55
 20
64.4999929721606
 30
0.0
 40
0.5
  1
baldor
100
AcDbAttributeDefinition
  3

  2
COMPANY
 70
     8
280
     0
  0
INSERT
  5
91
330
6E
100
AcDbEntity
  8
0
100
AcDbBlockReference
  2
2_405015E_Metric_0_in_125861_0
 10
0.0
 20
0.0
 30
0.0
  0
INSERT
  5
D9
330
6E
100
AcDbEntity
  8
0
100
AcDbBlockReference
  2
3_125820_0_in_125861_0
 10
0.0
 20
0.0
 30
0.0
  0
INSERT
  5
114
330
6E
100
AcDbEntity
  8
0
100
AcDbBlockReference
  2
4_125861H_0_in_125861_0
 10
0.0
 20
0.0
 30
0.0
  0
ENDBLK
  5
71
330
6E
100
AcDbEntity
  8
0
100
AcDbBlockEnd
  0
BLOCK
  5
92
330
90
100
AcDbEntity
  8
0
100
AcDbBlockBegin
  2
2_405015E_Metric_0_in_125861_0
 70
     2
 10
0.0
 20
0.0
 30
0.0
  3
2_405015E_Metric_0_in_125861_0
  1

  0
ATTDEF
  5
94
330
90
100
AcDbEntity
  8
AM_6
100
AcDbText
 10
68.91675907608264
 20
63.91675907608263
 30
0.0
 40
0.5
  1
405015E -Metric
100
AcDbAttributeDefinition
  3

  2
NN
 70
     8
280
     0
  0
ATTDEF
  5
95
330
90
100
AcDbEntity
  8
AM_6
100
AcDbText
 10
68.91675907608264
 20
63.41675907608263
 30
0.0
 40
0.5
  1
Grease Fitting
100
AcDbAttributeDefinition
  3

  2
NT
 70
     8
280
     0
  0
ATTDEF
  5
96
330
90
100
AcDbEntity
  8
AM_6
100
AcDbText
 10
68.91675907608264
 20
62.91675907608263
 30
0.0
 40
0.5
  1
405015E-Metric
100
AcDbAttributeDefinition
  3

  2
NB
 70
     8
280
     0
  0
ATTDEF
  5
97
330
90
100
AcDbEntity
  8
AM_6
100
AcDbText
 10
68.91675907608264
 20
62.41675907608263
 30
0.0
 40
0.5
  1
$MN.-Metric
100
AcDbAttributeDefinition
  3

  2
NBSYN
 70
     8
280
     0
  0
ATTDEF
  5
98
330
90
100
AcDbEntity
  8
AM_6
100
AcDbText
 10
68.91675907608264
 20
61.91675907608263
 30
0.0
 40
0.5
  1
405015E
100
AcDbAttributeDefinition
  3

  2
LINA
 70
     8
280
     0
  0
ATTDEF
  5
99
330
90
100
AcDbEntity
  8
AM_6
100
AcDbText
 10
68.91675907608264
 20
61.41675907608263
 30
0.0
 40
0.5
  1
405015E
100
AcDbAttributeDefinition
  3

  2
MN
 70
     8
280
     0
  0
ATTDEF
  5
9A
330
90
100
AcDbEntity
  8
AM_6
100
AcDbText
 10
68.91675907608264
 20
60.91675907608263
 30
0.0
 40
0.5
  1
1/8 x 27PTF
100
AcDbAttributeDefinition
  3

  2
T
 70
     8
280
     0
  0
ATTDEF
  5
9B
330
90
100
AcDbEntity
  8
AM_6
100
AcDbText
 10
68.91675907608264
 20
60.41675907608263
 30
0.0
 40
0.5
  1
baldor
100
AcDbAttributeDefinition
  3

  2
COMPANY
 70
     8
280
     0
  0
LINE
  5
9E
330
90
100
AcDbEntity
  8
AM_9
100
AcDbLine
 10
53.6884921579847
 20
47.80820099996995
 30
0.0
 11
54.53707078753959
 21
47.80820099996995
 31
0.0
  0
LINE
  5
9F
330
90
100
AcDbEntity
  8
AM_9
100
AcDbLine
 10
47.80820099996996
 20
54.53707078753958
 30
0.0
 11
47.80820099996996
 21
53.68849215798469
 31
0.0
  0
LINE
  5
A0
330
90
100
AcDbEntity
  8
AM_9
100
AcDbLine
 10
47.80820099996996
 20
53.68849215798469
 30
0.0
 11
53.6884921579847
 21
47.80820099996995
 31
0.0
  0
LINE
  5
A1
330
90
100
AcDbEntity
  8
AM_9
100
AcDbLine
 10
54.53707078753959
 20
47.80820099996995
 30
0.0
 11
58.89412364506051
 21
51.90117725139116
 31
0.0
  0
LINE
  5
A2
330
90
100
AcDbEntity
  8
AM_9
100
AcDbLine
 10
51.90117725139117
 20
58.8941236450605
 30
0.0
 11
47.80820099996996
 21
54.53707078753958
 31
0.0
  0
LINE
  5
A3
330
90
100
AcDbEntity
  8
AM_9
100
AcDbLine
 10
47.80820099996996
 20
54.53707078753958
 30
0.0
 11
54.53707078753959
 21
47.80820099996995
 31
0.0
  0
LINE
  5
A5
330
90
100
AcDbEntity
  8
AM_5
100
AcDbLine
 10
57.82058344101879
 20
51.68985037242811
 30
0.0
 11
53.68849215798468
 21
47.80820099996993
 31
0.0
  0
LINE
  5
A6
330
90
100
AcDbEntity
  8
AM_5
100
AcDbLine
 10
58.8396619220042
 20
51.9629116284321
 30
0.0
 11
57.82058344101878
 21
51.68985037242812
 31
0.0
  0
LINE
  5
A7
330
90
100
AcDbEntity
  8
AM_5
100
AcDbLine
 10
51.68985037242812
 20
57.82058344101878
 30
0.0
 11
47.80820099996994
 21
53.68849215798468
 31
0.0
  0
LINE
  5
A8
330
90
100
AcDbEntity
  8
AM_5
100
AcDbLine
 10
51.9629116284321
 20
58.83966192200422
 30
0.0
 11
51.68985037242813
 21
57.82058344101879
 31
0.0
  0
LINE
  5
A9
330
90
100
AcDbEntity
  8
AM_5
100
AcDbLine
 10
51.27882076135183
 20
58.2316130520951
 30
0.0
 11
58.23161305209508
 21
51.27882076135185
 31
0.0
  0
LINE
  5
AC
330
90
100
AcDbEntity
  8
AM_7
100
AcDbLine
 10
62.81781080569427
 20
62.81781080569426
 30
0.0
 11
50.1736101872289
 21
50.1736101872289
 31
0.0
  0
LINE
  5
AE
330
90
100
AcDbEntity
  8
AM_4
100
AcDbLine
 10
54.09366876077089
 20
61.16473657263635
 30
0.0
 11
53.40016521956074
 21
61.56513102883799
 31
0.0
  0
LINE
  5
AF
330
90
100
AcDbEntity
  8
AM_4
100
AcDbLine
 10
54.09366876077089
 20
61.16473657263635
 30
0.0
 11
61.16473657263635
 21
54.09366876077087
 31
0.0
  0
LINE
  5
B0
330
90
100
AcDbEntity
  8
AM_4
100
AcDbLine
 10
61.565131028838
 20
53.40016521956073
 30
0.0
 11
61.16473657263635
 21
54.09366876077087
 31
0.0
  0
LINE
  5
B1
330
90
100
AcDbEntity
  8
AM_4
100
AcDbLine
 10
51.97234841721124
 20
59.04341622907671
 30
0.0
 11
59.04341622907672
 21
51.97234841721123
 31
0.0
  0
LINE
  5
B2
330
90
100
AcDbEntity
  8
AM_4
100
AcDbLine
 10
59.04341622907672
 20
51.97234841721123
 30
0.0
 11
59.73691977028686
 21
51.5719539610096
 31
0.0
  0
LINE
  5
B3
330
90
100
AcDbEntity
  8
AM_4
100
AcDbLine
 10
51.5719539610096
 20
59.73691977028685
 30
0.0
 11
51.97234841721124
 21
59.04341622907671
 31
0.0
  0
LINE
  5
B4
330
90
100
AcDbEntity
  8
AM_4
100
AcDbLine
 10
61.30615792887367
 20
57.52313664952563
 30
0.0
 11
61.80113267570425
 21
58.01811139635622
 31
0.0
  0
LINE
  5
B5
330
90
100
AcDbEntity
  8
AM_4
100
AcDbLine
 10
58.01811139635623
 20
61.80113267570425
 30
0.0
 11
57.52313664952564
 21
61.30615792887366
 31
0.0
  0
LINE
  5
B6
330
90
100
AcDbEntity
  8
AM_4
100
AcDbLine
 10
57.52313664952564
 20
61.30615792887366
 30
0.0
 11
56.72822015581959
 21
60.94681211665038
 31
0.0
  0
LINE
  5
B7
330
90
100
AcDbEntity
  8
AM_4
100
AcDbLine
 10
60.94681211665038
 20
56.72822015581959
 30
0.0
 11
61.30615792887367
 21
57.52313664952563
 31
0.0
  0
LINE
  5
B8
330
90
100
AcDbEntity
  8
AM_4
100
AcDbLine
 10
57.52313664952564
 20
61.30615792887366
 30
0.0
 11
61.30615792887367
 21
57.52313664952563
 31
0.0
  0
LINE
  5
B9
330
90
100
AcDbEntity
  8
AM_4
100
AcDbLine
 10
61.80113267570425
 20
58.01811139635622
 30
0.0
 11
63.07392488184004
 21
58.58379682130546
 31
0.0
  0
LINE
  5
BA
330
90
100
AcDbEntity
  8
AM_4
100
AcDbLine
 10
58.58379682130546
 20
63.07392488184004
 30
0.0
 11
58.01811139635623
 21
61.80113267570425
 31
0.0
  0
LINE
  5
BB
330
90
100
AcDbEntity
  8
AM_4
100
AcDbLine
 10
58.01811139635623
 20
61.80113267570425
 30
0.0
 11
61.80113267570425
 21
58.01811139635622
 31
0.0
  0
LINE
  5
BC
330
90
100
AcDbEntity
  8
AM_4
100
AcDbLine
 10
60.56938975180905
 20
63.91675907608263
 30
0.0
 11
58.58379682130546
 21
63.07392488184004
 31
0.0
  0
LINE
  5
BD
330
90
100
AcDbEntity
  8
AM_4
100
AcDbLine
 10
63.07392488184004
 20
58.58379682130546
 30
0.0
 11
63.91675907608264
 21
60.56938975180904
 31
0.0
  0
LINE
  5
BE
330
90
100
AcDbEntity
  8
AM_4
100
AcDbLine
 10
60.56938975180905
 20
63.91675907608263
 30
0.0
 11
63.91675907608264
 21
60.56938975180904
 31
0.0
  0
LINE
  5
BF
330
90
100
AcDbEntity
  8
AM_4
100
AcDbLine
 10
58.58379682130546
 20
63.07392488184004
 30
0.0
 11
63.07392488184004
 21
58.58379682130546
 31
0.0
  0
LINE
  5
C0
330
90
100
AcDbEntity
  8
AM_4
100
AcDbLine
 10
56.72822015581959
 20
60.94681211665038
 30
0.0
 11
55.6937300502284
 21
60.79562412137203
 31
0.0
  0
LINE
  5
C1
330
90
100
AcDbEntity
  8
AM_4
100
AcDbLine
 10
60.79562412137204
 20
55.69373005022839
 30
0.0
 11
60.94681211665038
 21
56.72822015581959
 31
0.0
  0
LINE
  5
C2
330
90
100
AcDbEntity
  8
AM_4
100
AcDbLine
 10
56.72822015581959
 20
60.94681211665038
 30
0.0
 11
60.94681211665038
 21
56.72822015581959
 31
0.0
  0
LINE
  5
C3
330
90
100
AcDbEntity
  8
AM_4
100
AcDbLine
 10
55.6937300502284
 20
60.79562412137203
 30
0.0
 11
54.27044545606752
 21
60.98795987733972
 31
0.0
  0
LINE
  5
C4
330
90
100
AcDbEntity
  8
AM_4
100
AcDbLine
 10
60.98795987733973
 20
54.27044545606751
 30
0.0
 11
60.79562412137204
 21
55.69373005022839
 31
0.0
  0
LINE
  5
C5
330
90
100
AcDbEntity
  8
AM_4
100
AcDbLine
 10
55.6937300502284
 20
60.79562412137203
 30
0.0
 11
60.79562412137204
 21
55.69373005022839
 31
0.0
  0
LINE
  5
C6
330
90
100
AcDbEntity
  8
AM_4
100
AcDbLine
 10
58.89412364506051
 20
51.90117725139116
 30
0.0
 11
59.00780043821942
 21
52.00796420806853
 31
0.0
  0
LINE
  5
C7
330
90
100
AcDbEntity
  8
AM_4
100
AcDbLine
 10
52.00796420806854
 20
59.00780043821941
 30
0.0
 11
51.90117725139117
 21
58.8941236450605
 31
0.0
  0
LWPOLYLINE
  5
C8
330
90
100
AcDbEntity
  8
AM_4
100
AcDbPolyline
 90
        3
 70
     0
 43
0.0
 10
54.56734048822464
 20
60.69106484518259
 10
55.03896797626312
 20
60.14207160706139
 10
55.44140667188005
 20
59.52388957651868
  0
LWPOLYLINE
  5
C9
330
90
100
AcDbEntity
  8
AM_4
100
AcDbPolyline
 90
        3
 70
     0
 43
0.0
 10
53.40016521956074
 20
61.56513102883799
 10
54.01571101599187
 20
61.16464508471957
 10
54.56734048822464
 20
60.69106484518259
  0
LINE
  5
CA
330
90
100
AcDbEntity
  8
AM_4
100
AcDbLine
 10
53.40016521956074
 20
61.56513102883799
 30
0.0
 11
51.5719539610096
 21
59.73691977028685
 31
0.0
  0
LWPOLYLINE
  5
CB
330
90
100
AcDbEntity
  8
AM_4
100
AcDbPolyline
 90
        3
 70
     0
 43
0.0
 10
52.44602014466501
 20
58.56974450162294
 10
51.97439265662654
 20
59.11873773974413
 10
51.5719539610096
 20
59.73691977028685
  0
LINE
  5
CC
330
90
100
AcDbEntity
  8
AM_4
100
AcDbLine
 10
61.565131028838
 20
53.40016521956073
 30
0.0
 11
59.73691977028686
 21
51.5719539610096
 31
0.0
  0
LWPOLYLINE
  5
CD
330
90
100
AcDbEntity
  8
AM_4
100
AcDbPolyline
 90
        3
 70
     0
 43
0.0
 10
60.69106484518259
 20
54.56734048822464
 10
61.16269233322106
 20
54.01834725010345
 10
61.565131028838
 20
53.40016521956073
  0
LWPOLYLINE
  5
CE
330
90
100
AcDbEntity
  8
AM_4
100
AcDbPolyline
 90
        3
 70
     0
 43
0.0
 10
59.52388957651868
 20
55.44140667188005
 10
60.13943537294981
 20
55.04092072776163
 10
60.69106484518259
 20
54.56734048822464
  0
LWPOLYLINE
  5
CF
330
90
100
AcDbEntity
  8
AM_4
100
AcDbPolyline
 90
        3
 70
     0
 43
0.0
 10
58.56974450162295
 20
52.446020144665
 10
58.09811701358448
 20
52.99501338278618
 10
57.69567831796755
 20
53.61319541332891
  0
LWPOLYLINE
  5
D0
330
90
100
AcDbEntity
  8
AM_4
100
AcDbPolyline
 90
        3
 70
     0
 43
0.0
 10
59.73691977028686
 20
51.5719539610096
 10
59.12137397385573
 20
51.97243990512801
 10
58.56974450162295
 20
52.446020144665
  0
LINE
  5
D1
330
90
100
AcDbEntity
  8
AM_4
100
AcDbLine
 10
59.52388957651868
 20
55.44140667188005
 30
0.0
 11
57.69567831796755
 21
53.61319541332891
 31
0.0
  0
LWPOLYLINE
  5
D2
330
90
100
AcDbEntity
  8
AM_4
100
AcDbPolyline
 90
        3
 70
     0
 43
0.0
 10
57.62920266670362
 20
57.62920266670361
 10
58.61114051782192
 20
56.5698990655026
 10
59.52388957651868
 20
55.44140667188005
  0
LWPOLYLINE
  5
D3
330
90
100
AcDbEntity
  8
AM_4
100
AcDbPolyline
 90
        4
 70
     0
 43
0.0
 10
55.44140667188005
 20
59.52388957651868
 10
55.96133816736588
 20
59.11695639102204
 10
56.81450500972104
 20
58.39702981189712
 10
57.62920266670362
 20
57.62920266670361
  0
LINE
  5
D4
330
90
100
AcDbEntity
  8
AM_4
100
AcDbLine
 10
55.44140667188005
 20
59.52388957651868
 30
0.0
 11
53.61319541332892
 21
57.69567831796754
 31
0.0
  0
LWPOLYLINE
  5
D5
330
90
100
AcDbEntity
  8
AM_4
100
AcDbPolyline
 90
        3
 70
     0
 43
0.0
 10
57.69567831796755
 20
53.61319541332891
 10
56.57211665126163
 20
54.5216972277221
 10
55.50788232314398
 20
55.50788232314397
  0
LWPOLYLINE
  5
D6
330
90
100
AcDbEntity
  8
AM_4
100
AcDbPolyline
 90
        4
 70
     0
 43
0.0
 10
55.50788232314398
 20
55.50788232314397
 10
54.74227523755131
 20
56.32008434937939
 10
54.02012859882554
 20
57.17574682248171
 10
53.61319541332892
 20
57.69567831796754
  0
LWPOLYLINE
  5
D7
330
90
100
AcDbEntity
  8
AM_4
100
AcDbPolyline
 90
        3
 70
     0
 43
0.0
 10
53.61319541332892
 20
57.69567831796754
 10
52.99764961689778
 20
58.09616426208596
 10
52.44602014466501
 20
58.56974450162294
  0
ENDBLK
  5
93
330
90
100
AcDbEntity
  8
0
100
AcDbBlockEnd
  0
BLOCK
  5
DA
330
D8
100
AcDbEntity
  8
0
100
AcDbBlockBegin
  2
3_125820_0_in_125861_0
 70
     2
 10
0.0
 20
0.0
 30
0.0
  3
3_125820_0_in_125861_0
  1

  0
ATTDEF
  5
DC
330
D8
100
AcDbEntity
  8
AM_6
100
AcDbText
 10
70.62500000000023
 20
62.26979050993498
 30
0.0
 40
0.5
  1
Set Screw Insert Metric Bore - Stainless Steel
100
AcDbAttributeDefinition
  3

  2
NN
 70
     8
280
     0
  0
ATTDEF
  5
DD
330
D8
100
AcDbEntity
  8
AM_6
100
AcDbText
 10
70.62500000000023
 20
61.76979050993498
 30
0.0
 40
0.5
  1
SC Bearing Insert -Metric
100
AcDbAttributeDefinition
  3

  2
NT
 70
     8
280
     0
  0
ATTDEF
  5
DE
330
D8
100
AcDbEntity
  8
AM_6
100
AcDbText
 10
70.62500000000023
 20
61.26979050993498
 30
0.0
 40
0.5
  1
125820
100
AcDbAttributeDefinition
  3

  2
NB
 70
     8
280
     0
  0
ATTDEF
  5
DF
330
D8
100
AcDbEntity
  8
AM_6
100
AcDbText
 10
70.62500000000023
 20
60.76979050993498
 30
0.0
 40
0.5
  1
$PN.
100
AcDbAttributeDefinition
  3

  2
NBSYN
 70
     8
280
     0
  0
ATTDEF
  5
E0
330
D8
100
AcDbEntity
  8
AM_6
100
AcDbText
 10
70.62500000000023
 20
60.26979050993498
 30
0.0
 40
0.5
  1
125820
100
AcDbAttributeDefinition
  3

  2
LINA
 70
     8
280
     0
  0
ATTDEF
  5
E1
330
D8
100
AcDbEntity
  8
AM_6
100
AcDbText
 10
70.62500000000023
 20
59.76979050993498
 30
0.0
 40
0.5
  1
214
100
AcDbAttributeDefinition
  3

  2
SERIES
 70
     8
280
     0
  0
ATTDEF
  5
E2
330
D8
100
AcDbEntity
  8
AM_6
100
AcDbText
 10
70.62500000000023
 20
59.26979050993498
 30
0.0
 40
0.5
  1
70
100
AcDbAttributeDefinition
  3

  2
SS
 70
     8
280
     0
  0
ATTDEF
  5
E3
330
D8
100
AcDbEntity
  8
AM_6
100
AcDbText
 10
70.62500000000023
 20
58.76979050993498
 30
0.0
 40
0.5
  1
125820
100
AcDbAttributeDefinition
  3

  2
PN
 70
     8
280
     0
  0
ATTDEF
  5
E4
330
D8
100
AcDbEntity
  8
AM_6
100
AcDbText
 10
70.62500000000023
 20
58.26979050993498
 30
0.0
 40
0.5
  1
INS-SC-70
100
AcDbAttributeDefinition
  3

  2
DESCRIPTION
 70
     8
280
     0
  0
ATTDEF
  5
E5
330
D8
100
AcDbEntity
  8
AM_6
100
AcDbText
 10
70.62500000000023
 20
57.76979050993498
 30
0.0
 40
0.5
  1
1.63
100
AcDbAttributeDefinition
  3

  2
WEIGHT
 70
     8
280
     0
  0
ATTDEF
  5
E6
330
D8
100
AcDbEntity
  8
AM_6
100
AcDbText
 10
70.62500000000023
 20
57.26979050993498
 30
0.0
 40
0.5
  1
64.5
100
AcDbAttributeDefinition
  3

  2
A
 70
     8
280
     0
  0
ATTDEF
  5
E7
330
D8
100
AcDbEntity
  8
AM_6
100
AcDbText
 10
70.62500000000023
 20
56.76979050993498
 30
0.0
 40
0.5
  1
27.9
100
AcDbAttributeDefinition
  3

  2
C
 70
     8
280
     0
  0
ATTDEF
  5
E8
330
D8
100
AcDbEntity
  8
AM_6
100
AcDbText
 10
70.62500000000023
 20
56.26979050993498
 30
0.0
 40
0.5
  1
125
100
AcDbAttributeDefinition
  3

  2
D
 70
     8
280
     0
  0
ATTDEF
  5
E9
330
D8
100
AcDbEntity
  8
AM_6
100
AcDbText
 10
70.62500000000023
 20
55.76979050993498
 30
0.0
 40
0.5
  1
6.6
100
AcDbAttributeDefinition
  3

  2
J
 70
     8
280
     0
  0
ATTDEF
  5
EA
330
D8
100
AcDbEntity
  8
AM_6
100
AcDbText
 10
70.62500000000023
 20
55.26979050993498
 30
0.0
 40
0.5
  1
84.1
100
AcDbAttributeDefinition
  3

  2
L
 70
     8
280
     0
  0
ATTDEF
  5
EB
330
D8
100
AcDbEntity
  8
AM_6
100
AcDbText
 10
70.62500000000023
 20
54.76979050993498
 30
0.0
 40
0.5
  1
M10 x 1.5
100
AcDbAttributeDefinition
  3

  2
N
 70
     8
280
     0
  0
ATTDEF
  5
EC
330
D8
100
AcDbEntity
  8
AM_6
100
AcDbText
 10
70.62500000000023
 20
54.26979050993498
 30
0.0
 40
0.5
  1
26.9
100
AcDbAttributeDefinition
  3

  2
W
 70
     8
280
     0
  0
ATTDEF
  5
ED
330
D8
100
AcDbEntity
  8
AM_6
100
AcDbText
 10
70.62500000000023
 20
53.76979050993498
 30
0.0
 40
0.5
  1
37.6
100
AcDbAttributeDefinition
  3

  2
Y
 70
     8
280
     0
  0
ATTDEF
  5
EE
330
D8
100
AcDbEntity
  8
AM_6
100
AcDbText
 10
70.62500000000023
 20
53.26979050993498
 30
0.0
 40
0.5
  1
baldor
100
AcDbAttributeDefinition
  3

  2
COMPANY
 70
     8
280
     0
  0
LINE
  5
EF
330
D8
100
AcDbEntity
  8
AM_9
100
AcDbLine
 10
-63.46363636363639
 20
-2.790000000000003
 30
0.0
 11
-61.83057973794043
 21
-2.790000000000003
 31
0.0
  0
LINE
  5
F0
330
D8
100
AcDbEntity
  8
AM_9
100
AcDbLine
 10
-61.8303056263555
 20
2.789999999999995
 30
0.0
 11
-63.46363636363639
 21
2.789999999999995
 31
0.0
  0
LWPOLYLINE
  5
F1
330
D8
100
AcDbEntity
  8
AM_9
100
AcDbPolyline
 90
        5
 70
     0
 43
0.0
 10
-62.2471635535029
 20
-1.338612551303559
 10
-62.22350838409999
 20
-1.585378324547781
 10
-62.12008254175156
 20
-2.249011892034501
 10
-61.97923220768185
 20
-2.666617728566607
 10
-61.83112357742712
 20
-2.789999117631277
  0
LWPOLYLINE
  5
F2
330
D8
100
AcDbEntity
  8
AM_9
100
AcDbPolyline
 90
        6
 70
     0
 43
0.0
 10
-62.1859538985156
 20
1.883836619877501
 10
-62.18673671301395
 20
1.87845565002343
 10
-62.2660541132215
 20
1.084259447114639
 10
-62.29850677108308
 20
0.1749940124652827
 10
-62.28391411146646
 20
-0.7478223429413059
 10
-62.2471635535029
 20
-1.338612551303559
  0
LWPOLYLINE
  5
F3
330
D8
100
AcDbEntity
  8
AM_9
100
AcDbPolyline
 90
        4
 70
     0
 43
0.0
 10
-61.83168159812955
 20
2.789999887234135
 10
-61.90532819491902
 20
2.7605949852528
 10
-62.06359731446366
 20
2.46234595377384
 10
-62.1859538985156
 20
1.883836619877501
  0
LWPOLYLINE
  5
F4
330
D8
100
AcDbEntity
  8
AM_9
100
AcDbPolyline
 90
        4
 70
     0
 43
0.0
 10
-61.83112357742712
 20
-2.789999117631277
 10
-61.81117072563414
 20
-2.78784989995928
 10
-61.63250763498794
 20
-2.590214401943657
 10
-61.52059624313279
 20
-2.292844797076284
  0
LINE
  5
F5
330
D8
100
AcDbEntity
  8
AM_9
100
AcDbLine
 10
-66.0
 20
0.2536363636363598
 30
0.0
 11
-66.0
 21
-0.2536363330850149
 31
0.0
  0
LINE
  5
F6
330
D8
100
AcDbEntity
  8
AM_9
100
AcDbLine
 10
-63.46363636363639
 20
2.789999999999996
 30
0.0
 11
-63.46363636363639
 21
-2.790000000000004
 31
0.0
  0
ARC
  5
F7
330
D8
100
AcDbEntity
  8
AM_9
100
AcDbCircle
 10
-63.46363636363637
 20
-0.2536363636363768
 30
0.0
 40
2.536363636363632
100
AcDbArc
 50
180.0
 51
270.0
  0
ARC
  5
F8
330
D8
100
AcDbEntity
  8
AM_9
100
AcDbCircle
 10
-63.46363636363638
 20
0.2536363636363737
 30
0.0
 40
2.536363636363622
100
AcDbArc
 50
90.0
 51
180.0
  0
LWPOLYLINE
  5
F9
330
D8
100
AcDbEntity
  8
AM_9
100
AcDbPolyline
 90
        9
 70
     0
 43
0.0
 10
-61.52059624313279
 20
-2.292844797076284
 10
-61.37995907573427
 20
-1.639579453368931
 10
-61.28912535954493
 20
-0.7959189203270157
 10
-61.26406740899108
 20
0.1269989306717277
 10
-61.30632397595319
 20
1.022175846275809
 10
-61.40781442733862
 20
1.805072140297935
 10
-61.55480193947852
 20
2.399960615630417
 10
-61.72829373333554
 20
2.735874658728053
 10
-61.83168159812955
 20
2.789999887234135
  0
CIRCLE
  5
FA
330
D8
100
AcDbEntity
  8
AM_9
100
AcDbCircle
 10
0.0
 20
0.0
 30
0.0
 40
59.71000000000002
  0
LINE
  5
FB
330
D8
100
AcDbEntity
  8
AM_9
100
AcDbLine
 10
4.188
 20
34.75482019486696
 30
0.0
 11
4.188
 21
41.75167661304157
 31
0.0
  0
LINE
  5
FC
330
D8
100
AcDbEntity
  8
AM_9
100
AcDbLine
 10
-4.188
 20
41.75167661304157
 30
0.0
 11
-4.188
 21
34.74857291359934
 31
0.0
  0
LINE
  5
FD
330
D8
100
AcDbEntity
  8
AM_9
100
AcDbLine
 10
33.26846063530231
 20
10.89239124465466
 30
0.0
 11
39.60979491640559
 21
13.84940398285395
 31
0.0
  0
LINE
  5
FE
330
D8
100
AcDbEntity
  8
AM_9
100
AcDbLine
 10
36.06994435606551
 20
21.44063800707293
 30
0.0
 11
29.72294220487155
 21
18.48098229764494
 31
0.0
  0
LINE
  5
FF
330
D8
100
AcDbEntity
  8
AM_9
100
AcDbLine
 10
36.0699443560655
 20
21.44063800707293
 30
0.0
 11
39.6097949164056
 21
13.84940398285395
 31
0.0
  0
LINE
  5
100
330
D8
100
AcDbEntity
  8
AM_9
100
AcDbLine
 10
39.6097949164056
 20
13.84940398285395
 30
0.0
 11
39.70868695039955
 21
13.81341022607411
 31
0.0
  0
LINE
  5
101
330
D8
100
AcDbEntity
  8
AM_9
100
AcDbLine
 10
36.10912621343014
 20
21.54828927543457
 30
0.0
 11
36.06994435606551
 21
21.44063800707293
 31
0.0
  0
LINE
  5
102
330
D8
100
AcDbEntity
  8
AM_9
100
AcDbLine
 10
-4.188
 20
41.75167661304157
 30
0.0
 11
4.188
 21
41.75167661304157
 31
0.0
  0
LINE
  5
103
330
D8
100
AcDbEntity
  8
AM_9
100
AcDbLine
 10
4.188
 20
41.75167661304157
 30
0.0
 11
4.261821182319115
 21
41.82549779536068
 31
0.0
  0
LINE
  5
104
330
D8
100
AcDbEntity
  8
AM_9
100
AcDbLine
 10
-4.264017748431671
 20
41.82769436147324
 30
0.0
 11
-4.188
 21
41.75167661304157
 31
0.0
  0
LINE
  5
105
330
D8
100
AcDbEntity
  8
AM_5
100
AcDbLine
 10
-5.0
 20
34.64101615137755
 30
0.0
 11
-5.0
 21
41.75167661304155
 31
0.0
  0
LINE
  5
106
330
D8
100
AcDbEntity
  8
AM_5
100
AcDbLine
 10
5.0
 20
34.64101615137755
 30
0.0
 11
5.0
 21
41.75167661304155
 31
0.0
  0
LINE
  5
107
330
D8
100
AcDbEntity
  8
AM_5
100
AcDbLine
 10
29.28233138015234
 20
19.17146496600992
 30
0.0
 11
35.72677832753206
 21
22.17655993014669
 31
0.0
  0
LINE
  5
108
330
D8
100
AcDbEntity
  8
AM_5
100
AcDbLine
 10
33.50851399755933
 20
10.10838709564342
 30
0.0
 11
39.95296094493904
 21
13.11348205978019
 31
0.0
  0
LINE
  5
109
330
D8
100
AcDbEntity
  8
AM_7
100
AcDbLine
 10
-67.1975
 20
-0.0000000000000041
 30
0.0
 11
65.62500000000023
 21
0.0000000000000675
 31
0.0
  0
LINE
  5
10A
330
D8
100
AcDbEntity
  8
AM_7
100
AcDbLine
 10
28.33178041038886
 20
13.21132617453009
 30
0.0
 11
41.35666580822085
 21
19.28492998213037
 31
0.0
  0
CIRCLE
  5
10B
330
D8
100
AcDbEntity
  8
AM_4
100
AcDbCircle
 10
0.0
 20
0.0
 30
0.0
 40
62.26979050993498
  0
CIRCLE
  5
10C
330
D8
100
AcDbEntity
  8
AM_4
100
AcDbCircle
 10
0.0
 20
0.0
 30
0.0
 40
61.65136219853776
  0
CIRCLE
  5
10D
330
D8
100
AcDbEntity
  8
AM_4
100
AcDbCircle
 10
0.0
 20
0.0
 30
0.0
 40
58.9575443625093
  0
CIRCLE
  5
10E
330
D8
100
AcDbEntity
  8
AM_4
100
AcDbCircle
 10
0.0
 20
0.0
 30
0.0
 40
59.99651427100206
  0
CIRCLE
  5
10F
330
D8
100
AcDbEntity
  8
AM_4
100
AcDbCircle
 10
0.0
 20
0.0
 30
0.0
 40
40.36799999999999
  0
CIRCLE
  5
110
330
D8
100
AcDbEntity
  8
AM_4
100
AcDbCircle
 10
0.0
 20
0.0
 30
0.0
 40
42.05000000000003
  0
CIRCLE
  5
111
330
D8
100
AcDbEntity
  8
AM_4
100
AcDbCircle
 10
0.0
 20
0.0
 30
0.0
 40
35.0
  0
CIRCLE
  5
112
330
D8
100
AcDbEntity
  8
AM_4
100
AcDbCircle
 10
0.0
 20
0.0
 30
0.0
 40
36.68200000000003
  0
ENDBLK
  5
DB
330
D8
100
AcDbEntity
  8
0
100
AcDbBlockEnd
  0
BLOCK
  5
115
330
113
100
AcDbEntity
  8
0
100
AcDbBlockBegin
  2
4_125861H_0_in_125861_0
 70
     2
 10
0.0
 20
0.0
 30
0.0
  3
4_125861H_0_in_125861_0
  1

  0
ATTDEF
  5
117
330
113
100
AcDbEntity
  8
AM_6
100
AcDbText
 10
141.55
 20
78.4999929721606
 30
0.0
 40
0.5
  1
P2B-SC -M-Housing
100
AcDbAttributeDefinition
  3

  2
NN
 70
     8
280
     0
  0
ATTDEF
  5
118
330
113
100
AcDbEntity
  8
AM_6
100
AcDbText
 10
141.55
 20
77.9999929721606
 30
0.0
 40
0.5
  1
SC Pillow Block Bearings -(Normal Duty)
100
AcDbAttributeDefinition
  3

  2
NT
 70
     8
280
     0
  0
ATTDEF
  5
119
330
113
100
AcDbEntity
  8
AM_6
100
AcDbText
 10
141.55
 20
77.4999929721606
 30
0.0
 40
0.5
  1
125861H
100
AcDbAttributeDefinition
  3

  2
NB
 70
     8
280
     0
  0
ATTDEF
  5
11A
330
113
100
AcDbEntity
  8
AM_6
100
AcDbText
 10
141.55
 20
76.9999929721606
 30
0.0
 40
0.5
  1
$PN.H
100
AcDbAttributeDefinition
  3

  2
NBSYN
 70
     8
280
     0
  0
ATTDEF
  5
11B
330
113
100
AcDbEntity
  8
AM_6
100
AcDbText
 10
141.55
 20
76.4999929721606
 30
0.0
 40
0.5
  1
125861
100
AcDbAttributeDefinition
  3

  2
LINA
 70
     8
280
     0
  0
ATTDEF
  5
11C
330
113
100
AcDbEntity
  8
AM_6
100
AcDbText
 10
141.55
 20
75.9999929721606
 30
0.0
 40
0.5
  1
214
100
AcDbAttributeDefinition
  3

  2
SERIES
 70
     8
280
     0
  0
ATTDEF
  5
11D
330
113
100
AcDbEntity
  8
AM_6
100
AcDbText
 10
141.55
 20
75.4999929721606
 30
0.0
 40
0.5
  1
70
100
AcDbAttributeDefinition
  3

  2
SS
 70
     8
280
     0
  0
ATTDEF
  5
11E
330
113
100
AcDbEntity
  8
AM_6
100
AcDbText
 10
141.55
 20
74.9999929721606
 30
0.0
 40
0.5
  1
125861
100
AcDbAttributeDefinition
  3

  2
PN
 70
     8
280
     0
  0
ATTDEF
  5
11F
330
113
100
AcDbEntity
  8
AM_6
100
AcDbText
 10
141.55
 20
74.4999929721606
 30
0.0
 40
0.5
  1
P2B-SC-70M
100
AcDbAttributeDefinition
  3

  2
DESCRIPTION
 70
     8
280
     0
  0
ATTDEF
  5
120
330
113
100
AcDbEntity
  8
AM_6
100
AcDbText
 10
141.55
 20
73.9999929721606
 30
0.0
 40
0.5
  1
1
100
AcDbAttributeDefinition
  3

  2
LF1
 70
     8
280
     0
  0
ATTDEF
  5
121
330
113
100
AcDbEntity
  8
AM_6
100
AcDbText
 10
141.55
 20
73.4999929721606
 30
0.0
 40
0.5
  1
64.5
100
AcDbAttributeDefinition
  3

  2
A
 70
     8
280
     0
  0
ATTDEF
  5
122
330
113
100
AcDbEntity
  8
AM_6
100
AcDbText
 10
141.55
 20
72.9999929721606
 30
0.0
 40
0.5
  1
273.1
100
AcDbAttributeDefinition
  3

  2
B
 70
     8
280
     0
  0
ATTDEF
  5
123
330
113
100
AcDbEntity
  8
AM_6
100
AcDbText
 10
141.55
 20
72.4999929721606
 30
0.0
 40
0.5
  1
68.3
100
AcDbAttributeDefinition
  3

  2
C
 70
     8
280
     0
  0
ATTDEF
  5
124
330
113
100
AcDbEntity
  8
AM_6
100
AcDbText
 10
141.55
 20
71.9999929721606
 30
0.0
 40
0.5
  1
190.5
100
AcDbAttributeDefinition
  3

  2
DMIN
 70
     8
280
     0
  0
ATTDEF
  5
125
330
113
100
AcDbEntity
  8
AM_6
100
AcDbText
 10
141.55
 20
71.4999929721606
 30
0.0
 40
0.5
  1
215.9
100
AcDbAttributeDefinition
  3

  2
DMAX
 70
     8
280
     0
  0
ATTDEF
  5
126
330
113
100
AcDbEntity
  8
AM_6
100
AcDbText
 10
141.55
 20
70.9999929721606
 30
0.0
 40
0.5
  1
M18
100
AcDbAttributeDefinition
  3

  2
F
 70
     8
280
     0
  0
ATTDEF
  5
127
330
113
100
AcDbEntity
  8
AM_6
100
AcDbText
 10
141.55
 20
70.4999929721606
 30
0.0
 40
0.5
  1
33.5
100
AcDbAttributeDefinition
  3

  2
G
 70
     8
280
     0
  0
ATTDEF
  5
128
330
113
100
AcDbEntity
  8
AM_6
100
AcDbText
 10
141.55
 20
69.9999929721606
 30
0.0
 40
0.5
  1
23.9
100
AcDbAttributeDefinition
  3

  2
H
 70
     8
280
     0
  0
ATTDEF
  5
129
330
113
100
AcDbEntity
  8
AM_6
100
AcDbText
 10
141.55
 20
69.4999929721606
 30
0.0
 40
0.5
  1
154.7
100
AcDbAttributeDefinition
  3

  2
J
 70
     8
280
     0
  0
ATTDEF
  5
12A
330
113
100
AcDbEntity
  8
AM_6
100
AcDbText
 10
141.55
 20
68.9999929721606
 30
0.0
 40
0.5
  1
84.1
100
AcDbAttributeDefinition
  3

  2
L
 70
     8
280
     0
  0
ATTDEF
  5
12B
330
113
100
AcDbEntity
  8
AM_6
100
AcDbText
 10
141.55
 20
68.4999929721606
 30
0.0
 40
0.5
  1
76.2
100
AcDbAttributeDefinition
  3

  2
M
 70
     8
280
     0
  0
ATTDEF
  5
12C
330
113
100
AcDbEntity
  8
AM_6
100
AcDbText
 10
141.55
 20
67.9999929721606
 30
0.0
 40
0.5
  1
26.9
100
AcDbAttributeDefinition
  3

  2
R
 70
     8
280
     0
  0
ATTDEF
  5
12D
330
113
100
AcDbEntity
  8
AM_6
100
AcDbText
 10
141.55
 20
67.4999929721606
 30
0.0
 40
0.5
  1
37.6
100
AcDbAttributeDefinition
  3

  2
S
 70
     8
280
     0
  0
ATTDEF
  5
12E
330
113
100
AcDbEntity
  8
AM_6
100
AcDbText
 10
141.55
 20
66.9999929721606
 30
0.0
 40
0.5
  1
124.0
100
AcDbAttributeDefinition
  3

  2
U
 70
     8
280
     0
  0
ATTDEF
  5
12F
330
113
100
AcDbEntity
  8
AM_6
100
AcDbText
 10
141.55
 20
66.4999929721606
 30
0.0
 40
0.5
  1
247.9
100
AcDbAttributeDefinition
  3

  2
V
 70
     8
280
     0
  0
ATTDEF
  5
130
330
113
100
AcDbEntity
  8
AM_6
100
AcDbText
 10
141.55
 20
65.9999929721606
 30
0.0
 40
0.5
  1
23.9
100
AcDbAttributeDefinition
  3

  2
W
 70
     8
280
     0
  0
ATTDEF
  5
131
330
113
100
AcDbEntity
  8
AM_6
100
AcDbText
 10
141.55
 20
65.4999929721606
 30
0.0
 40
0.5
  1
3.0
100
AcDbAttributeDefinition
  3

  2
X
 70
     8
280
     0
  0
ATTDEF
  5
132
330
113
100
AcDbEntity
  8
AM_6
100
AcDbText
 10
141.55
 20
64.9999929721606
 30
0.0
 40
0.5
  1
baldor
100
AcDbAttributeDefinition
  3

  2
COMPANY
 70
     8
280
     0
  0
LWPOLYLINE
  5
133
330
113
100
AcDbEntity
  8
AM_9
100
AcDbPolyline
 90
        9
 70
     0
 43
0.0
 10
65.30809480195452
 20
-9.531671067494825
 10
65.47314042508906
 20
-11.29960920883656
 10
65.61744318482623
 20
-13.17101104707487
 10
65.73990485003208
 20
-15.13163408423743
 10
65.83959341349
 20
-17.16655679515489
 10
65.91575018503846
 20
-19.26029218927723
 10
65.96779556566128
 20
-21.39690567602319
 10
65.99533345858606
 20
-23.56013633663613
 10
66.0
 20
-24.89428571428639
  0
LWPOLYLINE
  5
134
330
113
100
AcDbEntity
  8
AM_9
100
AcDbPolyline
 90
        9
 70
     0
 43
0.0
 10
-66.00000000000001
 20
-24.8942857142857
 10
-65.98762370855555
 20
-22.72286263782977
 10
-65.95058902527305
 20
-20.56796540212676
 10
-65.88917780645447
 20
-18.44599407630292
 10
-65.80385742855609
 20
-16.37309814342906
 10
-65.69527723117159
 20
-14.36505359320316
 10
-65.5642635751656
 20
-12.43714285714288
 10
-65.41181355356849
 20
-10.60403850005396
 10
-65.30809480195452
 20
-9.531671067494761
  0
LINE
  5
135
330
113
100
AcDbEntity
  8
AM_9
100
AcDbLine
 10
50.02780476894824
 20
53.91689206547421
 30
0.0
 11
53.91689206547422
 21
50.02780476894823
 31
0.0
  0
LINE
  5
136
330
113
100
AcDbEntity
  8
AM_9
100
AcDbLine
 10
53.91689206547422
 20
50.02780476894823
 30
0.0
 11
57.41917770133697
 21
53.53009040481097
 31
0.0
  0
LINE
  5
137
330
113
100
AcDbEntity
  8
AM_9
100
AcDbLine
 10
53.52926774053559
 20
57.41835503706157
 30
0.0
 11
50.02780476894824
 21
53.91689206547421
 31
0.0
  0
ARC
  5
138
330
113
100
AcDbEntity
  8
AM_9
100
AcDbCircle
 10
-0.0000000000000213
 20
0.0000000000000142
 30
0.0
 40
66.00000000000001
100
AcDbArc
 50
327.9740683498214
 51
32.02593165017853
  0
LINE
  5
139
330
113
100
AcDbEntity
  8
AM_9
100
AcDbLine
 10
51.78078794301995
 20
-34.99999999999999
 30
0.0
 11
55.95533933415112
 21
-35.0
 31
0.0
  0
LINE
  5
13A
330
113
100
AcDbEntity
  8
AM_9
100
AcDbLine
 10
55.95533933415113
 20
35.0
 30
0.0
 11
51.78078794301995
 21
34.99999999999999
 31
0.0
  0
ARC
  5
13B
330
113
100
AcDbEntity
  8
AM_9
100
AcDbCircle
 10
0.0000000000000284
 20
0.0000000000000071
 30
0.0
 40
66.00000000000003
100
AcDbArc
 50
147.9740683498215
 51
212.0259316501785
  0
LINE
  5
13C
330
113
100
AcDbEntity
  8
AM_9
100
AcDbLine
 10
-55.95533933415113
 20
-35.0
 30
0.0
 11
-51.78078794301995
 21
-34.99999999999999
 31
0.0
  0
LINE
  5
13D
330
113
100
AcDbEntity
  8
AM_9
100
AcDbLine
 10
-51.78078794301995
 20
34.99999999999999
 30
0.0
 11
-55.95533933415113
 21
35.0
 31
0.0
  0
LINE
  5
13E
330
113
100
AcDbEntity
  8
AM_9
100
AcDbLine
 10
107.95
 20
-52.3
 30
0.0
 11
107.95
 21
-68.23333333333333
 31
0.0
  0
LINE
  5
13F
330
113
100
AcDbEntity
  8
AM_9
100
AcDbLine
 10
-95.25
 20
-52.3
 30
0.0
 11
-95.25
 21
-68.23333333333333
 31
0.0
  0
LINE
  5
140
330
113
100
AcDbEntity
  8
AM_9
100
AcDbLine
 10
-84.95
 20
-68.23333333333333
 30
0.0
 11
-84.95
 21
-52.3
 31
0.0
  0
LINE
  5
141
330
113
100
AcDbEntity
  8
AM_9
100
AcDbLine
 10
-107.95
 20
-52.3
 30
0.0
 11
-107.95
 21
-68.23333333333333
 31
0.0
  0
LINE
  5
142
330
113
100
AcDbEntity
  8
AM_9
100
AcDbLine
 10
95.25
 20
-52.3
 30
0.0
 11
95.25
 21
-68.23333333333333
 31
0.0
  0
LINE
  5
143
330
113
100
AcDbEntity
  8
AM_9
100
AcDbLine
 10
84.95
 20
-52.3
 30
0.0
 11
84.95
 21
-68.23333333333333
 31
0.0
  0
LINE
  5
144
330
113
100
AcDbEntity
  8
AM_9
100
AcDbLine
 10
113.47
 20
-68.23333333333333
 30
0.0
 11
81.19649469233876
 21
-68.23333333333333
 31
0.0
  0
ARC
  5
145
330
113
100
AcDbEntity
  8
AM_9
100
AcDbCircle
 10
45.60423828544468
 20
-71.91106804000611
 30
0.0
 40
11.95000000000003
100
AcDbArc
 50
74.99999999999993
 51
122.381869626928
  0
ARC
  5
146
330
113
100
AcDbEntity
  8
AM_9
100
AcDbCircle
 10
81.19649469233855
 20
-44.33333333333474
 30
0.0
 40
23.8999999999986
100
AcDbArc
 50
254.9999999999996
 51
270.0
  0
ARC
  5
147
330
113
100
AcDbEntity
  8
AM_9
100
AcDbCircle
 10
113.47
 20
-73.01333333333338
 30
0.0
 40
4.780000000000044
100
AcDbArc
 50
0.0
 51
90.0
  0
ARC
  5
148
330
113
100
AcDbEntity
  8
AM_9
100
AcDbCircle
 10
-45.60423828544468
 20
-71.91106804000611
 30
0.0
 40
11.95000000000003
100
AcDbArc
 50
57.61813037307183
 51
104.9999999999998
  0
LINE
  5
149
330
113
100
AcDbEntity
  8
AM_9
100
AcDbLine
 10
-81.19649469233885
 20
-68.23333333333333
 30
0.0
 11
-113.47
 21
-68.23333333333333
 31
0.0
  0
LINE
  5
14A
330
113
100
AcDbEntity
  8
AM_9
100
AcDbLine
 10
-118.25
 20
-52.3
 30
0.0
 11
-118.25
 21
-76.2
 31
0.0
  0
ARC
  5
14B
330
113
100
AcDbEntity
  8
AM_9
100
AcDbCircle
 10
-113.47
 20
-73.01333333333338
 30
0.0
 40
4.780000000000044
100
AcDbArc
 50
90.0
 51
180.0
  0
LINE
  5
14C
330
113
100
AcDbEntity
  8
AM_9
100
AcDbLine
 10
118.25
 20
-76.2
 30
0.0
 11
118.25
 21
-52.3
 31
0.0
  0
LINE
  5
14D
330
113
100
AcDbEntity
  8
AM_9
100
AcDbLine
 10
-48.69712587441978
 20
-60.36825441585171
 30
0.0
 11
-75.01071951438851
 21
-67.41896058164207
 31
0.0
  0
ARC
  5
14E
330
113
100
AcDbEntity
  8
AM_9
100
AcDbCircle
 10
0.0
 20
-0.0000000000000142
 30
0.0
 40
73.2025
100
AcDbArc
 50
237.6181303730719
 51
302.3818696269281
  0
ARC
  5
14F
330
113
100
AcDbEntity
  8
AM_9
100
AcDbCircle
 10
-81.1964946923389
 20
-44.33333333333221
 30
0.0
 40
23.90000000000113
100
AcDbArc
 50
270.0
 51
284.9999999999996
  0
LINE
  5
150
330
113
100
AcDbEntity
  8
AM_9
100
AcDbLine
 10
75.0107195143885
 20
-67.41896058164207
 30
0.0
 11
48.69712587441983
 21
-60.36825441585172
 31
0.0
  0
LINE
  5
151
330
113
100
AcDbEntity
  8
AM_9
100
AcDbLine
 10
-125.5
 20
-52.3
 30
0.0
 11
-125.5
 21
-53.8875
 31
0.0
  0
LINE
  5
152
330
113
100
AcDbEntity
  8
AM_9
100
AcDbLine
 10
-122.5
 20
-53.8875
 30
0.0
 11
-122.5
 21
-52.3
 31
0.0
  0
LINE
  5
153
330
113
100
AcDbEntity
  8
AM_9
100
AcDbLine
 10
-125.5
 20
-53.8875
 30
0.0
 11
-122.5
 21
-53.8875
 31
0.0
  0
LINE
  5
154
330
113
100
AcDbEntity
  8
AM_9
100
AcDbLine
 10
122.5
 20
-52.3
 30
0.0
 11
122.5
 21
-53.8875
 31
0.0
  0
LINE
  5
155
330
113
100
AcDbEntity
  8
AM_9
100
AcDbLine
 10
125.5
 20
-53.8875
 30
0.0
 11
125.5
 21
-52.3
 31
0.0
  0
LINE
  5
156
330
113
100
AcDbEntity
  8
AM_9
100
AcDbLine
 10
122.5
 20
-53.8875
 30
0.0
 11
125.5
 21
-53.8875
 31
0.0
  0
LINE
  5
157
330
113
100
AcDbEntity
  8
AM_9
100
AcDbLine
 10
-69.25238095238096
 20
-52.3
 30
0.0
 11
-68.35
 21
-52.3
 31
0.0
  0
LINE
  5
158
330
113
100
AcDbEntity
  8
AM_9
100
AcDbLine
 10
-68.35
 20
-52.3
 30
0.0
 11
-68.35
 21
38.56672867523211
 31
0.0
  0
LINE
  5
159
330
113
100
AcDbEntity
  8
AM_9
100
AcDbLine
 10
68.35
 20
38.56672867523213
 30
0.0
 11
68.35
 21
-52.3
 31
0.0
  0
LINE
  5
15A
330
113
100
AcDbEntity
  8
AM_9
100
AcDbLine
 10
68.35
 20
-52.3
 30
0.0
 11
69.25238095238097
 21
-52.3
 31
0.0
  0
LINE
  5
15B
330
113
100
AcDbEntity
  8
AM_7
100
AcDbLine
 10
-124.0
 20
-54.04625
 30
0.0
 11
-124.0
 21
-50.55375000000001
 31
0.0
  0
LINE
  5
15C
330
113
100
AcDbEntity
  8
AM_7
100
AcDbLine
 10
124.0
 20
-54.04625
 30
0.0
 11
124.0
 21
-50.55375000000001
 31
0.0
  0
LINE
  5
15D
330
113
100
AcDbEntity
  8
AM_7
100
AcDbLine
 10
0.000000000000167
 20
-65.62499999999999
 30
0.0
 11
0.000000000000167
 21
65.62500000000013
 31
0.0
  0
LINE
  5
15E
330
113
100
AcDbEntity
  8
AM_4
100
AcDbLine
 10
-136.55
 20
-52.3
 30
0.0
 11
-136.55
 21
-76.2
 31
0.0
  0
LINE
  5
15F
330
113
100
AcDbEntity
  8
AM_4
100
AcDbLine
 10
-136.55
 20
-52.3
 30
0.0
 11
-69.25238095238096
 21
-52.29999999999989
 31
0.0
  0
LINE
  5
160
330
113
100
AcDbEntity
  8
AM_4
100
AcDbLine
 10
136.55
 20
-52.3
 30
0.0
 11
136.55
 21
-76.2
 31
0.0
  0
LINE
  5
161
330
113
100
AcDbEntity
  8
AM_4
100
AcDbLine
 10
69.25238095238097
 20
-52.29999999999989
 30
0.0
 11
136.55
 21
-52.3
 31
0.0
  0
LINE
  5
162
330
113
100
AcDbEntity
  8
AM_4
100
AcDbLine
 10
124.6000000000001
 20
-52.3
 30
0.0
 11
124.6000000000001
 21
-60.66500000000001
 31
0.0
  0
LINE
  5
163
330
113
100
AcDbEntity
  8
AM_4
100
AcDbLine
 10
-124.6000000000001
 20
-52.3
 30
0.0
 11
-124.6000000000001
 21
-60.66500000000001
 31
0.0
  0
ARC
  5
164
330
113
100
AcDbEntity
  8
AM_4
100
AcDbCircle
 10
0.0000000000000036
 20
0.0000000000000284
 30
0.0
 40
62.50000000000001
100
AcDbArc
 50
179.9816653502558
 51
0.0183346497442034
  0
LWPOLYLINE
  5
165
330
113
100
AcDbEntity
  8
AM_4
100
AcDbPolyline
 90
        8
 70
     0
 43
0.0
 10
-66.0
 20
-75.6025
 10
-65.99998847157742
 20
-75.59507667682176
 10
-65.98240112583659
 20
-75.31299542640944
 10
-65.85079377676462
 20
-74.77121664554176
 10
-65.58525778400568
 20
-74.2569678797104
 10
-64.92754722608558
 20
-73.6084665732405
 10
-64.33328501377012
 20
-73.32457138196662
 10
-63.61
 20
-73.21250000000002
  0
LINE
  5
166
330
113
100
AcDbEntity
  8
AM_4
100
AcDbLine
 10
-63.61
 20
-73.2125
 30
0.0
 11
63.61000000000003
 21
-73.2125
 31
0.0
  0
LINE
  5
167
330
113
100
AcDbEntity
  8
AM_4
100
AcDbLine
 10
-62.74761904761904
 20
0.0200000000000478
 30
0.0
 11
-62.74761904761904
 21
-73.2125
 31
0.0
  0
LWPOLYLINE
  5
168
330
113
100
AcDbEntity
  8
AM_4
100
AcDbPolyline
 90
        8
 70
     0
 43
0.0
 10
63.61000000000003
 20
-73.21250000000002
 10
64.33328501377017
 20
-73.32457138196662
 10
64.92754722608562
 20
-73.60846657324053
 10
65.58525778400572
 20
-74.25696787971047
 10
65.85079377676465
 20
-74.77121664554184
 10
65.9824011258366
 20
-75.31299542640954
 10
65.99998847157742
 20
-75.59507667682247
 10
66.0
 20
-75.60250000000003
  0
LINE
  5
169
330
113
100
AcDbEntity
  8
AM_4
100
AcDbLine
 10
62.74761904761905
 20
0.0200000000000061
 30
0.0
 11
62.74761904761905
 21
-73.2125
 31
0.0
  0
LINE
  5
16A
330
113
100
AcDbEntity
  8
AM_4
100
AcDbLine
 10
-131.7700000000001
 20
-60.66500000000001
 30
0.0
 11
-101.1570317085799
 21
-60.66500000000001
 31
0.0
  0
LWPOLYLINE
  5
16B
330
113
100
AcDbEntity
  8
AM_4
100
AcDbPolyline
 90
       19
 70
     0
 43
0.0
 10
-136.55
 20
-65.44499999999998
 10
-136.5318106568785
 20
-65.02839554966617
 10
-136.4773810593984
 20
-64.61496171075206
 10
-136.3871254496617
 20
-64.20784496440994
 10
-136.2617307273566
 20
-63.81014371490329
 10
-136.1021512220352
 20
-63.42488470887944
 10
-135.9096014300896
 20
-63.055
 10
-135.6855467717014
 20
-62.703304634242
 10
-135.4316924381087
 20
-62.37247522569834
 10
-135.1499704140717
 20
-62.0650295859283
 10
-134.8425247743017
 20
-61.78330756189128
 10
-134.511695365758
 20
-61.52945322829862
 10
-134.16
 20
-61.30539856991039
 10
-133.7901152911206
 20
-61.11284877796482
 10
-133.4048562850967
 20
-60.95326927264336
 10
-133.0071550355901
 20
-60.82787455033827
 10
-132.600038289248
 20
-60.73761894060165
 10
-132.1866044503338
 20
-60.68318934312147
 10
-131.7700000000001
 20
-60.66500000000001
  0
LINE
  5
16C
330
113
100
AcDbEntity
  8
AM_4
100
AcDbLine
 10
96.53938317406453
 20
-57.12020120291746
 30
0.0
 11
75.8337677739437
 21
20.28520803954381
 31
0.0
  0
ARC
  5
16D
330
113
100
AcDbEntity
  8
AM_4
100
AcDbCircle
 10
101.1570317085798
 20
-55.88500000000005
 30
0.0
 40
4.77999999999996
100
AcDbArc
 50
194.9757554728382
 51
270.0
  0
LINE
  5
16E
330
113
100
AcDbEntity
  8
AM_4
100
AcDbLine
 10
131.7700000000001
 20
-60.66500000000001
 30
0.0
 11
101.1570317085798
 21
-60.66500000000001
 31
0.0
  0
LINE
  5
16F
330
113
100
AcDbEntity
  8
AM_4
100
AcDbLine
 10
-136.55
 20
-76.2
 30
0.0
 11
-66.0
 21
-76.2
 31
0.0
  0
LINE
  5
170
330
113
100
AcDbEntity
  8
AM_4
100
AcDbLine
 10
-66.00000000000001
 20
-24.8942857142859
 30
0.0
 11
-66.0
 21
-76.2
 31
0.0
  0
ARC
  5
171
330
113
100
AcDbEntity
  8
AM_4
100
AcDbCircle
 10
-101.1570317085798
 20
-55.88500000000001
 30
0.0
 40
4.780000000000008
100
AcDbArc
 50
270.0
 51
345.0242445271616
  0
LINE
  5
172
330
113
100
AcDbEntity
  8
AM_4
100
AcDbLine
 10
-69.25238095238096
 20
-76.2
 30
0.0
 11
-69.25238095238096
 21
-52.29999999999989
 31
0.0
  0
LINE
  5
173
330
113
100
AcDbEntity
  8
AM_4
100
AcDbLine
 10
-75.8337677739437
 20
20.28520803954383
 30
0.0
 11
-96.53938317406454
 21
-57.12020120291744
 31
0.0
  0
LINE
  5
174
330
113
100
AcDbEntity
  8
AM_4
100
AcDbLine
 10
-129.72
 20
-76.2
 30
0.0
 11
-129.72
 21
-60.66499999999996
 31
0.0
  0
LINE
  5
175
330
113
100
AcDbEntity
  8
AM_4
100
AcDbLine
 10
66.0
 20
-24.89428571428581
 30
0.0
 11
66.0
 21
-76.2
 31
0.0
  0
LWPOLYLINE
  5
176
330
113
100
AcDbEntity
  8
AM_4
100
AcDbPolyline
 90
       32
 70
     0
 43
0.0
 10
-75.83376777394376
 20
20.28520803954381
 10
-73.77722501924625
 20
26.81736505437308
 10
-71.15919303424582
 20
33.14542572837082
 10
-67.99959662315925
 20
39.22122969882042
 10
-64.3224822224914
 20
44.99853642883598
 10
-60.15583489313373
 20
50.43337712576895
 10
-55.53136533715311
 20
55.4843893702691
 10
-50.48426856020159
 20
60.11313190927122
 10
-45.05295601627214
 20
64.2843772171423
 10
-39.27876327334025
 20
67.96637959842275
 10
-33.20563542473252
 20
71.13111679173711
 10
-26.87979264043172
 20
73.75450323612375
 10
-20.34937840367467
 20
75.81657337669684
 10
-13.66409310997504
 20
77.3016336145746
 10
-6.874815817103502
 20
78.19838174464292
 10
-0.0332170247365177
 20
78.4999929721606
 10
6.8086345692457
 20
78.20417185356845
 10
13.59866834299
 20
77.31316976620062
 10
20.2852080395437
 20
75.83376777394373
 10
26.81736505437298
 20
73.77722501924625
 10
33.14542572837072
 20
71.15919303424582
 10
39.22122969882032
 20
67.99959662315926
 10
44.99853642883591
 20
64.32248222249143
 10
50.43337712576889
 20
60.15583489313378
 10
55.48438937026904
 20
55.53136533715316
 10
60.11313190927116
 20
50.48426856020165
 10
64.28437721714228
 20
45.05295601627222
 10
67.96637959842272
 20
39.27876327334032
 10
71.13111679173711
 20
33.2056354247326
 10
73.75450323612375
 20
26.87979264043181
 10
75.81657337669684
 20
20.34937840367477
 10
75.83376777394373
 20
20.28520803954385
  0
LWPOLYLINE
  5
177
330
113
100
AcDbEntity
  8
AM_4
100
AcDbPolyline
 90
       19
 70
     0
 43
0.0
 10
-69.25238059955588
 20
-52.29999999999989
 10
-68.9689169232954
 20
-52.20519338546801
 10
-68.6876105794565
 20
-51.92149554857578
 10
-68.41060247917325
 20
-51.45106560116338
 10
-68.14000082135082
 20
-50.797483799184
 10
-67.87786504799905
 20
-49.96572429479418
 10
-67.62619017063501
 20
-48.96211728005244
 10
-67.38689158704089
 20
-47.79430081033546
 10
-67.1617905039303
 20
-46.47116267412464
 10
-66.95260007646543
 20
-45.0027727515692
 10
-66.76091237011195
 20
-43.40030637661788
 10
-66.58818624405939
 20
-41.67595928597967
 10
-66.4357362484219
 20
-39.84285480220361
 10
-66.30472261971812
 20
-37.91494395726996
 10
-66.19614245077067
 20
-35.90689931681308
 10
-66.11082210222773
 20
-33.83400331303734
 10
-66.04941091345955
 20
-31.7120319361803
 10
-66.01237626069376
 20
-29.55713466970118
 10
-66.0
 20
-27.38571428571425
  0
LWPOLYLINE
  5
178
330
113
100
AcDbEntity
  8
AM_4
100
AcDbPolyline
 90
       19
 70
     0
 43
0.0
 10
-62.74761904761904
 20
0.0200000000000478
 10
-63.03108272522213
 20
-0.0748063789713198
 10
-63.31238907307862
 20
-0.3585039820957966
 10
-63.5893971800239
 20
-0.8289336993123099
 10
-63.85999884710206
 20
-1.48251527641961
 10
-64.12213463223284
 20
-2.314274562972559
 10
-64.37380952380951
 20
-3.317881368570513
 10
-64.61310812394173
 20
-4.485697639428507
 10
-64.83820922579004
 20
-5.808835588578563
 10
-65.04739967404957
 20
-7.277225337295124
 10
-65.23908740309649
 20
-8.879691552952478
 10
-65.41181355356848
 20
-10.60403850005391
 10
-65.56426357516558
 20
-12.43714285714283
 10
-65.69527723117157
 20
-14.36505359320313
 10
-65.80385742855607
 20
-16.37309814342904
 10
-65.88917780645446
 20
-18.4459940763029
 10
-65.95058902527303
 20
-20.56796540212676
 10
-65.98762370855555
 20
-22.72286263782977
 10
-66.0
 20
-24.89428571428572
  0
LINE
  5
179
330
113
100
AcDbEntity
  8
AM_4
100
AcDbLine
 10
-62.74761904761904
 20
0.0200000000000478
 30
0.0
 11
-62.49999679999993
 21
0.0200000000000318
 31
0.0
  0
LWPOLYLINE
  5
17A
330
113
100
AcDbEntity
  8
AM_4
100
AcDbPolyline
 90
       37
 70
     0
 43
0.0
 10
62.49999679999993
 20
0.0199999999999022
 10
62.26042232805605
 20
5.467157536791984
 10
61.54700844832481
 20
10.8727067035691
 10
60.36518467120204
 20
16.19550800721225
 10
58.72394538923635
 20
21.39505171580541
 10
56.63578142437088
 20
26.43176616215586
 10
54.11658496524613
 20
31.26731890807553
 10
51.18552861804845
 20
35.86490847738141
 10
47.86491949140022
 20
40.18954443735057
 10
44.18002942579385
 20
44.20831369704108
 10
40.15890265962606
 20
47.89063099578747
 10
35.83214239561011
 20
51.2084716755023
 10
31.23267789192443
 20
54.13658496524597
 10
26.39551385067468
 20
56.65268615484037
 10
21.35746401097427
 20
58.73762619496926
 10
16.15687097416099
 20
60.37553743300604
 10
10.83331439344892
 20
61.55395437543142
 10
5.427309748868623
 20
62.26390855776592
 10
-0.0199999999997874
 20
62.49999679999991
 10
-5.46715753679187
 20
62.26042232805604
 10
-10.87270670356899
 20
61.54700844832482
 10
-16.19550800721214
 20
60.36518467120206
 10
-21.39505171580531
 20
58.72394538923638
 10
-26.43176616215576
 20
56.63578142437093
 10
-31.26731890807544
 20
54.11658496524618
 10
-35.86490847738131
 20
51.18552861804851
 10
-40.18954443735049
 20
47.86491949140029
 10
-44.20831369704101
 20
44.18002942579393
 10
-47.89063099578741
 20
40.15890265962614
 10
-51.20847167550225
 20
35.83214239561019
 10
-54.13658496524592
 20
31.23267789192453
 10
-56.65268615484034
 20
26.39551385067478
 10
-58.73762619496924
 20
21.35746401097438
 10
-60.37553743300602
 20
16.1568709741611
 10
-61.55395437543141
 20
10.83331439344903
 10
-62.26390855776592
 20
5.427309748868738
 10
-62.49999679999993
 20
0.0200000000000439
  0
LINE
  5
17B
330
113
100
AcDbEntity
  8
AM_4
100
AcDbLine
 10
62.49999679999993
 20
0.019999999999926
 30
0.0
 11
62.74761904761905
 21
0.0200000000000061
 31
0.0
  0
LWPOLYLINE
  5
17C
330
113
100
AcDbEntity
  8
AM_4
100
AcDbPolyline
 90
       19
 70
     0
 43
0.0
 10
66.0
 20
-24.89428571428581
 10
65.98762370855555
 20
-22.72286263782988
 10
65.95058902527305
 20
-20.56796540212686
 10
65.88917780645446
 20
-18.44599407630301
 10
65.80385742855609
 20
-16.37309814342915
 10
65.69527723117159
 20
-14.36505359320325
 10
65.5642635751656
 20
-12.43714285714296
 10
65.41181355356849
 20
-10.60403850005404
 10
65.23908740309649
 20
-8.879691552952606
 10
65.04739967404959
 20
-7.27722533729526
 10
64.83820922579004
 20
-5.808835588578702
 10
64.61310812394174
 20
-4.485697639428643
 10
64.37380952380953
 20
-3.317881368570651
 10
64.12213463223286
 20
-2.314274562972698
 10
63.85999884710207
 20
-1.482515276419742
 10
63.58939718002392
 20
-0.8289336993124383
 10
63.31238907307865
 20
-0.3585039820959215
 10
63.03108272522216
 20
-0.0748063789714447
 10
62.74761904761905
 20
0.0199999999999263
  0
LINE
  5
17D
330
113
100
AcDbEntity
  8
AM_4
100
AcDbLine
 10
129.72
 20
-60.66500000000001
 30
0.0
 11
129.72
 21
-76.2
 31
0.0
  0
LINE
  5
17E
330
113
100
AcDbEntity
  8
AM_4
100
AcDbLine
 10
66.0
 20
-76.2
 30
0.0
 11
136.55
 21
-76.2
 31
0.0
  0
LWPOLYLINE
  5
17F
330
113
100
AcDbEntity
  8
AM_4
100
AcDbPolyline
 90
       19
 70
     0
 43
0.0
 10
131.7700000000001
 20
-60.66500000000004
 10
132.1866044503339
 20
-60.6831893431215
 10
132.600038289248
 20
-60.73761894060168
 10
133.0071550355901
 20
-60.82787455033829
 10
133.4048562850967
 20
-60.95326927264339
 10
133.7901152911206
 20
-61.11284877796484
 10
134.16
 20
-61.30539856991041
 10
134.511695365758
 20
-61.52945322829864
 10
134.8425247743017
 20
-61.7833075618913
 10
135.1499704140717
 20
-62.06502958592831
 10
135.4316924381087
 20
-62.37247522569835
 10
135.6855467717014
 20
-62.703304634242
 10
135.9096014300896
 20
-63.05499999999999
 10
136.1021512220352
 20
-63.42488470887944
 10
136.2617307273566
 20
-63.81014371490328
 10
136.3871254496617
 20
-64.20784496440992
 10
136.4773810593984
 20
-64.61496171075204
 10
136.5318106568785
 20
-65.02839554966614
 10
136.55
 20
-65.44499999999995
  0
LINE
  5
180
330
113
100
AcDbEntity
  8
AM_4
100
AcDbLine
 10
69.25238095238097
 20
-76.2
 30
0.0
 11
69.25238095238097
 21
-52.29999999999989
 31
0.0
  0
LWPOLYLINE
  5
181
330
113
100
AcDbEntity
  8
AM_4
100
AcDbPolyline
 90
       19
 70
     0
 43
0.0
 10
66.0
 20
-27.38571428571445
 10
66.01237629144447
 20
-29.5571373621704
 10
66.04941097472697
 20
-31.71203459787342
 10
66.11082219354557
 20
-33.83400592369727
 10
66.19614257144393
 20
-35.90690185657113
 10
66.30472276882843
 20
-37.91494640679704
 10
66.43573642483445
 20
-39.84285714285733
 10
66.58818644643154
 20
-41.67596149994625
 10
66.76091259690354
 20
-43.40030844704768
 10
66.95260032595043
 20
-45.00277466270502
 10
67.16179077420999
 20
-46.47116441142158
 10
67.38689187605829
 20
-47.79430236057163
 10
67.62619047619049
 20
-48.96211863142962
 10
67.87786536776717
 20
-49.96572543702756
 10
68.14000115289797
 20
-50.7974847235805
 10
68.41060281997612
 20
-51.45106630068779
 10
68.6876109269214
 20
-51.9214960179043
 10
68.96891727477788
 20
-52.20519362102877
 10
69.25238095238099
 20
-52.30000000000013
  0
ENDBLK
  5
116
330
113
100
AcDbEntity
  8
0
100
AcDbBlockEnd
  0
ENDSEC
  0
SECTION
  2
ENTITIES
  0
INSERT
  5
6F
330
1F
100
AcDbEntity
  8
0
100
AcDbBlockReference
  2
1_125861_0
 10
0.0
 20
0.0
 30
0.0
  0
POINT
  5
183
330
1F
100
AcDbEntity
  8
ConnectionPoints
100
AcDbPoint
 10
0.0
 20
0.0
 30
37.6
  0
POINT
  5
184
330
1F
100
AcDbEntity
  8
ConnectionPoints
100
AcDbPoint
 10
55.50788232314397
 20
55.50788232314397
 30
0.0
  0
POINT
  5
185
330
1F
100
AcDbEntity
  8
ConnectionPoints
100
AcDbPoint
 10
0.0
 20
0.0
 30
37.6
  0
ENDSEC
  0
SECTION
  2
OBJECTS
  0
DICTIONARY
  5
C
330
0
100
AcDbDictionary
281
     1
  3
ACAD_DETAILVIEWSTYLE
350
18D
  3
ACAD_GROUP
350
D
  3
ACAD_LAYOUT
350
1A
  3
ACAD_MATERIAL
350
43
  3
ACAD_MLEADERSTYLE
350
6B
  3
ACAD_MLINESTYLE
350
17
  3
ACAD_PLOTSETTINGS
350
19
  3
ACAD_PLOTSTYLENAME
350
E
  3
ACAD_SCALELIST
350
47
  3
ACAD_SECTIONVIEWSTYLE
350
18E
  3
ACAD_TABLESTYLE
350
69
  3
ACAD_VISUALSTYLE
350
2A
  3
ACDB_RECOMPOSE_DATA
350
18A
  3
AcDbVariableDictionary
350
186
  0
SUN
  5
6D
330
29
100
AcDbSun
 90
        1
290
     0
 63
     7
421
 16777215
 40
1.0
291
     1
 91
  2455826
 92
 54000000
292
     0
 70
     2
 71
   256
280
     1
  0
DICTIONARY
  5
18D
102
{ACAD_REACTORS
330
C
102
}
330
C
100
AcDbDictionary
281
     1
  0
DICTIONARY
  5
D
102
{ACAD_REACTORS
330
C
102
}
330
C
100
AcDbDictionary
281
     1
  0
DICTIONARY
  5
1A
102
{ACAD_REACTORS
330
C
102
}
330
C
100
AcDbDictionary
281
     1
  3
Layout1
350
1E
  3
Layout2
350
26
  3
Model
350
22
  0
DICTIONARY
  5
43
102
{ACAD_REACTORS
330
C
102
}
330
C
100
AcDbDictionary
281
     1
  3
ByBlock
350
45
  3
ByLayer
350
44
  3
Global
350
46
  0
DICTIONARY
  5
6B
102
{ACAD_REACTORS
330
C
102
}
330
C
100
AcDbDictionary
281
     1
  3
Standard
350
6C
  0
DICTIONARY
  5
17
102
{ACAD_REACTORS
330
C
102
}
330
C
100
AcDbDictionary
281
     1
  3
Standard
350
18
  0
DICTIONARY
  5
19
102
{ACAD_REACTORS
330
C
102
}
330
C
100
AcDbDictionary
281
     1
  0
ACDBDICTIONARYWDFLT
  5
E
102
{ACAD_REACTORS
330
C
102
}
330
C
100
AcDbDictionary
281
     1
  3
Normal
350
F
100
AcDbDictionaryWithDefault
340
F
  0
DICTIONARY
  5
47
102
{ACAD_REACTORS
330
C
102
}
330
C
100
AcDbDictionary
281
     1
  3
A0
350
48
  3
A1
350
49
  3
A2
350
4A
  3
A3
350
4B
  3
A4
350
4C
  3
A5
350
4D
  3
A6
350
4E
  3
A7
350
4F
  3
A8
350
50
  3
A9
350
51
  3
B0
350
52
  3
B1
350
53
  3
B2
350
54
  3
B3
350
55
  3
B4
350
56
  3
B5
350
57
  3
B6
350
58
  3
B7
350
59
  3
B8
350
5A
  3
B9
350
5B
  3
C0
350
5C
  3
C1
350
5D
  3
C2
350
5E
  3
C3
350
5F
  3
C4
350
60
  3
C5
350
61
  3
C6
350
62
  3
C7
350
63
  3
C8
350
64
  3
C9
350
65
  3
D0
350
66
  3
D1
350
67
  3
D2
350
68
  0
DICTIONARY
  5
18E
102
{ACAD_REACTORS
330
C
102
}
330
C
100
AcDbDictionary
281
     1
  0
DICTIONARY
  5
69
102
{ACAD_REACTORS
330
C
102
}
330
C
100
AcDbDictionary
281
     1
  3
Standard
350
6A
  0
DICTIONARY
  5
2A
102
{ACAD_REACTORS
330
C
102
}
330
C
100
AcDbDictionary
281
     1
  3
2dWireframe
350
2F
  3
Basic
350
32
  3
Brighten
350
36
  3
ColorChange
350
3A
  3
Conceptual
350
34
  3
Dim
350
35
  3
EdgeColorOff
350
3D
  3
Facepattern
350
39
  3
Flat
350
2B
  3
FlatWithEdges
350
2C
  3
Gouraud
350
2D
  3
GouraudWithEdges
350
2E
  3
Hidden
350
31
  3
JitterOff
350
3B
  3
Linepattern
350
38
  3
OverhangOff
350
3C
  3
Realistic
350
33
  3
Shaded
350
42
  3
Shaded with edges
350
41
  3
Shades of Gray
350
3E
  3
Sketchy
350
3F
  3
Thicken
350
37
  3
Wireframe
350
30
  3
X-Ray
350
40
  0
XRECORD
  5
18A
102
{ACAD_REACTORS
330
C
102
}
330
C
100
AcDbXrecord
280
     1
 90
        1
330
6A
  0
DICTIONARY
  5
186
102
{ACAD_REACTORS
330
C
102
}
330
C
100
AcDbDictionary
281
     1
  3
CANNOSCALE
350
187
  3
CMLEADERSTYLE
350
18C
  3
CTABLESTYLE
350
18B
  0
LAYOUT
  5
1E
102
{ACAD_REACTORS
330
1A
102
}
330
1A
100
AcDbPlotSettings
  1

  2
none_device
  4

  6

 40
0.0
 41
0.0
 42
0.0
 43
0.0
 44
0.0
 45
0.0
 46
0.0
 47
0.0
 48
0.0
 49
0.0
140
0.0
141
0.0
142
1.0
143
1.0
 70
   688
 72
     1
 73
     0
 74
     5
  7

 75
    16
 76
     0
 77
     2
 78
   300
147
1.0
148
0.0
149
0.0
100
AcDbLayout
  1
Layout1
 70
     1
 71
     1
 10
0.0
 20
0.0
 11
420.0
 21
297.0
 12
0.0
 22
0.0
 32
0.0
 14
1.000000000000000E+20
 24
1.000000000000000E+20
 34
1.000000000000000E+20
 15
-1.000000000000000E+20
 25
-1.000000000000000E+20
 35
-1.000000000000000E+20
146
0.0
 13
0.0
 23
0.0
 33
0.0
 16
1.0
 26
0.0
 36
0.0
 17
0.0
 27
1.0
 37
0.0
 76
     0
330
1B
  0
LAYOUT
  5
26
102
{ACAD_REACTORS
330
1A
102
}
330
1A
100
AcDbPlotSettings
  1

  2
none_device
  4

  6

 40
0.0
 41
0.0
 42
0.0
 43
0.0
 44
0.0
 45
0.0
 46
0.0
 47
0.0
 48
0.0
 49
0.0
140
0.0
141
0.0
142
1.0
143
1.0
 70
   688
 72
     1
 73
     0
 74
     5
  7

 75
    16
 76
     0
 77
     2
 78
   300
147
1.0
148
0.0
149
0.0
100
AcDbLayout
  1
Layout2
 70
     1
 71
     2
 10
0.0
 20
0.0
 11
0.0
 21
0.0
 12
0.0
 22
0.0
 32
0.0
 14
0.0
 24
0.0
 34
0.0
 15
0.0
 25
0.0
 35
0.0
146
0.0
 13
0.0
 23
0.0
 33
0.0
 16
1.0
 26
0.0
 36
0.0
 17
0.0
 27
1.0
 37
0.0
 76
     0
330
23
  0
LAYOUT
  5
22
102
{ACAD_REACTORS
330
1A
102
}
330
1A
100
AcDbPlotSettings
  1

  2
none_device
  4
Letter_(8.50_x_11.00_Inches)
  6

 40
6.35
 41
6.35
 42
6.35000508
 43
6.35000508
 44
215.9
 45
279.4
 46
0.0
 47
0.0
 48
0.0
 49
0.0
140
0.0
141
0.0
142
1.0
143
1.0
 70
  1712
 72
     1
 73
     0
 74
     0
  7

 75
     0
 76
     0
 77
     2
 78
   300
147
1.0
148
0.0
149
0.0
100
AcDbLayout
  1
Model
 70
     1
 71
     0
 10
0.0
 20
0.0
 11
420.0
 21
297.0
 12
0.0
 22
0.0
 32
0.0
 14
1.000000000000000E+20
 24
1.000000000000000E+20
 34
1.000000000000000E+20
 15
-1.000000000000000E+20
 25
-1.000000000000000E+20
 35
-1.000000000000000E+20
146
0.0
 13
0.0
 23
0.0
 33
0.0
 16
1.0
 26
0.0
 36
0.0
 17
0.0
 27
1.0
 37
0.0
 76
     0
330
1F
331
29
  0
MATERIAL
  5
45
102
{ACAD_REACTORS
330
43
102
}
330
43
100
AcDbMaterial
  1
ByBlock
 72
     1
 94
      127
  0
MATERIAL
  5
44
102
{ACAD_REACTORS
330
43
102
}
330
43
100
AcDbMaterial
  1
ByLayer
 72
     1
 94
      127
  0
MATERIAL
  5
46
102
{ACAD_REACTORS
330
43
102
}
330
43
100
AcDbMaterial
  1
Global
 72
     1
 94
      127
  0
MLEADERSTYLE
  5
6C
102
{ACAD_REACTORS
330
6B
102
}
330
6B
100
AcDbMLeaderStyle
179
     2
170
     2
171
     1
172
     0
 90
        2
 40
0.0
 41
0.0
173
     1
 91
-1056964608
340
14
 92
       -2
290
     1
 42
2.0
291
     1
 43
8.0
  3
Standard
341
0
 44
4.0
300

342
11
174
     1
178
     6
175
     1
176
     0
 93
-1056964608
 45
4.0
292
     0
297
     0
 46
4.0
343
0
 94
-1056964608
 47
1.0
 49
1.0
140
1.0
293
     1
141
0.0
294
     1
177
     0
142
1.0
295
     0
296
     0
143
3.75
271
     0
272
     9
273
     9
298
     0
  0
MLINESTYLE
  5
18
102
{ACAD_REACTORS
330
17
102
}
330
17
100
AcDbMlineStyle
  2
Standard
 70
     0
  3

 62
   256
 51
90.0
 52
90.0
 71
     2
 49
0.5
 62
   256
  6
BYLAYER
 49
-0.5
 62
   256
  6
BYLAYER
  0
ACDBPLACEHOLDER
  5
F
102
{ACAD_REACTORS
330
E
102
}
330
E
  0
SCALE
  5
48
102
{ACAD_REACTORS
330
47
102
}
330
47
100
AcDbScale
 70
     0
300
1:1
140
1.0
141
1.0
290
     1
  0
SCALE
  5
49
102
{ACAD_REACTORS
330
47
102
}
330
47
100
AcDbScale
 70
     0
300
1:2
140
1.0
141
2.0
290
     0
  0
SCALE
  5
4A
102
{ACAD_REACTORS
330
47
102
}
330
47
100
AcDbScale
 70
     0
300
1:4
140
1.0
141
4.0
290
     0
  0
SCALE
  5
4B
102
{ACAD_REACTORS
330
47
102
}
330
47
100
AcDbScale
 70
     0
300
1:5
140
1.0
141
5.0
290
     0
  0
SCALE
  5
4C
102
{ACAD_REACTORS
330
47
102
}
330
47
100
AcDbScale
 70
     0
300
1:8
140
1.0
141
8.0
290
     0
  0
SCALE
  5
4D
102
{ACAD_REACTORS
330
47
102
}
330
47
100
AcDbScale
 70
     0
300
1:10
140
1.0
141
10.0
290
     0
  0
SCALE
  5
4E
102
{ACAD_REACTORS
330
47
102
}
330
47
100
AcDbScale
 70
     0
300
1:16
140
1.0
141
16.0
290
     0
  0
SCALE
  5
4F
102
{ACAD_REACTORS
330
47
102
}
330
47
100
AcDbScale
 70
     0
300
1:20
140
1.0
141
20.0
290
     0
  0
SCALE
  5
50
102
{ACAD_REACTORS
330
47
102
}
330
47
100
AcDbScale
 70
     0
300
1:30
140
1.0
141
30.0
290
     0
  0
SCALE
  5
51
102
{ACAD_REACTORS
330
47
102
}
330
47
100
AcDbScale
 70
     0
300
1:40
140
1.0
141
40.0
290
     0
  0
SCALE
  5
52
102
{ACAD_REACTORS
330
47
102
}
330
47
100
AcDbScale
 70
     0
300
1:50
140
1.0
141
50.0
290
     0
  0
SCALE
  5
53
102
{ACAD_REACTORS
330
47
102
}
330
47
100
AcDbScale
 70
     0
300
1:100
140
1.0
141
100.0
290
     0
  0
SCALE
  5
54
102
{ACAD_REACTORS
330
47
102
}
330
47
100
AcDbScale
 70
     0
300
2:1
140
2.0
141
1.0
290
     0
  0
SCALE
  5
55
102
{ACAD_REACTORS
330
47
102
}
330
47
100
AcDbScale
 70
     0
300
4:1
140
4.0
141
1.0
290
     0
  0
SCALE
  5
56
102
{ACAD_REACTORS
330
47
102
}
330
47
100
AcDbScale
 70
     0
300
8:1
140
8.0
141
1.0
290
     0
  0
SCALE
  5
57
102
{ACAD_REACTORS
330
47
102
}
330
47
100
AcDbScale
 70
     0
300
10:1
140
10.0
141
1.0
290
     0
  0
SCALE
  5
58
102
{ACAD_REACTORS
330
47
102
}
330
47
100
AcDbScale
 70
     0
300
100:1
140
100.0
141
1.0
290
     0
  0
SCALE
  5
59
102
{ACAD_REACTORS
330
47
102
}
330
47
100
AcDbScale
 70
     0
300
1/128" = 1'-0"
140
0.0078125
141
12.0
290
     0
  0
SCALE
  5
5A
102
{ACAD_REACTORS
330
47
102
}
330
47
100
AcDbScale
 70
     0
300
1/64" = 1'-0"
140
0.015625
141
12.0
290
     0
  0
SCALE
  5
5B
102
{ACAD_REACTORS
330
47
102
}
330
47
100
AcDbScale
 70
     0
300
1/32" = 1'-0"
140
0.03125
141
12.0
290
     0
  0
SCALE
  5
5C
102
{ACAD_REACTORS
330
47
102
}
330
47
100
AcDbScale
 70
     0
300
1/16" = 1'-0"
140
0.0625
141
12.0
290
     0
  0
SCALE
  5
5D
102
{ACAD_REACTORS
330
47
102
}
330
47
100
AcDbScale
 70
     0
300
3/32" = 1'-0"
140
0.09375
141
12.0
290
     0
  0
SCALE
  5
5E
102
{ACAD_REACTORS
330
47
102
}
330
47
100
AcDbScale
 70
     0
300
1/8" = 1'-0"
140
0.125
141
12.0
290
     0
  0
SCALE
  5
5F
102
{ACAD_REACTORS
330
47
102
}
330
47
100
AcDbScale
 70
     0
300
3/16" = 1'-0"
140
0.1875
141
12.0
290
     0
  0
SCALE
  5
60
102
{ACAD_REACTORS
330
47
102
}
330
47
100
AcDbScale
 70
     0
300
1/4" = 1'-0"
140
0.25
141
12.0
290
     0
  0
SCALE
  5
61
102
{ACAD_REACTORS
330
47
102
}
330
47
100
AcDbScale
 70
     0
300
3/8" = 1'-0"
140
0.375
141
12.0
290
     0
  0
SCALE
  5
62
102
{ACAD_REACTORS
330
47
102
}
330
47
100
AcDbScale
 70
     0
300
1/2" = 1'-0"
140
0.5
141
12.0
290
     0
  0
SCALE
  5
63
102
{ACAD_REACTORS
330
47
102
}
330
47
100
AcDbScale
 70
     0
300
3/4" = 1'-0"
140
0.75
141
12.0
290
     0
  0
SCALE
  5
64
102
{ACAD_REACTORS
330
47
102
}
330
47
100
AcDbScale
 70
     0
300
1" = 1'-0"
140
1.0
141
12.0
290
     0
  0
SCALE
  5
65
102
{ACAD_REACTORS
330
47
102
}
330
47
100
AcDbScale
 70
     0
300
1-1/2" = 1'-0"
140
1.5
141
12.0
290
     0
  0
SCALE
  5
66
102
{ACAD_REACTORS
330
47
102
}
330
47
100
AcDbScale
 70
     0
300
3" = 1'-0"
140
3.0
141
12.0
290
     0
  0
SCALE
  5
67
102
{ACAD_REACTORS
330
47
102
}
330
47
100
AcDbScale
 70
     0
300
6" = 1'-0"
140
6.0
141
12.0
290
     0
  0
SCALE
  5
68
102
{ACAD_REACTORS
330
47
102
}
330
47
100
AcDbScale
 70
     0
300
1'-0" = 1'-0"
140
12.0
141
12.0
290
     0
  0
TABLESTYLE
  5
6A
102
{ACAD_REACTORS
330
69
102
}
102
{ACAD_XDICTIONARY
360
188
102
}
330
69
100
AcDbTableStyle
  3
Standard
 70
     0
 71
     0
 40
0.06
 41
0.06
280
     0
281
     0
  7
Standard
140
4.5
170
     2
 62
     0
 63
   257
283
     0
 90
        4
 91
        0
  1

274
    -2
284
     1
 64
     0
275
    -2
285
     1
 65
     0
276
    -2
286
     1
 66
     0
277
    -2
287
     1
 67
     0
278
    -2
288
     1
 68
     0
279
    -2
289
     1
 69
     0
  7
Standard
140
6.0
170
     5
 62
     0
 63
   257
283
     0
 90
        4
 91
        0
  1

274
    -2
284
     1
 64
     0
275
    -2
285
     1
 65
     0
276
    -2
286
     1
 66
     0
277
    -2
287
     1
 67
     0
278
    -2
288
     1
 68
     0
279
    -2
289
     1
 69
     0
  7
Standard
140
4.5
170
     5
 62
     0
 63
   257
283
     0
 90
        4
 91
        0
  1

274
    -2
284
     1
 64
     0
275
    -2
285
     1
 65
     0
276
    -2
286
     1
 66
     0
277
    -2
287
     1
 67
     0
278
    -2
288
     1
 68
     0
279
    -2
289
     1
 69
     0
  0
VISUALSTYLE
  5
2F
102
{ACAD_REACTORS
330
2A
102
}
330
2A
100
AcDbVisualStyle
  2
2dWireframe
 70
     4
177
     3
291
     0
 70
    58
 90
        0
176
     1
 90
        2
176
     1
 90
        0
176
     1
 90
        0
176
     1
 40
0.6
176
     1
 40
30.0
176
     1
 62
     7
420
 16777215
176
     1
 90
        1
176
     1
 90
        4
176
     1
 62
     7
176
     1
 62
   257
176
     1
 90
        1
176
     1
 90
        1
176
     1
 40
1.0
176
     1
 90
        0
176
     1
 62
   257
176
     1
 40
1.0
176
     1
 90
        1
176
     1
 90
        6
176
     1
 90
        2
176
     1
 62
     7
176
     1
 90
        5
176
     1
 90
        0
176
     1
 90
        0
176
     1
290
     0
176
     1
 90
        1
176
     1
 40
0.0
176
     1
 90
        0
176
     1
290
     1
176
     1
290
     1
176
     1
290
     0
176
     1
290
     0
176
     1
290
     0
176
     1
290
     0
176
     1
290
     0
176
     1
290
     0
176
     1
290
     0
176
     1
 90
       50
176
     1
 40
0.0
176
     1
 40
1.0
176
     1
 90
        0
176
     1
 62
    18
420
        0
176
     1
 90
       50
176
     1
 90
        3
176
     1
 62
     5
420
      255
176
     1
290
     0
176
     1
 90
       50
176
     1
 90
       50
176
     1
 90
       50
176
     1
290
     0
176
     1
 90
       50
176
     1
 62
   256
176
     0
 40
1.0
176
     0
 90
        2
176
     1
  1
strokes_ogs.tif
176
     1
290
     0
176
     1
 40
1.0
176
     1
 40
1.0
176
     1
  0
VISUALSTYLE
  5
32
102
{ACAD_REACTORS
330
2A
102
}
330
2A
100
AcDbVisualStyle
  2
Basic
 70
     7
177
     3
291
     1
 70
    58
 90
        1
176
     1
 90
        0
176
     1
 90
        1
176
     1
 90
        0
176
     1
 40
0.6
176
     1
 40
30.0
176
     1
 62
     7
420
 16777215
176
     1
 90
        0
176
     1
 90
        4
176
     1
 62
     7
176
     1
 62
   257
176
     1
 90
        1
176
     1
 90
        1
176
     1
 40
1.0
176
     1
 90
        8
176
     1
 62
     7
176
     1
 40
1.0
176
     1
 90
        1
176
     1
 90
        6
176
     1
 90
        2
176
     1
 62
     7
176
     1
 90
        5
176
     1
 90
        0
176
     1
 90
        0
176
     1
290
     0
176
     1
 90
        1
176
     1
 40
0.0
176
     1
 90
        0
176
     1
290
     0
176
     1
290
     1
176
     1
290
     1
176
     1
290
     0
176
     1
290
     0
176
     1
290
     0
176
     1
290
     0
176
     1
290
     0
176
     1
290
     0
176
     1
 90
       50
176
     1
 40
0.0
176
     1
 40
1.0
176
     1
 90
        0
176
     1
 62
    18
420
        0
176
     1
 90
       50
176
     1
 90
        3
176
     1
 62
     5
420
      255
176
     1
290
     0
176
     1
 90
       50
176
     1
 90
       50
176
     1
 90
       50
176
     1
290
     0
176
     1
 90
       50
176
     1
 62
   256
176
     0
 40
1.0
176
     0
 90
        2
176
     1
  1
strokes_ogs.tif
176
     1
290
     0
176
     1
 40
1.0
176
     1
 40
1.0
176
     1
  0
VISUALSTYLE
  5
36
102
{ACAD_REACTORS
330
2A
102
}
330
2A
100
AcDbVisualStyle
  2
Brighten
 70
    12
177
     3
291
     1
 70
    58
 90
        2
176
     1
 90
        2
176
     1
 90
        0
176
     1
 90
        0
176
     1
 40
0.6
176
     1
 40
30.0
176
     1
 62
     7
420
 16777215
176
     1
 90
        1
176
     1
 90
        4
176
     1
 62
     7
176
     1
 62
   257
176
     1
 90
        1
176
     1
 90
        1
176
     1
 40
1.0
176
     1
 90
        8
176
     1
 62
     7
176
     1
 40
1.0
176
     1
 90
        1
176
     1
 90
        6
176
     1
 90
        2
176
     1
 62
     7
176
     1
 90
        5
176
     1
 90
        0
176
     1
 90
        0
176
     1
290
     0
176
     1
 90
        1
176
     1
 40
50.0
176
     1
 90
        0
176
     1
290
     0
176
     1
290
     1
176
     1
290
     1
176
     1
290
     0
176
     1
290
     0
176
     1
290
     0
176
     1
290
     0
176
     1
290
     0
176
     1
290
     0
176
     1
 90
       50
176
     1
 40
0.0
176
     1
 40
1.0
176
     1
 90
        0
176
     1
 62
    18
420
        0
176
     1
 90
       50
176
     1
 90
        3
176
     1
 62
     5
420
      255
176
     1
290
     0
176
     1
 90
       50
176
     1
 90
       50
176
     1
 90
       50
176
     1
290
     0
176
     1
 90
       50
176
     1
 62
   256
176
     0
 40
1.0
176
     0
 90
        2
176
     1
  1
strokes_ogs.tif
176
     1
290
     0
176
     1
 40
1.0
176
     1
 40
1.0
176
     1
  0
VISUALSTYLE
  5
3A
102
{ACAD_REACTORS
330
2A
102
}
330
2A
100
AcDbVisualStyle
  2
ColorChange
 70
    16
177
     3
291
     1
 70
    58
 90
        2
176
     1
 90
        2
176
     1
 90
        3
176
     1
 90
        0
176
     1
 40
0.6
176
     1
 40
30.0
176
     1
 62
     8
420
  8421504
176
     1
 90
        1
176
     1
 90
        4
176
     1
 62
     7
176
     1
 62
   257
176
     1
 90
        1
176
     1
 90
        1
176
     1
 40
1.0
176
     1
 90
        8
176
     1
 62
     8
420
  8421504
176
     1
 40
1.0
176
     1
 90
        1
176
     1
 90
        6
176
     1
 90
        2
176
     1
 62
     7
176
     1
 90
        5
176
     1
 90
        0
176
     1
 90
        0
176
     1
290
     0
176
     1
 90
        1
176
     1
 40
0.0
176
     1
 90
        0
176
     1
290
     0
176
     1
290
     1
176
     1
290
     1
176
     1
290
     0
176
     1
290
     0
176
     1
290
     0
176
     1
290
     0
176
     1
290
     0
176
     1
290
     0
176
     1
 90
       50
176
     1
 40
0.0
176
     1
 40
1.0
176
     1
 90
        0
176
     1
 62
    18
420
        0
176
     1
 90
       50
176
     1
 90
        3
176
     1
 62
     5
420
      255
176
     1
290
     0
176
     1
 90
       50
176
     1
 90
       50
176
     1
 90
       50
176
     1
290
     0
176
     1
 90
       50
176
     1
 62
   256
176
     0
 40
1.0
176
     0
 90
        2
176
     1
  1
strokes_ogs.tif
176
     1
290
     0
176
     1
 40
1.0
176
     1
 40
1.0
176
     1
  0
VISUALSTYLE
  5
34
102
{ACAD_REACTORS
330
2A
102
}
330
2A
100
AcDbVisualStyle
  2
Conceptual
 70
     9
177
     3
291
     0
 70
    58
 90
        3
176
     1
 90
        2
176
     1
 90
        0
176
     1
 90
        0
176
     1
 40
0.6
176
     1
 40
30.0
176
     1
 62
     7
420
 16777215
176
     1
 90
        2
176
     1
 90
        2
176
     1
 62
     7
176
     1
 62
   257
176
     1
 90
        1
176
     1
 90
        1
176
     1
 40
179.0
176
     1
 90
        8
176
     1
 62
     7
176
     1
 40
1.0
176
     1
 90
        1
176
     1
 90
        6
176
     1
 90
        2
176
     1
 62
     7
176
     1
 90
        3
176
     1
 90
        0
176
     1
 90
        0
176
     1
290
     0
176
     1
 90
        1
176
     1
 40
0.0
176
     1
 90
        0
176
     1
290
     0
176
     1
290
     1
176
     1
290
     1
176
     1
290
     0
176
     1
290
     0
176
     1
290
     0
176
     1
290
     0
176
     1
290
     0
176
     1
290
     0
176
     1
 90
       50
176
     1
 40
0.0
176
     1
 40
1.0
176
     1
 90
        0
176
     1
 62
    18
420
        0
176
     1
 90
       50
176
     1
 90
        3
176
     1
 62
     5
420
      255
176
     1
290
     0
176
     1
 90
       50
176
     1
 90
       50
176
     1
 90
       50
176
     1
290
     0
176
     1
 90
       50
176
     1
 62
   256
176
     0
 40
1.0
176
     0
 90
        2
176
     1
  1
strokes_ogs.tif
176
     1
290
     0
176
     1
 40
1.0
176
     1
 40
1.0
176
     1
  0
VISUALSTYLE
  5
35
102
{ACAD_REACTORS
330
2A
102
}
330
2A
100
AcDbVisualStyle
  2
Dim
 70
    11
177
     3
291
     1
 70
    58
 90
        2
176
     1
 90
        2
176
     1
 90
        0
176
     1
 90
        0
176
     1
 40
0.6
176
     1
 40
30.0
176
     1
 62
     7
420
 16777215
176
     1
 90
        1
176
     1
 90
        4
176
     1
 62
     7
176
     1
 62
   257
176
     1
 90
        1
176
     1
 90
        1
176
     1
 40
1.0
176
     1
 90
        8
176
     1
 62
     7
176
     1
 40
1.0
176
     1
 90
        1
176
     1
 90
        6
176
     1
 90
        2
176
     1
 62
     7
176
     1
 90
        5
176
     1
 90
        0
176
     1
 90
        0
176
     1
290
     0
176
     1
 90
        1
176
     1
 40
-50.0
176
     1
 90
        0
176
     1
290
     0
176
     1
290
     1
176
     1
290
     1
176
     1
290
     0
176
     1
290
     0
176
     1
290
     0
176
     1
290
     0
176
     1
290
     0
176
     1
290
     0
176
     1
 90
       50
176
     1
 40
0.0
176
     1
 40
1.0
176
     1
 90
        0
176
     1
 62
    18
420
        0
176
     1
 90
       50
176
     1
 90
        3
176
     1
 62
     5
420
      255
176
     1
290
     0
176
     1
 90
       50
176
     1
 90
       50
176
     1
 90
       50
176
     1
290
     0
176
     1
 90
       50
176
     1
 62
   256
176
     0
 40
1.0
176
     0
 90
        2
176
     1
  1
strokes_ogs.tif
176
     1
290
     0
176
     1
 40
1.0
176
     1
 40
1.0
176
     1
  0
VISUALSTYLE
  5
3D
102
{ACAD_REACTORS
330
2A
102
}
330
2A
100
AcDbVisualStyle
  2
EdgeColorOff
 70
    22
177
     3
291
     1
 70
    58
 90
        2
176
     0
 90
        2
176
     0
 90
        0
176
     0
 90
        0
176
     0
 40
0.6
176
     0
 40
30.0
176
     0
 62
     7
420
 16777215
176
     0
 90
        1
176
     0
 90
        4
176
     0
 62
     7
176
     0
 62
   257
176
     0
 90
        1
176
     0
 90
        1
176
     0
 40
1.0
176
     0
 90
        8
176
     2
 62
     7
176
     0
 40
1.0
176
     0
 90
        1
176
     0
 90
        6
176
     0
 90
        2
176
     0
 62
     7
176
     0
 90
        5
176
     0
 90
        0
176
     0
 90
        0
176
     0
290
     0
176
     0
 90
        1
176
     0
 40
0.0
176
     0
 90
        0
176
     0
290
     0
176
     0
290
     1
176
     0
290
     1
176
     0
290
     0
176
     0
290
     0
176
     0
290
     0
176
     0
290
     0
176
     0
290
     0
176
     0
290
     0
176
     0
 90
       50
176
     0
 40
0.0
176
     0
 40
1.0
176
     0
 90
        0
176
     0
 62
    18
420
        0
176
     0
 90
       50
176
     0
 90
        3
176
     0
 62
     5
420
      255
176
     0
290
     0
176
     0
 90
       50
176
     0
 90
       50
176
     0
 90
       50
176
     0
290
     0
176
     0
 90
       50
176
     0
 62
   256
176
     0
 40
1.0
176
     0
 90
        2
176
     0
  1
strokes_ogs.tif
176
     0
290
     0
176
     0
 40
1.0
176
     0
 40
1.0
176
     0
  0
VISUALSTYLE
  5
39
102
{ACAD_REACTORS
330
2A
102
}
330
2A
100
AcDbVisualStyle
  2
Facepattern
 70
    15
177
     3
291
     1
 70
    58
 90
        2
176
     1
 90
        2
176
     1
 90
        0
176
     1
 90
        0
176
     1
 40
0.6
176
     1
 40
30.0
176
     1
 62
     7
420
 16777215
176
     1
 90
        1
176
     1
 90
        4
176
     1
 62
     7
176
     1
 62
   257
176
     1
 90
        1
176
     1
 90
        1
176
     1
 40
1.0
176
     1
 90
        8
176
     1
 62
     7
176
     1
 40
1.0
176
     1
 90
        1
176
     1
 90
        6
176
     1
 90
        2
176
     1
 62
     7
176
     1
 90
        5
176
     1
 90
        0
176
     1
 90
        0
176
     1
290
     0
176
     1
 90
        1
176
     1
 40
0.0
176
     1
 90
        0
176
     1
290
     0
176
     1
290
     1
176
     1
290
     1
176
     1
290
     0
176
     1
290
     0
176
     1
290
     0
176
     1
290
     0
176
     1
290
     0
176
     1
290
     0
176
     1
 90
       50
176
     1
 40
0.0
176
     1
 40
1.0
176
     1
 90
        0
176
     1
 62
    18
420
        0
176
     1
 90
       50
176
     1
 90
        3
176
     1
 62
     5
420
      255
176
     1
290
     0
176
     1
 90
       50
176
     1
 90
       50
176
     1
 90
       50
176
     1
290
     0
176
     1
 90
       50
176
     1
 62
   256
176
     0
 40
1.0
176
     0
 90
        2
176
     1
  1
strokes_ogs.tif
176
     1
290
     0
176
     1
 40
1.0
176
     1
 40
1.0
176
     1
  0
VISUALSTYLE
  5
2B
102
{ACAD_REACTORS
330
2A
102
}
330
2A
100
AcDbVisualStyle
  2
Flat
 70
     0
177
     3
291
     1
 70
    58
 90
        2
176
     1
 90
        1
176
     1
 90
        1
176
     1
 90
        2
176
     1
 40
0.6
176
     1
 40
30.0
176
     1
 62
     7
420
 16777215
176
     1
 90
        0
176
     1
 90
        0
176
     1
 62
     7
176
     1
 62
   257
176
     1
 90
        1
176
     1
 90
        1
176
     1
 40
1.0
176
     1
 90
        8
176
     1
 62
     7
176
     1
 40
1.0
176
     1
 90
        1
176
     1
 90
        6
176
     1
 90
        2
176
     1
 62
     7
176
     1
 90
        5
176
     1
 90
        0
176
     1
 90
        0
176
     1
290
     0
176
     1
 90
       13
176
     1
 40
0.0
176
     1
 90
        0
176
     1
290
     0
176
     1
290
     1
176
     1
290
     1
176
     1
290
     0
176
     1
290
     0
176
     1
290
     0
176
     1
290
     0
176
     1
290
     0
176
     1
290
     0
176
     1
 90
       50
176
     1
 40
0.0
176
     1
 40
1.0
176
     1
 90
        0
176
     1
 62
    18
420
        0
176
     1
 90
       50
176
     1
 90
        3
176
     1
 62
     5
420
      255
176
     1
290
     0
176
     1
 90
       50
176
     1
 90
       50
176
     1
 90
       50
176
     1
290
     0
176
     1
 90
       50
176
     1
 62
   256
176
     0
 40
1.0
176
     0
 90
        2
176
     1
  1
strokes_ogs.tif
176
     1
290
     0
176
     1
 40
1.0
176
     1
 40
1.0
176
     1
  0
VISUALSTYLE
  5
2C
102
{ACAD_REACTORS
330
2A
102
}
330
2A
100
AcDbVisualStyle
  2
FlatWithEdges
 70
     1
177
     3
291
     1
 70
    58
 90
        2
176
     1
 90
        1
176
     1
 90
        1
176
     1
 90
        2
176
     1
 40
0.6
176
     1
 40
30.0
176
     1
 62
     7
420
 16777215
176
     1
 90
        1
176
     1
 90
        0
176
     1
 62
     7
176
     1
 62
   257
176
     1
 90
        1
176
     1
 90
        1
176
     1
 40
1.0
176
     1
 90
        0
176
     1
 62
   257
176
     1
 40
1.0
176
     1
 90
        1
176
     1
 90
        6
176
     1
 90
        2
176
     1
 62
     7
176
     1
 90
        5
176
     1
 90
        0
176
     1
 90
        0
176
     1
290
     0
176
     1
 90
       13
176
     1
 40
0.0
176
     1
 90
        0
176
     1
290
     0
176
     1
290
     1
176
     1
290
     1
176
     1
290
     0
176
     1
290
     0
176
     1
290
     0
176
     1
290
     0
176
     1
290
     0
176
     1
290
     0
176
     1
 90
       50
176
     1
 40
0.0
176
     1
 40
1.0
176
     1
 90
        0
176
     1
 62
    18
420
        0
176
     1
 90
       50
176
     1
 90
        3
176
     1
 62
     5
420
      255
176
     1
290
     0
176
     1
 90
       50
176
     1
 90
       50
176
     1
 90
       50
176
     1
290
     0
176
     1
 90
       50
176
     1
 62
   256
176
     0
 40
1.0
176
     0
 90
        2
176
     1
  1
strokes_ogs.tif
176
     1
290
     0
176
     1
 40
1.0
176
     1
 40
1.0
176
     1
  0
VISUALSTYLE
  5
2D
102
{ACAD_REACTORS
330
2A
102
}
330
2A
100
AcDbVisualStyle
  2
Gouraud
 70
     2
177
     3
291
     1
 70
    58
 90
        2
176
     1
 90
        2
176
     1
 90
        1
176
     1
 90
        2
176
     1
 40
0.6
176
     1
 40
30.0
176
     1
 62
     7
420
 16777215
176
     1
 90
        0
176
     1
 90
        0
176
     1
 62
     7
176
     1
 62
   257
176
     1
 90
        1
176
     1
 90
        1
176
     1
 40
1.0
176
     1
 90
        0
176
     1
 62
     7
176
     1
 40
1.0
176
     1
 90
        1
176
     1
 90
        6
176
     1
 90
        2
176
     1
 62
     7
176
     1
 90
        5
176
     1
 90
        0
176
     1
 90
        0
176
     1
290
     0
176
     1
 90
       13
176
     1
 40
0.0
176
     1
 90
        0
176
     1
290
     0
176
     1
290
     1
176
     1
290
     1
176
     1
290
     0
176
     1
290
     0
176
     1
290
     0
176
     1
290
     0
176
     1
290
     0
176
     1
290
     0
176
     1
 90
       50
176
     1
 40
0.0
176
     1
 40
1.0
176
     1
 90
        0
176
     1
 62
    18
420
        0
176
     1
 90
       50
176
     1
 90
        3
176
     1
 62
     5
420
      255
176
     1
290
     0
176
     1
 90
       50
176
     1
 90
       50
176
     1
 90
       50
176
     1
290
     0
176
     1
 90
       50
176
     1
 62
   256
176
     0
 40
1.0
176
     0
 90
        2
176
     1
  1
strokes_ogs.tif
176
     1
290
     0
176
     1
 40
1.0
176
     1
 40
1.0
176
     1
  0
VISUALSTYLE
  5
2E
102
{ACAD_REACTORS
330
2A
102
}
330
2A
100
AcDbVisualStyle
  2
GouraudWithEdges
 70
     3
177
     3
291
     1
 70
    58
 90
        2
176
     1
 90
        2
176
     1
 90
        1
176
     1
 90
        2
176
     1
 40
0.6
176
     1
 40
30.0
176
     1
 62
     7
420
 16777215
176
     1
 90
        1
176
     1
 90
        0
176
     1
 62
     7
176
     1
 62
   257
176
     1
 90
        1
176
     1
 90
        1
176
     1
 40
1.0
176
     1
 90
        0
176
     1
 62
   257
176
     1
 40
1.0
176
     1
 90
        1
176
     1
 90
        6
176
     1
 90
        2
176
     1
 62
     7
176
     1
 90
        5
176
     1
 90
        0
176
     1
 90
        0
176
     1
290
     0
176
     1
 90
       13
176
     1
 40
0.0
176
     1
 90
        0
176
     1
290
     0
176
     1
290
     1
176
     1
290
     1
176
     1
290
     0
176
     1
290
     0
176
     1
290
     0
176
     1
290
     0
176
     1
290
     0
176
     1
290
     0
176
     1
 90
       50
176
     1
 40
0.0
176
     1
 40
1.0
176
     1
 90
        0
176
     1
 62
    18
420
        0
176
     1
 90
       50
176
     1
 90
        3
176
     1
 62
     5
420
      255
176
     1
290
     0
176
     1
 90
       50
176
     1
 90
       50
176
     1
 90
       50
176
     1
290
     0
176
     1
 90
       50
176
     1
 62
   256
176
     0
 40
1.0
176
     0
 90
        2
176
     1
  1
strokes_ogs.tif
176
     1
290
     0
176
     1
 40
1.0
176
     1
 40
1.0
176
     1
  0
VISUALSTYLE
  5
31
102
{ACAD_REACTORS
330
2A
102
}
330
2A
100
AcDbVisualStyle
  2
Hidden
 70
     6
177
     3
291
     0
 70
    58
 90
        1
176
     1
 90
        2
176
     1
 90
        2
176
     1
 90
        0
176
     1
 40
0.6
176
     1
 40
30.0
176
     1
 62
     7
420
 16777215
176
     1
 90
        2
176
     1
 90
        2
176
     1
 62
     7
176
     1
 62
   257
176
     1
 90
        2
176
     1
 90
        1
176
     1
 40
40.0
176
     1
 90
        0
176
     1
 62
   257
176
     1
 40
1.0
176
     1
 90
        1
176
     1
 90
        6
176
     1
 90
        2
176
     1
 62
     7
176
     1
 90
        3
176
     1
 90
        0
176
     1
 90
        0
176
     1
290
     0
176
     1
 90
        1
176
     1
 40
0.0
176
     1
 90
        0
176
     1
290
     0
176
     1
290
     1
176
     1
290
     1
176
     1
290
     0
176
     1
290
     0
176
     1
290
     0
176
     1
290
     0
176
     1
290
     0
176
     1
290
     0
176
     1
 90
       50
176
     1
 40
0.0
176
     1
 40
1.0
176
     1
 90
        0
176
     1
 62
    18
420
        0
176
     1
 90
       50
176
     1
 90
        3
176
     1
 62
     5
420
      255
176
     1
290
     0
176
     1
 90
       50
176
     1
 90
       50
176
     1
 90
       50
176
     1
290
     0
176
     1
 90
       50
176
     1
 62
   256
176
     0
 40
1.0
176
     0
 90
        2
176
     1
  1
strokes_ogs.tif
176
     1
290
     0
176
     1
 40
1.0
176
     1
 40
1.0
176
     1
  0
VISUALSTYLE
  5
3B
102
{ACAD_REACTORS
330
2A
102
}
330
2A
100
AcDbVisualStyle
  2
JitterOff
 70
    20
177
     3
291
     1
 70
    58
 90
        2
176
     0
 90
        2
176
     0
 90
        0
176
     0
 90
        0
176
     0
 40
0.6
176
     0
 40
30.0
176
     0
 62
     7
420
 16777215
176
     0
 90
        1
176
     0
 90
        4
176
     0
 62
     7
176
     0
 62
   257
176
     0
 90
        1
176
     0
 90
        1
176
     0
 40
1.0
176
     0
 90
       10
176
     2
 62
     7
176
     0
 40
1.0
176
     0
 90
        1
176
     0
 90
        6
176
     0
 90
        2
176
     0
 62
     7
176
     0
 90
        5
176
     0
 90
        0
176
     0
 90
        0
176
     0
290
     0
176
     0
 90
        1
176
     0
 40
0.0
176
     0
 90
        0
176
     0
290
     0
176
     0
290
     1
176
     0
290
     1
176
     0
290
     0
176
     0
290
     0
176
     0
290
     0
176
     0
290
     0
176
     0
290
     0
176
     0
290
     0
176
     0
 90
       50
176
     0
 40
0.0
176
     0
 40
1.0
176
     0
 90
        0
176
     0
 62
    18
420
        0
176
     0
 90
       50
176
     0
 90
        3
176
     0
 62
     5
420
      255
176
     0
290
     0
176
     0
 90
       50
176
     0
 90
       50
176
     0
 90
       50
176
     0
290
     0
176
     0
 90
       50
176
     0
 62
   256
176
     0
 40
1.0
176
     0
 90
        2
176
     0
  1
strokes_ogs.tif
176
     0
290
     0
176
     0
 40
1.0
176
     0
 40
1.0
176
     0
  0
VISUALSTYLE
  5
38
102
{ACAD_REACTORS
330
2A
102
}
330
2A
100
AcDbVisualStyle
  2
Linepattern
 70
    14
177
     3
291
     1
 70
    58
 90
        2
176
     1
 90
        2
176
     1
 90
        0
176
     1
 90
        0
176
     1
 40
0.6
176
     1
 40
30.0
176
     1
 62
     7
420
 16777215
176
     1
 90
        1
176
     1
 90
        4
176
     1
 62
     7
176
     1
 62
   257
176
     1
 90
        7
176
     1
 90
        7
176
     1
 40
1.0
176
     1
 90
        8
176
     1
 62
     7
176
     1
 40
1.0
176
     1
 90
        1
176
     1
 90
        6
176
     1
 90
        2
176
     1
 62
     7
176
     1
 90
        5
176
     1
 90
        0
176
     1
 90
        0
176
     1
290
     0
176
     1
 90
        1
176
     1
 40
0.0
176
     1
 90
        0
176
     1
290
     0
176
     1
290
     1
176
     1
290
     1
176
     1
290
     0
176
     1
290
     0
176
     1
290
     0
176
     1
290
     0
176
     1
290
     0
176
     1
290
     0
176
     1
 90
       50
176
     1
 40
0.0
176
     1
 40
1.0
176
     1
 90
        0
176
     1
 62
    18
420
        0
176
     1
 90
       50
176
     1
 90
        3
176
     1
 62
     5
420
      255
176
     1
290
     0
176
     1
 90
       50
176
     1
 90
       50
176
     1
 90
       50
176
     1
290
     0
176
     1
 90
       50
176
     1
 62
   256
176
     0
 40
1.0
176
     0
 90
        2
176
     1
  1
strokes_ogs.tif
176
     1
290
     0
176
     1
 40
1.0
176
     1
 40
1.0
176
     1
  0
VISUALSTYLE
  5
3C
102
{ACAD_REACTORS
330
2A
102
}
330
2A
100
AcDbVisualStyle
  2
OverhangOff
 70
    21
177
     3
291
     1
 70
    58
 90
        2
176
     0
 90
        2
176
     0
 90
        0
176
     0
 90
        0
176
     0
 40
0.6
176
     0
 40
30.0
176
     0
 62
     7
420
 16777215
176
     0
 90
        1
176
     0
 90
        4
176
     0
 62
     7
176
     0
 62
   257
176
     0
 90
        1
176
     0
 90
        1
176
     0
 40
1.0
176
     0
 90
        9
176
     2
 62
     7
176
     0
 40
1.0
176
     0
 90
        1
176
     0
 90
        6
176
     0
 90
        2
176
     0
 62
     7
176
     0
 90
        5
176
     0
 90
        0
176
     0
 90
        0
176
     0
290
     0
176
     0
 90
        1
176
     0
 40
0.0
176
     0
 90
        0
176
     0
290
     0
176
     0
290
     1
176
     0
290
     1
176
     0
290
     0
176
     0
290
     0
176
     0
290
     0
176
     0
290
     0
176
     0
290
     0
176
     0
290
     0
176
     0
 90
       50
176
     0
 40
0.0
176
     0
 40
1.0
176
     0
 90
        0
176
     0
 62
    18
420
        0
176
     0
 90
       50
176
     0
 90
        3
176
     0
 62
     5
420
      255
176
     0
290
     0
176
     0
 90
       50
176
     0
 90
       50
176
     0
 90
       50
176
     0
290
     0
176
     0
 90
       50
176
     0
 62
   256
176
     0
 40
1.0
176
     0
 90
        2
176
     0
  1
strokes_ogs.tif
176
     0
290
     0
176
     0
 40
1.0
176
     0
 40
1.0
176
     0
  0
VISUALSTYLE
  5
33
102
{ACAD_REACTORS
330
2A
102
}
330
2A
100
AcDbVisualStyle
  2
Realistic
 70
     8
177
     3
291
     0
 70
    58
 90
        2
176
     1
 90
        3
176
     1
 90
        0
176
     1
 90
        2
176
     1
 40
0.6
176
     1
 40
30.0
176
     1
 62
     7
420
 16777215
176
     1
 90
        0
176
     1
 90
        0
176
     1
 62
     7
176
     1
 62
   257
176
     1
 90
        1
176
     1
 90
        1
176
     1
 40
1.0
176
     1
 90
        8
176
     1
 62
   257
176
     1
 40
1.0
176
     1
 90
        1
176
     1
 90
        6
176
     1
 90
        2
176
     1
 62
     7
176
     1
 90
        3
176
     1
 90
        0
176
     1
 90
        0
176
     1
290
     0
176
     1
 90
       13
176
     1
 40
0.0
176
     1
 90
        0
176
     1
290
     0
176
     1
290
     1
176
     1
290
     1
176
     1
290
     0
176
     1
290
     0
176
     1
290
     0
176
     1
290
     0
176
     1
290
     0
176
     1
290
     0
176
     1
 90
       50
176
     1
 40
0.0
176
     1
 40
1.0
176
     1
 90
        0
176
     1
 62
    18
420
        0
176
     1
 90
       50
176
     1
 90
        3
176
     1
 62
     5
420
      255
176
     1
290
     0
176
     1
 90
       50
176
     1
 90
       50
176
     1
 90
       50
176
     1
290
     0
176
     1
 90
       50
176
     1
 62
   256
176
     0
 40
1.0
176
     0
 90
        2
176
     1
  1
strokes_ogs.tif
176
     1
290
     0
176
     1
 40
1.0
176
     1
 40
1.0
176
     1
  0
VISUALSTYLE
  5
42
102
{ACAD_REACTORS
330
2A
102
}
330
2A
100
AcDbVisualStyle
  2
Shaded
 70
    27
177
     3
291
     0
 70
    58
 90
        2
176
     1
 90
        2
176
     1
 90
        1
176
     1
 90
        2
176
     1
 40
0.6
176
     1
 40
30.0
176
     1
 62
     7
420
 16777215
176
     1
 90
        0
176
     1
 90
        4
176
     1
 62
     7
176
     1
 62
   257
176
     1
 90
        1
176
     1
 90
        1
176
     1
 40
1.0
176
     1
 90
        8
176
     1
 62
   257
176
     1
 40
1.0
176
     1
 90
        1
176
     1
 90
        6
176
     1
 90
        2
176
     1
 62
     8
420
  7895160
176
     1
 90
        3
176
     1
 90
        0
176
     1
 90
        0
176
     1
290
     0
176
     1
 90
        5
176
     1
 40
0.0
176
     1
 90
        0
176
     1
290
     0
176
     1
290
     1
176
     1
290
     1
176
     1
290
     0
176
     1
290
     0
176
     1
290
     0
176
     1
290
     0
176
     1
290
     0
176
     1
290
     0
176
     1
 90
       50
176
     1
 40
0.0
176
     1
 40
1.0
176
     1
 90
        0
176
     1
 62
    18
420
        0
176
     1
 90
       50
176
     1
 90
        3
176
     1
 62
     5
420
      255
176
     1
290
     0
176
     1
 90
       50
176
     1
 90
       50
176
     1
 90
       50
176
     1
290
     0
176
     1
 90
       50
176
     1
 62
   256
176
     0
 40
1.0
176
     0
 90
        2
176
     1
  1
strokes_ogs.tif
176
     1
290
     0
176
     1
 40
1.0
176
     1
 40
1.0
176
     1
  0
VISUALSTYLE
  5
41
102
{ACAD_REACTORS
330
2A
102
}
330
2A
100
AcDbVisualStyle
  2
Shaded with edges
 70
    26
177
     3
291
     0
 70
    58
 90
        2
176
     1
 90
        2
176
     1
 90
        1
176
     1
 90
        2
176
     1
 40
0.6
176
     1
 40
30.0
176
     1
 62
     7
420
 16777215
176
     1
 90
        1
176
     1
 90
       10
176
     1
 62
     7
176
     1
 62
   257
176
     1
 90
        2
176
     1
 90
        1
176
     1
 40
1.0
176
     1
 90
        8
176
     1
 62
   257
176
     1
 40
1.0
176
     1
 90
        1
176
     1
 90
        6
176
     1
 90
        2
176
     1
 62
     7
176
     1
 90
        3
176
     1
 90
        0
176
     1
 90
        0
176
     1
290
     0
176
     1
 90
        5
176
     1
 40
0.0
176
     1
 90
        0
176
     1
290
     0
176
     1
290
     1
176
     1
290
     1
176
     1
290
     0
176
     1
290
     0
176
     1
290
     0
176
     1
290
     0
176
     1
290
     0
176
     1
290
     0
176
     1
 90
       50
176
     1
 40
0.0
176
     1
 40
1.0
176
     1
 90
        0
176
     1
 62
    18
420
        0
176
     1
 90
       50
176
     1
 90
        3
176
     1
 62
     5
420
      255
176
     1
290
     0
176
     1
 90
       50
176
     1
 90
       50
176
     1
 90
       50
176
     1
290
     0
176
     1
 90
       50
176
     1
 62
   256
176
     0
 40
1.0
176
     0
 90
        2
176
     1
  1
strokes_ogs.tif
176
     1
290
     0
176
     1
 40
1.0
176
     1
 40
1.0
176
     1
  0
VISUALSTYLE
  5
3E
102
{ACAD_REACTORS
330
2A
102
}
330
2A
100
AcDbVisualStyle
  2
Shades of Gray
 70
    23
177
     3
291
     0
 70
    58
 90
        2
176
     1
 90
        2
176
     1
 90
        3
176
     1
 90
        0
176
     1
 40
0.6
176
     1
 40
30.0
176
     1
 62
     7
420
 16777215
176
     1
 90
        2
176
     1
 90
        2
176
     1
 62
     7
176
     1
 62
     7
176
     1
 90
        1
176
     1
 90
        1
176
     1
 40
40.0
176
     1
 90
        8
176
     1
 62
     7
176
     1
 40
1.0
176
     1
 90
        1
176
     1
 90
        6
176
     1
 90
        2
176
     1
 62
     7
176
     1
 90
        3
176
     1
 90
        0
176
     1
 90
        0
176
     1
290
     0
176
     1
 90
        1
176
     1
 40
0.0
176
     1
 90
        0
176
     1
290
     0
176
     1
290
     1
176
     1
290
     1
176
     1
290
     0
176
     1
290
     0
176
     1
290
     0
176
     1
290
     0
176
     1
290
     0
176
     1
290
     0
176
     1
 90
       50
176
     1
 40
0.0
176
     1
 40
1.0
176
     1
 90
        0
176
     1
 62
    18
420
        0
176
     1
 90
       50
176
     1
 90
        3
176
     1
 62
     5
420
      255
176
     1
290
     0
176
     1
 90
       50
176
     1
 90
       50
176
     1
 90
       50
176
     1
290
     0
176
     1
 90
       50
176
     1
 62
   256
176
     0
 40
1.0
176
     0
 90
        2
176
     1
  1
strokes_ogs.tif
176
     1
290
     0
176
     1
 40
1.0
176
     1
 40
1.0
176
     1
  0
VISUALSTYLE
  5
3F
102
{ACAD_REACTORS
330
2A
102
}
330
2A
100
AcDbVisualStyle
  2
Sketchy
 70
    24
177
     3
291
     0
 70
    58
 90
        1
176
     1
 90
        2
176
     1
 90
        2
176
     1
 90
        0
176
     1
 40
0.6
176
     1
 40
30.0
176
     1
 62
     7
420
 16777215
176
     1
 90
        2
176
     1
 90
        2
176
     1
 62
     7
176
     1
 62
     7
176
     1
 90
        1
176
     1
 90
        1
176
     1
 40
40.0
176
     1
 90
       11
176
     1
 62
     7
176
     1
 40
1.0
176
     1
 90
        1
176
     1
 90
        6
176
     1
 90
        2
176
     1
 62
     7
176
     1
 90
        6
176
     1
 90
        0
176
     1
 90
        0
176
     1
290
     0
176
     1
 90
        1
176
     1
 40
0.0
176
     1
 90
        0
176
     1
290
     0
176
     1
290
     1
176
     1
290
     1
176
     1
290
     0
176
     1
290
     0
176
     1
290
     0
176
     1
290
     0
176
     1
290
     0
176
     1
290
     0
176
     1
 90
       50
176
     1
 40
0.0
176
     1
 40
1.0
176
     1
 90
        0
176
     1
 62
    18
420
        0
176
     1
 90
       50
176
     1
 90
        3
176
     1
 62
     5
420
      255
176
     1
290
     0
176
     1
 90
       50
176
     1
 90
       50
176
     1
 90
       50
176
     1
290
     0
176
     1
 90
       50
176
     1
 62
   256
176
     0
 40
1.0
176
     0
 90
        2
176
     1
  1
strokes_ogs.tif
176
     1
290
     0
176
     1
 40
1.0
176
     1
 40
1.0
176
     1
  0
VISUALSTYLE
  5
37
102
{ACAD_REACTORS
330
2A
102
}
330
2A
100
AcDbVisualStyle
  2
Thicken
 70
    13
177
     3
291
     1
 70
    58
 90
        2
176
     1
 90
        2
176
     1
 90
        0
176
     1
 90
        0
176
     1
 40
0.6
176
     1
 40
30.0
176
     1
 62
     7
420
 16777215
176
     1
 90
        1
176
     1
 90
        4
176
     1
 62
     7
176
     1
 62
   257
176
     1
 90
        1
176
     1
 90
        1
176
     1
 40
1.0
176
     1
 90
       12
176
     1
 62
     7
176
     1
 40
1.0
176
     1
 90
        1
176
     1
 90
        6
176
     1
 90
        2
176
     1
 62
     7
176
     1
 90
        5
176
     1
 90
        0
176
     1
 90
        0
176
     1
290
     0
176
     1
 90
        1
176
     1
 40
0.0
176
     1
 90
        0
176
     1
290
     0
176
     1
290
     1
176
     1
290
     1
176
     1
290
     0
176
     1
290
     0
176
     1
290
     0
176
     1
290
     0
176
     1
290
     0
176
     1
290
     0
176
     1
 90
       50
176
     1
 40
0.0
176
     1
 40
1.0
176
     1
 90
        0
176
     1
 62
    18
420
        0
176
     1
 90
       50
176
     1
 90
        3
176
     1
 62
     5
420
      255
176
     1
290
     0
176
     1
 90
       50
176
     1
 90
       50
176
     1
 90
       50
176
     1
290
     0
176
     1
 90
       50
176
     1
 62
   256
176
     0
 40
1.0
176
     0
 90
        2
176
     1
  1
strokes_ogs.tif
176
     1
290
     0
176
     1
 40
1.0
176
     1
 40
1.0
176
     1
  0
VISUALSTYLE
  5
30
102
{ACAD_REACTORS
330
2A
102
}
330
2A
100
AcDbVisualStyle
  2
Wireframe
 70
     5
177
     3
291
     0
 70
    58
 90
        0
176
     1
 90
        2
176
     1
 90
        0
176
     1
 90
        0
176
     1
 40
0.6
176
     1
 40
30.0
176
     1
 62
     7
420
 16777215
176
     1
 90
        1
176
     1
 90
        4
176
     1
 62
     7
176
     1
 62
   257
176
     1
 90
        1
176
     1
 90
        1
176
     1
 40
1.0
176
     1
 90
        0
176
     1
 62
   257
176
     1
 40
1.0
176
     1
 90
        1
176
     1
 90
        6
176
     1
 90
        2
176
     1
 62
     7
176
     1
 90
        3
176
     1
 90
        0
176
     1
 90
        0
176
     1
290
     0
176
     1
 90
        1
176
     1
 40
0.0
176
     1
 90
        0
176
     1
290
     0
176
     1
290
     1
176
     1
290
     1
176
     1
290
     0
176
     1
290
     0
176
     1
290
     0
176
     1
290
     0
176
     1
290
     0
176
     1
290
     0
176
     1
 90
       50
176
     1
 40
0.0
176
     1
 40
1.0
176
     1
 90
        0
176
     1
 62
    18
420
        0
176
     1
 90
       50
176
     1
 90
        3
176
     1
 62
     5
420
      255
176
     1
290
     0
176
     1
 90
       50
176
     1
 90
       50
176
     1
 90
       50
176
     1
290
     0
176
     1
 90
       50
176
     1
 62
   256
176
     0
 40
1.0
176
     0
 90
        2
176
     1
  1
strokes_ogs.tif
176
     1
290
     0
176
     1
 40
1.0
176
     1
 40
1.0
176
     1
  0
VISUALSTYLE
  5
40
102
{ACAD_REACTORS
330
2A
102
}
330
2A
100
AcDbVisualStyle
  2
X-Ray
 70
    25
177
     3
291
     0
 70
    58
 90
        2
176
     1
 90
        2
176
     1
 90
        1
176
     1
 90
        1
176
     1
 40
0.5
176
     1
 40
30.0
176
     1
 62
     7
420
 16777215
176
     1
 90
        1
176
     1
 90
        0
176
     1
 62
     7
176
     1
 62
   257
176
     1
 90
        1
176
     1
 90
        1
176
     1
 40
1.0
176
     1
 90
        8
176
     1
 62
     7
176
     1
 40
1.0
176
     1
 90
        1
176
     1
 90
        6
176
     1
 90
        2
176
     1
 62
     7
176
     1
 90
        3
176
     1
 90
        0
176
     1
 90
        0
176
     1
290
     0
176
     1
 90
       13
176
     1
 40
0.0
176
     1
 90
        0
176
     1
290
     0
176
     1
290
     1
176
     1
290
     1
176
     1
290
     0
176
     1
290
     0
176
     1
290
     0
176
     1
290
     0
176
     1
290
     0
176
     1
290
     0
176
     1
 90
       50
176
     1
 40
0.0
176
     1
 40
1.0
176
     1
 90
        0
176
     1
 62
    18
420
        0
176
     1
 90
       50
176
     1
 90
        3
176
     1
 62
     5
420
      255
176
     1
290
     0
176
     1
 90
       50
176
     1
 90
       50
176
     1
 90
       50
176
     1
290
     0
176
     1
 90
       50
176
     1
 62
   256
176
     0
 40
1.0
176
     0
 90
        2
176
     1
  1
strokes_ogs.tif
176
     1
290
     0
176
     1
 40
1.0
176
     1
 40
1.0
176
     1
  0
DICTIONARYVAR
  5
187
102
{ACAD_REACTORS
330
186
102
}
330
186
100
DictionaryVariables
280
     0
  1
1:1
  0
DICTIONARYVAR
  5
18C
102
{ACAD_REACTORS
330
186
102
}
330
186
100
DictionaryVariables
280
     0
  1
Standard
  0
DICTIONARYVAR
  5
18B
102
{ACAD_REACTORS
330
186
102
}
330
186
100
DictionaryVariables
280
     0
  1
Standard
  0
DICTIONARY
  5
188
330
6A
100
AcDbDictionary
280
     1
281
     1
  3
ACAD_ROUNDTRIP_2008_TABLESTYLE_CELLSTYLEMAP
360
189
  0
CELLSTYLEMAP
  5
189
102
{ACAD_REACTORS
330
188
102
}
330
188
100
AcDbCellStyleMap
 90
        3
300
CELLSTYLE
  1
TABLEFORMAT_BEGIN
 90
        5
170
     1
 91
        0
 92
    32768
 62
   257
 93
        1
300
CONTENTFORMAT
  1
CONTENTFORMAT_BEGIN
 90
        0
 91
        0
 92
        4
 93
        0
300

 40
0.0
140
1.0
 94
        5
 62
     0
340
11
144
6.0
309
CONTENTFORMAT_END
171
     1
301
MARGIN
  1
CELLMARGIN_BEGIN
 40
1.5
 40
1.5
 40
1.5
 40
1.5
 40
1.5
 40
1.5
309
CELLMARGIN_END
 94
        6
 95
        1
302
GRIDFORMAT
  1
GRIDFORMAT_BEGIN
 90
        0
 91
        1
 62
     0
 92
       -2
340
14
 93
        0
 40
0.045
309
GRIDFORMAT_END
 95
        2
302
GRIDFORMAT
  1
GRIDFORMAT_BEGIN
 90
        0
 91
        1
 62
     0
 92
       -2
340
14
 93
        0
 40
0.045
309
GRIDFORMAT_END
 95
        4
302
GRIDFORMAT
  1
GRIDFORMAT_BEGIN
 90
        0
 91
        1
 62
     0
 92
       -2
340
14
 93
        0
 40
0.045
309
GRIDFORMAT_END
 95
        8
302
GRIDFORMAT
  1
GRIDFORMAT_BEGIN
 90
        0
 91
        1
 62
     0
 92
       -2
340
14
 93
        0
 40
0.045
309
GRIDFORMAT_END
 95
       16
302
GRIDFORMAT
  1
GRIDFORMAT_BEGIN
 90
        0
 91
        1
 62
     0
 92
       -2
340
14
 93
        0
 40
0.045
309
GRIDFORMAT_END
 95
       32
302
GRIDFORMAT
  1
GRIDFORMAT_BEGIN
 90
        0
 91
        1
 62
     0
 92
       -2
340
14
 93
        0
 40
0.045
309
GRIDFORMAT_END
309
TABLEFORMAT_END
  1
CELLSTYLE_BEGIN
 90
        1
 91
        1
300
_TITLE
309
CELLSTYLE_END
300
CELLSTYLE
  1
TABLEFORMAT_BEGIN
 90
        5
170
     1
 91
        0
 92
        0
 62
   257
 93
        1
300
CONTENTFORMAT
  1
CONTENTFORMAT_BEGIN
 90
        0
 91
        0
 92
        4
 93
        0
300

 40
0.0
140
1.0
 94
        5
 62
     0
340
11
144
4.5
309
CONTENTFORMAT_END
171
     1
301
MARGIN
  1
CELLMARGIN_BEGIN
 40
1.5
 40
1.5
 40
1.5
 40
1.5
 40
1.5
 40
1.5
309
CELLMARGIN_END
 94
        6
 95
        1
302
GRIDFORMAT
  1
GRIDFORMAT_BEGIN
 90
        0
 91
        1
 62
     0
 92
       -2
340
14
 93
        0
 40
0.045
309
GRIDFORMAT_END
 95
        2
302
GRIDFORMAT
  1
GRIDFORMAT_BEGIN
 90
        0
 91
        1
 62
     0
 92
       -2
340
14
 93
        0
 40
0.045
309
GRIDFORMAT_END
 95
        4
302
GRIDFORMAT
  1
GRIDFORMAT_BEGIN
 90
        0
 91
        1
 62
     0
 92
       -2
340
14
 93
        0
 40
0.045
309
GRIDFORMAT_END
 95
        8
302
GRIDFORMAT
  1
GRIDFORMAT_BEGIN
 90
        0
 91
        1
 62
     0
 92
       -2
340
14
 93
        0
 40
0.045
309
GRIDFORMAT_END
 95
       16
302
GRIDFORMAT
  1
GRIDFORMAT_BEGIN
 90
        0
 91
        1
 62
     0
 92
       -2
340
14
 93
        0
 40
0.045
309
GRIDFORMAT_END
 95
       32
302
GRIDFORMAT
  1
GRIDFORMAT_BEGIN
 90
        0
 91
        1
 62
     0
 92
       -2
340
14
 93
        0
 40
0.045
309
GRIDFORMAT_END
309
TABLEFORMAT_END
  1
CELLSTYLE_BEGIN
 90
        2
 91
        1
300
_HEADER
309
CELLSTYLE_END
300
CELLSTYLE
  1
TABLEFORMAT_BEGIN
 90
        5
170
     1
 91
        0
 92
        0
 62
   257
 93
        1
300
CONTENTFORMAT
  1
CONTENTFORMAT_BEGIN
 90
        0
 91
        0
 92
        4
 93
        0
300

 40
0.0
140
1.0
 94
        2
 62
     0
340
11
144
4.5
309
CONTENTFORMAT_END
171
     1
301
MARGIN
  1
CELLMARGIN_BEGIN
 40
1.5
 40
1.5
 40
1.5
 40
1.5
 40
1.5
 40
1.5
309
CELLMARGIN_END
 94
        6
 95
        1
302
GRIDFORMAT
  1
GRIDFORMAT_BEGIN
 90
        0
 91
        1
 62
     0
 92
       -2
340
14
 93
        0
 40
0.045
309
GRIDFORMAT_END
 95
        2
302
GRIDFORMAT
  1
GRIDFORMAT_BEGIN
 90
        0
 91
        1
 62
     0
 92
       -2
340
14
 93
        0
 40
0.045
309
GRIDFORMAT_END
 95
        4
302
GRIDFORMAT
  1
GRIDFORMAT_BEGIN
 90
        0
 91
        1
 62
     0
 92
       -2
340
14
 93
        0
 40
0.045
309
GRIDFORMAT_END
 95
        8
302
GRIDFORMAT
  1
GRIDFORMAT_BEGIN
 90
        0
 91
        1
 62
     0
 92
       -2
340
14
 93
        0
 40
0.045
309
GRIDFORMAT_END
 95
       16
302
GRIDFORMAT
  1
GRIDFORMAT_BEGIN
 90
        0
 91
        1
 62
     0
 92
       -2
340
14
 93
        0
 40
0.045
309
GRIDFORMAT_END
 95
       32
302
GRIDFORMAT
  1
GRIDFORMAT_BEGIN
 90
        0
 91
        1
 62
     0
 92
       -2
340
14
 93
        0
 40
0.045
309
GRIDFORMAT_END
309
TABLEFORMAT_END
  1
CELLSTYLE_BEGIN
 90
        3
 91
        2
300
_DATA
309
CELLSTYLE_END
  0
ENDSEC
  0
EOF