0
SECTION
  2
HEADER
  9
$ACADVER
  1
AC1027
  9
$ACADMAINTVER
 70
     8
  9
$DWGCODEPAGE
  3
ANSI_1252
  9
$REQUIREDVERSIONS
160
                 0
  9
$COMMENTS
  1
File was created by Cadenas
  9
$CUSTOMPROPERTYTAG
  1
NN
  9
$CUSTOMPROPERTY
  1
Set Screw Two-Bolt Pillow Block Metric Bore
  9
$CUSTOMPROPERTYTAG
  1
NT
  9
$CUSTOMPROPERTY
  1
SC Pillow Block Bearings -(Normal Duty)
  9
$CUSTOMPROPERTYTAG
  1
NB
  9
$CUSTOMPROPERTY
  1
125851
  9
$CUSTOMPROPERTYTAG
  1
NBSYN
  9
$CUSTOMPROPERTY
  1
$PN.
  9
$CUSTOMPROPERTYTAG
  1
LINA
  9
$CUSTOMPROPERTY
  1
125851
  9
$CUSTOMPROPERTYTAG
  1
SERIES
  9
$CUSTOMPROPERTY
  1
204
  9
$CUSTOMPROPERTYTAG
  1
SS
  9
$CUSTOMPROPERTY
  1
20
  9
$CUSTOMPROPERTYTAG
  1
PN
  9
$CUSTOMPROPERTY
  1
125851
  9
$CUSTOMPROPERTYTAG
  1
DESCRIPTION
  9
$CUSTOMPROPERTY
  1
P2B-SC-20M
  9
$CUSTOMPROPERTYTAG
  1
WEIGHT
  9
$CUSTOMPROPERTY
  1
0.7
  9
$CUSTOMPROPERTYTAG
  1
LF
  9
$CUSTOMPROPERTY
  1
RE-LUBE
  9
$CUSTOMPROPERTYTAG
  1
A
  9
$CUSTOMPROPERTY
  1
31.2
  9
$CUSTOMPROPERTYTAG
  1
B
  9
$CUSTOMPROPERTY
  1
133.4
  9
$CUSTOMPROPERTYTAG
  1
C
  9
$CUSTOMPROPERTY
  1
34.0
  9
$CUSTOMPROPERTYTAG
  1
DMIN
  9
$CUSTOMPROPERTY
  1
85.9
  9
$CUSTOMPROPERTYTAG
  1
DMAX
  9
$CUSTOMPROPERTY
  1
106.4
  9
$CUSTOMPROPERTYTAG
  1
F
  9
$CUSTOMPROPERTY
  1
M10
  9
$CUSTOMPROPERTYTAG
  1
G
  9
$CUSTOMPROPERTY
  1
21.6
  9
$CUSTOMPROPERTYTAG
  1
H
  9
$CUSTOMPROPERTY
  1
13.5
  9
$CUSTOMPROPERTYTAG
  1
J
  9
$CUSTOMPROPERTY
  1
65.0
  9
$CUSTOMPROPERTYTAG
  1
L
  9
$CUSTOMPROPERTY
  1
28.4
  9
$CUSTOMPROPERTYTAG
  1
M
  9
$CUSTOMPROPERTY
  1
33.3
  9
$CUSTOMPROPERTYTAG
  1
R
  9
$CUSTOMPROPERTY
  1
12.7
  9
$CUSTOMPROPERTYTAG
  1
S
  9
$CUSTOMPROPERTY
  1
18.5
  9
$CUSTOMPROPERTYTAG
  1
U
  9
$CUSTOMPROPERTY
  1
57.2
  9
$CUSTOMPROPERTYTAG
  1
V
  9
$CUSTOMPROPERTY
  1
114.3
  9
$CUSTOMPROPERTYTAG
  1
W
  9
$CUSTOMPROPERTY
  1
12.7
  9
$CUSTOMPROPERTYTAG
  1
X
  9
$CUSTOMPROPERTY
  1
3.0
  9
$CUSTOMPROPERTYTAG
  1
COMPANY
  9
$CUSTOMPROPERTY
  1
baldor
  9
$INSBASE
 10
0.0
 20
0.0
 30
0.0
  9
$EXTMIN
 10
1.000000000000000E+20
 20
1.000000000000000E+20
 30
1.000000000000000E+20
  9
$EXTMAX
 10
-1.000000000000000E+20
 20
-1.000000000000000E+20
 30
-1.000000000000000E+20
  9
$LIMMIN
 10
0.0
 20
0.0
  9
$LIMMAX
 10
420.0
 20
297.0
  9
$ORTHOMODE
 70
     0
  9
$REGENMODE
 70
     1
  9
$FILLMODE
 70
     1
  9
$QTEXTMODE
 70
     0
  9
$MIRRTEXT
 70
     1
  9
$LTSCALE
 40
1.0
  9
$ATTMODE
 70
     1
  9
$TEXTSIZE
 40
2.5
  9
$TRACEWID
 40
1.0
  9
$TEXTSTYLE
  7
Standard
  9
$CLAYER
  8
0
  9
$CELTYPE
  6
ByLayer
  9
$CECOLOR
 62
   256
  9
$CELTSCALE
 40
1.0
  9
$DISPSILH
 70
     0
  9
$DIMSCALE
 40
1.0
  9
$DIMASZ
 40
2.5
  9
$DIMEXO
 40
0.625
  9
$DIMDLI
 40
3.75
  9
$DIMRND
 40
0.0
  9
$DIMDLE
 40
0.0
  9
$DIMEXE
 40
1.25
  9
$DIMTP
 40
0.0
  9
$DIMTM
 40
0.0
  9
$DIMTXT
 40
2.5
  9
$DIMCEN
 40
2.5
  9
$DIMTSZ
 40
0.0
  9
$DIMTOL
 70
     0
  9
$DIMLIM
 70
     0
  9
$DIMTIH
 70
     0
  9
$DIMTOH
 70
     0
  9
$DIMSE1
 70
     0
  9
$DIMSE2
 70
     0
  9
$DIMTAD
 70
     1
  9
$DIMZIN
 70
     8
  9
$DIMBLK
  1

  9
$DIMASO
 70
     1
  9
$DIMSHO
 70
     1
  9
$DIMPOST
  1

  9
$DIMAPOST
  1

  9
$DIMALT
 70
     0
  9
$DIMALTD
 70
     3
  9
$DIMALTF
 40
0.03937007874016
  9
$DIMLFAC
 40
1.0
  9
$DIMTOFL
 70
     1
  9
$DIMTVP
 40
0.0
  9
$DIMTIX
 70
     0
  9
$DIMSOXD
 70
     0
  9
$DIMSAH
 70
     0
  9
$DIMBLK1
  1

  9
$DIMBLK2
  1

  9
$DIMSTYLE
  2
ISO-25
  9
$DIMCLRD
 70
     0
  9
$DIMCLRE
 70
     0
  9
$DIMCLRT
 70
     0
  9
$DIMTFAC
 40
1.0
  9
$DIMGAP
 40
0.625
  9
$DIMJUST
 70
     0
  9
$DIMSD1
 70
     0
  9
$DIMSD2
 70
     0
  9
$DIMTOLJ
 70
     0
  9
$DIMTZIN
 70
     8
  9
$DIMALTZ
 70
     0
  9
$DIMALTTZ
 70
     0
  9
$DIMUPT
 70
     0
  9
$DIMDEC
 70
     2
  9
$DIMTDEC
 70
     2
  9
$DIMALTU
 70
     2
  9
$DIMALTTD
 70
     3
  9
$DIMTXSTY
  7
Standard
  9
$DIMAUNIT
 70
     0
  9
$DIMADEC
 70
     0
  9
$DIMALTRND
 40
0.0
  9
$DIMAZIN
 70
     0
  9
$DIMDSEP
 70
    44
  9
$DIMATFIT
 70
     3
  9
$DIMFRAC
 70
     0
  9
$DIMLDRBLK
  1

  9
$DIMLUNIT
 70
     2
  9
$DIMLWD
 70
    -2
  9
$DIMLWE
 70
    -2
  9
$DIMTMOVE
 70
     0
  9
$DIMFXL
 40
1.0
  9
$DIMFXLON
 70
     0
  9
$DIMJOGANG
 40
0.7853981633974483
  9
$DIMTFILL
 70
     0
  9
$DIMTFILLCLR
 70
     0
  9
$DIMARCSYM
 70
     0
  9
$DIMLTYPE
  6

  9
$DIMLTEX1
  6

  9
$DIMLTEX2
  6

  9
$DIMTXTDIRECTION
 70
     0
  9
$LUNITS
 70
     2
  9
$LUPREC
 70
     4
  9
$SKETCHINC
 40
1.0
  9
$FILLETRAD
 40
10.0
  9
$AUNITS
 70
     0
  9
$AUPREC
 70
     0
  9
$MENU
  1
.
  9
$ELEVATION
 40
0.0
  9
$PELEVATION
 40
0.0
  9
$THICKNESS
 40
0.0
  9
$LIMCHECK
 70
     0
  9
$CHAMFERA
 40
0.0
  9
$CHAMFERB
 40
0.0
  9
$CHAMFERC
 40
0.0
  9
$CHAMFERD
 40
0.0
  9
$SKPOLY
 70
     0
  9
$TDCREATE
 40
2458168.98703779
  9
$TDUCREATE
 40
2458168.945371123
  9
$TDUPDATE
 40
2458168.987037974
  9
$TDUUPDATE
 40
2458168.945371308
  9
$TDINDWG
 40
0.0000000116
  9
$TDUSRTIMER
 40
0.0000000116
  9
$USRTIMER
 70
     1
  9
$ANGBASE
 50
0.0
  9
$ANGDIR
 70
     0
  9
$PDMODE
 70
     0
  9
$PDSIZE
 40
0.0
  9
$PLINEWID
 40
0.0
  9
$SPLFRAME
 70
     0
  9
$SPLINETYPE
 70
     6
  9
$SPLINESEGS
 70
     8
  9
$HANDSEED
  5
1EF
  9
$SURFTAB1
 70
     6
  9
$SURFTAB2
 70
     6
  9
$SURFTYPE
 70
     6
  9
$SURFU
 70
     6
  9
$SURFV
 70
     6
  9
$UCSBASE
  2

  9
$UCSNAME
  2

  9
$UCSORG
 10
0.0
 20
0.0
 30
0.0
  9
$UCSXDIR
 10
1.0
 20
0.0
 30
0.0
  9
$UCSYDIR
 10
0.0
 20
1.0
 30
0.0
  9
$UCSORTHOREF
  2

  9
$UCSORTHOVIEW
 70
     0
  9
$UCSORGTOP
 10
0.0
 20
0.0
 30
0.0
  9
$UCSORGBOTTOM
 10
0.0
 20
0.0
 30
0.0
  9
$UCSORGLEFT
 10
0.0
 20
0.0
 30
0.0
  9
$UCSORGRIGHT
 10
0.0
 20
0.0
 30
0.0
  9
$UCSORGFRONT
 10
0.0
 20
0.0
 30
0.0
  9
$UCSORGBACK
 10
0.0
 20
0.0
 30
0.0
  9
$PUCSBASE
  2

  9
$PUCSNAME
  2

  9
$PUCSORG
 10
0.0
 20
0.0
 30
0.0
  9
$PUCSXDIR
 10
1.0
 20
0.0
 30
0.0
  9
$PUCSYDIR
 10
0.0
 20
1.0
 30
0.0
  9
$PUCSORTHOREF
  2

  9
$PUCSORTHOVIEW
 70
     0
  9
$PUCSORGTOP
 10
0.0
 20
0.0
 30
0.0
  9
$PUCSORGBOTTOM
 10
0.0
 20
0.0
 30
0.0
  9
$PUCSORGLEFT
 10
0.0
 20
0.0
 30
0.0
  9
$PUCSORGRIGHT
 10
0.0
 20
0.0
 30
0.0
  9
$PUCSORGFRONT
 10
0.0
 20
0.0
 30
0.0
  9
$PUCSORGBACK
 10
0.0
 20
0.0
 30
0.0
  9
$USERI1
 70
     0
  9
$USERI2
 70
     0
  9
$USERI3
 70
     0
  9
$USERI4
 70
     0
  9
$USERI5
 70
     0
  9
$USERR1
 40
0.0
  9
$USERR2
 40
0.0
  9
$USERR3
 40
0.0
  9
$USERR4
 40
0.0
  9
$USERR5
 40
0.0
  9
$WORLDVIEW
 70
     1
  9
$SHADEDGE
 70
     3
  9
$SHADEDIF
 70
    70
  9
$TILEMODE
 70
     1
  9
$MAXACTVP
 70
    64
  9
$PINSBASE
 10
0.0
 20
0.0
 30
0.0
  9
$PLIMCHECK
 70
     0
  9
$PEXTMIN
 10
1.000000000000000E+20
 20
1.000000000000000E+20
 30
1.000000000000000E+20
  9
$PEXTMAX
 10
-1.000000000000000E+20
 20
-1.000000000000000E+20
 30
-1.000000000000000E+20
  9
$PLIMMIN
 10
0.0
 20
0.0
  9
$PLIMMAX
 10
420.0
 20
297.0
  9
$UNITMODE
 70
     0
  9
$VISRETAIN
 70
     1
  9
$PLINEGEN
 70
     0
  9
$PSLTSCALE
 70
     1
  9
$TREEDEPTH
 70
  3020
  9
$CMLSTYLE
  2
Standard
  9
$CMLJUST
 70
     0
  9
$CMLSCALE
 40
20.0
  9
$PROXYGRAPHICS
 70
     1
  9
$MEASUREMENT
 70
     1
  9
$CELWEIGHT
370
    -1
  9
$ENDCAPS
280
     0
  9
$JOINSTYLE
280
     0
  9
$LWDISPLAY
290
     0
  9
$INSUNITS
 70
     4
  9
$HYPERLINKBASE
  1

  9
$STYLESHEET
  1

  9
$XEDIT
290
     1
  9
$CEPSNTYPE
380
     0
  9
$PSTYLEMODE
290
     1
  9
$FINGERPRINTGUID
  2
{EA0626A5-BBA9-492D-93C3-2BAAF2CC7BE4}
  9
$VERSIONGUID
  2
{FAEB1C32-E019-11D5-929B-00C0DF256EC4}
  9
$EXTNAMES
290
     1
  9
$PSVPSCALE
 40
0.0
  9
$OLESTARTUP
290
     0
  9
$SORTENTS
280
   127
  9
$INDEXCTL
280
     0
  9
$HIDETEXT
280
     1
  9
$XCLIPFRAME
280
     2
  9
$HALOGAP
280
     0
  9
$OBSCOLOR
 70
   257
  9
$OBSLTYPE
280
     0
  9
$INTERSECTIONDISPLAY
280
     0
  9
$INTERSECTIONCOLOR
 70
   257
  9
$DIMASSOC
280
     2
  9
$PROJECTNAME
  1

  9
$CAMERADISPLAY
290
     0
  9
$LENSLENGTH
 40
50.0
  9
$CAMERAHEIGHT
 40
0.0
  9
$STEPSPERSEC
 40
2.0
  9
$STEPSIZE
 40
6.0
  9
$3DDWFPREC
 40
2.0
  9
$PSOLWIDTH
 40
5.0
  9
$PSOLHEIGHT
 40
80.0
  9
$LOFTANG1
 40
1.570796326794897
  9
$LOFTANG2
 40
1.570796326794897
  9
$LOFTMAG1
 40
0.0
  9
$LOFTMAG2
 40
0.0
  9
$LOFTPARAM
 70
     7
  9
$LOFTNORMALS
280
     1
  9
$LATITUDE
 40
37.795
  9
$LONGITUDE
 40
-122.394
  9
$NORTHDIRECTION
 40
0.0
  9
$TIMEZONE
 70
 -8000
  9
$LIGHTGLYPHDISPLAY
280
     1
  9
$TILEMODELIGHTSYNCH
280
     1
  9
$CMATERIAL
347
44
  9
$SOLIDHIST
280
     0
  9
$SHOWHIST
280
     1
  9
$DWFFRAME
280
     2
  9
$DGNFRAME
280
     2
  9
$REALWORLDSCALE
290
     1
  9
$INTERFERECOLOR
 62
   256
  9
$CSHADOW
280
     0
  9
$SHADOWPLANELOCATION
 40
0.0
  0
ENDSEC
  0
SECTION
  2
CLASSES
  0
CLASS
  1
ACDBDICTIONARYWDFLT
  2
AcDbDictionaryWithDefault
  3
ObjectDBX Classes
 90
        0
 91
        4
280
     0
281
     0
  0
CLASS
  1
VISUALSTYLE
  2
AcDbVisualStyle
  3
ObjectDBX Classes
 90
     4095
 91
        4
280
     0
281
     0
  0
CLASS
  1
MATERIAL
  2
AcDbMaterial
  3
ObjectDBX Classes
 90
     1153
 91
        4
280
     0
281
     0
  0
CLASS
  1
SCALE
  2
AcDbScale
  3
ObjectDBX Classes
 90
     1153
 91
        4
280
     0
281
     0
  0
CLASS
  1
TABLESTYLE
  2
AcDbTableStyle
  3
ObjectDBX Classes
 90
     4095
 91
        4
280
     0
281
     0
  0
CLASS
  1
MLEADERSTYLE
  2
AcDbMLeaderStyle
  3
ACDB_MLEADERSTYLE_CLASS
 90
     4095
 91
        4
280
     0
281
     0
  0
CLASS
  1
SUN
  2
AcDbSun
  3
SCENEOE
 90
     1153
 91
        4
280
     0
281
     0
  0
CLASS
  1
DICTIONARYVAR
  2
AcDbDictionaryVar
  3
ObjectDBX Classes
 90
        0
 91
        4
280
     0
281
     0
  0
CLASS
  1
CELLSTYLEMAP
  2
AcDbCellStyleMap
  3
ObjectDBX Classes
 90
     1152
 91
        4
280
     0
281
     0
  0
ENDSEC
  0
SECTION
  2
TABLES
  0
TABLE
  2
VPORT
  5
8
330
0
100
AcDbSymbolTable
 70
     1
  0
VPORT
  5
29
330
8
100
AcDbSymbolTableRecord
100
AcDbViewportTableRecord
  2
*Active
 70
     0
 10
0.0
 20
0.0
 11
1.0
 21
1.0
 12
0.0
 22
-0.6800000000000068
 13
0.0
 23
0.0
 14
10.0
 24
10.0
 15
10.0
 25
10.0
 16
0.0
 26
0.0
 36
1.0
 17
0.0
 27
0.0
 37
0.0
 40
39.53519999999999
 41
3.441692466460269
 42
50.0
 43
0.0
 44
0.0
 50
0.0
 51
0.0
 71
     0
 72
   100
 73
     1
 74
     3
 75
     0
 76
     0
 77
     0
 78
     0
281
     0
 65
     1
110
0.0
120
0.0
130
0.0
111
1.0
121
0.0
131
0.0
112
0.0
122
1.0
132
0.0
 79
     0
146
0.0
348
2F
 60
     3
 61
     5
292
     1
282
     1
141
0.0
142
0.0
 63
   250
361
6D
  0
ENDTAB
  0
TABLE
  2
LTYPE
  5
5
330
0
100
AcDbSymbolTable
 70
     3
  0
LTYPE
  5
14
330
5
100
AcDbSymbolTableRecord
100
AcDbLinetypeTableRecord
  2
ByBlock
 70
     0
  3

 72
    65
 73
     0
 40
0.0
  0
LTYPE
  5
15
330
5
100
AcDbSymbolTableRecord
100
AcDbLinetypeTableRecord
  2
ByLayer
 70
     0
  3

 72
    65
 73
     0
 40
0.0
  0
LTYPE
  5
16
330
5
100
AcDbSymbolTableRecord
100
AcDbLinetypeTableRecord
  2
Continuous
 70
     0
  3
Solid line
 72
    65
 73
     0
 40
0.0
  0
LTYPE
  5
9C
330
5
100
AcDbSymbolTableRecord
100
AcDbLinetypeTableRecord
  2
Dashed
 70
     0
  3

 72
    65
 73
     2
 40
2.0
 49
1.0
 74
     0
 49
-1.0
 74
     0
  0
LTYPE
  5
11A
330
5
100
AcDbSymbolTableRecord
100
AcDbLinetypeTableRecord
  2
Center
 70
     0
  3

 72
    65
 73
     4
 40
1.5
 49
0.45
 74
     0
 49
-0.5
 74
     0
 49
0.05
 74
     0
 49
-0.5
 74
     0
  0
ENDTAB
  0
TABLE
  2
LAYER
  5
2
330
0
100
AcDbSymbolTable
 70
     7
  0
LAYER
  5
10
330
2
100
AcDbSymbolTableRecord
100
AcDbLayerTableRecord
  2
0
 70
     0
 62
     7
  6
Continuous
370
    -3
390
F
347
46
348
0
  0
LAYER
  5
72
330
2
100
AcDbSymbolTableRecord
100
AcDbLayerTableRecord
  2
AM_6
 70
     0
 62
    -2
  6
Continuous
370
    35
390
F
347
46
348
0
  0
LAYER
  5
9D
330
2
100
AcDbSymbolTableRecord
100
AcDbLayerTableRecord
  2
AM_9
 70
     0
 62
     6
  6
Dashed
370
    25
390
F
347
46
348
0
  0
LAYER
  5
BA
330
2
100
AcDbSymbolTableRecord
100
AcDbLayerTableRecord
  2
AM_4
 70
     0
 62
     7
  6
Continuous
370
    50
390
F
347
46
348
0
  0
LAYER
  5
11B
330
2
100
AcDbSymbolTableRecord
100
AcDbLayerTableRecord
  2
AM_7
 70
     0
 62
     7
  6
Center
370
    25
390
F
347
46
348
0
  0
LAYER
  5
131
330
2
100
AcDbSymbolTableRecord
100
AcDbLayerTableRecord
  2
AM_5
 70
     0
 62
     3
  6
Continuous
370
    25
390
F
347
46
348
0
  0
LAYER
  5
1E2
330
2
100
AcDbSymbolTableRecord
100
AcDbLayerTableRecord
  2
ConnectionPoints
 70
     0
 62
     7
  6
Continuous
370
    50
390
F
347
46
348
0
  0
ENDTAB
  0
TABLE
  2
STYLE
  5
3
330
0
100
AcDbSymbolTable
 70
     1
  0
STYLE
  5
11
330
3
100
AcDbSymbolTableRecord
100
AcDbTextStyleTableRecord
  2
Standard
 70
     0
 40
0.0
 41
1.0
 50
0.0
 71
     0
 42
2.5
  3
txt
  4

  0
ENDTAB
  0
TABLE
  2
VIEW
  5
6
330
0
100
AcDbSymbolTable
 70
     0
  0
ENDTAB
  0
TABLE
  2
UCS
  5
7
330
0
100
AcDbSymbolTable
 70
     0
  0
ENDTAB
  0
TABLE
  2
APPID
  5
9
330
0
100
AcDbSymbolTable
 70
     1
  0
APPID
  5
12
330
9
100
AcDbSymbolTableRecord
100
AcDbRegAppTableRecord
  2
ACAD
 70
     0
  0
ENDTAB
  0
TABLE
  2
DIMSTYLE
  5
A
330
0
100
AcDbSymbolTable
 70
     1
100
AcDbDimStyleTable
  0
DIMSTYLE
105
27
330
A
100
AcDbSymbolTableRecord
100
AcDbDimStyleTableRecord
  2
ISO-25
 70
     0
 41
2.5
 42
0.625
 43
3.75
 44
1.25
 73
     0
 74
     0
 77
     1
 78
     8
140
2.5
141
2.5
143
0.03937007874016
147
0.625
171
     3
172
     1
178
     0
271
     2
272
     2
274
     3
278
    44
283
     0
284
     8
340
11
  0
ENDTAB
  0
TABLE
  2
BLOCK_RECORD
  5
1
330
0
100
AcDbSymbolTable
 70
     5
  0
BLOCK_RECORD
  5
1F
330
1
100
AcDbSymbolTableRecord
100
AcDbBlockTableRecord
  2
*Model_Space
340
22
 70
     0
280
     1
281
     0
  0
BLOCK_RECORD
  5
1B
330
1
100
AcDbSymbolTableRecord
100
AcDbBlockTableRecord
  2
*Paper_Space
340
1E
 70
     0
280
     1
281
     0
  0
BLOCK_RECORD
  5
23
330
1
100
AcDbSymbolTableRecord
100
AcDbBlockTableRecord
  2
*Paper_Space0
340
26
 70
     0
280
     1
281
     0
  0
BLOCK_RECORD
  5
6E
330
1
100
AcDbSymbolTableRecord
100
AcDbBlockTableRecord
  2
1_125851_4
340
0
102
{BLKREFS
331
6F
102
}
 70
     0
280
     1
281
     0
  0
BLOCK_RECORD
  5
90
330
1
100
AcDbSymbolTableRecord
100
AcDbBlockTableRecord
  2
2_405015E_Metric_0_in_125851_4
340
0
102
{BLKREFS
331
91
102
}
 70
     0
280
     1
281
     0
  0
BLOCK_RECORD
  5
D8
330
1
100
AcDbSymbolTableRecord
100
AcDbBlockTableRecord
  2
3_125802_0_in_125851_4
340
0
102
{BLKREFS
331
D9
102
}
 70
     0
280
     1
281
     0
  0
BLOCK_RECORD
  5
134
330
1
100
AcDbSymbolTableRecord
100
AcDbBlockTableRecord
  2
4_125851H_0_in_125851_4
340
0
102
{BLKREFS
331
135
102
}
 70
     0
280
     1
281
     0
  0
ENDTAB
  0
ENDSEC
  0
SECTION
  2
BLOCKS
  0
BLOCK
  5
20
330
1F
100
AcDbEntity
  8
0
100
AcDbBlockBegin
  2
*Model_Space
 70
     0
 10
0.0
 20
0.0
 30
0.0
  3
*Model_Space
  1

  0
ENDBLK
  5
21
330
1F
100
AcDbEntity
  8
0
100
AcDbBlockEnd
  0
BLOCK
  5
1C
330
1B
100
AcDbEntity
 67
     1
  8
0
100
AcDbBlockBegin
  2
*Paper_Space
 70
     0
 10
0.0
 20
0.0
 30
0.0
  3
*Paper_Space
  1

  0
ENDBLK
  5
1D
330
1B
100
AcDbEntity
 67
     1
  8
0
100
AcDbBlockEnd
  0
BLOCK
  5
24
330
23
100
AcDbEntity
  8
0
100
AcDbBlockBegin
  2
*Paper_Space0
 70
     0
 10
0.0
 20
0.0
 30
0.0
  3
*Paper_Space0
  1

  0
ENDBLK
  5
25
330
23
100
AcDbEntity
  8
0
100
AcDbBlockEnd
  0
BLOCK
  5
70
330
6E
100
AcDbEntity
  8
0
100
AcDbBlockBegin
  2
1_125851_4
 70
     2
 10
0.0
 20
0.0
 30
0.0
  3
1_125851_4
  1

  0
ATTDEF
  5
73
330
6E
100
AcDbEntity
  8
AM_6
100
AcDbText
 10
71.7
 20
18.7
 30
0.0
 40
0.5
  1
Set Screw Two-Bolt Pillow Block Metric Bore
100
AcDbAttributeDefinition
  3

  2
NN
 70
     8
280
     0
  0
ATTDEF
  5
74
330
6E
100
AcDbEntity
  8
AM_6
100
AcDbText
 10
71.7
 20
18.2
 30
0.0
 40
0.5
  1
SC Pillow Block Bearings -(Normal Duty)
100
AcDbAttributeDefinition
  3

  2
NT
 70
     8
280
     0
  0
ATTDEF
  5
75
330
6E
100
AcDbEntity
  8
AM_6
100
AcDbText
 10
71.7
 20
17.7
 30
0.0
 40
0.5
  1
125851
100
AcDbAttributeDefinition
  3

  2
NB
 70
     8
280
     0
  0
ATTDEF
  5
76
330
6E
100
AcDbEntity
  8
AM_6
100
AcDbText
 10
71.7
 20
17.2
 30
0.0
 40
0.5
  1
$PN.
100
AcDbAttributeDefinition
  3

  2
NBSYN
 70
     8
280
     0
  0
ATTDEF
  5
77
330
6E
100
AcDbEntity
  8
AM_6
100
AcDbText
 10
71.7
 20
16.7
 30
0.0
 40
0.5
  1
125851
100
AcDbAttributeDefinition
  3

  2
LINA
 70
     8
280
     0
  0
ATTDEF
  5
78
330
6E
100
AcDbEntity
  8
AM_6
100
AcDbText
 10
71.7
 20
16.2
 30
0.0
 40
0.5
  1
204
100
AcDbAttributeDefinition
  3

  2
SERIES
 70
     8
280
     0
  0
ATTDEF
  5
79
330
6E
100
AcDbEntity
  8
AM_6
100
AcDbText
 10
71.7
 20
15.7
 30
0.0
 40
0.5
  1
20
100
AcDbAttributeDefinition
  3

  2
SS
 70
     8
280
     0
  0
ATTDEF
  5
7A
330
6E
100
AcDbEntity
  8
AM_6
100
AcDbText
 10
71.7
 20
15.2
 30
0.0
 40
0.5
  1
125851
100
AcDbAttributeDefinition
  3

  2
PN
 70
     8
280
     0
  0
ATTDEF
  5
7B
330
6E
100
AcDbEntity
  8
AM_6
100
AcDbText
 10
71.7
 20
14.7
 30
0.0
 40
0.5
  1
P2B-SC-20M
100
AcDbAttributeDefinition
  3

  2
DESCRIPTION
 70
     8
280
     0
  0
ATTDEF
  5
7C
330
6E
100
AcDbEntity
  8
AM_6
100
AcDbText
 10
71.7
 20
14.2
 30
0.0
 40
0.5
  1
0.7
100
AcDbAttributeDefinition
  3

  2
WEIGHT
 70
     8
280
     0
  0
ATTDEF
  5
7D
330
6E
100
AcDbEntity
  8
AM_6
100
AcDbText
 10
71.7
 20
13.7
 30
0.0
 40
0.5
  1
RE-LUBE
100
AcDbAttributeDefinition
  3

  2
LF
 70
     8
280
     0
  0
ATTDEF
  5
7E
330
6E
100
AcDbEntity
  8
AM_6
100
AcDbText
 10
71.7
 20
13.2
 30
0.0
 40
0.5
  1
31.2
100
AcDbAttributeDefinition
  3

  2
A
 70
     8
280
     0
  0
ATTDEF
  5
7F
330
6E
100
AcDbEntity
  8
AM_6
100
AcDbText
 10
71.7
 20
12.7
 30
0.0
 40
0.5
  1
133.4
100
AcDbAttributeDefinition
  3

  2
B
 70
     8
280
     0
  0
ATTDEF
  5
80
330
6E
100
AcDbEntity
  8
AM_6
100
AcDbText
 10
71.7
 20
12.2
 30
0.0
 40
0.5
  1
34.0
100
AcDbAttributeDefinition
  3

  2
C
 70
     8
280
     0
  0
ATTDEF
  5
81
330
6E
100
AcDbEntity
  8
AM_6
100
AcDbText
 10
71.7
 20
11.7
 30
0.0
 40
0.5
  1
85.9
100
AcDbAttributeDefinition
  3

  2
DMIN
 70
     8
280
     0
  0
ATTDEF
  5
82
330
6E
100
AcDbEntity
  8
AM_6
100
AcDbText
 10
71.7
 20
11.2
 30
0.0
 40
0.5
  1
106.4
100
AcDbAttributeDefinition
  3

  2
DMAX
 70
     8
280
     0
  0
ATTDEF
  5
83
330
6E
100
AcDbEntity
  8
AM_6
100
AcDbText
 10
71.7
 20
10.7
 30
0.0
 40
0.5
  1
M10
100
AcDbAttributeDefinition
  3

  2
F
 70
     8
280
     0
  0
ATTDEF
  5
84
330
6E
100
AcDbEntity
  8
AM_6
100
AcDbText
 10
71.7
 20
10.2
 30
0.0
 40
0.5
  1
21.6
100
AcDbAttributeDefinition
  3

  2
G
 70
     8
280
     0
  0
ATTDEF
  5
85
330
6E
100
AcDbEntity
  8
AM_6
100
AcDbText
 10
71.7
 20
9.7
 30
0.0
 40
0.5
  1
13.5
100
AcDbAttributeDefinition
  3

  2
H
 70
     8
280
     0
  0
ATTDEF
  5
86
330
6E
100
AcDbEntity
  8
AM_6
100
AcDbText
 10
71.7
 20
9.2
 30
0.0
 40
0.5
  1
65.0
100
AcDbAttributeDefinition
  3

  2
J
 70
     8
280
     0
  0
ATTDEF
  5
87
330
6E
100
AcDbEntity
  8
AM_6
100
AcDbText
 10
71.7
 20
8.7
 30
0.0
 40
0.5
  1
28.4
100
AcDbAttributeDefinition
  3

  2
L
 70
     8
280
     0
  0
ATTDEF
  5
88
330
6E
100
AcDbEntity
  8
AM_6
100
AcDbText
 10
71.7
 20
8.2
 30
0.0
 40
0.5
  1
33.3
100
AcDbAttributeDefinition
  3

  2
M
 70
     8
280
     0
  0
ATTDEF
  5
89
330
6E
100
AcDbEntity
  8
AM_6
100
AcDbText
 10
71.7
 20
7.699999999999999
 30
0.0
 40
0.5
  1
12.7
100
AcDbAttributeDefinition
  3

  2
R
 70
     8
280
     0
  0
ATTDEF
  5
8A
330
6E
100
AcDbEntity
  8
AM_6
100
AcDbText
 10
71.7
 20
7.199999999999999
 30
0.0
 40
0.5
  1
18.5
100
AcDbAttributeDefinition
  3

  2
S
 70
     8
280
     0
  0
ATTDEF
  5
8B
330
6E
100
AcDbEntity
  8
AM_6
100
AcDbText
 10
71.7
 20
6.699999999999999
 30
0.0
 40
0.5
  1
57.2
100
AcDbAttributeDefinition
  3

  2
U
 70
     8
280
     0
  0
ATTDEF
  5
8C
330
6E
100
AcDbEntity
  8
AM_6
100
AcDbText
 10
71.7
 20
6.199999999999999
 30
0.0
 40
0.5
  1
114.3
100
AcDbAttributeDefinition
  3

  2
V
 70
     8
280
     0
  0
ATTDEF
  5
8D
330
6E
100
AcDbEntity
  8
AM_6
100
AcDbText
 10
71.7
 20
5.699999999999999
 30
0.0
 40
0.5
  1
12.7
100
AcDbAttributeDefinition
  3

  2
W
 70
     8
280
     0
  0
ATTDEF
  5
8E
330
6E
100
AcDbEntity
  8
AM_6
100
AcDbText
 10
71.7
 20
5.199999999999999
 30
0.0
 40
0.5
  1
3.0
100
AcDbAttributeDefinition
  3

  2
X
 70
     8
280
     0
  0
ATTDEF
  5
8F
330
6E
100
AcDbEntity
  8
AM_6
100
AcDbText
 10
71.7
 20
4.699999999999999
 30
0.0
 40
0.5
  1
baldor
100
AcDbAttributeDefinition
  3

  2
COMPANY
 70
     8
280
     0
  0
INSERT
  5
91
330
6E
100
AcDbEntity
  8
0
100
AcDbBlockReference
  2
2_405015E_Metric_0_in_125851_4
 10
0.0
 20
0.0
 30
0.0
  0
INSERT
  5
D9
330
6E
100
AcDbEntity
  8
0
100
AcDbBlockReference
  2
3_125802_0_in_125851_4
 10
0.0
 20
0.0
 30
0.0
  0
INSERT
  5
135
330
6E
100
AcDbEntity
  8
0
100
AcDbBlockReference
  2
4_125851H_0_in_125851_4
 10
0.0
 20
0.0
 30
0.0
  0
ENDBLK
  5
71
330
6E
100
AcDbEntity
  8
0
100
AcDbBlockEnd
  0
BLOCK
  5
92
330
90
100
AcDbEntity
  8
0
100
AcDbBlockBegin
  2
2_405015E_Metric_0_in_125851_4
 70
     2
 10
0.0
 20
0.0
 30
0.0
  3
2_405015E_Metric_0_in_125851_4
  1

  0
ATTDEF
  5
94
330
90
100
AcDbEntity
  8
AM_6
100
AcDbText
 10
35.82416171655221
 20
5.000000000000002
 30
0.0
 40
0.5
  1
405015E -Metric
100
AcDbAttributeDefinition
  3

  2
NN
 70
     8
280
     0
  0
ATTDEF
  5
95
330
90
100
AcDbEntity
  8
AM_6
100
AcDbText
 10
35.82416171655221
 20
4.500000000000002
 30
0.0
 40
0.5
  1
Grease Fitting
100
AcDbAttributeDefinition
  3

  2
NT
 70
     8
280
     0
  0
ATTDEF
  5
96
330
90
100
AcDbEntity
  8
AM_6
100
AcDbText
 10
35.82416171655221
 20
4.000000000000002
 30
0.0
 40
0.5
  1
405015E-Metric
100
AcDbAttributeDefinition
  3

  2
NB
 70
     8
280
     0
  0
ATTDEF
  5
97
330
90
100
AcDbEntity
  8
AM_6
100
AcDbText
 10
35.82416171655221
 20
3.500000000000002
 30
0.0
 40
0.5
  1
$MN.-Metric
100
AcDbAttributeDefinition
  3

  2
NBSYN
 70
     8
280
     0
  0
ATTDEF
  5
98
330
90
100
AcDbEntity
  8
AM_6
100
AcDbText
 10
35.82416171655221
 20
3.000000000000002
 30
0.0
 40
0.5
  1
405015E
100
AcDbAttributeDefinition
  3

  2
LINA
 70
     8
280
     0
  0
ATTDEF
  5
99
330
90
100
AcDbEntity
  8
AM_6
100
AcDbText
 10
35.82416171655221
 20
2.500000000000002
 30
0.0
 40
0.5
  1
405015E
100
AcDbAttributeDefinition
  3

  2
MN
 70
     8
280
     0
  0
ATTDEF
  5
9A
330
90
100
AcDbEntity
  8
AM_6
100
AcDbText
 10
35.82416171655221
 20
2.000000000000002
 30
0.0
 40
0.5
  1
1/8 x 27PTF
100
AcDbAttributeDefinition
  3

  2
T
 70
     8
280
     0
  0
ATTDEF
  5
9B
330
90
100
AcDbEntity
  8
AM_6
100
AcDbText
 10
35.82416171655221
 20
1.500000000000002
 30
0.0
 40
0.5
  1
baldor
100
AcDbAttributeDefinition
  3

  2
COMPANY
 70
     8
280
     0
  0
LWPOLYLINE
  5
9E
330
90
100
AcDbEntity
  8
AM_9
100
AcDbPolyline
 90
        4
 70
     0
 43
0.0
 10
26.64432241075644
 20
0.0000000000000011
 10
26.02877661432531
 20
-1.244379663409132
 10
25.74373981889719
 20
-1.871314310646057
 10
25.47714714209253
 20
-2.499999999999998
  0
LWPOLYLINE
  5
9F
330
90
100
AcDbEntity
  8
AM_9
100
AcDbPolyline
 90
        4
 70
     0
 43
0.0
 10
25.47714714209253
 20
2.500000000000001
 10
25.74211961646022
 20
1.875000000000001
 10
26.02614038021372
 20
1.250000000000001
 10
26.64432241075644
 20
0.0000000000000011
  0
ELLIPSE
  5
A0
330
90
100
AcDbEntity
  8
AM_9
100
AcDbEllipse
 10
17.65574921944691
 20
0.0000000000000011
 30
0.0
 11
2.546036870355444E-16
 21
4.15799375318352
 31
0.0
210
0.0
220
0.0
230
1.0
 40
0.7071067811865476
 41
0.0
 42
6.283185307179586
  0
LWPOLYLINE
  5
A1
330
90
100
AcDbEntity
  8
AM_9
100
AcDbPolyline
 90
        4
 70
     0
 43
0.0
 10
27.59846748565217
 20
-2.499999999999996
 10
27.8438053743643
 20
-1.874999999999997
 10
28.07009497369064
 20
-1.249999999999997
 10
28.47253366930758
 20
0.0000000000000014
  0
LWPOLYLINE
  5
A2
330
90
100
AcDbEntity
  8
AM_9
100
AcDbPolyline
 90
        4
 70
     0
 43
0.0
 10
28.47253366930758
 20
0.0000000000000014
 10
28.07204772518916
 20
1.244379663409136
 10
27.84519452468319
 20
1.871314310646061
 10
27.59846748565217
 20
2.500000000000001
  0
LWPOLYLINE
  5
A3
330
90
100
AcDbEntity
  8
AM_9
100
AcDbPolyline
 90
        4
 70
     0
 43
0.0
 10
24.60308095843713
 20
5.000000000000002
 10
25.00356690255554
 20
3.755620336590868
 10
25.23042010306151
 20
3.128685689353941
 10
25.47714714209253
 20
2.500000000000001
  0
LINE
  5
A4
330
90
100
AcDbEntity
  8
AM_9
100
AcDbLine
 10
28.47253366930758
 20
0.0000000000000014
 30
0.0
 11
26.64432241075644
 21
0.0000000000000011
 31
0.0
  0
LWPOLYLINE
  5
A5
330
90
100
AcDbEntity
  8
AM_9
100
AcDbPolyline
 90
        4
 70
     0
 43
0.0
 10
25.47714714209253
 20
-2.499999999999998
 10
25.2318092533804
 20
-3.124999999999998
 10
25.00551965405406
 20
-3.749999999999998
 10
24.60308095843713
 20
-4.999999999999998
  0
LINE
  5
A6
330
90
100
AcDbEntity
  8
AM_9
100
AcDbLine
 10
27.33512109911101
 20
-3.121299399397301
 30
0.0
 11
27.59846748565217
 21
-2.499999999999996
 31
0.0
  0
LINE
  5
A7
330
90
100
AcDbEntity
  8
AM_9
100
AcDbLine
 10
27.59846748565217
 20
2.500000000000001
 30
0.0
 11
27.33834071080454
 21
3.113967795574586
 31
0.0
  0
LINE
  5
A8
330
90
100
AcDbEntity
  8
AM_9
100
AcDbLine
 10
17.97489468954174
 20
-4.755705400136178
 30
0.0
 11
22.30564045609047
 21
-4.947202232645959
 31
0.0
  0
LINE
  5
A9
330
90
100
AcDbEntity
  8
AM_9
100
AcDbLine
 10
22.30564045609047
 20
4.947202232645965
 30
0.0
 11
17.97489468954174
 21
4.755705400136182
 31
0.0
  0
ELLIPSE
  5
AA
330
90
100
AcDbEntity
  8
AM_9
100
AcDbEllipse
 10
24.53660530717343
 20
-0.0000000000004006
 30
0.0
 11
-9.184850993606438E-16
 21
-5.000000000000702
 31
0.0
210
0.0
220
0.0
230
1.0
 40
0.7071067811864419
 41
0.8982051386273531
 42
2.243387514962567
  0
LINE
  5
AB
330
90
100
AcDbEntity
  8
AM_9
100
AcDbLine
 10
27.31629433758314
 20
1.989928832732516
 30
0.0
 11
27.05247486569627
 21
2.406586417453949
 31
0.0
  0
LINE
  5
AC
330
90
100
AcDbEntity
  8
AM_9
100
AcDbLine
 10
27.05247486569627
 20
-2.406586417453946
 30
0.0
 11
27.31629433758315
 21
-1.989928832732513
 31
0.0
  0
ELLIPSE
  5
AD
330
90
100
AcDbEntity
  8
AM_9
100
AcDbEllipse
 10
25.74491877670456
 20
0.0000000000000021
 30
0.0
 11
-5.479672885901721E-16
 21
-2.982994982562528
 31
0.0
210
0.0
220
0.0
230
1.0
 40
0.7071067811865475
 41
0.386942238188392
 42
2.754650415401401
  0
ELLIPSE
  5
AE
330
90
100
AcDbEntity
  8
AM_9
100
AcDbEllipse
 10
25.15207972627489
 20
0.0000000000067648
 30
0.0
 11
-6.627024103786484E-16
 21
-3.60758389461107
 31
0.0
210
0.0
220
0.0
230
1.0
 40
0.7071067811844446
 41
0.6633833151876409
 42
2.478209338399843
  0
LINE
  5
AF
330
90
100
AcDbEntity
  8
AM_9
100
AcDbLine
 10
27.03582752954622
 20
2.477229919855583
 30
0.0
 11
26.56426587868124
 21
2.748977116714938
 31
0.0
  0
LINE
  5
B0
330
90
100
AcDbEntity
  8
AM_9
100
AcDbLine
 10
26.56426587868124
 20
-2.748977116714934
 30
0.0
 11
27.03582752954622
 21
-2.47722991985558
 31
0.0
  0
ELLIPSE
  5
B1
330
90
100
AcDbEntity
  8
AM_9
100
AcDbEllipse
 10
26.32204992966922
 20
0.0000000000000069
 30
0.0
 11
-4.913895281578770E-16
 21
-2.675000000000009
 31
0.0
210
0.0
220
0.0
230
1.0
 40
0.7071067811865515
 41
0.0
 42
3.141592653589793
  0
ELLIPSE
  5
B2
330
90
100
AcDbEntity
  8
AM_9
100
AcDbEllipse
 10
24.53660530717322
 20
-0.0000000000000019
 30
0.0
 11
-8.725608443924852E-16
 21
-4.749999999999979
 31
0.0
210
0.0
220
0.0
230
1.0
 40
0.7071067811865481
 41
0.873648289948572
 42
2.267944363641222
  0
LINE
  5
B3
330
90
100
AcDbEntity
  8
AM_9
100
AcDbLine
 10
26.43872254856501
 20
-2.674999999999998
 30
0.0
 11
26.81702467649982
 21
-2.674999999999998
 31
0.0
  0
LINE
  5
B4
330
90
100
AcDbEntity
  8
AM_9
100
AcDbLine
 10
26.81702467649982
 20
2.675000000000002
 30
0.0
 11
26.43872254856501
 21
2.675000000000002
 31
0.0
  0
ELLIPSE
  5
B5
330
90
100
AcDbEntity
  8
AM_9
100
AcDbEllipse
 10
26.81702467649982
 20
-0.000000000000001
 30
0.0
 11
-4.913895281578745E-16
 21
-2.674999999999995
 31
0.0
210
0.0
220
0.0
230
1.0
 40
0.7071067811865471
 41
5.888394187479824
 42
9.81956908046914
  0
ELLIPSE
  5
B6
330
90
100
AcDbEntity
  8
AM_9
100
AcDbEllipse
 10
27.7362634920423
 20
-0.0000000000000067
 30
0.0
 11
-5.832380380939301E-16
 21
-3.175000000000017
 31
0.0
210
0.0
220
0.0
230
1.0
 40
0.7071067811865499
 41
0.4159140521025559
 42
2.725678601487239
  0
ELLIPSE
  5
B7
330
90
100
AcDbEntity
  8
AM_9
100
AcDbEllipse
 10
22.41528496361355
 20
0.0000000000000018
 30
0.0
 11
-9.184850993605148E-16
 21
-5.0
 31
0.0
210
0.0
220
0.0
230
1.0
 40
0.7071067811865476
 41
0.0
 42
6.283185307179586
  0
ELLIPSE
  5
B8
330
90
100
AcDbEntity
  8
AM_9
100
AcDbEllipse
 10
22.41528496361355
 20
-0.0000000000000036
 30
0.0
 11
-9.092325864233675E-16
 21
-4.949631665534969
 31
0.0
210
0.0
220
0.0
230
1.0
 40
0.7071067811865488
 41
0.0
 42
6.283185307179586
  0
ELLIPSE
  5
B9
330
90
100
AcDbEntity
  8
AM_9
100
AcDbEllipse
 10
18.08003853422434
 20
-0.0000000000000036
 30
0.0
 11
-8.740358316248963E-16
 21
-4.758029456511784
 31
0.0
210
0.0
220
0.0
230
1.0
 40
0.7071067811865475
 41
0.0
 42
6.283185307179586
  0
LWPOLYLINE
  5
BB
330
90
100
AcDbEntity
  8
AM_4
100
AcDbPolyline
 90
        4
 70
     0
 43
0.0
 10
26.43129221698826
 20
-4.999999999999998
 10
27.04683801341939
 20
-3.755620336590864
 10
27.33187480884751
 20
-3.128685689353937
 10
27.33512109911101
 20
-3.121299399397301
  0
LWPOLYLINE
  5
BC
330
90
100
AcDbEntity
  8
AM_4
100
AcDbPolyline
 90
        4
 70
     0
 43
0.0
 10
27.33834071080454
 20
3.113967795574586
 10
27.33349501128448
 20
3.125000000000002
 10
27.04947424753098
 20
3.750000000000002
 10
26.43129221698826
 20
5.000000000000002
  0
ELLIPSE
  5
BD
330
90
100
AcDbEntity
  8
AM_4
100
AcDbEllipse
 10
24.53660530717321
 20
0.0000000000000098
 30
0.0
 11
-9.184850993605126E-16
 21
-4.999999999999988
 31
0.0
210
0.0
220
0.0
230
1.0
 40
0.7071067811865464
 41
2.243387514962537
 42
7.181390445806839
  0
ELLIPSE
  5
BE
330
90
100
AcDbEntity
  8
AM_4
100
AcDbEllipse
 10
25.1520797262698
 20
0.000000000000002
 30
0.0
 11
-6.627024103768196E-16
 21
-3.607583894601115
 31
0.0
210
0.0
220
0.0
230
1.0
 40
0.7071067811865476
 41
2.478209338400867
 42
6.946568622368513
  0
LINE
  5
BF
330
90
100
AcDbEntity
  8
AM_4
100
AcDbLine
 10
26.56426587868124
 20
2.748977116714938
 30
0.0
 11
26.54087952403113
 21
2.762453989376798
 31
0.0
  0
LINE
  5
C0
330
90
100
AcDbEntity
  8
AM_4
100
AcDbLine
 10
26.54087952403113
 20
-2.762453989376795
 30
0.0
 11
26.56426587868124
 21
-2.748977116714934
 31
0.0
  0
ELLIPSE
  5
C1
330
90
100
AcDbEntity
  8
AM_4
100
AcDbEllipse
 10
25.74491877670457
 20
0.0000000000000013
 30
0.0
 11
-5.479672885901685E-16
 21
-2.982994982562508
 31
0.0
210
0.0
220
0.0
230
1.0
 40
0.7071067811865475
 41
2.754650415401406
 42
6.670127545367974
  0
ELLIPSE
  5
C2
330
90
100
AcDbEntity
  8
AM_4
100
AcDbEllipse
 10
24.5366053071732
 20
0.0000000000000018
 30
0.0
 11
-8.725608443924902E-16
 21
-4.750000000000006
 31
0.0
210
0.0
220
0.0
230
1.0
 40
0.707106781186547
 41
2.267944363641217
 42
7.156833597128163
  0
LINE
  5
C3
330
90
100
AcDbEntity
  8
AM_4
100
AcDbLine
 10
26.43129221698826
 20
-4.999999999999998
 30
0.0
 11
20.5205980537985
 21
-4.999999999999998
 31
0.0
  0
LWPOLYLINE
  5
C4
330
90
100
AcDbEntity
  8
AM_4
100
AcDbPolyline
 90
        4
 70
     0
 43
0.0
 10
21.47474312869423
 20
-2.499999999999996
 10
21.72008101740636
 20
-3.124999999999997
 10
21.94637061673269
 20
-3.749999999999998
 10
22.34880931234963
 20
-4.999999999999998
  0
LWPOLYLINE
  5
C5
330
90
100
AcDbEntity
  8
AM_4
100
AcDbPolyline
 90
        4
 70
     0
 43
0.0
 10
19.35342278513458
 20
-2.499999999999998
 10
19.10808489642245
 20
-1.874999999999998
 10
18.88179529709612
 20
-1.249999999999998
 10
18.47935660147918
 20
0.0000000000000016
  0
LWPOLYLINE
  5
C6
330
90
100
AcDbEntity
  8
AM_4
100
AcDbPolyline
 90
        4
 70
     0
 43
0.0
 10
20.5205980537985
 20
-4.999999999999998
 10
19.90505225736736
 20
-3.755620336590865
 10
19.62001546193925
 20
-3.128685689353939
 10
19.35342278513458
 20
-2.499999999999998
  0
LWPOLYLINE
  5
C7
330
90
100
AcDbEntity
  8
AM_4
100
AcDbPolyline
 90
        4
 70
     0
 43
0.0
 10
20.30756786003032
 20
0.0000000000000017
 10
20.92311365646145
 20
-1.244379663409131
 10
21.20815045188956
 20
-1.871314310646056
 10
21.47474312869423
 20
-2.499999999999996
  0
LINE
  5
C8
330
90
100
AcDbEntity
  8
AM_4
100
AcDbLine
 10
20.30756786003032
 20
0.0000000000000017
 30
0.0
 11
18.47935660147918
 21
0.0000000000000016
 31
0.0
  0
LWPOLYLINE
  5
C9
330
90
100
AcDbEntity
  8
AM_4
100
AcDbPolyline
 90
        4
 70
     0
 43
0.0
 10
21.47474312869423
 20
2.500000000000001
 10
21.20977065432653
 20
1.875000000000002
 10
20.92574989057304
 20
1.250000000000002
 10
20.30756786003032
 20
0.0000000000000017
  0
LWPOLYLINE
  5
CA
330
90
100
AcDbEntity
  8
AM_4
100
AcDbPolyline
 90
        4
 70
     0
 43
0.0
 10
22.34880931234963
 20
5.000000000000002
 10
21.94832336823121
 20
3.755620336590868
 10
21.72147016772525
 20
3.128685689353942
 10
21.47474312869423
 20
2.500000000000001
  0
LINE
  5
CB
330
90
100
AcDbEntity
  8
AM_4
100
AcDbLine
 10
26.43129221698826
 20
5.000000000000002
 30
0.0
 11
20.5205980537985
 21
5.000000000000002
 31
0.0
  0
LWPOLYLINE
  5
CC
330
90
100
AcDbEntity
  8
AM_4
100
AcDbPolyline
 90
        4
 70
     0
 43
0.0
 10
19.35342278513458
 20
2.500000000000001
 10
19.61839525950228
 20
3.125
 10
19.90241602325577
 20
3.750000000000001
 10
20.5205980537985
 20
5.000000000000002
  0
LWPOLYLINE
  5
CD
330
90
100
AcDbEntity
  8
AM_4
100
AcDbPolyline
 90
        4
 70
     0
 43
0.0
 10
18.47935660147918
 20
0.0000000000000016
 10
18.8798425455976
 20
1.244379663409134
 10
19.10669574610356
 20
1.87131431064606
 10
19.35342278513458
 20
2.500000000000001
  0
LINE
  5
CE
330
90
100
AcDbEntity
  8
AM_4
100
AcDbLine
 10
26.32204992966923
 20
-2.674999999999998
 30
0.0
 11
26.43872254856501
 21
-2.674999999999998
 31
0.0
  0
LINE
  5
CF
330
90
100
AcDbEntity
  8
AM_4
100
AcDbLine
 10
26.43872254856501
 20
2.675000000000002
 30
0.0
 11
26.32204992966923
 21
2.675000000000002
 31
0.0
  0
ELLIPSE
  5
D0
330
90
100
AcDbEntity
  8
AM_4
100
AcDbEllipse
 10
26.32204992966924
 20
0.0000000000000018
 30
0.0
 11
-4.913895281578756E-16
 21
-2.675000000000001
 31
0.0
210
0.0
220
0.0
230
1.0
 40
0.7071067811865481
 41
3.141592653589793
 42
6.283185307179586
  0
LINE
  5
D1
330
90
100
AcDbEntity
  8
AM_4
100
AcDbLine
 10
26.0895205843175
 20
-2.469230769230768
 30
0.0
 11
26.87277732655491
 21
-2.930769230769229
 31
0.0
  0
LINE
  5
D2
330
90
100
AcDbEntity
  8
AM_4
100
AcDbLine
 10
26.87277732655491
 20
2.930769230769233
 30
0.0
 11
26.0895205843175
 21
2.469230769230771
 31
0.0
  0
ELLIPSE
  5
D3
330
90
100
AcDbEntity
  8
AM_4
100
AcDbEllipse
 10
27.73626349204233
 20
0.0000000000000022
 30
0.0
 11
-5.832380380939283E-16
 21
-3.175000000000007
 31
0.0
210
0.0
220
0.0
230
1.0
 40
0.7071067811865476
 41
2.725678601487248
 42
6.699099359282132
  0
ELLIPSE
  5
D4
330
90
100
AcDbEntity
  8
AM_4
100
AcDbEllipse
 10
26.81702467649982
 20
0.000000000000002
 30
0.0
 11
-4.913895281578751E-16
 21
-2.674999999999998
 31
0.0
210
0.0
220
0.0
230
1.0
 40
0.7071067811865489
 41
3.536383773289558
 42
5.888394187479821
  0
LINE
  5
D5
330
90
100
AcDbEntity
  8
AM_4
100
AcDbLine
 10
29.82668955169674
 20
2.16515911969191
 30
0.0
 11
28.64332823894949
 21
2.904323000259529
 31
0.0
  0
LINE
  5
D6
330
90
100
AcDbEntity
  8
AM_4
100
AcDbLine
 10
28.64332823894949
 20
-2.904323000259526
 30
0.0
 11
29.82668955169674
 21
-2.165159119691906
 31
0.0
  0
ELLIPSE
  5
D7
330
90
100
AcDbEntity
  8
AM_4
100
AcDbEllipse
 10
29.15047705441543
 20
0.0000000000000133
 30
0.0
 11
-4.348012108217406E-16
 21
-2.366947548329669
 31
0.0
210
0.0
220
0.0
230
1.0
 40
0.7071067811865491
 41
0.0
 42
6.283185307179586
  0
ENDBLK
  5
93
330
90
100
AcDbEntity
  8
0
100
AcDbBlockEnd
  0
BLOCK
  5
DA
330
D8
100
AcDbEntity
  8
0
100
AcDbBlockBegin
  2
3_125802_0_in_125851_4
 70
     2
 10
0.0
 20
0.0
 30
0.0
  3
3_125802_0_in_125851_4
  1

  0
ATTDEF
  5
DC
330
D8
100
AcDbEntity
  8
AM_6
100
AcDbText
 10
28.48530545755778
 20
12.7
 30
0.0
 40
0.5
  1
Set Screw Insert Metric Bore - Stainless Steel
100
AcDbAttributeDefinition
  3

  2
NN
 70
     8
280
     0
  0
ATTDEF
  5
DD
330
D8
100
AcDbEntity
  8
AM_6
100
AcDbText
 10
28.48530545755778
 20
12.2
 30
0.0
 40
0.5
  1
SC Bearing Insert -Metric
100
AcDbAttributeDefinition
  3

  2
NT
 70
     8
280
     0
  0
ATTDEF
  5
DE
330
D8
100
AcDbEntity
  8
AM_6
100
AcDbText
 10
28.48530545755778
 20
11.7
 30
0.0
 40
0.5
  1
125802
100
AcDbAttributeDefinition
  3

  2
NB
 70
     8
280
     0
  0
ATTDEF
  5
DF
330
D8
100
AcDbEntity
  8
AM_6
100
AcDbText
 10
28.48530545755778
 20
11.2
 30
0.0
 40
0.5
  1
$PN.
100
AcDbAttributeDefinition
  3

  2
NBSYN
 70
     8
280
     0
  0
ATTDEF
  5
E0
330
D8
100
AcDbEntity
  8
AM_6
100
AcDbText
 10
28.48530545755778
 20
10.7
 30
0.0
 40
0.5
  1
125802
100
AcDbAttributeDefinition
  3

  2
LINA
 70
     8
280
     0
  0
ATTDEF
  5
E1
330
D8
100
AcDbEntity
  8
AM_6
100
AcDbText
 10
28.48530545755778
 20
10.2
 30
0.0
 40
0.5
  1
204
100
AcDbAttributeDefinition
  3

  2
SERIES
 70
     8
280
     0
  0
ATTDEF
  5
E2
330
D8
100
AcDbEntity
  8
AM_6
100
AcDbText
 10
28.48530545755778
 20
9.700000000000003
 30
0.0
 40
0.5
  1
20
100
AcDbAttributeDefinition
  3

  2
SS
 70
     8
280
     0
  0
ATTDEF
  5
E3
330
D8
100
AcDbEntity
  8
AM_6
100
AcDbText
 10
28.48530545755778
 20
9.200000000000003
 30
0.0
 40
0.5
  1
125802
100
AcDbAttributeDefinition
  3

  2
PN
 70
     8
280
     0
  0
ATTDEF
  5
E4
330
D8
100
AcDbEntity
  8
AM_6
100
AcDbText
 10
28.48530545755778
 20
8.700000000000003
 30
0.0
 40
0.5
  1
INS-SC-20
100
AcDbAttributeDefinition
  3

  2
DESCRIPTION
 70
     8
280
     0
  0
ATTDEF
  5
E5
330
D8
100
AcDbEntity
  8
AM_6
100
AcDbText
 10
28.48530545755778
 20
8.200000000000003
 30
0.0
 40
0.5
  1
0.16
100
AcDbAttributeDefinition
  3

  2
WEIGHT
 70
     8
280
     0
  0
ATTDEF
  5
E6
330
D8
100
AcDbEntity
  8
AM_6
100
AcDbText
 10
28.48530545755778
 20
7.700000000000003
 30
0.0
 40
0.5
  1
31.2
100
AcDbAttributeDefinition
  3

  2
A
 70
     8
280
     0
  0
ATTDEF
  5
E7
330
D8
100
AcDbEntity
  8
AM_6
100
AcDbText
 10
28.48530545755778
 20
7.200000000000003
 30
0.0
 40
0.5
  1
14.7
100
AcDbAttributeDefinition
  3

  2
C
 70
     8
280
     0
  0
ATTDEF
  5
E8
330
D8
100
AcDbEntity
  8
AM_6
100
AcDbText
 10
28.48530545755778
 20
6.700000000000003
 30
0.0
 40
0.5
  1
47
100
AcDbAttributeDefinition
  3

  2
D
 70
     8
280
     0
  0
ATTDEF
  5
E9
330
D8
100
AcDbEntity
  8
AM_6
100
AcDbText
 10
28.48530545755778
 20
6.200000000000003
 30
0.0
 40
0.5
  1
3.8
100
AcDbAttributeDefinition
  3

  2
J
 70
     8
280
     0
  0
ATTDEF
  5
EA
330
D8
100
AcDbEntity
  8
AM_6
100
AcDbText
 10
28.48530545755778
 20
5.700000000000003
 30
0.0
 40
0.5
  1
28.4
100
AcDbAttributeDefinition
  3

  2
L
 70
     8
280
     0
  0
ATTDEF
  5
EB
330
D8
100
AcDbEntity
  8
AM_6
100
AcDbText
 10
28.48530545755778
 20
5.200000000000003
 30
0.0
 40
0.5
  1
M6 x 1
100
AcDbAttributeDefinition
  3

  2
N
 70
     8
280
     0
  0
ATTDEF
  5
EC
330
D8
100
AcDbEntity
  8
AM_6
100
AcDbText
 10
28.48530545755778
 20
4.700000000000003
 30
0.0
 40
0.5
  1
12.7
100
AcDbAttributeDefinition
  3

  2
W
 70
     8
280
     0
  0
ATTDEF
  5
ED
330
D8
100
AcDbEntity
  8
AM_6
100
AcDbText
 10
28.48530545755778
 20
4.200000000000003
 30
0.0
 40
0.5
  1
18.5
100
AcDbAttributeDefinition
  3

  2
Y
 70
     8
280
     0
  0
ATTDEF
  5
EE
330
D8
100
AcDbEntity
  8
AM_6
100
AcDbText
 10
28.48530545755778
 20
3.700000000000003
 30
0.0
 40
0.5
  1
baldor
100
AcDbAttributeDefinition
  3

  2
COMPANY
 70
     8
280
     0
  0
LINE
  5
EF
330
D8
100
AcDbEntity
  8
AM_9
100
AcDbLine
 10
-24.5
 20
3.933636363636366
 30
0.0
 11
-24.5
 21
3.666363636363634
 31
0.0
  0
ARC
  5
F0
330
D8
100
AcDbEntity
  8
AM_9
100
AcDbCircle
 10
-23.16363636363637
 20
3.666363636363624
 30
0.0
 40
1.336363636363625
100
AcDbArc
 50
180.0
 51
261.7286593035406
  0
ARC
  5
F1
330
D8
100
AcDbEntity
  8
AM_9
100
AcDbCircle
 10
-23.16363636363636
 20
3.93363636363637
 30
0.0
 40
1.336363636363635
100
AcDbArc
 50
90.0
 51
179.9999991462263
  0
LINE
  5
F2
330
D8
100
AcDbEntity
  8
AM_9
100
AcDbLine
 10
-22.75922466301854
 20
5.270000000000005
 30
0.0
 11
-23.16363636363636
 21
5.270000000000005
 31
0.0
  0
LINE
  5
F3
330
D8
100
AcDbEntity
  8
AM_9
100
AcDbLine
 10
-23.16363636363636
 20
5.270000000000005
 30
0.0
 11
-23.16363636363636
 21
3.340925975751261
 31
0.0
  0
LINE
  5
F4
330
D8
100
AcDbEntity
  8
AM_9
100
AcDbLine
 10
9.061172660467523
 20
-15.3835
 30
0.0
 11
12.57908194444282
 21
-15.3835
 31
0.0
  0
LINE
  5
F5
330
D8
100
AcDbEntity
  8
AM_9
100
AcDbLine
 10
12.57908194444282
 20
-10.4665
 30
0.0
 11
9.061825621767623
 21
-10.4665
 31
0.0
  0
LWPOLYLINE
  5
F6
330
D8
100
AcDbEntity
  8
AM_9
100
AcDbPolyline
 90
       21
 70
     0
 43
0.0
 10
9.063017873612065
 20
-15.38349999590131
 10
9.165678330581047
 20
-15.37081249724322
 10
9.314927599733538
 20
-15.29876974840133
 10
9.447927269026698
 20
-15.1604694259787
 10
9.556984015855848
 20
-14.96555594026448
 10
9.64713608062477
 20
-14.70983604369603
 10
9.716306673482695
 20
-14.40536510859701
 10
9.767825225087075
 20
-14.04912902650879
 10
9.80104938016686
 20
-13.66886955289706
 10
9.819625829391107
 20
-13.25428344737884
 10
9.82371341598335
 20
-12.85245038843202
 10
9.814524197380349
 20
-12.44082373772238
 10
9.792433870673701
 20
-12.06048352817214
 10
9.754822884927389
 20
-11.69377622840337
 10
9.700776325193198
 20
-11.36389461785531
 10
9.625746006479632
 20
-11.06854572333412
 10
9.529541583217473
 20
-10.82612203732399
 10
9.406938238964889
 20
-10.63748587539427
 10
9.266359577110038
 20
-10.51972128289458
 10
9.100455558993351
 20
-10.46812228993793
 10
9.063185535657844
 20
-10.46650001320013
  0
LWPOLYLINE
  5
F7
330
D8
100
AcDbEntity
  8
AM_9
100
AcDbPolyline
 90
       11
 70
     0
 43
0.0
 10
9.063185535657844
 20
-10.46650001320013
 10
8.92769798979596
 20
-10.48612623486641
 10
8.739192306369237
 20
-10.57184525564429
 10
8.55304759710377
 20
-10.71697629817453
 10
8.365385322762387
 20
-10.92543346467476
 10
8.190183862074267
 20
-11.18693223257978
 10
8.030646475944206
 20
-11.5046798542722
 10
7.901483741542185
 20
-11.85945761079419
 10
7.805827998569401
 20
-12.25701456356451
 10
7.761358588523024
 20
-12.58427125172242
 10
7.745905852997449
 20
-12.925
  0
ELLIPSE
  5
F8
330
D8
100
AcDbEntity
  8
AM_9
100
AcDbEllipse
 10
12.57908194444282
 20
-12.925
 30
0.0
 11
-4.516191233555646E-16
 21
-2.458499999999997
 31
0.0
210
0.0
220
0.0
230
1.0
 40
0.4226182617406979
 41
3.544646761989625
 42
5.860886879264629
  0
LINE
  5
F9
330
D8
100
AcDbEntity
  8
AM_9
100
AcDbLine
 10
12.09458502510314
 20
-15.09984469477621
 30
0.0
 11
12.27943083091826
 21
-15.33040038879181
 31
0.0
  0
LINE
  5
FA
330
D8
100
AcDbEntity
  8
AM_9
100
AcDbLine
 10
12.27757926750266
 20
-10.52190904141903
 30
0.0
 11
12.09458502510314
 21
-10.75015530522379
 31
0.0
  0
LWPOLYLINE
  5
FB
330
D8
100
AcDbEntity
  8
AM_9
100
AcDbPolyline
 90
        9
 70
     0
 43
0.0
 10
12.35677717921272
 20
-10.42939529283546
 10
12.39443681246014
 20
-10.3905028612157
 10
12.59735815080438
 20
-10.22868377680842
 10
12.78008477877943
 20
-10.15568184902685
 10
12.95509975510536
 20
-10.15508711976232
 10
13.10710723508591
 20
-10.22171211882365
 10
13.24402657804145
 20
-10.34947960101556
 10
13.33167888433276
 20
-10.47662536905078
 10
13.36632076400133
 20
-10.53914098565232
  0
LWPOLYLINE
  5
FC
330
D8
100
AcDbEntity
  8
AM_9
100
AcDbPolyline
 90
       11
 70
     0
 43
0.0
 10
7.745905852997449
 20
-12.925
 10
7.767212247572579
 20
-13.32486203582042
 10
7.832261583925185
 20
-13.72472407164084
 10
7.933427102734029
 20
-14.0907073469285
 10
8.070482574285926
 20
-14.43403838916594
 10
8.232207424741889
 20
-14.7327405009013
 10
8.417010397462565
 20
-14.98857341058201
 10
8.608791593233356
 20
-15.18269941079611
 10
8.807704982815096
 20
-15.31663825500489
 10
8.99054847900579
 20
-15.37771395388432
 10
9.063017873612065
 20
-15.38349999590131
  0
LINE
  5
FD
330
D8
100
AcDbEntity
  8
AM_9
100
AcDbLine
 10
9.999999999999998
 20
-17.932
 30
0.0
 11
9.999999999999998
 21
12.132
 31
0.0
  0
LINE
  5
FE
330
D8
100
AcDbEntity
  8
AM_9
100
AcDbLine
 10
-9.999999999999998
 20
12.132
 30
0.0
 11
-9.999999999999998
 21
-17.932
 31
0.0
  0
LINE
  5
FF
330
D8
100
AcDbEntity
  8
AM_9
100
AcDbLine
 10
9.999999999999998
 20
12.132
 30
0.0
 11
10.56799999999999
 21
12.7
 31
0.0
  0
LINE
  5
100
330
D8
100
AcDbEntity
  8
AM_9
100
AcDbLine
 10
-10.56799999999999
 20
12.7
 30
0.0
 11
-9.999999999999998
 21
12.132
 31
0.0
  0
LINE
  5
101
330
D8
100
AcDbEntity
  8
AM_9
100
AcDbLine
 10
-9.999999999999998
 20
-17.932
 30
0.0
 11
-10.56799999999999
 21
-18.5
 31
0.0
  0
LINE
  5
102
330
D8
100
AcDbEntity
  8
AM_9
100
AcDbLine
 10
10.56799999999999
 20
-18.5
 30
0.0
 11
9.999999999999998
 21
-17.932
 31
0.0
  0
LINE
  5
103
330
D8
100
AcDbEntity
  8
AM_9
100
AcDbLine
 10
14.2
 20
-10.64157371717872
 30
0.0
 11
14.2
 21
-7.349999999999999
 31
0.0
  0
LINE
  5
104
330
D8
100
AcDbEntity
  8
AM_9
100
AcDbLine
 10
-14.2
 20
-7.349999999999999
 30
0.0
 11
-14.2
 21
-10.64157371717872
 31
0.0
  0
LINE
  5
105
330
D8
100
AcDbEntity
  8
AM_9
100
AcDbLine
 10
14.20000000000003
 20
7.35
 30
0.0
 11
14.20000000000003
 21
10.64157371717873
 31
0.0
  0
LINE
  5
106
330
D8
100
AcDbEntity
  8
AM_9
100
AcDbLine
 10
-14.20000000000003
 20
10.64157371717873
 30
0.0
 11
-14.20000000000003
 21
7.35
 31
0.0
  0
LINE
  5
107
330
D8
100
AcDbEntity
  8
AM_9
100
AcDbLine
 10
22.03
 20
-4.400000000000001
 30
0.0
 11
22.03
 21
-2.44
 31
0.0
  0
LINE
  5
108
330
D8
100
AcDbEntity
  8
AM_9
100
AcDbLine
 10
-22.03
 20
-2.44
 30
0.0
 11
-22.03
 21
-4.400000000000001
 31
0.0
  0
LINE
  5
109
330
D8
100
AcDbEntity
  8
AM_9
100
AcDbLine
 10
-21.63354487917145
 20
7.35
 30
0.0
 11
21.63354487912138
 21
7.35
 31
0.0
  0
ARC
  5
10A
330
D8
100
AcDbEntity
  8
AM_9
100
AcDbCircle
 10
21.63354487917146
 20
6.761999999999998
 30
0.0
 40
0.5880000000000023
100
AcDbArc
 50
21.41246704688457
 51
90.0
  0
ARC
  5
10B
330
D8
100
AcDbEntity
  8
AM_9
100
AcDbCircle
 10
-21.63354487917146
 20
6.761999999999998
 30
0.0
 40
0.5880000000000019
100
AcDbArc
 50
90.0
 51
158.5875329531154
  0
LINE
  5
10C
330
D8
100
AcDbEntity
  8
AM_9
100
AcDbLine
 10
-21.63354487917146
 20
-7.349999999999999
 30
0.0
 11
21.63354487912139
 21
-7.349999999999999
 31
0.0
  0
ARC
  5
10D
330
D8
100
AcDbEntity
  8
AM_9
100
AcDbCircle
 10
21.63354487917145
 20
-6.761999999999985
 30
0.0
 40
0.5880000000000134
100
AcDbArc
 50
270.0
 51
338.5875329531154
  0
ARC
  5
10E
330
D8
100
AcDbEntity
  8
AM_9
100
AcDbCircle
 10
-21.63354487917145
 20
-6.761999999999985
 30
0.0
 40
0.5880000000000138
100
AcDbArc
 50
201.4124670468846
 51
270.0
  0
LINE
  5
10F
330
D8
100
AcDbEntity
  8
AM_9
100
AcDbLine
 10
-22.9865615101287
 20
-4.400000000000001
 30
0.0
 11
22.9865615101287
 21
-4.400000000000001
 31
0.0
  0
LINE
  5
110
330
D8
100
AcDbEntity
  8
AM_9
100
AcDbLine
 10
-22.18095900231976
 20
-6.976666666666662
 30
0.0
 11
22.18095900231976
 21
-6.976666666666662
 31
0.0
  0
ARC
  5
111
330
D8
100
AcDbEntity
  8
AM_9
100
AcDbCircle
 10
4.389999999999674
 20
0.0000000000000711
 30
0.0
 40
19.11000000000034
100
AcDbArc
 50
338.5875329531161
 51
346.6884480428106
  0
ARC
  5
112
330
D8
100
AcDbEntity
  8
AM_9
100
AcDbCircle
 10
-4.390000000001038
 20
-0.0000000000003579
 30
0.0
 40
19.10999999999891
100
AcDbArc
 50
193.3115519571891
 51
201.4124670468842
  0
LINE
  5
113
330
D8
100
AcDbEntity
  8
AM_9
100
AcDbLine
 10
-23.34358805081508
 20
-2.440000000000008
 30
0.0
 11
23.34358805081508
 21
-2.440000000000008
 31
0.0
  0
LINE
  5
114
330
D8
100
AcDbEntity
  8
AM_9
100
AcDbLine
 10
-22.18095900231976
 20
6.97666666666667
 30
0.0
 11
22.18095900231976
 21
6.976666666666669
 31
0.0
  0
ARC
  5
115
330
D8
100
AcDbEntity
  8
AM_9
100
AcDbCircle
 10
4.38999999999875
 20
-0.0000000000001539
 30
0.0
 40
19.11000000000123
100
AcDbArc
 50
352.6643447152247
 51
21.41246704688312
  0
ARC
  5
116
330
D8
100
AcDbEntity
  8
AM_9
100
AcDbCircle
 10
-4.390000000001486
 20
0.0000000000005418
 30
0.0
 40
19.10999999999843
100
AcDbArc
 50
158.5875329531158
 51
163.9956794174337
  0
ARC
  5
117
330
D8
100
AcDbEntity
  8
AM_9
100
AcDbCircle
 10
-4.390000000000228
 20
-0.000000000000008
 30
0.0
 40
19.10999999999978
100
AcDbArc
 50
172.9389838806043
 51
187.3356552847762
  0
LINE
  5
118
330
D8
100
AcDbEntity
  8
AM_9
100
AcDbLine
 10
-23.35571499655005
 20
2.343875992802515
 30
0.0
 11
-23.16363636363636
 21
3.340925975751261
 31
0.0
  0
LINE
  5
119
330
D8
100
AcDbEntity
  8
AM_9
100
AcDbLine
 10
-22.75897384209841
 20
5.269999998568003
 30
0.0
 11
-23.16363636363636
 21
3.340925975751259
 31
0.0
  0
LINE
  5
11C
330
D8
100
AcDbEntity
  8
AM_7
100
AcDbLine
 10
-2.581425
 20
-12.925
 30
0.0
 11
2.581425
 21
-12.925
 31
0.0
  0
LINE
  5
11D
330
D8
100
AcDbEntity
  8
AM_7
100
AcDbLine
 10
-25.015
 20
3.8
 30
0.0
 11
-13.685
 21
3.8
 31
0.0
  0
ELLIPSE
  5
11E
330
D8
100
AcDbEntity
  8
AM_4
100
AcDbEllipse
 10
12.57908194444282
 20
-12.925
 30
0.0
 11
-4.516191233555653E-16
 21
-2.458500000000001
 31
0.0
210
0.0
220
0.0
230
1.0
 40
0.4226182617406995
 41
5.860886879264629
 42
9.827832069169213
  0
LWPOLYLINE
  5
11F
330
D8
100
AcDbEntity
  8
AM_4
100
AcDbPolyline
 90
       14
 70
     0
 43
0.0
 10
12.28143774284512
 20
-15.33290355712764
 10
12.15206304008521
 20
-15.15134376645291
 10
11.99778943837001
 20
-14.87476212705914
 10
11.85237515432348
 20
-14.52921378257799
 10
11.73454297560182
 20
-14.14645239770457
 10
11.643466234992
 20
-13.7019117676407
 10
11.59313133141612
 20
-13.23741362344328
 10
11.58700218968463
 20
-12.74357266878966
 10
11.62786714116931
 20
-12.2547607017474
 10
11.7157620593566
 20
-11.78018781695172
 10
11.84572795004446
 20
-11.33894885809431
 10
12.00876451567335
 20
-10.95340179390224
 10
12.19915308863607
 20
-10.62766859446936
 10
12.2811981340382
 20
-10.51739545111312
  0
LINE
  5
120
330
D8
100
AcDbEntity
  8
AM_4
100
AcDbLine
 10
13.36632076400133
 20
-10.53914098565232
 30
0.0
 11
13.41015879963524
 21
-10.63047995319906
 31
0.0
  0
LINE
  5
121
330
D8
100
AcDbEntity
  8
AM_4
100
AcDbLine
 10
12.2811981340382
 20
-10.51739545111312
 30
0.0
 11
12.35677717921272
 21
-10.42939529283546
 31
0.0
  0
LINE
  5
122
330
D8
100
AcDbEntity
  8
AM_4
100
AcDbLine
 10
-13.632
 20
-18.5
 30
0.0
 11
13.632
 21
-18.5
 31
0.0
  0
LINE
  5
123
330
D8
100
AcDbEntity
  8
AM_4
100
AcDbLine
 10
13.632
 20
-18.5
 30
0.0
 11
14.19999999999999
 21
-17.932
 31
0.0
  0
LINE
  5
124
330
D8
100
AcDbEntity
  8
AM_4
100
AcDbLine
 10
-14.19999999999999
 20
-17.932
 30
0.0
 11
-13.632
 21
-18.5
 31
0.0
  0
CIRCLE
  5
125
330
D8
100
AcDbEntity
  8
AM_4
100
AcDbCircle
 10
0.0
 20
-12.925
 30
0.0
 40
2.4585
  0
LINE
  5
126
330
D8
100
AcDbEntity
  8
AM_4
100
AcDbLine
 10
-14.19999999999999
 20
-17.932
 30
0.0
 11
14.2
 21
-17.932
 31
0.0
  0
LWPOLYLINE
  5
127
330
D8
100
AcDbEntity
  8
AM_4
100
AcDbPolyline
 90
       39
 70
     0
 43
0.0
 10
-1.84482330239466
 20
-11.01053869051313
 10
-1.568403645116922
 20
-10.73691585827776
 10
-1.246588841699499
 20
-10.50275814630883
 10
-0.8580324651156949
 20
-10.309051861861
 10
-0.4257519485436734
 20
-10.18524842128114
 10
-0.0285618552640979
 20
-10.14615676312593
 10
0.3820670469985
 20
-10.17756064067514
 10
0.7525038192215198
 20
-10.27053531622929
 10
1.112316722916235
 20
-10.42598189900226
 10
1.444549126872761
 20
-10.63759870648068
 10
1.747107958543727
 20
-10.90446741576208
 10
2.019107637687176
 20
-11.23235672161994
 10
2.24256337648978
 20
-11.60773997075655
 10
2.414097909878521
 20
-12.03680106882288
 10
2.518319681075976
 20
-12.50001759165002
 10
2.547871734482005
 20
-12.98463510997857
 10
2.496623723621503
 20
-13.48115686349472
 10
2.366130818833288
 20
-13.9547550806938
 10
2.151183706127569
 20
-14.41204795003058
 10
1.873894839384274
 20
-14.80559855825153
 10
1.519389397974152
 20
-15.15389012327435
 10
1.14421834464263
 20
-15.40677350507759
 10
0.7135744213210737
 20
-15.59227662219036
 10
0.3122819925712345
 20
-15.68296109405406
 10
-0.1127177680293106
 20
-15.7012841237231
 10
-0.4938879364736571
 20
-15.65104873554269
 10
-0.8718078439305702
 20
-15.53550332354096
 10
-1.21865398861447
 20
-15.36413701948664
 10
-1.542164325404181
 20
-15.13518265523079
 10
-1.838549519507215
 20
-14.84662300288688
 10
-2.092965386261797
 20
-14.50756050231458
 10
-2.304118703512016
 20
-14.10968172510301
 10
-2.454134014862151
 20
-13.672130245704
 10
-2.535919140616682
 20
-13.19960957761146
 10
-2.540536572575414
 20
-12.7066162670775
 10
-2.464981311849928
 20
-12.22139467210302
 10
-2.305058833687531
 20
-11.74248727159158
 10
-2.105891182369268
 20
-11.3629220243567
 10
-1.844823302683163
 20
-11.01053869031857
  0
LWPOLYLINE
  5
128
330
D8
100
AcDbEntity
  8
AM_4
100
AcDbPolyline
 90
       20
 70
     0
 43
0.0
 10
13.41015879963524
 20
-10.63047995319906
 10
13.50691000436207
 20
-10.89404626418737
 10
13.58526183337692
 20
-11.19973556161743
 10
13.65234377677635
 20
-11.58312808264466
 10
13.699246614586
 20
-11.99883303653073
 10
13.728585334334
 20
-12.46732715135145
 10
13.73761917670179
 20
-12.9479412308579
 10
13.72599755992226
 20
-13.44313729776599
 10
13.69263677209235
 20
-13.92370677706077
 10
13.63601611613184
 20
-14.37552891193498
 10
13.55429006106655
 20
-14.78444113491465
 10
13.44914193418145
 20
-15.12441696899381
 10
13.31719796216385
 20
-15.39736925123036
 10
13.17152564885941
 20
-15.57713829791072
 10
13.00506419677467
 20
-15.68066957271946
 10
12.83865101086029
 20
-15.70256753907602
 10
12.66309642787316
 20
-15.65573114668642
 10
12.4905658941539
 20
-15.54654454303158
 10
12.32045333818749
 20
-15.37987504878287
 10
12.28143774284512
 20
-15.33290355712764
  0
LINE
  5
129
330
D8
100
AcDbEntity
  8
AM_4
100
AcDbLine
 10
14.2
 20
-17.932
 30
0.0
 11
14.2
 21
-10.64157371717872
 31
0.0
  0
LINE
  5
12A
330
D8
100
AcDbEntity
  8
AM_4
100
AcDbLine
 10
-14.2
 20
-10.64157371717872
 30
0.0
 11
-14.2
 21
-17.932
 31
0.0
  0
LINE
  5
12B
330
D8
100
AcDbEntity
  8
AM_4
100
AcDbLine
 10
-13.632
 20
12.7
 30
0.0
 11
13.632
 21
12.7
 31
0.0
  0
LINE
  5
12C
330
D8
100
AcDbEntity
  8
AM_4
100
AcDbLine
 10
-13.632
 20
12.7
 30
0.0
 11
-14.20000000000002
 21
12.132
 31
0.0
  0
LINE
  5
12D
330
D8
100
AcDbEntity
  8
AM_4
100
AcDbLine
 10
14.20000000000002
 20
12.132
 30
0.0
 11
13.632
 21
12.7
 31
0.0
  0
LINE
  5
12E
330
D8
100
AcDbEntity
  8
AM_4
100
AcDbLine
 10
-14.20000000000002
 20
12.132
 30
0.0
 11
14.20000000000003
 21
12.132
 31
0.0
  0
LINE
  5
12F
330
D8
100
AcDbEntity
  8
AM_4
100
AcDbLine
 10
14.20000000000003
 20
10.64157371717873
 30
0.0
 11
14.20000000000003
 21
12.132
 31
0.0
  0
LINE
  5
130
330
D8
100
AcDbEntity
  8
AM_4
100
AcDbLine
 10
-14.20000000000003
 20
12.132
 30
0.0
 11
-14.20000000000003
 21
10.64157371717873
 31
0.0
  0
ARC
  5
132
330
D8
100
AcDbEntity
  8
AM_5
100
AcDbCircle
 10
-0.0000000000000001
 20
-12.925
 30
0.0
 40
3.0
100
AcDbArc
 50
75.0
 51
15.00000000000004
  0
ARC
  5
133
330
D8
100
AcDbEntity
  8
AM_5
100
AcDbCircle
 10
0.0000000000000003
 20
-12.5
 30
0.0
 40
3.0
100
AcDbArc
 50
75.00000000000001
 51
15.00000000000002
  0
ENDBLK
  5
DB
330
D8
100
AcDbEntity
  8
0
100
AcDbBlockEnd
  0
BLOCK
  5
136
330
134
100
AcDbEntity
  8
0
100
AcDbBlockBegin
  2
4_125851H_0_in_125851_4
 70
     2
 10
0.0
 20
0.0
 30
0.0
  3
4_125851H_0_in_125851_4
  1

  0
ATTDEF
  5
138
330
134
100
AcDbEntity
  8
AM_6
100
AcDbText
 10
71.7
 20
18.7
 30
0.0
 40
0.5
  1
P2B-SC -M-Housing
100
AcDbAttributeDefinition
  3

  2
NN
 70
     8
280
     0
  0
ATTDEF
  5
139
330
134
100
AcDbEntity
  8
AM_6
100
AcDbText
 10
71.7
 20
18.2
 30
0.0
 40
0.5
  1
SC Pillow Block Bearings -(Normal Duty)
100
AcDbAttributeDefinition
  3

  2
NT
 70
     8
280
     0
  0
ATTDEF
  5
13A
330
134
100
AcDbEntity
  8
AM_6
100
AcDbText
 10
71.7
 20
17.7
 30
0.0
 40
0.5
  1
125851H
100
AcDbAttributeDefinition
  3

  2
NB
 70
     8
280
     0
  0
ATTDEF
  5
13B
330
134
100
AcDbEntity
  8
AM_6
100
AcDbText
 10
71.7
 20
17.2
 30
0.0
 40
0.5
  1
$PN.H
100
AcDbAttributeDefinition
  3

  2
NBSYN
 70
     8
280
     0
  0
ATTDEF
  5
13C
330
134
100
AcDbEntity
  8
AM_6
100
AcDbText
 10
71.7
 20
16.7
 30
0.0
 40
0.5
  1
125851
100
AcDbAttributeDefinition
  3

  2
LINA
 70
     8
280
     0
  0
ATTDEF
  5
13D
330
134
100
AcDbEntity
  8
AM_6
100
AcDbText
 10
71.7
 20
16.2
 30
0.0
 40
0.5
  1
204
100
AcDbAttributeDefinition
  3

  2
SERIES
 70
     8
280
     0
  0
ATTDEF
  5
13E
330
134
100
AcDbEntity
  8
AM_6
100
AcDbText
 10
71.7
 20
15.7
 30
0.0
 40
0.5
  1
20
100
AcDbAttributeDefinition
  3

  2
SS
 70
     8
280
     0
  0
ATTDEF
  5
13F
330
134
100
AcDbEntity
  8
AM_6
100
AcDbText
 10
71.7
 20
15.2
 30
0.0
 40
0.5
  1
125851
100
AcDbAttributeDefinition
  3

  2
PN
 70
     8
280
     0
  0
ATTDEF
  5
140
330
134
100
AcDbEntity
  8
AM_6
100
AcDbText
 10
71.7
 20
14.7
 30
0.0
 40
0.5
  1
P2B-SC-20M
100
AcDbAttributeDefinition
  3

  2
DESCRIPTION
 70
     8
280
     0
  0
ATTDEF
  5
141
330
134
100
AcDbEntity
  8
AM_6
100
AcDbText
 10
71.7
 20
14.2
 30
0.0
 40
0.5
  1
1
100
AcDbAttributeDefinition
  3

  2
LF1
 70
     8
280
     0
  0
ATTDEF
  5
142
330
134
100
AcDbEntity
  8
AM_6
100
AcDbText
 10
71.7
 20
13.7
 30
0.0
 40
0.5
  1
31.2
100
AcDbAttributeDefinition
  3

  2
A
 70
     8
280
     0
  0
ATTDEF
  5
143
330
134
100
AcDbEntity
  8
AM_6
100
AcDbText
 10
71.7
 20
13.2
 30
0.0
 40
0.5
  1
133.4
100
AcDbAttributeDefinition
  3

  2
B
 70
     8
280
     0
  0
ATTDEF
  5
144
330
134
100
AcDbEntity
  8
AM_6
100
AcDbText
 10
71.7
 20
12.7
 30
0.0
 40
0.5
  1
34.0
100
AcDbAttributeDefinition
  3

  2
C
 70
     8
280
     0
  0
ATTDEF
  5
145
330
134
100
AcDbEntity
  8
AM_6
100
AcDbText
 10
71.7
 20
12.2
 30
0.0
 40
0.5
  1
85.9
100
AcDbAttributeDefinition
  3

  2
DMIN
 70
     8
280
     0
  0
ATTDEF
  5
146
330
134
100
AcDbEntity
  8
AM_6
100
AcDbText
 10
71.7
 20
11.7
 30
0.0
 40
0.5
  1
106.4
100
AcDbAttributeDefinition
  3

  2
DMAX
 70
     8
280
     0
  0
ATTDEF
  5
147
330
134
100
AcDbEntity
  8
AM_6
100
AcDbText
 10
71.7
 20
11.2
 30
0.0
 40
0.5
  1
M10
100
AcDbAttributeDefinition
  3

  2
F
 70
     8
280
     0
  0
ATTDEF
  5
148
330
134
100
AcDbEntity
  8
AM_6
100
AcDbText
 10
71.7
 20
10.7
 30
0.0
 40
0.5
  1
21.6
100
AcDbAttributeDefinition
  3

  2
G
 70
     8
280
     0
  0
ATTDEF
  5
149
330
134
100
AcDbEntity
  8
AM_6
100
AcDbText
 10
71.7
 20
10.2
 30
0.0
 40
0.5
  1
13.5
100
AcDbAttributeDefinition
  3

  2
H
 70
     8
280
     0
  0
ATTDEF
  5
14A
330
134
100
AcDbEntity
  8
AM_6
100
AcDbText
 10
71.7
 20
9.7
 30
0.0
 40
0.5
  1
65.0
100
AcDbAttributeDefinition
  3

  2
J
 70
     8
280
     0
  0
ATTDEF
  5
14B
330
134
100
AcDbEntity
  8
AM_6
100
AcDbText
 10
71.7
 20
9.2
 30
0.0
 40
0.5
  1
28.4
100
AcDbAttributeDefinition
  3

  2
L
 70
     8
280
     0
  0
ATTDEF
  5
14C
330
134
100
AcDbEntity
  8
AM_6
100
AcDbText
 10
71.7
 20
8.7
 30
0.0
 40
0.5
  1
33.3
100
AcDbAttributeDefinition
  3

  2
M
 70
     8
280
     0
  0
ATTDEF
  5
14D
330
134
100
AcDbEntity
  8
AM_6
100
AcDbText
 10
71.7
 20
8.2
 30
0.0
 40
0.5
  1
12.7
100
AcDbAttributeDefinition
  3

  2
R
 70
     8
280
     0
  0
ATTDEF
  5
14E
330
134
100
AcDbEntity
  8
AM_6
100
AcDbText
 10
71.7
 20
7.699999999999999
 30
0.0
 40
0.5
  1
18.5
100
AcDbAttributeDefinition
  3

  2
S
 70
     8
280
     0
  0
ATTDEF
  5
14F
330
134
100
AcDbEntity
  8
AM_6
100
AcDbText
 10
71.7
 20
7.199999999999999
 30
0.0
 40
0.5
  1
57.2
100
AcDbAttributeDefinition
  3

  2
U
 70
     8
280
     0
  0
ATTDEF
  5
150
330
134
100
AcDbEntity
  8
AM_6
100
AcDbText
 10
71.7
 20
6.699999999999999
 30
0.0
 40
0.5
  1
114.3
100
AcDbAttributeDefinition
  3

  2
V
 70
     8
280
     0
  0
ATTDEF
  5
151
330
134
100
AcDbEntity
  8
AM_6
100
AcDbText
 10
71.7
 20
6.199999999999999
 30
0.0
 40
0.5
  1
12.7
100
AcDbAttributeDefinition
  3

  2
W
 70
     8
280
     0
  0
ATTDEF
  5
152
330
134
100
AcDbEntity
  8
AM_6
100
AcDbText
 10
71.7
 20
5.699999999999999
 30
0.0
 40
0.5
  1
3.0
100
AcDbAttributeDefinition
  3

  2
X
 70
     8
280
     0
  0
ATTDEF
  5
153
330
134
100
AcDbEntity
  8
AM_6
100
AcDbText
 10
71.7
 20
5.199999999999999
 30
0.0
 40
0.5
  1
baldor
100
AcDbAttributeDefinition
  3

  2
COMPANY
 70
     8
280
     0
  0
LINE
  5
154
330
134
100
AcDbEntity
  8
AM_9
100
AcDbLine
 10
-24.5
 20
-15.21904761904762
 30
0.0
 11
-24.5
 21
-8.500000000000002
 31
0.0
  0
LINE
  5
155
330
134
100
AcDbEntity
  8
AM_9
100
AcDbLine
 10
-23.15
 20
-13.6225111893259
 30
0.0
 11
-23.15
 21
-8.500000000000002
 31
0.0
  0
LINE
  5
156
330
134
100
AcDbEntity
  8
AM_9
100
AcDbLine
 10
-24.5
 20
3.933636363636365
 30
0.0
 11
-24.5
 21
15.2190476431733
 31
0.0
  0
LINE
  5
157
330
134
100
AcDbEntity
  8
AM_9
100
AcDbLine
 10
-23.15
 20
8.499999999999998
 30
0.0
 11
-23.15
 21
13.6225111893259
 31
0.0
  0
LINE
  5
158
330
134
100
AcDbEntity
  8
AM_9
100
AcDbLine
 10
24.5
 20
-5.100000000000001
 30
0.0
 11
24.5
 21
15.21904761904763
 31
0.0
  0
LINE
  5
159
330
134
100
AcDbEntity
  8
AM_9
100
AcDbLine
 10
23.15000000000001
 20
8.499999999999998
 30
0.0
 11
23.15000000000001
 21
13.6225111893259
 31
0.0
  0
LINE
  5
15A
330
134
100
AcDbEntity
  8
AM_9
100
AcDbLine
 10
24.5
 20
-15.21904761904763
 30
0.0
 11
24.5
 21
-8.500000000000002
 31
0.0
  0
LINE
  5
15B
330
134
100
AcDbEntity
  8
AM_9
100
AcDbLine
 10
23.15000000000001
 20
-13.62251118932591
 30
0.0
 11
23.15000000000001
 21
-8.500000000000002
 31
0.0
  0
LINE
  5
15C
330
134
100
AcDbEntity
  8
AM_9
100
AcDbLine
 10
-56.05
 20
4.762352359916267
 30
0.0
 11
-56.05
 21
8.499999999999998
 31
0.0
  0
LINE
  5
15D
330
134
100
AcDbEntity
  8
AM_9
100
AcDbLine
 10
-58.75000000000001
 20
-8.500000000000002
 30
0.0
 11
-58.75000000000001
 21
8.499999999999998
 31
0.0
  0
LINE
  5
15E
330
134
100
AcDbEntity
  8
AM_9
100
AcDbLine
 10
-34.6073087174299
 20
-8.500000000000002
 30
0.0
 11
-34.6073087174299
 21
8.499999999999998
 31
0.0
  0
LINE
  5
15F
330
134
100
AcDbEntity
  8
AM_9
100
AcDbLine
 10
-56.05
 20
-8.500000000000002
 30
0.0
 11
-56.05
 21
-4.762352359916269
 31
0.0
  0
LINE
  5
160
330
134
100
AcDbEntity
  8
AM_9
100
AcDbLine
 10
56.05
 20
-8.500000000000002
 30
0.0
 11
56.05
 21
-4.762352359916271
 31
0.0
  0
LINE
  5
161
330
134
100
AcDbEntity
  8
AM_9
100
AcDbLine
 10
58.75000000000001
 20
-8.500000000000002
 30
0.0
 11
58.75000000000001
 21
8.499999999999998
 31
0.0
  0
LINE
  5
162
330
134
100
AcDbEntity
  8
AM_9
100
AcDbLine
 10
34.60730871742985
 20
-8.500000000000002
 30
0.0
 11
34.60730871742985
 21
8.499999999999998
 31
0.0
  0
LINE
  5
163
330
134
100
AcDbEntity
  8
AM_9
100
AcDbLine
 10
56.05
 20
4.762352359916265
 30
0.0
 11
56.05
 21
8.499999999999998
 31
0.0
  0
LINE
  5
164
330
134
100
AcDbEntity
  8
AM_9
100
AcDbLine
 10
-31.11325160854582
 20
-8.500000000000002
 30
0.0
 11
-31.11325160854582
 21
8.499999999999998
 31
0.0
  0
LINE
  5
165
330
134
100
AcDbEntity
  8
AM_9
100
AcDbLine
 10
31.11325160854582
 20
-8.500000000000002
 30
0.0
 11
31.11325160854582
 21
8.499999999999998
 31
0.0
  0
LINE
  5
166
330
134
100
AcDbEntity
  8
AM_9
100
AcDbLine
 10
16.82752009871433
 20
-8.500000000000002
 30
0.0
 11
16.82752009871433
 21
8.499999999999998
 31
0.0
  0
LINE
  5
167
330
134
100
AcDbEntity
  8
AM_9
100
AcDbLine
 10
-16.82751997513237
 20
-8.500000000000002
 30
0.0
 11
-16.82751997513237
 21
8.499999999999998
 31
0.0
  0
LINE
  5
168
330
134
100
AcDbEntity
  8
AM_9
100
AcDbLine
 10
-22.16875024881001
 20
-8.500000000000002
 30
0.0
 11
-22.16875024881001
 21
8.499999999999998
 31
0.0
  0
LINE
  5
169
330
134
100
AcDbEntity
  8
AM_9
100
AcDbLine
 10
22.16875024881001
 20
-8.500000000000002
 30
0.0
 11
22.16875024881001
 21
8.499999999999998
 31
0.0
  0
LINE
  5
16A
330
134
100
AcDbEntity
  8
AM_9
100
AcDbLine
 10
58.75000000000001
 20
-8.500000000000002
 30
0.0
 11
-58.75000000000001
 21
-8.500000000000002
 31
0.0
  0
LINE
  5
16B
330
134
100
AcDbEntity
  8
AM_9
100
AcDbLine
 10
58.75000000000001
 20
8.499999999999998
 30
0.0
 11
-58.75000000000001
 21
8.499999999999998
 31
0.0
  0
LINE
  5
16C
330
134
100
AcDbEntity
  8
AM_9
100
AcDbLine
 10
22.36626924634504
 20
-5.1
 30
0.0
 11
22.36626924634504
 21
12.08155339805825
 31
0.0
  0
LINE
  5
16D
330
134
100
AcDbEntity
  8
AM_9
100
AcDbLine
 10
24.5
 20
-5.100000000000001
 30
0.0
 11
21.26617031813674
 21
-5.1
 31
0.0
  0
LINE
  5
16E
330
134
100
AcDbEntity
  8
AM_9
100
AcDbLine
 10
-22.36626924634504
 20
-5.1
 30
0.0
 11
-22.36626924634504
 21
12.08155339805825
 31
0.0
  0
LINE
  5
16F
330
134
100
AcDbEntity
  8
AM_9
100
AcDbLine
 10
-21.26617031813674
 20
-5.1
 30
0.0
 11
-24.5
 21
-5.100000000000001
 31
0.0
  0
LINE
  5
170
330
134
100
AcDbEntity
  8
AM_9
100
AcDbLine
 10
-24.5
 20
3.666363636363634
 30
0.0
 11
-24.5
 21
-5.100000000000001
 31
0.0
  0
LINE
  5
171
330
134
100
AcDbEntity
  8
AM_9
100
AcDbLine
 10
14.2
 20
-13.6
 30
0.0
 11
-14.2
 21
-13.6
 31
0.0
  0
LINE
  5
172
330
134
100
AcDbEntity
  8
AM_9
100
AcDbLine
 10
-21.26617031813674
 20
-5.1
 30
0.0
 11
-21.26617031813674
 21
12.08155339805825
 31
0.0
  0
LINE
  5
173
330
134
100
AcDbEntity
  8
AM_9
100
AcDbLine
 10
21.26617031813674
 20
12.08155339805825
 30
0.0
 11
21.26617031813674
 21
-5.1
 31
0.0
  0
LINE
  5
174
330
134
100
AcDbEntity
  8
AM_9
100
AcDbLine
 10
23.5
 20
-13.72252405571494
 30
0.0
 11
23.5
 21
-5.100000000000001
 31
0.0
  0
LINE
  5
175
330
134
100
AcDbEntity
  8
AM_9
100
AcDbLine
 10
-23.5
 20
-5.100000000000001
 30
0.0
 11
-23.5
 21
-13.72252312994648
 31
0.0
  0
LINE
  5
176
330
134
100
AcDbEntity
  8
AM_9
100
AcDbLine
 10
18.87975105768082
 20
-2.750000000000024
 30
0.0
 11
22.4147407640572
 21
-2.750000000000024
 31
0.0
  0
LINE
  5
177
330
134
100
AcDbEntity
  8
AM_9
100
AcDbLine
 10
22.41521783545135
 20
2.750000000000026
 30
0.0
 11
18.87975105768082
 21
2.750000000000026
 31
0.0
  0
LWPOLYLINE
  5
178
330
134
100
AcDbEntity
  8
AM_9
100
AcDbPolyline
 90
       20
 70
     0
 43
0.0
 10
22.41510353029502
 20
-2.749999988029921
 10
22.6358282711481
 20
-2.732078369463735
 10
22.95032954680934
 20
-2.64088762310843
 10
23.24566591779361
 20
-2.475849625969818
 10
23.51428343811482
 20
-2.240316230789881
 10
23.74972645813377
 20
-1.942048193082928
 10
23.94664106084125
 20
-1.58735715161984
 10
24.10036327806322
 20
-1.187822126884559
 10
24.20697365387698
 20
-0.7541047458100241
 10
24.26479857929263
 20
-0.298975171666056
 10
24.27202882266593
 20
0.1632646066207845
 10
24.22942877934533
 20
0.6208903181766574
 10
24.13743766158724
 20
1.060063970243457
 10
23.99858790441455
 20
1.469474633099564
 10
23.81471754808634
 20
1.838037894789986
 10
23.59073431551092
 20
2.15495965588797
 10
23.33046278080083
 20
2.411153342914224
 10
23.04118175465326
 20
2.599294065291903
 10
22.73024584621549
 20
2.712872442140916
 10
22.41522280299522
 20
2.749999998594991
  0
LWPOLYLINE
  5
179
330
134
100
AcDbEntity
  8
AM_9
100
AcDbPolyline
 90
       12
 70
     0
 43
0.0
 10
22.41522280299522
 20
2.749999998594991
 10
22.4058684768158
 20
2.749967769631704
 10
22.07802345935823
 20
2.708669315617221
 10
21.75523016300327
 20
2.591507549884373
 10
21.44731268254445
 20
2.400828598201356
 10
21.16354457990692
 20
2.14302765350164
 10
20.9125844947508
 20
1.823359236426518
 10
20.70313763263695
 20
1.452337574758119
 10
20.5427139232054
 20
1.039080888071059
 10
20.43648807676024
 20
0.5963372345366971
 10
20.39888805304969
 20
0.2999655068159204
 10
20.38623667845194
 20
0.0000000000000015
  0
LINE
  5
17A
330
134
100
AcDbEntity
  8
AM_9
100
AcDbLine
 10
27.49221072114928
 20
-2.747134982240155
 30
0.0
 11
27.56998679468348
 21
-3.15360013386121
 31
0.0
  0
LWPOLYLINE
  5
17B
330
134
100
AcDbEntity
  8
AM_9
100
AcDbPolyline
 90
       10
 70
     0
 43
0.0
 10
27.49179343101389
 20
2.744785906143284
 10
27.437860491107
 20
2.421472249820048
 10
27.3417139062902
 20
1.693949311613721
 10
27.27889289808803
 20
0.9520515744454511
 10
27.2510474966165
 20
0.1743796831553129
 10
27.26165829521124
 20
-0.604925246444944
 10
27.30190168217984
 20
-1.275030339013129
 10
27.36986178401088
 20
-1.936309161956136
 10
27.46722773850437
 20
-2.602412626191714
 10
27.49221072114928
 20
-2.747134982240155
  0
LINE
  5
17C
330
134
100
AcDbEntity
  8
AM_9
100
AcDbLine
 10
27.57027354474843
 20
3.154998282350615
 30
0.0
 11
27.49179343101389
 21
2.744785906143284
 31
0.0
  0
LWPOLYLINE
  5
17D
330
134
100
AcDbEntity
  8
AM_9
100
AcDbPolyline
 90
       11
 70
     0
 43
0.0
 10
20.38623667845194
 20
0.0000000000000015
 10
20.41632128625035
 20
-0.4606659495345872
 10
20.50460660774988
 20
-0.908323280315125
 10
20.64880110798426
 20
-1.329959675583796
 10
20.84313314135532
 20
-1.714215020092523
 10
21.08230659229395
 20
-2.050454244088395
 10
21.35743017922978
 20
-2.328994335298363
 10
21.6605452549164
 20
-2.541378670130738
 10
21.98139498828039
 20
-2.681994814694735
 10
22.30944241084883
 20
-2.745664636733505
 10
22.41510353029502
 20
-2.749999988029921
  0
ELLIPSE
  5
17E
330
134
100
AcDbEntity
  8
AM_9
100
AcDbEllipse
 10
18.87975105768081
 20
0.0000000000000027
 30
0.0
 11
-5.051668046482916E-16
 21
-2.750000000000046
 31
0.0
210
0.0
220
0.0
230
1.0
 40
0.7071067811865479
 41
0.0
 42
6.283185307179586
  0
LINE
  5
17F
330
134
100
AcDbEntity
  8
AM_7
100
AcDbLine
 10
-58.77500000000001
 20
-12.7
 30
0.0
 11
-55.625
 21
-12.7
 31
0.0
  0
LINE
  5
180
330
134
100
AcDbEntity
  8
AM_7
100
AcDbLine
 10
-57.2
 20
-14.275
 30
0.0
 11
-57.2
 21
-11.125
 31
0.0
  0
LINE
  5
181
330
134
100
AcDbEntity
  8
AM_7
100
AcDbLine
 10
55.625
 20
-12.7
 30
0.0
 11
58.77500000000001
 21
-12.7
 31
0.0
  0
LINE
  5
182
330
134
100
AcDbEntity
  8
AM_7
100
AcDbLine
 10
57.2
 20
-14.275
 30
0.0
 11
57.2
 21
-11.125
 31
0.0
  0
LINE
  5
183
330
134
100
AcDbEntity
  8
AM_7
100
AcDbLine
 10
0.0
 20
18.7
 30
0.0
 11
0.0
 21
-20.06
 31
0.0
  0
LINE
  5
184
330
134
100
AcDbEntity
  8
AM_7
100
AcDbLine
 10
-59.0275
 20
-0.0000000000000004
 30
0.0
 11
-37.12250000000002
 21
-0.0000000000000009
 31
0.0
  0
LINE
  5
185
330
134
100
AcDbEntity
  8
AM_7
100
AcDbLine
 10
-53.20000000000002
 20
-5.82749999999999
 30
0.0
 11
-53.20000000000002
 21
5.82749999999999
 31
0.0
  0
LINE
  5
186
330
134
100
AcDbEntity
  8
AM_7
100
AcDbLine
 10
37.12250000000002
 20
-0.0000000000000013
 30
0.0
 11
59.0275
 21
-0.0000000000000022
 31
0.0
  0
LINE
  5
187
330
134
100
AcDbEntity
  8
AM_7
100
AcDbLine
 10
42.95000000000001
 20
-5.827499999999999
 30
0.0
 11
42.95000000000001
 21
5.827499999999995
 31
0.0
  0
LINE
  5
188
330
134
100
AcDbEntity
  8
AM_7
100
AcDbLine
 10
53.20000000000002
 20
-5.827499999999992
 30
0.0
 11
53.20000000000002
 21
5.827499999999988
 31
0.0
  0
LINE
  5
189
330
134
100
AcDbEntity
  8
AM_7
100
AcDbLine
 10
-42.95000000000001
 20
-5.827499999999998
 30
0.0
 11
-42.95000000000001
 21
5.827499999999996
 31
0.0
  0
LINE
  5
18A
330
134
100
AcDbEntity
  8
AM_4
100
AcDbLine
 10
-66.7
 20
-13.59999999999999
 30
0.0
 11
-63.30000000000001
 21
-16.99999999999999
 31
0.0
  0
LINE
  5
18B
330
134
100
AcDbEntity
  8
AM_4
100
AcDbLine
 10
-63.30000000000001
 20
17.0
 30
0.0
 11
-66.7
 21
13.6
 31
0.0
  0
LINE
  5
18C
330
134
100
AcDbEntity
  8
AM_4
100
AcDbLine
 10
-66.7
 20
-13.59999999999999
 30
0.0
 11
-66.7
 21
13.6
 31
0.0
  0
LINE
  5
18D
330
134
100
AcDbEntity
  8
AM_4
100
AcDbLine
 10
-64.00000000000001
 20
14.54615242270663
 30
0.0
 11
-64.00000000000001
 21
16.29999999999999
 31
0.0
  0
LINE
  5
18E
330
134
100
AcDbEntity
  8
AM_4
100
AcDbLine
 10
-64.00000000000001
 20
-16.29999999999999
 30
0.0
 11
-64.00000000000001
 21
-14.54615242270662
 31
0.0
  0
LINE
  5
18F
330
134
100
AcDbEntity
  8
AM_4
100
AcDbLine
 10
63.30000000000001
 20
-17.0
 30
0.0
 11
66.7
 21
-13.60000000000001
 31
0.0
  0
LINE
  5
190
330
134
100
AcDbEntity
  8
AM_4
100
AcDbLine
 10
66.7
 20
13.6
 30
0.0
 11
63.30000000000001
 21
17.0
 31
0.0
  0
LINE
  5
191
330
134
100
AcDbEntity
  8
AM_4
100
AcDbLine
 10
63.99999999999997
 20
-16.30000000000005
 30
0.0
 11
63.99999999999997
 21
-14.54615242270666
 31
0.0
  0
LINE
  5
192
330
134
100
AcDbEntity
  8
AM_4
100
AcDbLine
 10
66.7
 20
-13.60000000000001
 30
0.0
 11
66.7
 21
13.6
 31
0.0
  0
LINE
  5
193
330
134
100
AcDbEntity
  8
AM_4
100
AcDbLine
 10
63.99999999999997
 20
14.54615242270666
 30
0.0
 11
63.99999999999997
 21
16.30000000000004
 31
0.0
  0
LINE
  5
194
330
134
100
AcDbEntity
  8
AM_4
100
AcDbLine
 10
46.75304629175729
 20
-17.0
 30
0.0
 11
46.75304629175729
 21
-15.7
 31
0.0
  0
LINE
  5
195
330
134
100
AcDbEntity
  8
AM_4
100
AcDbLine
 10
-46.7530462917573
 20
-17.0
 30
0.0
 11
-46.7530462917573
 21
-15.7
 31
0.0
  0
LINE
  5
196
330
134
100
AcDbEntity
  8
AM_4
100
AcDbLine
 10
-46.7530462917573
 20
15.7
 30
0.0
 11
-46.7530462917573
 21
17.0
 31
0.0
  0
LINE
  5
197
330
134
100
AcDbEntity
  8
AM_4
100
AcDbLine
 10
46.75304629175729
 20
15.7
 30
0.0
 11
46.75304629175729
 21
17.0
 31
0.0
  0
ARC
  5
198
330
134
100
AcDbEntity
  8
AM_4
100
AcDbCircle
 10
-53.20000000000001
 20
0.0
 30
0.0
 40
5.549999999999999
100
AcDbArc
 50
90.0
 51
270.0
  0
CIRCLE
  5
199
330
134
100
AcDbEntity
  8
AM_4
100
AcDbCircle
 10
-57.2
 20
-12.7
 30
0.0
 40
1.5
  0
ARC
  5
19A
330
134
100
AcDbEntity
  8
AM_4
100
AcDbCircle
 10
-60.35000000000001
 20
-9.349999999999998
 30
0.0
 40
6.349999999999994
100
AcDbArc
 50
180.0
 51
270.0
  0
LINE
  5
19B
330
134
100
AcDbEntity
  8
AM_4
100
AcDbLine
 10
-42.95000000000001
 20
-5.550000000000001
 30
0.0
 11
-53.2
 21
-5.549999999999999
 31
0.0
  0
LINE
  5
19C
330
134
100
AcDbEntity
  8
AM_4
100
AcDbLine
 10
-53.2
 20
5.549999999999999
 30
0.0
 11
-42.95000000000001
 21
5.549999999999998
 31
0.0
  0
ARC
  5
19D
330
134
100
AcDbEntity
  8
AM_4
100
AcDbCircle
 10
-42.95000000000001
 20
-0.0000000000000027
 30
0.0
 40
5.549999999999998
100
AcDbArc
 50
270.0
 51
90.0
  0
LINE
  5
19E
330
134
100
AcDbEntity
  8
AM_4
100
AcDbLine
 10
-60.35000000000002
 20
-15.69999999999999
 30
0.0
 11
-42.95
 21
-15.7
 31
0.0
  0
LINE
  5
19F
330
134
100
AcDbEntity
  8
AM_4
100
AcDbLine
 10
-42.95000000000001
 20
15.7
 30
0.0
 11
-60.35
 21
15.7
 31
0.0
  0
ARC
  5
1A0
330
134
100
AcDbEntity
  8
AM_4
100
AcDbCircle
 10
-60.35000000000002
 20
9.350000000000016
 30
0.0
 40
6.349999999999984
100
AcDbArc
 50
90.0
 51
180.0
  0
LINE
  5
1A1
330
134
100
AcDbEntity
  8
AM_4
100
AcDbLine
 10
42.95000000000001
 20
5.549999999999999
 30
0.0
 11
53.2
 21
5.549999999999997
 31
0.0
  0
ARC
  5
1A2
330
134
100
AcDbEntity
  8
AM_4
100
AcDbCircle
 10
42.95000000000001
 20
0.0
 30
0.0
 40
5.549999999999999
100
AcDbArc
 50
90.0
 51
270.0
  0
CIRCLE
  5
1A3
330
134
100
AcDbEntity
  8
AM_4
100
AcDbCircle
 10
57.2
 20
-12.7
 30
0.0
 40
1.5
  0
ARC
  5
1A4
330
134
100
AcDbEntity
  8
AM_4
100
AcDbCircle
 10
53.20000000000001
 20
-0.0000000000000031
 30
0.0
 40
5.549999999999999
100
AcDbArc
 50
270.0
 51
90.0
  0
LINE
  5
1A5
330
134
100
AcDbEntity
  8
AM_4
100
AcDbLine
 10
53.2
 20
-5.550000000000002
 30
0.0
 11
42.95000000000001
 21
-5.55
 31
0.0
  0
ARC
  5
1A6
330
134
100
AcDbEntity
  8
AM_4
100
AcDbCircle
 10
60.34999999999998
 20
9.349999999999984
 30
0.0
 40
6.350000000000023
100
AcDbArc
 50
0.0
 51
90.0
  0
LINE
  5
1A7
330
134
100
AcDbEntity
  8
AM_4
100
AcDbLine
 10
60.35000000000002
 20
15.7
 30
0.0
 11
42.95
 21
15.7
 31
0.0
  0
LINE
  5
1A8
330
134
100
AcDbEntity
  8
AM_4
100
AcDbLine
 10
42.95
 20
-15.7
 30
0.0
 11
60.35
 21
-15.7
 31
0.0
  0
ARC
  5
1A9
330
134
100
AcDbEntity
  8
AM_4
100
AcDbCircle
 10
60.34999999999998
 20
-9.349999999999984
 30
0.0
 40
6.350000000000016
100
AcDbArc
 50
270.0
 51
0.0
  0
LINE
  5
1AA
330
134
100
AcDbEntity
  8
AM_4
100
AcDbLine
 10
22.36626924634504
 20
12.08155339805825
 30
0.0
 11
22.36626924634504
 21
13.6
 31
0.0
  0
LWPOLYLINE
  5
1AB
330
134
100
AcDbEntity
  8
AM_4
100
AcDbPolyline
 90
        7
 70
     0
 43
0.0
 10
22.88095238095238
 20
13.6
 10
23.15785653251098
 20
13.62385506528071
 10
23.40973233796194
 20
13.68878393268218
 10
23.63728203957742
 20
13.78747124387541
 10
23.83781917861968
 20
13.91301502976598
 10
24.05728706120592
 20
14.10659451316522
 10
24.23262456994275
 20
14.3278139312565
  0
LWPOLYLINE
  5
1AC
330
134
100
AcDbEntity
  8
AM_4
100
AcDbPolyline
 90
        3
 70
     0
 43
0.0
 10
24.5
 20
13.73203883495146
 10
24.40677010324777
 20
14.08446958111068
 10
24.23262456994276
 20
14.3278139312565
  0
LINE
  5
1AD
330
134
100
AcDbEntity
  8
AM_4
100
AcDbLine
 10
22.88095238095238
 20
13.6
 30
0.0
 11
-22.88095238095238
 21
13.6
 31
0.0
  0
LWPOLYLINE
  5
1AE
330
134
100
AcDbEntity
  8
AM_4
100
AcDbPolyline
 90
        7
 70
     0
 43
0.0
 10
-24.23262456994275
 20
14.3278139312565
 10
-24.05776556415844
 20
14.10710071178262
 10
-23.83781917861968
 20
13.91301502976598
 10
-23.63967793130475
 20
13.78874186309971
 10
-23.41512585151589
 20
13.69065830473994
 10
-23.16183369019902
 20
13.62455055637875
 10
-22.88095238095238
 20
13.6
  0
LINE
  5
1AF
330
134
100
AcDbEntity
  8
AM_4
100
AcDbLine
 10
-22.36626924634503
 20
12.08155339805825
 30
0.0
 11
-22.36626924634503
 21
13.6
 31
0.0
  0
LWPOLYLINE
  5
1B0
330
134
100
AcDbEntity
  8
AM_4
100
AcDbPolyline
 90
        6
 70
     0
 43
0.0
 10
-24.5
 20
13.73203883495146
 10
-24.40677010324777
 20
13.37960808879224
 10
-24.1277899487991
 20
13.02985955341479
 10
-23.66518274408218
 20
12.68545502635729
 10
-23.02246920925476
 20
12.34901563402776
 10
-22.36626924634504
 20
12.08155339805825
  0
LWPOLYLINE
  5
1B1
330
134
100
AcDbEntity
  8
AM_4
100
AcDbPolyline
 90
       14
 70
     0
 43
0.0
 10
-29.1448314875102
 20
7.477119922922196
 10
-29.84903826209014
 20
8.651866939673884
 10
-30.65295126607256
 20
9.76076802487456
 10
-31.55045223608121
 20
10.79538377169307
 10
-32.53471064780841
 20
11.74784012957806
 10
-33.59823570042945
 20
12.61088833053714
 10
-34.73293332611989
 20
13.37796005663827
 10
-35.93016779079907
 20
14.04321742887524
 10
-37.18082741728085
 20
14.60159743695195
 10
-38.47539393063877
 20
15.04885047184787
 10
-39.80401489802554
 20
15.38157266790867
 10
-41.15657871163607
 20
15.59723180831917
 10
-42.52279154414845
 20
15.6941865968023
 10
-42.95
 20
15.70000000000001
  0
LINE
  5
1B2
330
134
100
AcDbEntity
  8
AM_4
100
AcDbLine
 10
-44.27067894108608
 20
15.7
 30
0.0
 11
-44.27067894108608
 21
17.0
 31
0.0
  0
LWPOLYLINE
  5
1B3
330
134
100
AcDbEntity
  8
AM_4
100
AcDbPolyline
 90
       14
 70
     0
 43
0.0
 10
-42.95000000000001
 20
-15.7
 10
-41.58165483886178
 20
-15.6402567600404
 10
-40.22372361062921
 20
-15.46148172229167
 10
-38.88654099189044
 20
-15.16503547273837
 10
-37.58028374978701
 20
-14.75317414633876
 10
-36.31489329067104
 20
-14.22903225647541
 10
-35.10000000000002
 20
-13.59659883941569
 10
-33.94484994928859
 20
-12.86068709533718
 10
-32.85823452792135
 20
-12.02689775696797
 10
-31.84842353537122
 20
-11.10157646462881
 10
-30.92310224303206
 20
-10.09176547207868
 10
-30.08931290466284
 20
-9.00515005071144
 10
-29.35340116058433
 20
-7.850000000000018
 10
-29.1448314875102
 20
-7.477119922922187
  0
LINE
  5
1B4
330
134
100
AcDbEntity
  8
AM_4
100
AcDbLine
 10
-44.27067894108608
 20
-17.0
 30
0.0
 11
-44.27067894108608
 21
-15.7
 31
0.0
  0
LWPOLYLINE
  5
1B5
330
134
100
AcDbEntity
  8
AM_4
100
AcDbPolyline
 90
       14
 70
     0
 43
0.0
 10
42.95
 20
15.7
 10
41.58165483886177
 20
15.6402567600404
 10
40.2237236106292
 20
15.46148172229167
 10
38.88654099189043
 20
15.16503547273837
 10
37.58028374978701
 20
14.75317414633876
 10
36.31489329067103
 20
14.22903225647541
 10
35.10000000000002
 20
13.59659883941569
 10
33.94484994928859
 20
12.86068709533718
 10
32.85823452792135
 20
12.02689775696796
 10
31.84842353537122
 20
11.10157646462881
 10
30.92310224303206
 20
10.09176547207868
 10
30.08931290466284
 20
9.005150050711439
 10
29.35340116058433
 20
7.850000000000017
 10
29.14483148751019
 20
7.477119922922173
  0
LINE
  5
1B6
330
134
100
AcDbEntity
  8
AM_4
100
AcDbLine
 10
44.27067894108608
 20
15.7
 30
0.0
 11
44.27067894108608
 21
17.0
 31
0.0
  0
LWPOLYLINE
  5
1B7
330
134
100
AcDbEntity
  8
AM_4
100
AcDbPolyline
 90
       14
 70
     0
 43
0.0
 10
29.14483148751018
 20
-7.477119922922165
 10
29.84903826209012
 20
-8.651866939673855
 10
30.65295126607255
 20
-9.760768024874537
 10
31.55045223608119
 20
-10.79538377169305
 10
32.53471064780838
 20
-11.74784012957804
 10
33.59823570042943
 20
-12.61088833053712
 10
34.73293332611987
 20
-13.37796005663825
 10
35.93016779079905
 20
-14.04321742887523
 10
37.18082741728082
 20
-14.60159743695194
 10
38.47539393063874
 20
-15.04885047184785
 10
39.80401489802551
 20
-15.38157266790866
 10
41.15657871163605
 20
-15.59723180831917
 10
42.52279154414842
 20
-15.6941865968023
 10
42.95
 20
-15.70000000000001
  0
LINE
  5
1B8
330
134
100
AcDbEntity
  8
AM_4
100
AcDbLine
 10
44.27067894108608
 20
-17.0
 30
0.0
 11
44.27067894108608
 21
-15.7
 31
0.0
  0
LINE
  5
1B9
330
134
100
AcDbEntity
  8
AM_4
100
AcDbLine
 10
-14.2
 20
-13.6
 30
0.0
 11
-22.88095238095238
 21
-13.59999999999999
 31
0.0
  0
LINE
  5
1BA
330
134
100
AcDbEntity
  8
AM_4
100
AcDbLine
 10
22.88095238095238
 20
-13.6
 30
0.0
 11
14.2
 21
-13.6
 31
0.0
  0
LWPOLYLINE
  5
1BB
330
134
100
AcDbEntity
  8
AM_4
100
AcDbPolyline
 90
        7
 70
     0
 43
0.0
 10
22.88095238095238
 20
-13.6
 10
23.0519563000964
 20
-13.60905605000723
 10
23.19575194871924
 20
-13.63089887762648
 10
23.31231562258329
 20
-13.65852176328187
 10
23.40103281692985
 20
-13.68580545524636
 10
23.47641894039361
 20
-13.71347969652437
 10
23.49999999998555
 20
-13.72302113595544
  0
LINE
  5
1BC
330
134
100
AcDbEntity
  8
AM_4
100
AcDbLine
 10
21.26617031813674
 20
12.08155339805825
 30
0.0
 11
21.26617031813674
 21
13.6
 31
0.0
  0
LINE
  5
1BD
330
134
100
AcDbEntity
  8
AM_4
100
AcDbLine
 10
-21.26617031813674
 20
13.6
 30
0.0
 11
-21.26617031813674
 21
12.08155339805825
 31
0.0
  0
LWPOLYLINE
  5
1BE
330
134
100
AcDbEntity
  8
AM_4
100
AcDbPolyline
 90
        6
 70
     0
 43
0.0
 10
-23.49999999998543
 20
-13.72302113595538
 10
-23.47632693093392
 20
-13.7134433091514
 10
-23.40014852491364
 20
-13.68550578497866
 10
-23.27051790594621
 20
-13.64756618597879
 10
-23.08756870044949
 20
-13.61323788895465
 10
-22.88095238095238
 20
-13.59999999999999
  0
LINE
  5
1BF
330
134
100
AcDbEntity
  8
AM_4
100
AcDbLine
 10
-22.36626924634504
 20
12.08155339805825
 30
0.0
 11
-21.26617031813674
 21
12.08155339805825
 31
0.0
  0
LWPOLYLINE
  5
1C0
330
134
100
AcDbEntity
  8
AM_4
100
AcDbPolyline
 90
        3
 70
     0
 43
0.0
 10
-24.23262456994276
 20
14.3278139312565
 10
-24.4550178683653
 20
13.97696225740764
 10
-24.5
 20
13.73203883495146
  0
LWPOLYLINE
  5
1C1
330
134
100
AcDbEntity
  8
AM_4
100
AcDbPolyline
 90
        8
 70
     0
 43
0.0
 10
-24.5
 20
15.21904764317331
 10
-24.49383903710838
 20
15.07793834529958
 10
-24.47540303287582
 20
14.93790297420318
 10
-24.44483229642649
 20
14.80000728361383
 10
-24.4023594895239
 20
14.6653007430006
 10
-24.34830785587434
 20
14.5348085504756
 10
-24.28308876104717
 20
14.40952383041727
 10
-24.23262456994275
 20
14.3278139312565
  0
LINE
  5
1C2
330
134
100
AcDbEntity
  8
AM_4
100
AcDbLine
 10
-24.5
 20
15.21904764317331
 30
0.0
 11
-24.5
 21
15.38095238095237
 31
0.0
  0
LWPOLYLINE
  5
1C3
330
134
100
AcDbEntity
  8
AM_4
100
AcDbPolyline
 90
       19
 70
     0
 43
0.0
 10
-24.5
 20
15.38095238095235
 10
-24.50616096499432
 20
15.52206167873428
 10
-24.52459697131357
 20
15.66209704955596
 10
-24.5551677098177
 20
15.79999273968977
 10
-24.59764051872757
 20
15.93469927967011
 10
-24.65169215432161
 20
16.06519147138969
 10
-24.71691125101566
 20
16.19047619047617
 10
-24.79280145210353
 20
16.30959994456834
 10
-24.87878518733117
 20
16.42165612996867
 10
-24.9742080685551
 20
16.52579193144487
 10
-25.07834387003131
 20
16.62121481266881
 10
-25.19040005543163
 20
16.70719854789645
 10
-25.3095238095238
 20
16.78308874898432
 10
-25.43480852861029
 20
16.84830784567838
 10
-25.56530072032986
 20
16.90235948127242
 10
-25.70000726031019
 20
16.9448322901823
 10
-25.83790295044401
 20
16.97540302868643
 10
-25.97793832126569
 20
16.99383903500568
 10
-26.11904761904761
 20
17.0
  0
LINE
  5
1C4
330
134
100
AcDbEntity
  8
AM_4
100
AcDbLine
 10
-63.30000000000001
 20
17.0
 30
0.0
 11
-26.11904761904763
 21
17.0
 31
0.0
  0
LINE
  5
1C5
330
134
100
AcDbEntity
  8
AM_4
100
AcDbLine
 10
-29.1448314875102
 20
11.67409595439563
 30
0.0
 11
-42.95000000000001
 21
17.0
 31
0.0
  0
LINE
  5
1C6
330
134
100
AcDbEntity
  8
AM_4
100
AcDbLine
 10
42.95
 20
17.0
 30
0.0
 11
29.14483148751019
 21
11.67409595439563
 31
0.0
  0
LINE
  5
1C7
330
134
100
AcDbEntity
  8
AM_4
100
AcDbLine
 10
26.11904761904762
 20
17.0
 30
0.0
 11
63.30000000000001
 21
17.0
 31
0.0
  0
LWPOLYLINE
  5
1C8
330
134
100
AcDbEntity
  8
AM_4
100
AcDbPolyline
 90
       19
 70
     0
 43
0.0
 10
26.119047559952
 20
17.0
 10
25.97793826239495
 20
16.99383902985516
 10
25.83790289224619
 20
16.97540301842458
 10
25.70000720322822
 20
16.94483227488723
 10
25.56530066479815
 20
16.90235946106052
 10
25.43480847505148
 20
16.84830782070349
 10
25.3095237583455
 20
16.78308871943651
 10
25.19040000702334
 20
16.7071985140006
 10
25.07834382476145
 20
16.62121477468288
 10
24.9742080267682
 20
16.52579188965796
 10
24.87878514934524
 20
16.4216560846988
 10
24.79280141820768
 20
16.30959989616005
 10
24.71691122146786
 20
16.19047613929787
 10
24.65169212934673
 20
16.06519141783087
 10
24.59764049851568
 20
15.9346992241384
 10
24.55516769452263
 20
15.7999926826078
 10
24.52459696105172
 20
15.66209699135814
 10
24.5061609598438
 20
15.52206161986354
 10
24.5
 20
15.38095238095237
  0
LINE
  5
1C9
330
134
100
AcDbEntity
  8
AM_4
100
AcDbLine
 10
24.5
 20
15.38095238095237
 30
0.0
 11
24.5
 21
15.21904761904763
 31
0.0
  0
LWPOLYLINE
  5
1CA
330
134
100
AcDbEntity
  8
AM_4
100
AcDbPolyline
 90
        8
 70
     0
 43
0.0
 10
24.23262456994275
 20
14.3278139312565
 10
24.30515718320382
 20
14.44901133809216
 10
24.36685073796139
 20
14.57606918598652
 10
24.41723570901215
 20
14.70802048799745
 10
24.45592863630315
 20
14.8438610150423
 10
24.48263504329426
 20
14.98255693868749
 10
24.49715167810252
 20
15.12305269920721
 10
24.5
 20
15.21904761904764
  0
LWPOLYLINE
  5
1CB
330
134
100
AcDbEntity
  8
AM_4
100
AcDbPolyline
 90
        6
 70
     0
 43
0.0
 10
22.36626924634504
 20
12.08155339805825
 10
23.15271626677797
 20
12.40957117545254
 10
23.76295713642842
 20
12.74765373026342
 10
24.19234755380482
 20
13.09322805010895
 10
24.43761959855792
 20
13.44366410575163
 10
24.5
 20
13.73203883495146
  0
LINE
  5
1CC
330
134
100
AcDbEntity
  8
AM_4
100
AcDbLine
 10
21.26617031813674
 20
12.08155339805825
 30
0.0
 11
22.36626924634504
 21
12.08155339805825
 31
0.0
  0
LWPOLYLINE
  5
1CD
330
134
100
AcDbEntity
  8
AM_4
100
AcDbPolyline
 90
       27
 70
     0
 43
0.0
 10
-21.26617031813673
 20
12.08155339805825
 10
-20.31368869216729
 20
11.7819216557604
 10
-19.20660762950985
 20
11.49713148270914
 10
-17.95335268552508
 20
11.2293503040824
 10
-16.56346188707272
 20
10.98061609634023
 10
-15.04751314236801
 20
10.75282187699335
 10
-13.41704373671302
 20
10.54770129759693
 10
-11.68446252678914
 20
10.36681544961534
 10
-9.862955501765017
 20
10.2115409835736
 10
-7.966385429957108
 20
10.08305963191557
 10
-6.009186354792183
 20
9.982349215306522
 10
-4.006253743021365
 20
9.91017620082747
 10
-1.972831121224006
 20
9.867089868697855
 10
0.0756059366338682
 20
9.853418131921421
 10
2.123467587661846
 20
9.869265040670257
 10
4.155168368162932
 20
9.914509990400163
 10
6.155245808423039
 20
9.988808639724041
 10
8.108478111442013
 20
10.09159553105779
 10
9.999999999999966
 20
10.22208839409394
 10
11.81541585039283
 20
10.37929409935103
 10
13.54090925182105
 20
10.56201621648867
 10
15.16334815761837
 20
10.76886411986479
 10
16.67038482805626
 20
10.99826357203654
 10
18.05054980409907
 20
11.2484687046577
 10
19.29333919691273
 20
11.51757530559105
 10
20.38929462880115
 20
11.80353531111247
 10
21.26617031813673
 20
12.08155339805825
  0
LINE
  5
1CE
330
134
100
AcDbEntity
  8
AM_4
100
AcDbLine
 10
24.49999999999999
 20
-15.21904761904762
 30
0.0
 11
24.49999999999999
 21
-15.38095238095238
 31
0.0
  0
LWPOLYLINE
  5
1CF
330
134
100
AcDbEntity
  8
AM_4
100
AcDbPolyline
 90
       19
 70
     0
 43
0.0
 10
24.5
 20
-15.38095238095238
 10
24.50616096499431
 20
-15.52206167873431
 10
24.52459697131357
 20
-15.66209704955599
 10
24.5551677098177
 20
-15.7999927396898
 10
24.59764051872758
 20
-15.93469927967013
 10
24.65169215432162
 20
-16.06519147138971
 10
24.71691125101567
 20
-16.19047619047619
 10
24.79280145210354
 20
-16.30959994456837
 10
24.87878518733118
 20
-16.42165612996869
 10
24.97420806855511
 20
-16.52579193144489
 10
25.07834387003132
 20
-16.62121481266882
 10
25.19040005543164
 20
-16.70719854789647
 10
25.30952380952381
 20
-16.78308874898433
 10
25.43480852861029
 20
-16.84830784567839
 10
25.56530072032987
 20
-16.90235948127243
 10
25.7000072603102
 20
-16.9448322901823
 10
25.83790295044401
 20
-16.97540302868644
 10
25.97793832126569
 20
-16.99383903500568
 10
26.11904761904762
 20
-17.0
  0
LINE
  5
1D0
330
134
100
AcDbEntity
  8
AM_4
100
AcDbLine
 10
26.11904761904762
 20
-17.0
 30
0.0
 11
63.30000000000001
 21
-17.0
 31
0.0
  0
LINE
  5
1D1
330
134
100
AcDbEntity
  8
AM_4
100
AcDbLine
 10
29.14483148751019
 20
-11.67409595439562
 30
0.0
 11
42.95
 21
-17.0
 31
0.0
  0
LINE
  5
1D2
330
134
100
AcDbEntity
  8
AM_4
100
AcDbLine
 10
-42.95000000000001
 20
-17.0
 30
0.0
 11
-29.1448314875102
 21
-11.67409595439562
 31
0.0
  0
LINE
  5
1D3
330
134
100
AcDbEntity
  8
AM_4
100
AcDbLine
 10
-63.30000000000001
 20
-16.99999999999999
 30
0.0
 11
-26.11904761904762
 21
-17.0
 31
0.0
  0
LWPOLYLINE
  5
1D4
330
134
100
AcDbEntity
  8
AM_4
100
AcDbPolyline
 90
       19
 70
     0
 43
0.0
 10
-26.11904761904763
 20
-17.0
 10
-25.9779383212657
 20
-16.99383903500568
 10
-25.83790295044403
 20
-16.97540302868643
 10
-25.70000726031021
 20
-16.9448322901823
 10
-25.56530072032988
 20
-16.90235948127242
 10
-25.4348085286103
 20
-16.84830784567838
 10
-25.30952380952382
 20
-16.78308874898433
 10
-25.19040005543165
 20
-16.70719854789646
 10
-25.07834387003133
 20
-16.62121481266882
 10
-24.97420806855512
 20
-16.52579193144489
 10
-24.87878518733118
 20
-16.42165612996868
 10
-24.79280145210354
 20
-16.30959994456835
 10
-24.71691125101567
 20
-16.19047619047619
 10
-24.65169215432162
 20
-16.0651914713897
 10
-24.59764051872758
 20
-15.93469927967012
 10
-24.5551677098177
 20
-15.79999273968979
 10
-24.52459697131357
 20
-15.66209704955598
 10
-24.50616096499432
 20
-15.5220616787343
 10
-24.5
 20
-15.38095238095238
  0
LINE
  5
1D5
330
134
100
AcDbEntity
  8
AM_4
100
AcDbLine
 10
-24.5
 20
-15.38095238095237
 30
0.0
 11
-24.50000000000001
 21
-15.21904761904762
 31
0.0
  0
LWPOLYLINE
  5
1D6
330
134
100
AcDbEntity
  8
AM_4
100
AcDbPolyline
 90
       15
 70
     0
 43
0.0
 10
-23.49993611286979
 20
-13.72299470141222
 10
-23.62797029611986
 20
-13.78263562133853
 10
-23.75031922197376
 20
-13.85320850389668
 10
-23.86605174122943
 20
-13.93417624683734
 10
-23.97428705953414
 20
-14.02492263674706
 10
-24.07420144076131
 20
-14.12475703880447
 10
-24.16503447613985
 20
-14.23291965292824
 10
-24.24609487142405
 20
-14.34858729631453
 10
-24.31676570806019
 20
-14.47087966835514
 10
-24.37650913830925
 20
-14.59886605025667
 10
-24.42487047859295
 20
-14.73157238837257
 10
-24.46148166991038
 20
-14.8679887073395
 10
-24.48606407898916
 20
-15.0070767965997
 10
-24.49843061885295
 20
-15.1477781118102
 10
-24.5
 20
-15.21904761904762
  0
LWPOLYLINE
  5
1D7
330
134
100
AcDbEntity
  8
AM_4
100
AcDbPolyline
 90
       37
 70
     0
 43
0.0
 10
23.49993611288589
 20
-13.7229947014189
 10
23.40573590455869
 20
-13.38498421834449
 10
23.13340391322805
 20
-13.04961503045977
 10
22.68501274978657
 20
-12.719439499786
 10
22.063974941734
 20
-12.39697046147702
 10
21.27501696178252
 20
-12.08466209962651
 10
20.3241432565454
 20
-11.7848912694451
 10
19.21859054907275
 20
-11.49993940795703
 10
17.9667727630194
 20
-11.23197517088688
 10
16.57821698760546
 20
-10.98303792787997
 10
15.06349097071474
 20
-10.755022241668
 10
13.43412269195236
 20
-10.54966344930269
 10
11.70251262775914
 20
-10.36852445519296
 10
9.881839376298368
 20
-10.2129838364587
 10
7.985959360366206
 20
-10.08422535112648
 10
6.029301371647557
 20
-9.983228929016164
 10
4.026756758898965
 20
-9.91076321388333
 10
1.993566095792943
 20
-9.86737971357613
 10
-0.0547968090501846
 20
-9.853408602727574
 10
-2.102742677089222
 20
-9.868956209927205
 10
-4.134685403684868
 20
-9.913904208496339
 10
-6.135160677767166
 20
-9.987910517025515
 10
-8.088943674580353
 20
-10.0904119028206
 10
-9.981164925792255
 20
-10.22062826844366
 10
-11.79742348512671
 20
-10.37756858872551
 10
-13.5238965282603
 20
-10.56003845306566
 10
-15.14744455286183
 20
-10.76664915561815
 10
-16.655711378139
 20
-10.99582826418162
 10
-18.03721818283503
 20
-11.24583158735776
 10
-19.28145086598957
 20
-11.51475644890106
 10
-20.37894006559559
 20
-11.80055616823392
 10
-21.32133322616197
 20
-12.10105563692162
 10
-22.10145816670427
 20
-12.41396787256091
 10
-22.71337766537264
 20
-12.736911424097
 10
-23.15243464529511
 20
-13.06742849610405
 10
-23.41528761774462
 20
-13.40300365409242
 10
-23.49993611288579
 20
-13.72299470141222
  0
LWPOLYLINE
  5
1D8
330
134
100
AcDbEntity
  8
AM_4
100
AcDbPolyline
 90
       15
 70
     0
 43
0.0
 10
24.49999999999999
 20
-15.21904761904762
 10
24.49383903500568
 20
-15.0779383212657
 10
24.47540302868643
 20
-14.93790295044402
 10
24.44483229018229
 20
-14.80000726031021
 10
24.40235948127242
 20
-14.66530072032987
 10
24.34830784567838
 20
-14.5348085286103
 10
24.28308874898432
 20
-14.40952380952381
 10
24.20719854789646
 20
-14.29040005543164
 10
24.12121481266882
 20
-14.17834387003132
 10
24.02579193144488
 20
-14.07420806855512
 10
23.92165612996868
 20
-13.97878518733118
 10
23.80959994456835
 20
-13.89280145210354
 10
23.69047619047619
 20
-13.81691125101568
 10
23.5651914713897
 20
-13.75169215432162
 10
23.49993611288588
 20
-13.72299470141889
  0
LINE
  5
1D9
330
134
100
AcDbEntity
  8
AM_4
100
AcDbLine
 10
-29.1448314875102
 20
-11.67409595439562
 30
0.0
 11
-29.1448314875102
 21
-7.477119922922183
 31
0.0
  0
LWPOLYLINE
  5
1DA
330
134
100
AcDbEntity
  8
AM_4
100
AcDbPolyline
 90
       28
 70
     0
 43
0.0
 10
-29.14483148751021
 20
-11.67409595439563
 10
-27.94720668407202
 20
-11.26268073376086
 10
-26.53688676278328
 20
-10.87005881931535
 10
-24.92460510981943
 20
-10.4992183008996
 10
-23.1226321620818
 20
-10.15298149877841
 10
-21.14468202176371
 20
-9.833983484079388
 10
-19.00580808375193
 20
-9.544652024310682
 10
-16.72228847020209
 20
-9.287189106584236
 10
-14.31150214420018
 20
-9.063554179164312
 10
-11.79179664535964
 20
-8.875449238883034
 10
-9.182348453966423
 20
-8.72430587791681
 10
-6.503017046384941
 20
-8.611274388505455
 10
-3.774193752451418
 20
-8.537215008533664
 10
-1.016646565141244
 20
-8.502691374601298
 10
1.748637916397635
 20
-8.507966232408526
 10
4.500614207536285
 20
-8.552999437102384
 10
7.218338107010426
 20
-8.637448258803367
 10
9.881126094938502
 20
-8.76066999098673
 10
12.46871274689703
 20
-8.921726841867244
 10
14.96140496603707
 20
-9.119393071560923
 10
17.34023185944226
 20
-9.352164320705667
 10
19.58708911807882
 20
-9.618269059544362
 10
21.68487680151904
 20
-9.915682070336006
 10
23.61762947881308
 20
-10.24213986048559
 10
25.37063773505879
 20
-10.59515788908948
 10
26.93056011893078
 20
-10.97204947579188
 10
28.28552467918092
 20
-11.36994624804462
 10
29.14483148751019
 20
-11.67409595439562
  0
LINE
  5
1DB
330
134
100
AcDbEntity
  8
AM_4
100
AcDbLine
 10
29.14483148751019
 20
-11.67409595439562
 30
0.0
 11
29.14483148751019
 21
-7.477119922922178
 31
0.0
  0
LWPOLYLINE
  5
1DC
330
134
100
AcDbEntity
  8
AM_4
100
AcDbPolyline
 90
       10
 70
     0
 43
0.0
 10
27.56998679468348
 20
-3.15360013386121
 10
27.59015656135509
 20
-3.250416825626662
 10
27.73477978786011
 20
-3.871207127500938
 10
27.89908470494817
 20
-4.467655848560261
 10
28.08438470860986
 20
-5.050044311298648
 10
28.28373404140336
 20
-5.602735299093587
 10
28.48914408765809
 20
-6.113381516869511
 10
28.70184058542759
 20
-6.593933067368194
 10
28.92238790905702
 20
-7.050962597235833
 10
29.14483148751019
 20
-7.477119922922178
  0
LWPOLYLINE
  5
1DD
330
134
100
AcDbEntity
  8
AM_4
100
AcDbPolyline
 90
        9
 70
     0
 43
0.0
 10
29.14483148751019
 20
7.477119922922185
 10
28.8922196998752
 20
6.990618831590116
 10
28.64252891518569
 20
6.464230128731679
 10
28.39491626406145
 20
5.885492589717976
 10
28.15926339266771
 20
5.265368991108126
 10
27.94438698484868
 20
4.617410939299994
 10
27.75065809155014
 20
3.933192793398213
 10
27.57804306101799
 20
3.192314566121373
 10
27.57027354474843
 20
3.154998282350615
  0
LINE
  5
1DE
330
134
100
AcDbEntity
  8
AM_4
100
AcDbLine
 10
29.14483148751019
 20
7.477119922922185
 30
0.0
 11
29.14483148751019
 21
11.67409595439563
 31
0.0
  0
LWPOLYLINE
  5
1DF
330
134
100
AcDbEntity
  8
AM_4
100
AcDbPolyline
 90
       28
 70
     0
 43
0.0
 10
29.14483148751019
 20
11.67409595439563
 10
27.947206684072
 20
11.26268073376086
 10
26.53688676278325
 20
10.87005881931535
 10
24.9246051098194
 20
10.49921830089961
 10
23.12263216208178
 20
10.15298149877841
 10
21.14468202176369
 20
9.83398348407939
 10
19.00580808375189
 20
9.544652024310684
 10
16.72228847020206
 20
9.28718910658424
 10
14.31150214420014
 20
9.063554179164317
 10
11.7917966453596
 20
8.87544923888304
 10
9.18234845396639
 20
8.724305877916818
 10
6.503017046384908
 20
8.611274388505459
 10
3.774193752451385
 20
8.53721500853367
 10
1.016646565141211
 20
8.502691374601305
 10
-1.748637916397667
 20
8.507966232408533
 10
-4.500614207536317
 20
8.552999437102395
 10
-7.218338107010456
 20
8.637448258803374
 10
-9.88112609493853
 20
8.760669990986738
 10
-12.46871274689706
 20
8.921726841867253
 10
-14.9614049660371
 20
9.119393071560934
 10
-17.34023185944228
 20
9.352164320705677
 10
-19.58708911807884
 20
9.618269059544371
 10
-21.68487680151906
 20
9.915682070336016
 10
-23.6176294788131
 20
10.2421398604856
 10
-25.3706377350588
 20
10.59515788908949
 10
-26.93056011893079
 20
10.97204947579189
 10
-28.28552467918093
 20
11.36994624804463
 10
-29.1448314875102
 20
11.67409595439563
  0
LINE
  5
1E0
330
134
100
AcDbEntity
  8
AM_4
100
AcDbLine
 10
-29.1448314875102
 20
7.477119922922189
 30
0.0
 11
-29.1448314875102
 21
11.67409595439563
 31
0.0
  0
LWPOLYLINE
  5
1E1
330
134
100
AcDbEntity
  8
AM_4
100
AcDbPolyline
 90
       25
 70
     0
 43
0.0
 10
-29.1448314875102
 20
-7.477119922922183
 10
-28.89221969987521
 20
-6.990618831590118
 10
-28.6425289151857
 20
-6.46423012873168
 10
-28.39491626406145
 20
-5.88549258971798
 10
-28.15926339266772
 20
-5.26536899110813
 10
-27.94438698484868
 20
-4.617410939299996
 10
-27.75065809155014
 20
-3.933192793398213
 10
-27.57804306101798
 20
-3.192314566121374
 10
-27.437860491107
 20
-2.421472249820049
 10
-27.3417139062902
 20
-1.693949311613721
 10
-27.27889289808803
 20
-0.9520515744454529
 10
-27.2510474966165
 20
-0.1743796831553156
 10
-27.26165829521124
 20
0.6049252464449404
 10
-27.30190168217984
 20
1.275030339013125
 10
-27.36986178401088
 20
1.936309161956133
 10
-27.46722773850437
 20
2.602412626191711
 10
-27.59015656135509
 20
3.25041682562666
 10
-27.73477978786011
 20
3.87120712750094
 10
-27.89908470494817
 20
4.467655848560265
 10
-28.08438470860986
 20
5.050044311298655
 10
-28.28373404140336
 20
5.602735299093593
 10
-28.48914408765809
 20
6.113381516869519
 10
-28.7018405854276
 20
6.593933067368202
 10
-28.92238790905703
 20
7.050962597235847
 10
-29.1448314875102
 20
7.477119922922197
  0
ENDBLK
  5
137
330
134
100
AcDbEntity
  8
0
100
AcDbBlockEnd
  0
ENDSEC
  0
SECTION
  2
ENTITIES
  0
INSERT
  5
6F
330
1F
100
AcDbEntity
  8
0
100
AcDbBlockReference
  2
1_125851_4
 10
0.0
 20
0.0
 30
0.0
  0
POINT
  5
1E3
330
1F
100
AcDbEntity
  8
ConnectionPoints
100
AcDbPoint
 10
0.0
 20
-18.5
 30
0.0000000000000011
  0
POINT
  5
1E4
330
1F
100
AcDbEntity
  8
ConnectionPoints
100
AcDbPoint
 10
22.41528496361356
 20
0.0000000000000014
 30
22.41528496361355
  0
POINT
  5
1E5
330
1F
100
AcDbEntity
  8
ConnectionPoints
100
AcDbPoint
 10
0.0
 20
-18.5
 30
0.0000000000000011
  0
ENDSEC
  0
SECTION
  2
OBJECTS
  0
DICTIONARY
  5
C
330
0
100
AcDbDictionary
281
     1
  3
ACAD_DETAILVIEWSTYLE
350
1ED
  3
ACAD_GROUP
350
D
  3
ACAD_LAYOUT
350
1A
  3
ACAD_MATERIAL
350
43
  3
ACAD_MLEADERSTYLE
350
6B
  3
ACAD_MLINESTYLE
350
17
  3
ACAD_PLOTSETTINGS
350
19
  3
ACAD_PLOTSTYLENAME
350
E
  3
ACAD_SCALELIST
350
47
  3
ACAD_SECTIONVIEWSTYLE
350
1EE
  3
ACAD_TABLESTYLE
350
69
  3
ACAD_VISUALSTYLE
350
2A
  3
ACDB_RECOMPOSE_DATA
350
1EA
  3
AcDbVariableDictionary
350
1E6
  0
SUN
  5
6D
330
29
100
AcDbSun
 90
        1
290
     0
 63
     7
421
 16777215
 40
1.0
291
     1
 91
  2455826
 92
 54000000
292
     0
 70
     2
 71
   256
280
     1
  0
DICTIONARY
  5
1ED
102
{ACAD_REACTORS
330
C
102
}
330
C
100
AcDbDictionary
281
     1
  0
DICTIONARY
  5
D
102
{ACAD_REACTORS
330
C
102
}
330
C
100
AcDbDictionary
281
     1
  0
DICTIONARY
  5
1A
102
{ACAD_REACTORS
330
C
102
}
330
C
100
AcDbDictionary
281
     1
  3
Layout1
350
1E
  3
Layout2
350
26
  3
Model
350
22
  0
DICTIONARY
  5
43
102
{ACAD_REACTORS
330
C
102
}
330
C
100
AcDbDictionary
281
     1
  3
ByBlock
350
45
  3
ByLayer
350
44
  3
Global
350
46
  0
DICTIONARY
  5
6B
102
{ACAD_REACTORS
330
C
102
}
330
C
100
AcDbDictionary
281
     1
  3
Standard
350
6C
  0
DICTIONARY
  5
17
102
{ACAD_REACTORS
330
C
102
}
330
C
100
AcDbDictionary
281
     1
  3
Standard
350
18
  0
DICTIONARY
  5
19
102
{ACAD_REACTORS
330
C
102
}
330
C
100
AcDbDictionary
281
     1
  0
ACDBDICTIONARYWDFLT
  5
E
102
{ACAD_REACTORS
330
C
102
}
330
C
100
AcDbDictionary
281
     1
  3
Normal
350
F
100
AcDbDictionaryWithDefault
340
F
  0
DICTIONARY
  5
47
102
{ACAD_REACTORS
330
C
102
}
330
C
100
AcDbDictionary
281
     1
  3
A0
350
48
  3
A1
350
49
  3
A2
350
4A
  3
A3
350
4B
  3
A4
350
4C
  3
A5
350
4D
  3
A6
350
4E
  3
A7
350
4F
  3
A8
350
50
  3
A9
350
51
  3
B0
350
52
  3
B1
350
53
  3
B2
350
54
  3
B3
350
55
  3
B4
350
56
  3
B5
350
57
  3
B6
350
58
  3
B7
350
59
  3
B8
350
5A
  3
B9
350
5B
  3
C0
350
5C
  3
C1
350
5D
  3
C2
350
5E
  3
C3
350
5F
  3
C4
350
60
  3
C5
350
61
  3
C6
350
62
  3
C7
350
63
  3
C8
350
64
  3
C9
350
65
  3
D0
350
66
  3
D1
350
67
  3
D2
350
68
  0
DICTIONARY
  5
1EE
102
{ACAD_REACTORS
330
C
102
}
330
C
100
AcDbDictionary
281
     1
  0
DICTIONARY
  5
69
102
{ACAD_REACTORS
330
C
102
}
330
C
100
AcDbDictionary
281
     1
  3
Standard
350
6A
  0
DICTIONARY
  5
2A
102
{ACAD_REACTORS
330
C
102
}
330
C
100
AcDbDictionary
281
     1
  3
2dWireframe
350
2F
  3
Basic
350
32
  3
Brighten
350
36
  3
ColorChange
350
3A
  3
Conceptual
350
34
  3
Dim
350
35
  3
EdgeColorOff
350
3D
  3
Facepattern
350
39
  3
Flat
350
2B
  3
FlatWithEdges
350
2C
  3
Gouraud
350
2D
  3
GouraudWithEdges
350
2E
  3
Hidden
350
31
  3
JitterOff
350
3B
  3
Linepattern
350
38
  3
OverhangOff
350
3C
  3
Realistic
350
33
  3
Shaded
350
42
  3
Shaded with edges
350
41
  3
Shades of Gray
350
3E
  3
Sketchy
350
3F
  3
Thicken
350
37
  3
Wireframe
350
30
  3
X-Ray
350
40
  0
XRECORD
  5
1EA
102
{ACAD_REACTORS
330
C
102
}
330
C
100
AcDbXrecord
280
     1
 90
        1
330
6A
  0
DICTIONARY
  5
1E6
102
{ACAD_REACTORS
330
C
102
}
330
C
100
AcDbDictionary
281
     1
  3
CANNOSCALE
350
1E7
  3
CMLEADERSTYLE
350
1EC
  3
CTABLESTYLE
350
1EB
  0
LAYOUT
  5
1E
102
{ACAD_REACTORS
330
1A
102
}
330
1A
100
AcDbPlotSettings
  1

  2
none_device
  4

  6

 40
0.0
 41
0.0
 42
0.0
 43
0.0
 44
0.0
 45
0.0
 46
0.0
 47
0.0
 48
0.0
 49
0.0
140
0.0
141
0.0
142
1.0
143
1.0
 70
   688
 72
     1
 73
     0
 74
     5
  7

 75
    16
 76
     0
 77
     2
 78
   300
147
1.0
148
0.0
149
0.0
100
AcDbLayout
  1
Layout1
 70
     1
 71
     1
 10
0.0
 20
0.0
 11
420.0
 21
297.0
 12
0.0
 22
0.0
 32
0.0
 14
1.000000000000000E+20
 24
1.000000000000000E+20
 34
1.000000000000000E+20
 15
-1.000000000000000E+20
 25
-1.000000000000000E+20
 35
-1.000000000000000E+20
146
0.0
 13
0.0
 23
0.0
 33
0.0
 16
1.0
 26
0.0
 36
0.0
 17
0.0
 27
1.0
 37
0.0
 76
     0
330
1B
  0
LAYOUT
  5
26
102
{ACAD_REACTORS
330
1A
102
}
330
1A
100
AcDbPlotSettings
  1

  2
none_device
  4

  6

 40
0.0
 41
0.0
 42
0.0
 43
0.0
 44
0.0
 45
0.0
 46
0.0
 47
0.0
 48
0.0
 49
0.0
140
0.0
141
0.0
142
1.0
143
1.0
 70
   688
 72
     1
 73
     0
 74
     5
  7

 75
    16
 76
     0
 77
     2
 78
   300
147
1.0
148
0.0
149
0.0
100
AcDbLayout
  1
Layout2
 70
     1
 71
     2
 10
0.0
 20
0.0
 11
0.0
 21
0.0
 12
0.0
 22
0.0
 32
0.0
 14
0.0
 24
0.0
 34
0.0
 15
0.0
 25
0.0
 35
0.0
146
0.0
 13
0.0
 23
0.0
 33
0.0
 16
1.0
 26
0.0
 36
0.0
 17
0.0
 27
1.0
 37
0.0
 76
     0
330
23
  0
LAYOUT
  5
22
102
{ACAD_REACTORS
330
1A
102
}
330
1A
100
AcDbPlotSettings
  1

  2
none_device
  4
Letter_(8.50_x_11.00_Inches)
  6

 40
6.35
 41
6.35
 42
6.35000508
 43
6.35000508
 44
215.9
 45
279.4
 46
0.0
 47
0.0
 48
0.0
 49
0.0
140
0.0
141
0.0
142
1.0
143
1.0
 70
  1712
 72
     1
 73
     0
 74
     0
  7

 75
     0
 76
     0
 77
     2
 78
   300
147
1.0
148
0.0
149
0.0
100
AcDbLayout
  1
Model
 70
     1
 71
     0
 10
0.0
 20
0.0
 11
420.0
 21
297.0
 12
0.0
 22
0.0
 32
0.0
 14
1.000000000000000E+20
 24
1.000000000000000E+20
 34
1.000000000000000E+20
 15
-1.000000000000000E+20
 25
-1.000000000000000E+20
 35
-1.000000000000000E+20
146
0.0
 13
0.0
 23
0.0
 33
0.0
 16
1.0
 26
0.0
 36
0.0
 17
0.0
 27
1.0
 37
0.0
 76
     0
330
1F
331
29
  0
MATERIAL
  5
45
102
{ACAD_REACTORS
330
43
102
}
330
43
100
AcDbMaterial
  1
ByBlock
 72
     1
 94
      127
  0
MATERIAL
  5
44
102
{ACAD_REACTORS
330
43
102
}
330
43
100
AcDbMaterial
  1
ByLayer
 72
     1
 94
      127
  0
MATERIAL
  5
46
102
{ACAD_REACTORS
330
43
102
}
330
43
100
AcDbMaterial
  1
Global
 72
     1
 94
      127
  0
MLEADERSTYLE
  5
6C
102
{ACAD_REACTORS
330
6B
102
}
330
6B
100
AcDbMLeaderStyle
179
     2
170
     2
171
     1
172
     0
 90
        2
 40
0.0
 41
0.0
173
     1
 91
-1056964608
340
14
 92
       -2
290
     1
 42
2.0
291
     1
 43
8.0
  3
Standard
341
0
 44
4.0
300

342
11
174
     1
178
     6
175
     1
176
     0
 93
-1056964608
 45
4.0
292
     0
297
     0
 46
4.0
343
0
 94
-1056964608
 47
1.0
 49
1.0
140
1.0
293
     1
141
0.0
294
     1
177
     0
142
1.0
295
     0
296
     0
143
3.75
271
     0
272
     9
273
     9
298
     0
  0
MLINESTYLE
  5
18
102
{ACAD_REACTORS
330
17
102
}
330
17
100
AcDbMlineStyle
  2
Standard
 70
     0
  3

 62
   256
 51
90.0
 52
90.0
 71
     2
 49
0.5
 62
   256
  6
BYLAYER
 49
-0.5
 62
   256
  6
BYLAYER
  0
ACDBPLACEHOLDER
  5
F
102
{ACAD_REACTORS
330
E
102
}
330
E
  0
SCALE
  5
48
102
{ACAD_REACTORS
330
47
102
}
330
47
100
AcDbScale
 70
     0
300
1:1
140
1.0
141
1.0
290
     1
  0
SCALE
  5
49
102
{ACAD_REACTORS
330
47
102
}
330
47
100
AcDbScale
 70
     0
300
1:2
140
1.0
141
2.0
290
     0
  0
SCALE
  5
4A
102
{ACAD_REACTORS
330
47
102
}
330
47
100
AcDbScale
 70
     0
300
1:4
140
1.0
141
4.0
290
     0
  0
SCALE
  5
4B
102
{ACAD_REACTORS
330
47
102
}
330
47
100
AcDbScale
 70
     0
300
1:5
140
1.0
141
5.0
290
     0
  0
SCALE
  5
4C
102
{ACAD_REACTORS
330
47
102
}
330
47
100
AcDbScale
 70
     0
300
1:8
140
1.0
141
8.0
290
     0
  0
SCALE
  5
4D
102
{ACAD_REACTORS
330
47
102
}
330
47
100
AcDbScale
 70
     0
300
1:10
140
1.0
141
10.0
290
     0
  0
SCALE
  5
4E
102
{ACAD_REACTORS
330
47
102
}
330
47
100
AcDbScale
 70
     0
300
1:16
140
1.0
141
16.0
290
     0
  0
SCALE
  5
4F
102
{ACAD_REACTORS
330
47
102
}
330
47
100
AcDbScale
 70
     0
300
1:20
140
1.0
141
20.0
290
     0
  0
SCALE
  5
50
102
{ACAD_REACTORS
330
47
102
}
330
47
100
AcDbScale
 70
     0
300
1:30
140
1.0
141
30.0
290
     0
  0
SCALE
  5
51
102
{ACAD_REACTORS
330
47
102
}
330
47
100
AcDbScale
 70
     0
300
1:40
140
1.0
141
40.0
290
     0
  0
SCALE
  5
52
102
{ACAD_REACTORS
330
47
102
}
330
47
100
AcDbScale
 70
     0
300
1:50
140
1.0
141
50.0
290
     0
  0
SCALE
  5
53
102
{ACAD_REACTORS
330
47
102
}
330
47
100
AcDbScale
 70
     0
300
1:100
140
1.0
141
100.0
290
     0
  0
SCALE
  5
54
102
{ACAD_REACTORS
330
47
102
}
330
47
100
AcDbScale
 70
     0
300
2:1
140
2.0
141
1.0
290
     0
  0
SCALE
  5
55
102
{ACAD_REACTORS
330
47
102
}
330
47
100
AcDbScale
 70
     0
300
4:1
140
4.0
141
1.0
290
     0
  0
SCALE
  5
56
102
{ACAD_REACTORS
330
47
102
}
330
47
100
AcDbScale
 70
     0
300
8:1
140
8.0
141
1.0
290
     0
  0
SCALE
  5
57
102
{ACAD_REACTORS
330
47
102
}
330
47
100
AcDbScale
 70
     0
300
10:1
140
10.0
141
1.0
290
     0
  0
SCALE
  5
58
102
{ACAD_REACTORS
330
47
102
}
330
47
100
AcDbScale
 70
     0
300
100:1
140
100.0
141
1.0
290
     0
  0
SCALE
  5
59
102
{ACAD_REACTORS
330
47
102
}
330
47
100
AcDbScale
 70
     0
300
1/128" = 1'-0"
140
0.0078125
141
12.0
290
     0
  0
SCALE
  5
5A
102
{ACAD_REACTORS
330
47
102
}
330
47
100
AcDbScale
 70
     0
300
1/64" = 1'-0"
140
0.015625
141
12.0
290
     0
  0
SCALE
  5
5B
102
{ACAD_REACTORS
330
47
102
}
330
47
100
AcDbScale
 70
     0
300
1/32" = 1'-0"
140
0.03125
141
12.0
290
     0
  0
SCALE
  5
5C
102
{ACAD_REACTORS
330
47
102
}
330
47
100
AcDbScale
 70
     0
300
1/16" = 1'-0"
140
0.0625
141
12.0
290
     0
  0
SCALE
  5
5D
102
{ACAD_REACTORS
330
47
102
}
330
47
100
AcDbScale
 70
     0
300
3/32" = 1'-0"
140
0.09375
141
12.0
290
     0
  0
SCALE
  5
5E
102
{ACAD_REACTORS
330
47
102
}
330
47
100
AcDbScale
 70
     0
300
1/8" = 1'-0"
140
0.125
141
12.0
290
     0
  0
SCALE
  5
5F
102
{ACAD_REACTORS
330
47
102
}
330
47
100
AcDbScale
 70
     0
300
3/16" = 1'-0"
140
0.1875
141
12.0
290
     0
  0
SCALE
  5
60
102
{ACAD_REACTORS
330
47
102
}
330
47
100
AcDbScale
 70
     0
300
1/4" = 1'-0"
140
0.25
141
12.0
290
     0
  0
SCALE
  5
61
102
{ACAD_REACTORS
330
47
102
}
330
47
100
AcDbScale
 70
     0
300
3/8" = 1'-0"
140
0.375
141
12.0
290
     0
  0
SCALE
  5
62
102
{ACAD_REACTORS
330
47
102
}
330
47
100
AcDbScale
 70
     0
300
1/2" = 1'-0"
140
0.5
141
12.0
290
     0
  0
SCALE
  5
63
102
{ACAD_REACTORS
330
47
102
}
330
47
100
AcDbScale
 70
     0
300
3/4" = 1'-0"
140
0.75
141
12.0
290
     0
  0
SCALE
  5
64
102
{ACAD_REACTORS
330
47
102
}
330
47
100
AcDbScale
 70
     0
300
1" = 1'-0"
140
1.0
141
12.0
290
     0
  0
SCALE
  5
65
102
{ACAD_REACTORS
330
47
102
}
330
47
100
AcDbScale
 70
     0
300
1-1/2" = 1'-0"
140
1.5
141
12.0
290
     0
  0
SCALE
  5
66
102
{ACAD_REACTORS
330
47
102
}
330
47
100
AcDbScale
 70
     0
300
3" = 1'-0"
140
3.0
141
12.0
290
     0
  0
SCALE
  5
67
102
{ACAD_REACTORS
330
47
102
}
330
47
100
AcDbScale
 70
     0
300
6" = 1'-0"
140
6.0
141
12.0
290
     0
  0
SCALE
  5
68
102
{ACAD_REACTORS
330
47
102
}
330
47
100
AcDbScale
 70
     0
300
1'-0" = 1'-0"
140
12.0
141
12.0
290
     0
  0
TABLESTYLE
  5
6A
102
{ACAD_REACTORS
330
69
102
}
102
{ACAD_XDICTIONARY
360
1E8
102
}
330
69
100
AcDbTableStyle
  3
Standard
 70
     0
 71
     0
 40
0.06
 41
0.06
280
     0
281
     0
  7
Standard
140
4.5
170
     2
 62
     0
 63
   257
283
     0
 90
        4
 91
        0
  1

274
    -2
284
     1
 64
     0
275
    -2
285
     1
 65
     0
276
    -2
286
     1
 66
     0
277
    -2
287
     1
 67
     0
278
    -2
288
     1
 68
     0
279
    -2
289
     1
 69
     0
  7
Standard
140
6.0
170
     5
 62
     0
 63
   257
283
     0
 90
        4
 91
        0
  1

274
    -2
284
     1
 64
     0
275
    -2
285
     1
 65
     0
276
    -2
286
     1
 66
     0
277
    -2
287
     1
 67
     0
278
    -2
288
     1
 68
     0
279
    -2
289
     1
 69
     0
  7
Standard
140
4.5
170
     5
 62
     0
 63
   257
283
     0
 90
        4
 91
        0
  1

274
    -2
284
     1
 64
     0
275
    -2
285
     1
 65
     0
276
    -2
286
     1
 66
     0
277
    -2
287
     1
 67
     0
278
    -2
288
     1
 68
     0
279
    -2
289
     1
 69
     0
  0
VISUALSTYLE
  5
2F
102
{ACAD_REACTORS
330
2A
102
}
330
2A
100
AcDbVisualStyle
  2
2dWireframe
 70
     4
177
     3
291
     0
 70
    58
 90
        0
176
     1
 90
        2
176
     1
 90
        0
176
     1
 90
        0
176
     1
 40
0.6
176
     1
 40
30.0
176
     1
 62
     7
420
 16777215
176
     1
 90
        1
176
     1
 90
        4
176
     1
 62
     7
176
     1
 62
   257
176
     1
 90
        1
176
     1
 90
        1
176
     1
 40
1.0
176
     1
 90
        0
176
     1
 62
   257
176
     1
 40
1.0
176
     1
 90
        1
176
     1
 90
        6
176
     1
 90
        2
176
     1
 62
     7
176
     1
 90
        5
176
     1
 90
        0
176
     1
 90
        0
176
     1
290
     0
176
     1
 90
        1
176
     1
 40
0.0
176
     1
 90
        0
176
     1
290
     1
176
     1
290
     1
176
     1
290
     0
176
     1
290
     0
176
     1
290
     0
176
     1
290
     0
176
     1
290
     0
176
     1
290
     0
176
     1
290
     0
176
     1
 90
       50
176
     1
 40
0.0
176
     1
 40
1.0
176
     1
 90
        0
176
     1
 62
    18
420
        0
176
     1
 90
       50
176
     1
 90
        3
176
     1
 62
     5
420
      255
176
     1
290
     0
176
     1
 90
       50
176
     1
 90
       50
176
     1
 90
       50
176
     1
290
     0
176
     1
 90
       50
176
     1
 62
   256
176
     0
 40
1.0
176
     0
 90
        2
176
     1
  1
strokes_ogs.tif
176
     1
290
     0
176
     1
 40
1.0
176
     1
 40
1.0
176
     1
  0
VISUALSTYLE
  5
32
102
{ACAD_REACTORS
330
2A
102
}
330
2A
100
AcDbVisualStyle
  2
Basic
 70
     7
177
     3
291
     1
 70
    58
 90
        1
176
     1
 90
        0
176
     1
 90
        1
176
     1
 90
        0
176
     1
 40
0.6
176
     1
 40
30.0
176
     1
 62
     7
420
 16777215
176
     1
 90
        0
176
     1
 90
        4
176
     1
 62
     7
176
     1
 62
   257
176
     1
 90
        1
176
     1
 90
        1
176
     1
 40
1.0
176
     1
 90
        8
176
     1
 62
     7
176
     1
 40
1.0
176
     1
 90
        1
176
     1
 90
        6
176
     1
 90
        2
176
     1
 62
     7
176
     1
 90
        5
176
     1
 90
        0
176
     1
 90
        0
176
     1
290
     0
176
     1
 90
        1
176
     1
 40
0.0
176
     1
 90
        0
176
     1
290
     0
176
     1
290
     1
176
     1
290
     1
176
     1
290
     0
176
     1
290
     0
176
     1
290
     0
176
     1
290
     0
176
     1
290
     0
176
     1
290
     0
176
     1
 90
       50
176
     1
 40
0.0
176
     1
 40
1.0
176
     1
 90
        0
176
     1
 62
    18
420
        0
176
     1
 90
       50
176
     1
 90
        3
176
     1
 62
     5
420
      255
176
     1
290
     0
176
     1
 90
       50
176
     1
 90
       50
176
     1
 90
       50
176
     1
290
     0
176
     1
 90
       50
176
     1
 62
   256
176
     0
 40
1.0
176
     0
 90
        2
176
     1
  1
strokes_ogs.tif
176
     1
290
     0
176
     1
 40
1.0
176
     1
 40
1.0
176
     1
  0
VISUALSTYLE
  5
36
102
{ACAD_REACTORS
330
2A
102
}
330
2A
100
AcDbVisualStyle
  2
Brighten
 70
    12
177
     3
291
     1
 70
    58
 90
        2
176
     1
 90
        2
176
     1
 90
        0
176
     1
 90
        0
176
     1
 40
0.6
176
     1
 40
30.0
176
     1
 62
     7
420
 16777215
176
     1
 90
        1
176
     1
 90
        4
176
     1
 62
     7
176
     1
 62
   257
176
     1
 90
        1
176
     1
 90
        1
176
     1
 40
1.0
176
     1
 90
        8
176
     1
 62
     7
176
     1
 40
1.0
176
     1
 90
        1
176
     1
 90
        6
176
     1
 90
        2
176
     1
 62
     7
176
     1
 90
        5
176
     1
 90
        0
176
     1
 90
        0
176
     1
290
     0
176
     1
 90
        1
176
     1
 40
50.0
176
     1
 90
        0
176
     1
290
     0
176
     1
290
     1
176
     1
290
     1
176
     1
290
     0
176
     1
290
     0
176
     1
290
     0
176
     1
290
     0
176
     1
290
     0
176
     1
290
     0
176
     1
 90
       50
176
     1
 40
0.0
176
     1
 40
1.0
176
     1
 90
        0
176
     1
 62
    18
420
        0
176
     1
 90
       50
176
     1
 90
        3
176
     1
 62
     5
420
      255
176
     1
290
     0
176
     1
 90
       50
176
     1
 90
       50
176
     1
 90
       50
176
     1
290
     0
176
     1
 90
       50
176
     1
 62
   256
176
     0
 40
1.0
176
     0
 90
        2
176
     1
  1
strokes_ogs.tif
176
     1
290
     0
176
     1
 40
1.0
176
     1
 40
1.0
176
     1
  0
VISUALSTYLE
  5
3A
102
{ACAD_REACTORS
330
2A
102
}
330
2A
100
AcDbVisualStyle
  2
ColorChange
 70
    16
177
     3
291
     1
 70
    58
 90
        2
176
     1
 90
        2
176
     1
 90
        3
176
     1
 90
        0
176
     1
 40
0.6
176
     1
 40
30.0
176
     1
 62
     8
420
  8421504
176
     1
 90
        1
176
     1
 90
        4
176
     1
 62
     7
176
     1
 62
   257
176
     1
 90
        1
176
     1
 90
        1
176
     1
 40
1.0
176
     1
 90
        8
176
     1
 62
     8
420
  8421504
176
     1
 40
1.0
176
     1
 90
        1
176
     1
 90
        6
176
     1
 90
        2
176
     1
 62
     7
176
     1
 90
        5
176
     1
 90
        0
176
     1
 90
        0
176
     1
290
     0
176
     1
 90
        1
176
     1
 40
0.0
176
     1
 90
        0
176
     1
290
     0
176
     1
290
     1
176
     1
290
     1
176
     1
290
     0
176
     1
290
     0
176
     1
290
     0
176
     1
290
     0
176
     1
290
     0
176
     1
290
     0
176
     1
 90
       50
176
     1
 40
0.0
176
     1
 40
1.0
176
     1
 90
        0
176
     1
 62
    18
420
        0
176
     1
 90
       50
176
     1
 90
        3
176
     1
 62
     5
420
      255
176
     1
290
     0
176
     1
 90
       50
176
     1
 90
       50
176
     1
 90
       50
176
     1
290
     0
176
     1
 90
       50
176
     1
 62
   256
176
     0
 40
1.0
176
     0
 90
        2
176
     1
  1
strokes_ogs.tif
176
     1
290
     0
176
     1
 40
1.0
176
     1
 40
1.0
176
     1
  0
VISUALSTYLE
  5
34
102
{ACAD_REACTORS
330
2A
102
}
330
2A
100
AcDbVisualStyle
  2
Conceptual
 70
     9
177
     3
291
     0
 70
    58
 90
        3
176
     1
 90
        2
176
     1
 90
        0
176
     1
 90
        0
176
     1
 40
0.6
176
     1
 40
30.0
176
     1
 62
     7
420
 16777215
176
     1
 90
        2
176
     1
 90
        2
176
     1
 62
     7
176
     1
 62
   257
176
     1
 90
        1
176
     1
 90
        1
176
     1
 40
179.0
176
     1
 90
        8
176
     1
 62
     7
176
     1
 40
1.0
176
     1
 90
        1
176
     1
 90
        6
176
     1
 90
        2
176
     1
 62
     7
176
     1
 90
        3
176
     1
 90
        0
176
     1
 90
        0
176
     1
290
     0
176
     1
 90
        1
176
     1
 40
0.0
176
     1
 90
        0
176
     1
290
     0
176
     1
290
     1
176
     1
290
     1
176
     1
290
     0
176
     1
290
     0
176
     1
290
     0
176
     1
290
     0
176
     1
290
     0
176
     1
290
     0
176
     1
 90
       50
176
     1
 40
0.0
176
     1
 40
1.0
176
     1
 90
        0
176
     1
 62
    18
420
        0
176
     1
 90
       50
176
     1
 90
        3
176
     1
 62
     5
420
      255
176
     1
290
     0
176
     1
 90
       50
176
     1
 90
       50
176
     1
 90
       50
176
     1
290
     0
176
     1
 90
       50
176
     1
 62
   256
176
     0
 40
1.0
176
     0
 90
        2
176
     1
  1
strokes_ogs.tif
176
     1
290
     0
176
     1
 40
1.0
176
     1
 40
1.0
176
     1
  0
VISUALSTYLE
  5
35
102
{ACAD_REACTORS
330
2A
102
}
330
2A
100
AcDbVisualStyle
  2
Dim
 70
    11
177
     3
291
     1
 70
    58
 90
        2
176
     1
 90
        2
176
     1
 90
        0
176
     1
 90
        0
176
     1
 40
0.6
176
     1
 40
30.0
176
     1
 62
     7
420
 16777215
176
     1
 90
        1
176
     1
 90
        4
176
     1
 62
     7
176
     1
 62
   257
176
     1
 90
        1
176
     1
 90
        1
176
     1
 40
1.0
176
     1
 90
        8
176
     1
 62
     7
176
     1
 40
1.0
176
     1
 90
        1
176
     1
 90
        6
176
     1
 90
        2
176
     1
 62
     7
176
     1
 90
        5
176
     1
 90
        0
176
     1
 90
        0
176
     1
290
     0
176
     1
 90
        1
176
     1
 40
-50.0
176
     1
 90
        0
176
     1
290
     0
176
     1
290
     1
176
     1
290
     1
176
     1
290
     0
176
     1
290
     0
176
     1
290
     0
176
     1
290
     0
176
     1
290
     0
176
     1
290
     0
176
     1
 90
       50
176
     1
 40
0.0
176
     1
 40
1.0
176
     1
 90
        0
176
     1
 62
    18
420
        0
176
     1
 90
       50
176
     1
 90
        3
176
     1
 62
     5
420
      255
176
     1
290
     0
176
     1
 90
       50
176
     1
 90
       50
176
     1
 90
       50
176
     1
290
     0
176
     1
 90
       50
176
     1
 62
   256
176
     0
 40
1.0
176
     0
 90
        2
176
     1
  1
strokes_ogs.tif
176
     1
290
     0
176
     1
 40
1.0
176
     1
 40
1.0
176
     1
  0
VISUALSTYLE
  5
3D
102
{ACAD_REACTORS
330
2A
102
}
330
2A
100
AcDbVisualStyle
  2
EdgeColorOff
 70
    22
177
     3
291
     1
 70
    58
 90
        2
176
     0
 90
        2
176
     0
 90
        0
176
     0
 90
        0
176
     0
 40
0.6
176
     0
 40
30.0
176
     0
 62
     7
420
 16777215
176
     0
 90
        1
176
     0
 90
        4
176
     0
 62
     7
176
     0
 62
   257
176
     0
 90
        1
176
     0
 90
        1
176
     0
 40
1.0
176
     0
 90
        8
176
     2
 62
     7
176
     0
 40
1.0
176
     0
 90
        1
176
     0
 90
        6
176
     0
 90
        2
176
     0
 62
     7
176
     0
 90
        5
176
     0
 90
        0
176
     0
 90
        0
176
     0
290
     0
176
     0
 90
        1
176
     0
 40
0.0
176
     0
 90
        0
176
     0
290
     0
176
     0
290
     1
176
     0
290
     1
176
     0
290
     0
176
     0
290
     0
176
     0
290
     0
176
     0
290
     0
176
     0
290
     0
176
     0
290
     0
176
     0
 90
       50
176
     0
 40
0.0
176
     0
 40
1.0
176
     0
 90
        0
176
     0
 62
    18
420
        0
176
     0
 90
       50
176
     0
 90
        3
176
     0
 62
     5
420
      255
176
     0
290
     0
176
     0
 90
       50
176
     0
 90
       50
176
     0
 90
       50
176
     0
290
     0
176
     0
 90
       50
176
     0
 62
   256
176
     0
 40
1.0
176
     0
 90
        2
176
     0
  1
strokes_ogs.tif
176
     0
290
     0
176
     0
 40
1.0
176
     0
 40
1.0
176
     0
  0
VISUALSTYLE
  5
39
102
{ACAD_REACTORS
330
2A
102
}
330
2A
100
AcDbVisualStyle
  2
Facepattern
 70
    15
177
     3
291
     1
 70
    58
 90
        2
176
     1
 90
        2
176
     1
 90
        0
176
     1
 90
        0
176
     1
 40
0.6
176
     1
 40
30.0
176
     1
 62
     7
420
 16777215
176
     1
 90
        1
176
     1
 90
        4
176
     1
 62
     7
176
     1
 62
   257
176
     1
 90
        1
176
     1
 90
        1
176
     1
 40
1.0
176
     1
 90
        8
176
     1
 62
     7
176
     1
 40
1.0
176
     1
 90
        1
176
     1
 90
        6
176
     1
 90
        2
176
     1
 62
     7
176
     1
 90
        5
176
     1
 90
        0
176
     1
 90
        0
176
     1
290
     0
176
     1
 90
        1
176
     1
 40
0.0
176
     1
 90
        0
176
     1
290
     0
176
     1
290
     1
176
     1
290
     1
176
     1
290
     0
176
     1
290
     0
176
     1
290
     0
176
     1
290
     0
176
     1
290
     0
176
     1
290
     0
176
     1
 90
       50
176
     1
 40
0.0
176
     1
 40
1.0
176
     1
 90
        0
176
     1
 62
    18
420
        0
176
     1
 90
       50
176
     1
 90
        3
176
     1
 62
     5
420
      255
176
     1
290
     0
176
     1
 90
       50
176
     1
 90
       50
176
     1
 90
       50
176
     1
290
     0
176
     1
 90
       50
176
     1
 62
   256
176
     0
 40
1.0
176
     0
 90
        2
176
     1
  1
strokes_ogs.tif
176
     1
290
     0
176
     1
 40
1.0
176
     1
 40
1.0
176
     1
  0
VISUALSTYLE
  5
2B
102
{ACAD_REACTORS
330
2A
102
}
330
2A
100
AcDbVisualStyle
  2
Flat
 70
     0
177
     3
291
     1
 70
    58
 90
        2
176
     1
 90
        1
176
     1
 90
        1
176
     1
 90
        2
176
     1
 40
0.6
176
     1
 40
30.0
176
     1
 62
     7
420
 16777215
176
     1
 90
        0
176
     1
 90
        0
176
     1
 62
     7
176
     1
 62
   257
176
     1
 90
        1
176
     1
 90
        1
176
     1
 40
1.0
176
     1
 90
        8
176
     1
 62
     7
176
     1
 40
1.0
176
     1
 90
        1
176
     1
 90
        6
176
     1
 90
        2
176
     1
 62
     7
176
     1
 90
        5
176
     1
 90
        0
176
     1
 90
        0
176
     1
290
     0
176
     1
 90
       13
176
     1
 40
0.0
176
     1
 90
        0
176
     1
290
     0
176
     1
290
     1
176
     1
290
     1
176
     1
290
     0
176
     1
290
     0
176
     1
290
     0
176
     1
290
     0
176
     1
290
     0
176
     1
290
     0
176
     1
 90
       50
176
     1
 40
0.0
176
     1
 40
1.0
176
     1
 90
        0
176
     1
 62
    18
420
        0
176
     1
 90
       50
176
     1
 90
        3
176
     1
 62
     5
420
      255
176
     1
290
     0
176
     1
 90
       50
176
     1
 90
       50
176
     1
 90
       50
176
     1
290
     0
176
     1
 90
       50
176
     1
 62
   256
176
     0
 40
1.0
176
     0
 90
        2
176
     1
  1
strokes_ogs.tif
176
     1
290
     0
176
     1
 40
1.0
176
     1
 40
1.0
176
     1
  0
VISUALSTYLE
  5
2C
102
{ACAD_REACTORS
330
2A
102
}
330
2A
100
AcDbVisualStyle
  2
FlatWithEdges
 70
     1
177
     3
291
     1
 70
    58
 90
        2
176
     1
 90
        1
176
     1
 90
        1
176
     1
 90
        2
176
     1
 40
0.6
176
     1
 40
30.0
176
     1
 62
     7
420
 16777215
176
     1
 90
        1
176
     1
 90
        0
176
     1
 62
     7
176
     1
 62
   257
176
     1
 90
        1
176
     1
 90
        1
176
     1
 40
1.0
176
     1
 90
        0
176
     1
 62
   257
176
     1
 40
1.0
176
     1
 90
        1
176
     1
 90
        6
176
     1
 90
        2
176
     1
 62
     7
176
     1
 90
        5
176
     1
 90
        0
176
     1
 90
        0
176
     1
290
     0
176
     1
 90
       13
176
     1
 40
0.0
176
     1
 90
        0
176
     1
290
     0
176
     1
290
     1
176
     1
290
     1
176
     1
290
     0
176
     1
290
     0
176
     1
290
     0
176
     1
290
     0
176
     1
290
     0
176
     1
290
     0
176
     1
 90
       50
176
     1
 40
0.0
176
     1
 40
1.0
176
     1
 90
        0
176
     1
 62
    18
420
        0
176
     1
 90
       50
176
     1
 90
        3
176
     1
 62
     5
420
      255
176
     1
290
     0
176
     1
 90
       50
176
     1
 90
       50
176
     1
 90
       50
176
     1
290
     0
176
     1
 90
       50
176
     1
 62
   256
176
     0
 40
1.0
176
     0
 90
        2
176
     1
  1
strokes_ogs.tif
176
     1
290
     0
176
     1
 40
1.0
176
     1
 40
1.0
176
     1
  0
VISUALSTYLE
  5
2D
102
{ACAD_REACTORS
330
2A
102
}
330
2A
100
AcDbVisualStyle
  2
Gouraud
 70
     2
177
     3
291
     1
 70
    58
 90
        2
176
     1
 90
        2
176
     1
 90
        1
176
     1
 90
        2
176
     1
 40
0.6
176
     1
 40
30.0
176
     1
 62
     7
420
 16777215
176
     1
 90
        0
176
     1
 90
        0
176
     1
 62
     7
176
     1
 62
   257
176
     1
 90
        1
176
     1
 90
        1
176
     1
 40
1.0
176
     1
 90
        0
176
     1
 62
     7
176
     1
 40
1.0
176
     1
 90
        1
176
     1
 90
        6
176
     1
 90
        2
176
     1
 62
     7
176
     1
 90
        5
176
     1
 90
        0
176
     1
 90
        0
176
     1
290
     0
176
     1
 90
       13
176
     1
 40
0.0
176
     1
 90
        0
176
     1
290
     0
176
     1
290
     1
176
     1
290
     1
176
     1
290
     0
176
     1
290
     0
176
     1
290
     0
176
     1
290
     0
176
     1
290
     0
176
     1
290
     0
176
     1
 90
       50
176
     1
 40
0.0
176
     1
 40
1.0
176
     1
 90
        0
176
     1
 62
    18
420
        0
176
     1
 90
       50
176
     1
 90
        3
176
     1
 62
     5
420
      255
176
     1
290
     0
176
     1
 90
       50
176
     1
 90
       50
176
     1
 90
       50
176
     1
290
     0
176
     1
 90
       50
176
     1
 62
   256
176
     0
 40
1.0
176
     0
 90
        2
176
     1
  1
strokes_ogs.tif
176
     1
290
     0
176
     1
 40
1.0
176
     1
 40
1.0
176
     1
  0
VISUALSTYLE
  5
2E
102
{ACAD_REACTORS
330
2A
102
}
330
2A
100
AcDbVisualStyle
  2
GouraudWithEdges
 70
     3
177
     3
291
     1
 70
    58
 90
        2
176
     1
 90
        2
176
     1
 90
        1
176
     1
 90
        2
176
     1
 40
0.6
176
     1
 40
30.0
176
     1
 62
     7
420
 16777215
176
     1
 90
        1
176
     1
 90
        0
176
     1
 62
     7
176
     1
 62
   257
176
     1
 90
        1
176
     1
 90
        1
176
     1
 40
1.0
176
     1
 90
        0
176
     1
 62
   257
176
     1
 40
1.0
176
     1
 90
        1
176
     1
 90
        6
176
     1
 90
        2
176
     1
 62
     7
176
     1
 90
        5
176
     1
 90
        0
176
     1
 90
        0
176
     1
290
     0
176
     1
 90
       13
176
     1
 40
0.0
176
     1
 90
        0
176
     1
290
     0
176
     1
290
     1
176
     1
290
     1
176
     1
290
     0
176
     1
290
     0
176
     1
290
     0
176
     1
290
     0
176
     1
290
     0
176
     1
290
     0
176
     1
 90
       50
176
     1
 40
0.0
176
     1
 40
1.0
176
     1
 90
        0
176
     1
 62
    18
420
        0
176
     1
 90
       50
176
     1
 90
        3
176
     1
 62
     5
420
      255
176
     1
290
     0
176
     1
 90
       50
176
     1
 90
       50
176
     1
 90
       50
176
     1
290
     0
176
     1
 90
       50
176
     1
 62
   256
176
     0
 40
1.0
176
     0
 90
        2
176
     1
  1
strokes_ogs.tif
176
     1
290
     0
176
     1
 40
1.0
176
     1
 40
1.0
176
     1
  0
VISUALSTYLE
  5
31
102
{ACAD_REACTORS
330
2A
102
}
330
2A
100
AcDbVisualStyle
  2
Hidden
 70
     6
177
     3
291
     0
 70
    58
 90
        1
176
     1
 90
        2
176
     1
 90
        2
176
     1
 90
        0
176
     1
 40
0.6
176
     1
 40
30.0
176
     1
 62
     7
420
 16777215
176
     1
 90
        2
176
     1
 90
        2
176
     1
 62
     7
176
     1
 62
   257
176
     1
 90
        2
176
     1
 90
        1
176
     1
 40
40.0
176
     1
 90
        0
176
     1
 62
   257
176
     1
 40
1.0
176
     1
 90
        1
176
     1
 90
        6
176
     1
 90
        2
176
     1
 62
     7
176
     1
 90
        3
176
     1
 90
        0
176
     1
 90
        0
176
     1
290
     0
176
     1
 90
        1
176
     1
 40
0.0
176
     1
 90
        0
176
     1
290
     0
176
     1
290
     1
176
     1
290
     1
176
     1
290
     0
176
     1
290
     0
176
     1
290
     0
176
     1
290
     0
176
     1
290
     0
176
     1
290
     0
176
     1
 90
       50
176
     1
 40
0.0
176
     1
 40
1.0
176
     1
 90
        0
176
     1
 62
    18
420
        0
176
     1
 90
       50
176
     1
 90
        3
176
     1
 62
     5
420
      255
176
     1
290
     0
176
     1
 90
       50
176
     1
 90
       50
176
     1
 90
       50
176
     1
290
     0
176
     1
 90
       50
176
     1
 62
   256
176
     0
 40
1.0
176
     0
 90
        2
176
     1
  1
strokes_ogs.tif
176
     1
290
     0
176
     1
 40
1.0
176
     1
 40
1.0
176
     1
  0
VISUALSTYLE
  5
3B
102
{ACAD_REACTORS
330
2A
102
}
330
2A
100
AcDbVisualStyle
  2
JitterOff
 70
    20
177
     3
291
     1
 70
    58
 90
        2
176
     0
 90
        2
176
     0
 90
        0
176
     0
 90
        0
176
     0
 40
0.6
176
     0
 40
30.0
176
     0
 62
     7
420
 16777215
176
     0
 90
        1
176
     0
 90
        4
176
     0
 62
     7
176
     0
 62
   257
176
     0
 90
        1
176
     0
 90
        1
176
     0
 40
1.0
176
     0
 90
       10
176
     2
 62
     7
176
     0
 40
1.0
176
     0
 90
        1
176
     0
 90
        6
176
     0
 90
        2
176
     0
 62
     7
176
     0
 90
        5
176
     0
 90
        0
176
     0
 90
        0
176
     0
290
     0
176
     0
 90
        1
176
     0
 40
0.0
176
     0
 90
        0
176
     0
290
     0
176
     0
290
     1
176
     0
290
     1
176
     0
290
     0
176
     0
290
     0
176
     0
290
     0
176
     0
290
     0
176
     0
290
     0
176
     0
290
     0
176
     0
 90
       50
176
     0
 40
0.0
176
     0
 40
1.0
176
     0
 90
        0
176
     0
 62
    18
420
        0
176
     0
 90
       50
176
     0
 90
        3
176
     0
 62
     5
420
      255
176
     0
290
     0
176
     0
 90
       50
176
     0
 90
       50
176
     0
 90
       50
176
     0
290
     0
176
     0
 90
       50
176
     0
 62
   256
176
     0
 40
1.0
176
     0
 90
        2
176
     0
  1
strokes_ogs.tif
176
     0
290
     0
176
     0
 40
1.0
176
     0
 40
1.0
176
     0
  0
VISUALSTYLE
  5
38
102
{ACAD_REACTORS
330
2A
102
}
330
2A
100
AcDbVisualStyle
  2
Linepattern
 70
    14
177
     3
291
     1
 70
    58
 90
        2
176
     1
 90
        2
176
     1
 90
        0
176
     1
 90
        0
176
     1
 40
0.6
176
     1
 40
30.0
176
     1
 62
     7
420
 16777215
176
     1
 90
        1
176
     1
 90
        4
176
     1
 62
     7
176
     1
 62
   257
176
     1
 90
        7
176
     1
 90
        7
176
     1
 40
1.0
176
     1
 90
        8
176
     1
 62
     7
176
     1
 40
1.0
176
     1
 90
        1
176
     1
 90
        6
176
     1
 90
        2
176
     1
 62
     7
176
     1
 90
        5
176
     1
 90
        0
176
     1
 90
        0
176
     1
290
     0
176
     1
 90
        1
176
     1
 40
0.0
176
     1
 90
        0
176
     1
290
     0
176
     1
290
     1
176
     1
290
     1
176
     1
290
     0
176
     1
290
     0
176
     1
290
     0
176
     1
290
     0
176
     1
290
     0
176
     1
290
     0
176
     1
 90
       50
176
     1
 40
0.0
176
     1
 40
1.0
176
     1
 90
        0
176
     1
 62
    18
420
        0
176
     1
 90
       50
176
     1
 90
        3
176
     1
 62
     5
420
      255
176
     1
290
     0
176
     1
 90
       50
176
     1
 90
       50
176
     1
 90
       50
176
     1
290
     0
176
     1
 90
       50
176
     1
 62
   256
176
     0
 40
1.0
176
     0
 90
        2
176
     1
  1
strokes_ogs.tif
176
     1
290
     0
176
     1
 40
1.0
176
     1
 40
1.0
176
     1
  0
VISUALSTYLE
  5
3C
102
{ACAD_REACTORS
330
2A
102
}
330
2A
100
AcDbVisualStyle
  2
OverhangOff
 70
    21
177
     3
291
     1
 70
    58
 90
        2
176
     0
 90
        2
176
     0
 90
        0
176
     0
 90
        0
176
     0
 40
0.6
176
     0
 40
30.0
176
     0
 62
     7
420
 16777215
176
     0
 90
        1
176
     0
 90
        4
176
     0
 62
     7
176
     0
 62
   257
176
     0
 90
        1
176
     0
 90
        1
176
     0
 40
1.0
176
     0
 90
        9
176
     2
 62
     7
176
     0
 40
1.0
176
     0
 90
        1
176
     0
 90
        6
176
     0
 90
        2
176
     0
 62
     7
176
     0
 90
        5
176
     0
 90
        0
176
     0
 90
        0
176
     0
290
     0
176
     0
 90
        1
176
     0
 40
0.0
176
     0
 90
        0
176
     0
290
     0
176
     0
290
     1
176
     0
290
     1
176
     0
290
     0
176
     0
290
     0
176
     0
290
     0
176
     0
290
     0
176
     0
290
     0
176
     0
290
     0
176
     0
 90
       50
176
     0
 40
0.0
176
     0
 40
1.0
176
     0
 90
        0
176
     0
 62
    18
420
        0
176
     0
 90
       50
176
     0
 90
        3
176
     0
 62
     5
420
      255
176
     0
290
     0
176
     0
 90
       50
176
     0
 90
       50
176
     0
 90
       50
176
     0
290
     0
176
     0
 90
       50
176
     0
 62
   256
176
     0
 40
1.0
176
     0
 90
        2
176
     0
  1
strokes_ogs.tif
176
     0
290
     0
176
     0
 40
1.0
176
     0
 40
1.0
176
     0
  0
VISUALSTYLE
  5
33
102
{ACAD_REACTORS
330
2A
102
}
330
2A
100
AcDbVisualStyle
  2
Realistic
 70
     8
177
     3
291
     0
 70
    58
 90
        2
176
     1
 90
        3
176
     1
 90
        0
176
     1
 90
        2
176
     1
 40
0.6
176
     1
 40
30.0
176
     1
 62
     7
420
 16777215
176
     1
 90
        0
176
     1
 90
        0
176
     1
 62
     7
176
     1
 62
   257
176
     1
 90
        1
176
     1
 90
        1
176
     1
 40
1.0
176
     1
 90
        8
176
     1
 62
   257
176
     1
 40
1.0
176
     1
 90
        1
176
     1
 90
        6
176
     1
 90
        2
176
     1
 62
     7
176
     1
 90
        3
176
     1
 90
        0
176
     1
 90
        0
176
     1
290
     0
176
     1
 90
       13
176
     1
 40
0.0
176
     1
 90
        0
176
     1
290
     0
176
     1
290
     1
176
     1
290
     1
176
     1
290
     0
176
     1
290
     0
176
     1
290
     0
176
     1
290
     0
176
     1
290
     0
176
     1
290
     0
176
     1
 90
       50
176
     1
 40
0.0
176
     1
 40
1.0
176
     1
 90
        0
176
     1
 62
    18
420
        0
176
     1
 90
       50
176
     1
 90
        3
176
     1
 62
     5
420
      255
176
     1
290
     0
176
     1
 90
       50
176
     1
 90
       50
176
     1
 90
       50
176
     1
290
     0
176
     1
 90
       50
176
     1
 62
   256
176
     0
 40
1.0
176
     0
 90
        2
176
     1
  1
strokes_ogs.tif
176
     1
290
     0
176
     1
 40
1.0
176
     1
 40
1.0
176
     1
  0
VISUALSTYLE
  5
42
102
{ACAD_REACTORS
330
2A
102
}
330
2A
100
AcDbVisualStyle
  2
Shaded
 70
    27
177
     3
291
     0
 70
    58
 90
        2
176
     1
 90
        2
176
     1
 90
        1
176
     1
 90
        2
176
     1
 40
0.6
176
     1
 40
30.0
176
     1
 62
     7
420
 16777215
176
     1
 90
        0
176
     1
 90
        4
176
     1
 62
     7
176
     1
 62
   257
176
     1
 90
        1
176
     1
 90
        1
176
     1
 40
1.0
176
     1
 90
        8
176
     1
 62
   257
176
     1
 40
1.0
176
     1
 90
        1
176
     1
 90
        6
176
     1
 90
        2
176
     1
 62
     8
420
  7895160
176
     1
 90
        3
176
     1
 90
        0
176
     1
 90
        0
176
     1
290
     0
176
     1
 90
        5
176
     1
 40
0.0
176
     1
 90
        0
176
     1
290
     0
176
     1
290
     1
176
     1
290
     1
176
     1
290
     0
176
     1
290
     0
176
     1
290
     0
176
     1
290
     0
176
     1
290
     0
176
     1
290
     0
176
     1
 90
       50
176
     1
 40
0.0
176
     1
 40
1.0
176
     1
 90
        0
176
     1
 62
    18
420
        0
176
     1
 90
       50
176
     1
 90
        3
176
     1
 62
     5
420
      255
176
     1
290
     0
176
     1
 90
       50
176
     1
 90
       50
176
     1
 90
       50
176
     1
290
     0
176
     1
 90
       50
176
     1
 62
   256
176
     0
 40
1.0
176
     0
 90
        2
176
     1
  1
strokes_ogs.tif
176
     1
290
     0
176
     1
 40
1.0
176
     1
 40
1.0
176
     1
  0
VISUALSTYLE
  5
41
102
{ACAD_REACTORS
330
2A
102
}
330
2A
100
AcDbVisualStyle
  2
Shaded with edges
 70
    26
177
     3
291
     0
 70
    58
 90
        2
176
     1
 90
        2
176
     1
 90
        1
176
     1
 90
        2
176
     1
 40
0.6
176
     1
 40
30.0
176
     1
 62
     7
420
 16777215
176
     1
 90
        1
176
     1
 90
       10
176
     1
 62
     7
176
     1
 62
   257
176
     1
 90
        2
176
     1
 90
        1
176
     1
 40
1.0
176
     1
 90
        8
176
     1
 62
   257
176
     1
 40
1.0
176
     1
 90
        1
176
     1
 90
        6
176
     1
 90
        2
176
     1
 62
     7
176
     1
 90
        3
176
     1
 90
        0
176
     1
 90
        0
176
     1
290
     0
176
     1
 90
        5
176
     1
 40
0.0
176
     1
 90
        0
176
     1
290
     0
176
     1
290
     1
176
     1
290
     1
176
     1
290
     0
176
     1
290
     0
176
     1
290
     0
176
     1
290
     0
176
     1
290
     0
176
     1
290
     0
176
     1
 90
       50
176
     1
 40
0.0
176
     1
 40
1.0
176
     1
 90
        0
176
     1
 62
    18
420
        0
176
     1
 90
       50
176
     1
 90
        3
176
     1
 62
     5
420
      255
176
     1
290
     0
176
     1
 90
       50
176
     1
 90
       50
176
     1
 90
       50
176
     1
290
     0
176
     1
 90
       50
176
     1
 62
   256
176
     0
 40
1.0
176
     0
 90
        2
176
     1
  1
strokes_ogs.tif
176
     1
290
     0
176
     1
 40
1.0
176
     1
 40
1.0
176
     1
  0
VISUALSTYLE
  5
3E
102
{ACAD_REACTORS
330
2A
102
}
330
2A
100
AcDbVisualStyle
  2
Shades of Gray
 70
    23
177
     3
291
     0
 70
    58
 90
        2
176
     1
 90
        2
176
     1
 90
        3
176
     1
 90
        0
176
     1
 40
0.6
176
     1
 40
30.0
176
     1
 62
     7
420
 16777215
176
     1
 90
        2
176
     1
 90
        2
176
     1
 62
     7
176
     1
 62
     7
176
     1
 90
        1
176
     1
 90
        1
176
     1
 40
40.0
176
     1
 90
        8
176
     1
 62
     7
176
     1
 40
1.0
176
     1
 90
        1
176
     1
 90
        6
176
     1
 90
        2
176
     1
 62
     7
176
     1
 90
        3
176
     1
 90
        0
176
     1
 90
        0
176
     1
290
     0
176
     1
 90
        1
176
     1
 40
0.0
176
     1
 90
        0
176
     1
290
     0
176
     1
290
     1
176
     1
290
     1
176
     1
290
     0
176
     1
290
     0
176
     1
290
     0
176
     1
290
     0
176
     1
290
     0
176
     1
290
     0
176
     1
 90
       50
176
     1
 40
0.0
176
     1
 40
1.0
176
     1
 90
        0
176
     1
 62
    18
420
        0
176
     1
 90
       50
176
     1
 90
        3
176
     1
 62
     5
420
      255
176
     1
290
     0
176
     1
 90
       50
176
     1
 90
       50
176
     1
 90
       50
176
     1
290
     0
176
     1
 90
       50
176
     1
 62
   256
176
     0
 40
1.0
176
     0
 90
        2
176
     1
  1
strokes_ogs.tif
176
     1
290
     0
176
     1
 40
1.0
176
     1
 40
1.0
176
     1
  0
VISUALSTYLE
  5
3F
102
{ACAD_REACTORS
330
2A
102
}
330
2A
100
AcDbVisualStyle
  2
Sketchy
 70
    24
177
     3
291
     0
 70
    58
 90
        1
176
     1
 90
        2
176
     1
 90
        2
176
     1
 90
        0
176
     1
 40
0.6
176
     1
 40
30.0
176
     1
 62
     7
420
 16777215
176
     1
 90
        2
176
     1
 90
        2
176
     1
 62
     7
176
     1
 62
     7
176
     1
 90
        1
176
     1
 90
        1
176
     1
 40
40.0
176
     1
 90
       11
176
     1
 62
     7
176
     1
 40
1.0
176
     1
 90
        1
176
     1
 90
        6
176
     1
 90
        2
176
     1
 62
     7
176
     1
 90
        6
176
     1
 90
        0
176
     1
 90
        0
176
     1
290
     0
176
     1
 90
        1
176
     1
 40
0.0
176
     1
 90
        0
176
     1
290
     0
176
     1
290
     1
176
     1
290
     1
176
     1
290
     0
176
     1
290
     0
176
     1
290
     0
176
     1
290
     0
176
     1
290
     0
176
     1
290
     0
176
     1
 90
       50
176
     1
 40
0.0
176
     1
 40
1.0
176
     1
 90
        0
176
     1
 62
    18
420
        0
176
     1
 90
       50
176
     1
 90
        3
176
     1
 62
     5
420
      255
176
     1
290
     0
176
     1
 90
       50
176
     1
 90
       50
176
     1
 90
       50
176
     1
290
     0
176
     1
 90
       50
176
     1
 62
   256
176
     0
 40
1.0
176
     0
 90
        2
176
     1
  1
strokes_ogs.tif
176
     1
290
     0
176
     1
 40
1.0
176
     1
 40
1.0
176
     1
  0
VISUALSTYLE
  5
37
102
{ACAD_REACTORS
330
2A
102
}
330
2A
100
AcDbVisualStyle
  2
Thicken
 70
    13
177
     3
291
     1
 70
    58
 90
        2
176
     1
 90
        2
176
     1
 90
        0
176
     1
 90
        0
176
     1
 40
0.6
176
     1
 40
30.0
176
     1
 62
     7
420
 16777215
176
     1
 90
        1
176
     1
 90
        4
176
     1
 62
     7
176
     1
 62
   257
176
     1
 90
        1
176
     1
 90
        1
176
     1
 40
1.0
176
     1
 90
       12
176
     1
 62
     7
176
     1
 40
1.0
176
     1
 90
        1
176
     1
 90
        6
176
     1
 90
        2
176
     1
 62
     7
176
     1
 90
        5
176
     1
 90
        0
176
     1
 90
        0
176
     1
290
     0
176
     1
 90
        1
176
     1
 40
0.0
176
     1
 90
        0
176
     1
290
     0
176
     1
290
     1
176
     1
290
     1
176
     1
290
     0
176
     1
290
     0
176
     1
290
     0
176
     1
290
     0
176
     1
290
     0
176
     1
290
     0
176
     1
 90
       50
176
     1
 40
0.0
176
     1
 40
1.0
176
     1
 90
        0
176
     1
 62
    18
420
        0
176
     1
 90
       50
176
     1
 90
        3
176
     1
 62
     5
420
      255
176
     1
290
     0
176
     1
 90
       50
176
     1
 90
       50
176
     1
 90
       50
176
     1
290
     0
176
     1
 90
       50
176
     1
 62
   256
176
     0
 40
1.0
176
     0
 90
        2
176
     1
  1
strokes_ogs.tif
176
     1
290
     0
176
     1
 40
1.0
176
     1
 40
1.0
176
     1
  0
VISUALSTYLE
  5
30
102
{ACAD_REACTORS
330
2A
102
}
330
2A
100
AcDbVisualStyle
  2
Wireframe
 70
     5
177
     3
291
     0
 70
    58
 90
        0
176
     1
 90
        2
176
     1
 90
        0
176
     1
 90
        0
176
     1
 40
0.6
176
     1
 40
30.0
176
     1
 62
     7
420
 16777215
176
     1
 90
        1
176
     1
 90
        4
176
     1
 62
     7
176
     1
 62
   257
176
     1
 90
        1
176
     1
 90
        1
176
     1
 40
1.0
176
     1
 90
        0
176
     1
 62
   257
176
     1
 40
1.0
176
     1
 90
        1
176
     1
 90
        6
176
     1
 90
        2
176
     1
 62
     7
176
     1
 90
        3
176
     1
 90
        0
176
     1
 90
        0
176
     1
290
     0
176
     1
 90
        1
176
     1
 40
0.0
176
     1
 90
        0
176
     1
290
     0
176
     1
290
     1
176
     1
290
     1
176
     1
290
     0
176
     1
290
     0
176
     1
290
     0
176
     1
290
     0
176
     1
290
     0
176
     1
290
     0
176
     1
 90
       50
176
     1
 40
0.0
176
     1
 40
1.0
176
     1
 90
        0
176
     1
 62
    18
420
        0
176
     1
 90
       50
176
     1
 90
        3
176
     1
 62
     5
420
      255
176
     1
290
     0
176
     1
 90
       50
176
     1
 90
       50
176
     1
 90
       50
176
     1
290
     0
176
     1
 90
       50
176
     1
 62
   256
176
     0
 40
1.0
176
     0
 90
        2
176
     1
  1
strokes_ogs.tif
176
     1
290
     0
176
     1
 40
1.0
176
     1
 40
1.0
176
     1
  0
VISUALSTYLE
  5
40
102
{ACAD_REACTORS
330
2A
102
}
330
2A
100
AcDbVisualStyle
  2
X-Ray
 70
    25
177
     3
291
     0
 70
    58
 90
        2
176
     1
 90
        2
176
     1
 90
        1
176
     1
 90
        1
176
     1
 40
0.5
176
     1
 40
30.0
176
     1
 62
     7
420
 16777215
176
     1
 90
        1
176
     1
 90
        0
176
     1
 62
     7
176
     1
 62
   257
176
     1
 90
        1
176
     1
 90
        1
176
     1
 40
1.0
176
     1
 90
        8
176
     1
 62
     7
176
     1
 40
1.0
176
     1
 90
        1
176
     1
 90
        6
176
     1
 90
        2
176
     1
 62
     7
176
     1
 90
        3
176
     1
 90
        0
176
     1
 90
        0
176
     1
290
     0
176
     1
 90
       13
176
     1
 40
0.0
176
     1
 90
        0
176
     1
290
     0
176
     1
290
     1
176
     1
290
     1
176
     1
290
     0
176
     1
290
     0
176
     1
290
     0
176
     1
290
     0
176
     1
290
     0
176
     1
290
     0
176
     1
 90
       50
176
     1
 40
0.0
176
     1
 40
1.0
176
     1
 90
        0
176
     1
 62
    18
420
        0
176
     1
 90
       50
176
     1
 90
        3
176
     1
 62
     5
420
      255
176
     1
290
     0
176
     1
 90
       50
176
     1
 90
       50
176
     1
 90
       50
176
     1
290
     0
176
     1
 90
       50
176
     1
 62
   256
176
     0
 40
1.0
176
     0
 90
        2
176
     1
  1
strokes_ogs.tif
176
     1
290
     0
176
     1
 40
1.0
176
     1
 40
1.0
176
     1
  0
DICTIONARYVAR
  5
1E7
102
{ACAD_REACTORS
330
1E6
102
}
330
1E6
100
DictionaryVariables
280
     0
  1
1:1
  0
DICTIONARYVAR
  5
1EC
102
{ACAD_REACTORS
330
1E6
102
}
330
1E6
100
DictionaryVariables
280
     0
  1
Standard
  0
DICTIONARYVAR
  5
1EB
102
{ACAD_REACTORS
330
1E6
102
}
330
1E6
100
DictionaryVariables
280
     0
  1
Standard
  0
DICTIONARY
  5
1E8
330
6A
100
AcDbDictionary
280
     1
281
     1
  3
ACAD_ROUNDTRIP_2008_TABLESTYLE_CELLSTYLEMAP
360
1E9
  0
CELLSTYLEMAP
  5
1E9
102
{ACAD_REACTORS
330
1E8
102
}
330
1E8
100
AcDbCellStyleMap
 90
        3
300
CELLSTYLE
  1
TABLEFORMAT_BEGIN
 90
        5
170
     1
 91
        0
 92
    32768
 62
   257
 93
        1
300
CONTENTFORMAT
  1
CONTENTFORMAT_BEGIN
 90
        0
 91
        0
 92
        4
 93
        0
300

 40
0.0
140
1.0
 94
        5
 62
     0
340
11
144
6.0
309
CONTENTFORMAT_END
171
     1
301
MARGIN
  1
CELLMARGIN_BEGIN
 40
1.5
 40
1.5
 40
1.5
 40
1.5
 40
1.5
 40
1.5
309
CELLMARGIN_END
 94
        6
 95
        1
302
GRIDFORMAT
  1
GRIDFORMAT_BEGIN
 90
        0
 91
        1
 62
     0
 92
       -2
340
14
 93
        0
 40
0.045
309
GRIDFORMAT_END
 95
        2
302
GRIDFORMAT
  1
GRIDFORMAT_BEGIN
 90
        0
 91
        1
 62
     0
 92
       -2
340
14
 93
        0
 40
0.045
309
GRIDFORMAT_END
 95
        4
302
GRIDFORMAT
  1
GRIDFORMAT_BEGIN
 90
        0
 91
        1
 62
     0
 92
       -2
340
14
 93
        0
 40
0.045
309
GRIDFORMAT_END
 95
        8
302
GRIDFORMAT
  1
GRIDFORMAT_BEGIN
 90
        0
 91
        1
 62
     0
 92
       -2
340
14
 93
        0
 40
0.045
309
GRIDFORMAT_END
 95
       16
302
GRIDFORMAT
  1
GRIDFORMAT_BEGIN
 90
        0
 91
        1
 62
     0
 92
       -2
340
14
 93
        0
 40
0.045
309
GRIDFORMAT_END
 95
       32
302
GRIDFORMAT
  1
GRIDFORMAT_BEGIN
 90
        0
 91
        1
 62
     0
 92
       -2
340
14
 93
        0
 40
0.045
309
GRIDFORMAT_END
309
TABLEFORMAT_END
  1
CELLSTYLE_BEGIN
 90
        1
 91
        1
300
_TITLE
309
CELLSTYLE_END
300
CELLSTYLE
  1
TABLEFORMAT_BEGIN
 90
        5
170
     1
 91
        0
 92
        0
 62
   257
 93
        1
300
CONTENTFORMAT
  1
CONTENTFORMAT_BEGIN
 90
        0
 91
        0
 92
        4
 93
        0
300

 40
0.0
140
1.0
 94
        5
 62
     0
340
11
144
4.5
309
CONTENTFORMAT_END
171
     1
301
MARGIN
  1
CELLMARGIN_BEGIN
 40
1.5
 40
1.5
 40
1.5
 40
1.5
 40
1.5
 40
1.5
309
CELLMARGIN_END
 94
        6
 95
        1
302
GRIDFORMAT
  1
GRIDFORMAT_BEGIN
 90
        0
 91
        1
 62
     0
 92
       -2
340
14
 93
        0
 40
0.045
309
GRIDFORMAT_END
 95
        2
302
GRIDFORMAT
  1
GRIDFORMAT_BEGIN
 90
        0
 91
        1
 62
     0
 92
       -2
340
14
 93
        0
 40
0.045
309
GRIDFORMAT_END
 95
        4
302
GRIDFORMAT
  1
GRIDFORMAT_BEGIN
 90
        0
 91
        1
 62
     0
 92
       -2
340
14
 93
        0
 40
0.045
309
GRIDFORMAT_END
 95
        8
302
GRIDFORMAT
  1
GRIDFORMAT_BEGIN
 90
        0
 91
        1
 62
     0
 92
       -2
340
14
 93
        0
 40
0.045
309
GRIDFORMAT_END
 95
       16
302
GRIDFORMAT
  1
GRIDFORMAT_BEGIN
 90
        0
 91
        1
 62
     0
 92
       -2
340
14
 93
        0
 40
0.045
309
GRIDFORMAT_END
 95
       32
302
GRIDFORMAT
  1
GRIDFORMAT_BEGIN
 90
        0
 91
        1
 62
     0
 92
       -2
340
14
 93
        0
 40
0.045
309
GRIDFORMAT_END
309
TABLEFORMAT_END
  1
CELLSTYLE_BEGIN
 90
        2
 91
        1
300
_HEADER
309
CELLSTYLE_END
300
CELLSTYLE
  1
TABLEFORMAT_BEGIN
 90
        5
170
     1
 91
        0
 92
        0
 62
   257
 93
        1
300
CONTENTFORMAT
  1
CONTENTFORMAT_BEGIN
 90
        0
 91
        0
 92
        4
 93
        0
300

 40
0.0
140
1.0
 94
        2
 62
     0
340
11
144
4.5
309
CONTENTFORMAT_END
171
     1
301
MARGIN
  1
CELLMARGIN_BEGIN
 40
1.5
 40
1.5
 40
1.5
 40
1.5
 40
1.5
 40
1.5
309
CELLMARGIN_END
 94
        6
 95
        1
302
GRIDFORMAT
  1
GRIDFORMAT_BEGIN
 90
        0
 91
        1
 62
     0
 92
       -2
340
14
 93
        0
 40
0.045
309
GRIDFORMAT_END
 95
        2
302
GRIDFORMAT
  1
GRIDFORMAT_BEGIN
 90
        0
 91
        1
 62
     0
 92
       -2
340
14
 93
        0
 40
0.045
309
GRIDFORMAT_END
 95
        4
302
GRIDFORMAT
  1
GRIDFORMAT_BEGIN
 90
        0
 91
        1
 62
     0
 92
       -2
340
14
 93
        0
 40
0.045
309
GRIDFORMAT_END
 95
        8
302
GRIDFORMAT
  1
GRIDFORMAT_BEGIN
 90
        0
 91
        1
 62
     0
 92
       -2
340
14
 93
        0
 40
0.045
309
GRIDFORMAT_END
 95
       16
302
GRIDFORMAT
  1
GRIDFORMAT_BEGIN
 90
        0
 91
        1
 62
     0
 92
       -2
340
14
 93
        0
 40
0.045
309
GRIDFORMAT_END
 95
       32
302
GRIDFORMAT
  1
GRIDFORMAT_BEGIN
 90
        0
 91
        1
 62
     0
 92
       -2
340
14
 93
        0
 40
0.045
309
GRIDFORMAT_END
309
TABLEFORMAT_END
  1
CELLSTYLE_BEGIN
 90
        3
 91
        2
300
_DATA
309
CELLSTYLE_END
  0
ENDSEC
  0
EOF