0
SECTION
  2
HEADER
  9
$ACADVER
  1
AC1027
  9
$ACADMAINTVER
 70
     8
  9
$DWGCODEPAGE
  3
ANSI_1252
  9
$REQUIREDVERSIONS
160
                 0
  9
$COMMENTS
  1
File was created by Cadenas
  9
$CUSTOMPROPERTYTAG
  1
NN
  9
$CUSTOMPROPERTY
  1
Eccentric Collar Intermediate Duty Two-Bolt Flange Metric Bore
  9
$CUSTOMPROPERTYTAG
  1
NT
  9
$CUSTOMPROPERTY
  1
Eccentric Collar 2-Bolt Flange Bearings -(Normal Duty)
  9
$CUSTOMPROPERTYTAG
  1
NB
  9
$CUSTOMPROPERTY
  1
125732
  9
$CUSTOMPROPERTYTAG
  1
NBSYN
  9
$CUSTOMPROPERTY
  1
$PN.
  9
$CUSTOMPROPERTYTAG
  1
LINA
  9
$CUSTOMPROPERTY
  1
125732
  9
$CUSTOMPROPERTYTAG
  1
SERIES
  9
$CUSTOMPROPERTY
  1
206
  9
$CUSTOMPROPERTYTAG
  1
SS
  9
$CUSTOMPROPERTY
  1
30
  9
$CUSTOMPROPERTYTAG
  1
PN
  9
$CUSTOMPROPERTY
  1
125732
  9
$CUSTOMPROPERTYTAG
  1
DESCRIPTION
  9
$CUSTOMPROPERTY
  1
F2B-SXV-30M
  9
$CUSTOMPROPERTYTAG
  1
W
  9
$CUSTOMPROPERTY
  1
1.0
  9
$CUSTOMPROPERTYTAG
  1
A
  9
$CUSTOMPROPERTY
  1
35.8
  9
$CUSTOMPROPERTYTAG
  1
B
  9
$CUSTOMPROPERTY
  1
141.2
  9
$CUSTOMPROPERTYTAG
  1
C
  9
$CUSTOMPROPERTY
  1
42.4
  9
$CUSTOMPROPERTYTAG
  1
D
  9
$CUSTOMPROPERTY
  1
116.6
  9
$CUSTOMPROPERTYTAG
  1
F
  9
$CUSTOMPROPERTY
  1
M10
  9
$CUSTOMPROPERTYTAG
  1
H
  9
$CUSTOMPROPERTY
  1
12.7
  9
$CUSTOMPROPERTYTAG
  1
J
  9
$CUSTOMPROPERTY
  1
15.5
  9
$CUSTOMPROPERTYTAG
  1
L
  9
$CUSTOMPROPERTY
  1
44.5
  9
$CUSTOMPROPERTYTAG
  1
M
  9
$CUSTOMPROPERTY
  1
79.5
  9
$CUSTOMPROPERTYTAG
  1
N
  9
$CUSTOMPROPERTY
  1
39.6
  9
$CUSTOMPROPERTYTAG
  1
COMPANY
  9
$CUSTOMPROPERTY
  1
baldor
  9
$INSBASE
 10
0.0
 20
0.0
 30
0.0
  9
$EXTMIN
 10
1.000000000000000E+20
 20
1.000000000000000E+20
 30
1.000000000000000E+20
  9
$EXTMAX
 10
-1.000000000000000E+20
 20
-1.000000000000000E+20
 30
-1.000000000000000E+20
  9
$LIMMIN
 10
0.0
 20
0.0
  9
$LIMMAX
 10
420.0
 20
297.0
  9
$ORTHOMODE
 70
     0
  9
$REGENMODE
 70
     1
  9
$FILLMODE
 70
     1
  9
$QTEXTMODE
 70
     0
  9
$MIRRTEXT
 70
     1
  9
$LTSCALE
 40
1.0
  9
$ATTMODE
 70
     1
  9
$TEXTSIZE
 40
2.5
  9
$TRACEWID
 40
1.0
  9
$TEXTSTYLE
  7
Standard
  9
$CLAYER
  8
0
  9
$CELTYPE
  6
ByLayer
  9
$CECOLOR
 62
   256
  9
$CELTSCALE
 40
1.0
  9
$DISPSILH
 70
     0
  9
$DIMSCALE
 40
1.0
  9
$DIMASZ
 40
2.5
  9
$DIMEXO
 40
0.625
  9
$DIMDLI
 40
3.75
  9
$DIMRND
 40
0.0
  9
$DIMDLE
 40
0.0
  9
$DIMEXE
 40
1.25
  9
$DIMTP
 40
0.0
  9
$DIMTM
 40
0.0
  9
$DIMTXT
 40
2.5
  9
$DIMCEN
 40
2.5
  9
$DIMTSZ
 40
0.0
  9
$DIMTOL
 70
     0
  9
$DIMLIM
 70
     0
  9
$DIMTIH
 70
     0
  9
$DIMTOH
 70
     0
  9
$DIMSE1
 70
     0
  9
$DIMSE2
 70
     0
  9
$DIMTAD
 70
     1
  9
$DIMZIN
 70
     8
  9
$DIMBLK
  1

  9
$DIMASO
 70
     1
  9
$DIMSHO
 70
     1
  9
$DIMPOST
  1

  9
$DIMAPOST
  1

  9
$DIMALT
 70
     0
  9
$DIMALTD
 70
     3
  9
$DIMALTF
 40
0.03937007874016
  9
$DIMLFAC
 40
1.0
  9
$DIMTOFL
 70
     1
  9
$DIMTVP
 40
0.0
  9
$DIMTIX
 70
     0
  9
$DIMSOXD
 70
     0
  9
$DIMSAH
 70
     0
  9
$DIMBLK1
  1

  9
$DIMBLK2
  1

  9
$DIMSTYLE
  2
ISO-25
  9
$DIMCLRD
 70
     0
  9
$DIMCLRE
 70
     0
  9
$DIMCLRT
 70
     0
  9
$DIMTFAC
 40
1.0
  9
$DIMGAP
 40
0.625
  9
$DIMJUST
 70
     0
  9
$DIMSD1
 70
     0
  9
$DIMSD2
 70
     0
  9
$DIMTOLJ
 70
     0
  9
$DIMTZIN
 70
     8
  9
$DIMALTZ
 70
     0
  9
$DIMALTTZ
 70
     0
  9
$DIMUPT
 70
     0
  9
$DIMDEC
 70
     2
  9
$DIMTDEC
 70
     2
  9
$DIMALTU
 70
     2
  9
$DIMALTTD
 70
     3
  9
$DIMTXSTY
  7
Standard
  9
$DIMAUNIT
 70
     0
  9
$DIMADEC
 70
     0
  9
$DIMALTRND
 40
0.0
  9
$DIMAZIN
 70
     0
  9
$DIMDSEP
 70
    44
  9
$DIMATFIT
 70
     3
  9
$DIMFRAC
 70
     0
  9
$DIMLDRBLK
  1

  9
$DIMLUNIT
 70
     2
  9
$DIMLWD
 70
    -2
  9
$DIMLWE
 70
    -2
  9
$DIMTMOVE
 70
     0
  9
$DIMFXL
 40
1.0
  9
$DIMFXLON
 70
     0
  9
$DIMJOGANG
 40
0.7853981633974483
  9
$DIMTFILL
 70
     0
  9
$DIMTFILLCLR
 70
     0
  9
$DIMARCSYM
 70
     0
  9
$DIMLTYPE
  6

  9
$DIMLTEX1
  6

  9
$DIMLTEX2
  6

  9
$DIMTXTDIRECTION
 70
     0
  9
$LUNITS
 70
     2
  9
$LUPREC
 70
     4
  9
$SKETCHINC
 40
1.0
  9
$FILLETRAD
 40
10.0
  9
$AUNITS
 70
     0
  9
$AUPREC
 70
     0
  9
$MENU
  1
.
  9
$ELEVATION
 40
0.0
  9
$PELEVATION
 40
0.0
  9
$THICKNESS
 40
0.0
  9
$LIMCHECK
 70
     0
  9
$CHAMFERA
 40
0.0
  9
$CHAMFERB
 40
0.0
  9
$CHAMFERC
 40
0.0
  9
$CHAMFERD
 40
0.0
  9
$SKPOLY
 70
     0
  9
$TDCREATE
 40
2458168.986695799
  9
$TDUCREATE
 40
2458168.945029132
  9
$TDUPDATE
 40
2458168.986695972
  9
$TDUUPDATE
 40
2458168.945029306
  9
$TDINDWG
 40
0.0000000116
  9
$TDUSRTIMER
 40
0.0000000116
  9
$USRTIMER
 70
     1
  9
$ANGBASE
 50
0.0
  9
$ANGDIR
 70
     0
  9
$PDMODE
 70
     0
  9
$PDSIZE
 40
0.0
  9
$PLINEWID
 40
0.0
  9
$SPLFRAME
 70
     0
  9
$SPLINETYPE
 70
     6
  9
$SPLINESEGS
 70
     8
  9
$HANDSEED
  5
1B5
  9
$SURFTAB1
 70
     6
  9
$SURFTAB2
 70
     6
  9
$SURFTYPE
 70
     6
  9
$SURFU
 70
     6
  9
$SURFV
 70
     6
  9
$UCSBASE
  2

  9
$UCSNAME
  2

  9
$UCSORG
 10
0.0
 20
0.0
 30
0.0
  9
$UCSXDIR
 10
1.0
 20
0.0
 30
0.0
  9
$UCSYDIR
 10
0.0
 20
1.0
 30
0.0
  9
$UCSORTHOREF
  2

  9
$UCSORTHOVIEW
 70
     0
  9
$UCSORGTOP
 10
0.0
 20
0.0
 30
0.0
  9
$UCSORGBOTTOM
 10
0.0
 20
0.0
 30
0.0
  9
$UCSORGLEFT
 10
0.0
 20
0.0
 30
0.0
  9
$UCSORGRIGHT
 10
0.0
 20
0.0
 30
0.0
  9
$UCSORGFRONT
 10
0.0
 20
0.0
 30
0.0
  9
$UCSORGBACK
 10
0.0
 20
0.0
 30
0.0
  9
$PUCSBASE
  2

  9
$PUCSNAME
  2

  9
$PUCSORG
 10
0.0
 20
0.0
 30
0.0
  9
$PUCSXDIR
 10
1.0
 20
0.0
 30
0.0
  9
$PUCSYDIR
 10
0.0
 20
1.0
 30
0.0
  9
$PUCSORTHOREF
  2

  9
$PUCSORTHOVIEW
 70
     0
  9
$PUCSORGTOP
 10
0.0
 20
0.0
 30
0.0
  9
$PUCSORGBOTTOM
 10
0.0
 20
0.0
 30
0.0
  9
$PUCSORGLEFT
 10
0.0
 20
0.0
 30
0.0
  9
$PUCSORGRIGHT
 10
0.0
 20
0.0
 30
0.0
  9
$PUCSORGFRONT
 10
0.0
 20
0.0
 30
0.0
  9
$PUCSORGBACK
 10
0.0
 20
0.0
 30
0.0
  9
$USERI1
 70
     0
  9
$USERI2
 70
     0
  9
$USERI3
 70
     0
  9
$USERI4
 70
     0
  9
$USERI5
 70
     0
  9
$USERR1
 40
0.0
  9
$USERR2
 40
0.0
  9
$USERR3
 40
0.0
  9
$USERR4
 40
0.0
  9
$USERR5
 40
0.0
  9
$WORLDVIEW
 70
     1
  9
$SHADEDGE
 70
     3
  9
$SHADEDIF
 70
    70
  9
$TILEMODE
 70
     1
  9
$MAXACTVP
 70
    64
  9
$PINSBASE
 10
0.0
 20
0.0
 30
0.0
  9
$PLIMCHECK
 70
     0
  9
$PEXTMIN
 10
1.000000000000000E+20
 20
1.000000000000000E+20
 30
1.000000000000000E+20
  9
$PEXTMAX
 10
-1.000000000000000E+20
 20
-1.000000000000000E+20
 30
-1.000000000000000E+20
  9
$PLIMMIN
 10
0.0
 20
0.0
  9
$PLIMMAX
 10
420.0
 20
297.0
  9
$UNITMODE
 70
     0
  9
$VISRETAIN
 70
     1
  9
$PLINEGEN
 70
     0
  9
$PSLTSCALE
 70
     1
  9
$TREEDEPTH
 70
  3020
  9
$CMLSTYLE
  2
Standard
  9
$CMLJUST
 70
     0
  9
$CMLSCALE
 40
20.0
  9
$PROXYGRAPHICS
 70
     1
  9
$MEASUREMENT
 70
     1
  9
$CELWEIGHT
370
    -1
  9
$ENDCAPS
280
     0
  9
$JOINSTYLE
280
     0
  9
$LWDISPLAY
290
     0
  9
$INSUNITS
 70
     4
  9
$HYPERLINKBASE
  1

  9
$STYLESHEET
  1

  9
$XEDIT
290
     1
  9
$CEPSNTYPE
380
     0
  9
$PSTYLEMODE
290
     1
  9
$FINGERPRINTGUID
  2
{A5FEEB30-30D1-4819-B902-F939125201F7}
  9
$VERSIONGUID
  2
{FAEB1C32-E019-11D5-929B-00C0DF256EC4}
  9
$EXTNAMES
290
     1
  9
$PSVPSCALE
 40
0.0
  9
$OLESTARTUP
290
     0
  9
$SORTENTS
280
   127
  9
$INDEXCTL
280
     0
  9
$HIDETEXT
280
     1
  9
$XCLIPFRAME
280
     2
  9
$HALOGAP
280
     0
  9
$OBSCOLOR
 70
   257
  9
$OBSLTYPE
280
     0
  9
$INTERSECTIONDISPLAY
280
     0
  9
$INTERSECTIONCOLOR
 70
   257
  9
$DIMASSOC
280
     2
  9
$PROJECTNAME
  1

  9
$CAMERADISPLAY
290
     0
  9
$LENSLENGTH
 40
50.0
  9
$CAMERAHEIGHT
 40
0.0
  9
$STEPSPERSEC
 40
2.0
  9
$STEPSIZE
 40
6.0
  9
$3DDWFPREC
 40
2.0
  9
$PSOLWIDTH
 40
5.0
  9
$PSOLHEIGHT
 40
80.0
  9
$LOFTANG1
 40
1.570796326794897
  9
$LOFTANG2
 40
1.570796326794897
  9
$LOFTMAG1
 40
0.0
  9
$LOFTMAG2
 40
0.0
  9
$LOFTPARAM
 70
     7
  9
$LOFTNORMALS
280
     1
  9
$LATITUDE
 40
37.795
  9
$LONGITUDE
 40
-122.394
  9
$NORTHDIRECTION
 40
0.0
  9
$TIMEZONE
 70
 -8000
  9
$LIGHTGLYPHDISPLAY
280
     1
  9
$TILEMODELIGHTSYNCH
280
     1
  9
$CMATERIAL
347
44
  9
$SOLIDHIST
280
     0
  9
$SHOWHIST
280
     1
  9
$DWFFRAME
280
     2
  9
$DGNFRAME
280
     2
  9
$REALWORLDSCALE
290
     1
  9
$INTERFERECOLOR
 62
   256
  9
$CSHADOW
280
     0
  9
$SHADOWPLANELOCATION
 40
0.0
  0
ENDSEC
  0
SECTION
  2
CLASSES
  0
CLASS
  1
ACDBDICTIONARYWDFLT
  2
AcDbDictionaryWithDefault
  3
ObjectDBX Classes
 90
        0
 91
        4
280
     0
281
     0
  0
CLASS
  1
VISUALSTYLE
  2
AcDbVisualStyle
  3
ObjectDBX Classes
 90
     4095
 91
        4
280
     0
281
     0
  0
CLASS
  1
MATERIAL
  2
AcDbMaterial
  3
ObjectDBX Classes
 90
     1153
 91
        4
280
     0
281
     0
  0
CLASS
  1
SCALE
  2
AcDbScale
  3
ObjectDBX Classes
 90
     1153
 91
        4
280
     0
281
     0
  0
CLASS
  1
TABLESTYLE
  2
AcDbTableStyle
  3
ObjectDBX Classes
 90
     4095
 91
        4
280
     0
281
     0
  0
CLASS
  1
MLEADERSTYLE
  2
AcDbMLeaderStyle
  3
ACDB_MLEADERSTYLE_CLASS
 90
     4095
 91
        4
280
     0
281
     0
  0
CLASS
  1
SUN
  2
AcDbSun
  3
SCENEOE
 90
     1153
 91
        4
280
     0
281
     0
  0
CLASS
  1
DICTIONARYVAR
  2
AcDbDictionaryVar
  3
ObjectDBX Classes
 90
        0
 91
        4
280
     0
281
     0
  0
CLASS
  1
CELLSTYLEMAP
  2
AcDbCellStyleMap
  3
ObjectDBX Classes
 90
     1152
 91
        4
280
     0
281
     0
  0
ENDSEC
  0
SECTION
  2
TABLES
  0
TABLE
  2
VPORT
  5
8
330
0
100
AcDbSymbolTable
 70
     1
  0
VPORT
  5
29
330
8
100
AcDbSymbolTableRecord
100
AcDbViewportTableRecord
  2
*Active
 70
     0
 10
0.0
 20
0.0
 11
1.0
 21
1.0
 12
-21.42249999999996
 22
0.0
 13
0.0
 23
0.0
 14
10.0
 24
10.0
 15
10.0
 25
10.0
 16
0.0
 26
0.0
 36
1.0
 17
0.0
 27
0.0
 37
0.0
 40
144.024
 41
0.3224858356940516
 42
50.0
 43
0.0
 44
0.0
 50
0.0
 51
0.0
 71
     0
 72
   100
 73
     1
 74
     3
 75
     0
 76
     0
 77
     0
 78
     0
281
     0
 65
     1
110
0.0
120
0.0
130
0.0
111
1.0
121
0.0
131
0.0
112
0.0
122
1.0
132
0.0
 79
     0
146
0.0
348
2F
 60
     3
 61
     5
292
     1
282
     1
141
0.0
142
0.0
 63
   250
361
6D
  0
ENDTAB
  0
TABLE
  2
LTYPE
  5
5
330
0
100
AcDbSymbolTable
 70
     3
  0
LTYPE
  5
14
330
5
100
AcDbSymbolTableRecord
100
AcDbLinetypeTableRecord
  2
ByBlock
 70
     0
  3

 72
    65
 73
     0
 40
0.0
  0
LTYPE
  5
15
330
5
100
AcDbSymbolTableRecord
100
AcDbLinetypeTableRecord
  2
ByLayer
 70
     0
  3

 72
    65
 73
     0
 40
0.0
  0
LTYPE
  5
16
330
5
100
AcDbSymbolTableRecord
100
AcDbLinetypeTableRecord
  2
Continuous
 70
     0
  3
Solid line
 72
    65
 73
     0
 40
0.0
  0
LTYPE
  5
94
330
5
100
AcDbSymbolTableRecord
100
AcDbLinetypeTableRecord
  2
Dashed
 70
     0
  3

 72
    65
 73
     2
 40
2.0
 49
1.0
 74
     0
 49
-1.0
 74
     0
  0
LTYPE
  5
17D
330
5
100
AcDbSymbolTableRecord
100
AcDbLinetypeTableRecord
  2
Center
 70
     0
  3

 72
    65
 73
     4
 40
1.5
 49
0.45
 74
     0
 49
-0.5
 74
     0
 49
0.05
 74
     0
 49
-0.5
 74
     0
  0
ENDTAB
  0
TABLE
  2
LAYER
  5
2
330
0
100
AcDbSymbolTable
 70
     6
  0
LAYER
  5
10
330
2
100
AcDbSymbolTableRecord
100
AcDbLayerTableRecord
  2
0
 70
     0
 62
     7
  6
Continuous
370
    -3
390
F
347
46
348
0
  0
LAYER
  5
72
330
2
100
AcDbSymbolTableRecord
100
AcDbLayerTableRecord
  2
AM_6
 70
     0
 62
    -2
  6
Continuous
370
    35
390
F
347
46
348
0
  0
LAYER
  5
95
330
2
100
AcDbSymbolTableRecord
100
AcDbLayerTableRecord
  2
AM_9
 70
     0
 62
     6
  6
Dashed
370
    25
390
F
347
46
348
0
  0
LAYER
  5
BB
330
2
100
AcDbSymbolTableRecord
100
AcDbLayerTableRecord
  2
AM_4
 70
     0
 62
     7
  6
Continuous
370
    50
390
F
347
46
348
0
  0
LAYER
  5
17E
330
2
100
AcDbSymbolTableRecord
100
AcDbLayerTableRecord
  2
AM_7
 70
     0
 62
     7
  6
Center
370
    25
390
F
347
46
348
0
  0
LAYER
  5
1A7
330
2
100
AcDbSymbolTableRecord
100
AcDbLayerTableRecord
  2
ConnectionPoints
 70
     0
 62
     7
  6
Continuous
370
    50
390
F
347
46
348
0
  0
ENDTAB
  0
TABLE
  2
STYLE
  5
3
330
0
100
AcDbSymbolTable
 70
     1
  0
STYLE
  5
11
330
3
100
AcDbSymbolTableRecord
100
AcDbTextStyleTableRecord
  2
Standard
 70
     0
 40
0.0
 41
1.0
 50
0.0
 71
     0
 42
2.5
  3
txt
  4

  0
ENDTAB
  0
TABLE
  2
VIEW
  5
6
330
0
100
AcDbSymbolTable
 70
     0
  0
ENDTAB
  0
TABLE
  2
UCS
  5
7
330
0
100
AcDbSymbolTable
 70
     0
  0
ENDTAB
  0
TABLE
  2
APPID
  5
9
330
0
100
AcDbSymbolTable
 70
     1
  0
APPID
  5
12
330
9
100
AcDbSymbolTableRecord
100
AcDbRegAppTableRecord
  2
ACAD
 70
     0
  0
ENDTAB
  0
TABLE
  2
DIMSTYLE
  5
A
330
0
100
AcDbSymbolTable
 70
     1
100
AcDbDimStyleTable
  0
DIMSTYLE
105
27
330
A
100
AcDbSymbolTableRecord
100
AcDbDimStyleTableRecord
  2
ISO-25
 70
     0
 41
2.5
 42
0.625
 43
3.75
 44
1.25
 73
     0
 74
     0
 77
     1
 78
     8
140
2.5
141
2.5
143
0.03937007874016
147
0.625
171
     3
172
     1
178
     0
271
     2
272
     2
274
     3
278
    44
283
     0
284
     8
340
11
  0
ENDTAB
  0
TABLE
  2
BLOCK_RECORD
  5
1
330
0
100
AcDbSymbolTable
 70
     5
  0
BLOCK_RECORD
  5
1F
330
1
100
AcDbSymbolTableRecord
100
AcDbBlockTableRecord
  2
*Model_Space
340
22
 70
     0
280
     1
281
     0
  0
BLOCK_RECORD
  5
1B
330
1
100
AcDbSymbolTableRecord
100
AcDbBlockTableRecord
  2
*Paper_Space
340
1E
 70
     0
280
     1
281
     0
  0
BLOCK_RECORD
  5
23
330
1
100
AcDbSymbolTableRecord
100
AcDbBlockTableRecord
  2
*Paper_Space0
340
26
 70
     0
280
     1
281
     0
  0
BLOCK_RECORD
  5
6E
330
1
100
AcDbSymbolTableRecord
100
AcDbBlockTableRecord
  2
1_125732_2
340
0
102
{BLKREFS
331
6F
102
}
 70
     0
280
     1
281
     0
  0
BLOCK_RECORD
  5
88
330
1
100
AcDbSymbolTableRecord
100
AcDbBlockTableRecord
  2
2_405015E_Metric_0_in_125732_2
340
0
102
{BLKREFS
331
89
102
}
 70
     0
280
     1
281
     0
  0
BLOCK_RECORD
  5
E2
330
1
100
AcDbSymbolTableRecord
100
AcDbBlockTableRecord
  2
3_125647_0_in_125732_2
340
0
102
{BLKREFS
331
E3
102
}
 70
     0
280
     1
281
     0
  0
BLOCK_RECORD
  5
13F
330
1
100
AcDbSymbolTableRecord
100
AcDbBlockTableRecord
  2
4_125732H_0_in_125732_2
340
0
102
{BLKREFS
331
140
102
}
 70
     0
280
     1
281
     0
  0
ENDTAB
  0
ENDSEC
  0
SECTION
  2
BLOCKS
  0
BLOCK
  5
20
330
1F
100
AcDbEntity
  8
0
100
AcDbBlockBegin
  2
*Model_Space
 70
     0
 10
0.0
 20
0.0
 30
0.0
  3
*Model_Space
  1

  0
ENDBLK
  5
21
330
1F
100
AcDbEntity
  8
0
100
AcDbBlockEnd
  0
BLOCK
  5
1C
330
1B
100
AcDbEntity
 67
     1
  8
0
100
AcDbBlockBegin
  2
*Paper_Space
 70
     0
 10
0.0
 20
0.0
 30
0.0
  3
*Paper_Space
  1

  0
ENDBLK
  5
1D
330
1B
100
AcDbEntity
 67
     1
  8
0
100
AcDbBlockEnd
  0
BLOCK
  5
24
330
23
100
AcDbEntity
  8
0
100
AcDbBlockBegin
  2
*Paper_Space0
 70
     0
 10
0.0
 20
0.0
 30
0.0
  3
*Paper_Space0
  1

  0
ENDBLK
  5
25
330
23
100
AcDbEntity
  8
0
100
AcDbBlockEnd
  0
BLOCK
  5
70
330
6E
100
AcDbEntity
  8
0
100
AcDbBlockBegin
  2
1_125732_2
 70
     2
 10
0.0
 20
0.0
 30
0.0
  3
1_125732_2
  1

  0
ATTDEF
  5
73
330
6E
100
AcDbEntity
  8
AM_6
100
AcDbText
 10
6.345000000000001
 20
70.6
 30
0.0
 40
0.5
  1
Eccentric Collar Intermediate Duty Two-Bolt Flange Metric Bore
100
AcDbAttributeDefinition
  3

  2
NN
 70
     8
280
     0
  0
ATTDEF
  5
74
330
6E
100
AcDbEntity
  8
AM_6
100
AcDbText
 10
6.345000000000001
 20
70.1
 30
0.0
 40
0.5
  1
Eccentric Collar 2-Bolt Flange Bearings -(Normal Duty)
100
AcDbAttributeDefinition
  3

  2
NT
 70
     8
280
     0
  0
ATTDEF
  5
75
330
6E
100
AcDbEntity
  8
AM_6
100
AcDbText
 10
6.345000000000001
 20
69.6
 30
0.0
 40
0.5
  1
125732
100
AcDbAttributeDefinition
  3

  2
NB
 70
     8
280
     0
  0
ATTDEF
  5
76
330
6E
100
AcDbEntity
  8
AM_6
100
AcDbText
 10
6.345000000000001
 20
69.1
 30
0.0
 40
0.5
  1
$PN.
100
AcDbAttributeDefinition
  3

  2
NBSYN
 70
     8
280
     0
  0
ATTDEF
  5
77
330
6E
100
AcDbEntity
  8
AM_6
100
AcDbText
 10
6.345000000000001
 20
68.6
 30
0.0
 40
0.5
  1
125732
100
AcDbAttributeDefinition
  3

  2
LINA
 70
     8
280
     0
  0
ATTDEF
  5
78
330
6E
100
AcDbEntity
  8
AM_6
100
AcDbText
 10
6.345000000000001
 20
68.1
 30
0.0
 40
0.5
  1
206
100
AcDbAttributeDefinition
  3

  2
SERIES
 70
     8
280
     0
  0
ATTDEF
  5
79
330
6E
100
AcDbEntity
  8
AM_6
100
AcDbText
 10
6.345000000000001
 20
67.6
 30
0.0
 40
0.5
  1
30
100
AcDbAttributeDefinition
  3

  2
SS
 70
     8
280
     0
  0
ATTDEF
  5
7A
330
6E
100
AcDbEntity
  8
AM_6
100
AcDbText
 10
6.345000000000001
 20
67.1
 30
0.0
 40
0.5
  1
125732
100
AcDbAttributeDefinition
  3

  2
PN
 70
     8
280
     0
  0
ATTDEF
  5
7B
330
6E
100
AcDbEntity
  8
AM_6
100
AcDbText
 10
6.345000000000001
 20
66.6
 30
0.0
 40
0.5
  1
F2B-SXV-30M
100
AcDbAttributeDefinition
  3

  2
DESCRIPTION
 70
     8
280
     0
  0
ATTDEF
  5
7C
330
6E
100
AcDbEntity
  8
AM_6
100
AcDbText
 10
6.345000000000001
 20
66.1
 30
0.0
 40
0.5
  1
1.0
100
AcDbAttributeDefinition
  3

  2
W
 70
     8
280
     0
  0
ATTDEF
  5
7D
330
6E
100
AcDbEntity
  8
AM_6
100
AcDbText
 10
6.345000000000001
 20
65.6
 30
0.0
 40
0.5
  1
35.8
100
AcDbAttributeDefinition
  3

  2
A
 70
     8
280
     0
  0
ATTDEF
  5
7E
330
6E
100
AcDbEntity
  8
AM_6
100
AcDbText
 10
6.345000000000001
 20
65.1
 30
0.0
 40
0.5
  1
141.2
100
AcDbAttributeDefinition
  3

  2
B
 70
     8
280
     0
  0
ATTDEF
  5
7F
330
6E
100
AcDbEntity
  8
AM_6
100
AcDbText
 10
6.345000000000001
 20
64.6
 30
0.0
 40
0.5
  1
42.4
100
AcDbAttributeDefinition
  3

  2
C
 70
     8
280
     0
  0
ATTDEF
  5
80
330
6E
100
AcDbEntity
  8
AM_6
100
AcDbText
 10
6.345000000000001
 20
64.1
 30
0.0
 40
0.5
  1
116.6
100
AcDbAttributeDefinition
  3

  2
D
 70
     8
280
     0
  0
ATTDEF
  5
81
330
6E
100
AcDbEntity
  8
AM_6
100
AcDbText
 10
6.345000000000001
 20
63.59999999999999
 30
0.0
 40
0.5
  1
M10
100
AcDbAttributeDefinition
  3

  2
F
 70
     8
280
     0
  0
ATTDEF
  5
82
330
6E
100
AcDbEntity
  8
AM_6
100
AcDbText
 10
6.345000000000001
 20
63.09999999999999
 30
0.0
 40
0.5
  1
12.7
100
AcDbAttributeDefinition
  3

  2
H
 70
     8
280
     0
  0
ATTDEF
  5
83
330
6E
100
AcDbEntity
  8
AM_6
100
AcDbText
 10
6.345000000000001
 20
62.59999999999999
 30
0.0
 40
0.5
  1
15.5
100
AcDbAttributeDefinition
  3

  2
J
 70
     8
280
     0
  0
ATTDEF
  5
84
330
6E
100
AcDbEntity
  8
AM_6
100
AcDbText
 10
6.345000000000001
 20
62.09999999999999
 30
0.0
 40
0.5
  1
44.5
100
AcDbAttributeDefinition
  3

  2
L
 70
     8
280
     0
  0
ATTDEF
  5
85
330
6E
100
AcDbEntity
  8
AM_6
100
AcDbText
 10
6.345000000000001
 20
61.59999999999999
 30
0.0
 40
0.5
  1
79.5
100
AcDbAttributeDefinition
  3

  2
M
 70
     8
280
     0
  0
ATTDEF
  5
86
330
6E
100
AcDbEntity
  8
AM_6
100
AcDbText
 10
6.345000000000001
 20
61.09999999999999
 30
0.0
 40
0.5
  1
39.6
100
AcDbAttributeDefinition
  3

  2
N
 70
     8
280
     0
  0
ATTDEF
  5
87
330
6E
100
AcDbEntity
  8
AM_6
100
AcDbText
 10
6.345000000000001
 20
60.59999999999999
 30
0.0
 40
0.5
  1
baldor
100
AcDbAttributeDefinition
  3

  2
COMPANY
 70
     8
280
     0
  0
INSERT
  5
89
330
6E
100
AcDbEntity
  8
0
100
AcDbBlockReference
  2
2_405015E_Metric_0_in_125732_2
 10
0.0
 20
0.0
 30
0.0
  0
INSERT
  5
E3
330
6E
100
AcDbEntity
  8
0
100
AcDbBlockReference
  2
3_125647_0_in_125732_2
 10
0.0
 20
0.0
 30
0.0
  0
INSERT
  5
140
330
6E
100
AcDbEntity
  8
0
100
AcDbBlockReference
  2
4_125732H_0_in_125732_2
 10
0.0
 20
0.0
 30
0.0
  0
ENDBLK
  5
71
330
6E
100
AcDbEntity
  8
0
100
AcDbBlockEnd
  0
BLOCK
  5
8A
330
88
100
AcDbEntity
  8
0
100
AcDbBlockBegin
  2
2_405015E_Metric_0_in_125732_2
 70
     2
 10
0.0
 20
0.0
 30
0.0
  3
2_405015E_Metric_0_in_125732_2
  1

  0
ATTDEF
  5
8C
330
88
100
AcDbEntity
  8
AM_6
100
AcDbText
 10
-7.43333333333333
 20
39.97100960659098
 30
0.0
 40
0.5
  1
405015E -Metric
100
AcDbAttributeDefinition
  3

  2
NN
 70
     8
280
     0
  0
ATTDEF
  5
8D
330
88
100
AcDbEntity
  8
AM_6
100
AcDbText
 10
-7.43333333333333
 20
39.47100960659098
 30
0.0
 40
0.5
  1
Grease Fitting
100
AcDbAttributeDefinition
  3

  2
NT
 70
     8
280
     0
  0
ATTDEF
  5
8E
330
88
100
AcDbEntity
  8
AM_6
100
AcDbText
 10
-7.43333333333333
 20
38.97100960659098
 30
0.0
 40
0.5
  1
405015E-Metric
100
AcDbAttributeDefinition
  3

  2
NB
 70
     8
280
     0
  0
ATTDEF
  5
8F
330
88
100
AcDbEntity
  8
AM_6
100
AcDbText
 10
-7.43333333333333
 20
38.47100960659098
 30
0.0
 40
0.5
  1
$MN.-Metric
100
AcDbAttributeDefinition
  3

  2
NBSYN
 70
     8
280
     0
  0
ATTDEF
  5
90
330
88
100
AcDbEntity
  8
AM_6
100
AcDbText
 10
-7.43333333333333
 20
37.97100960659098
 30
0.0
 40
0.5
  1
405015E
100
AcDbAttributeDefinition
  3

  2
LINA
 70
     8
280
     0
  0
ATTDEF
  5
91
330
88
100
AcDbEntity
  8
AM_6
100
AcDbText
 10
-7.43333333333333
 20
37.47100960659098
 30
0.0
 40
0.5
  1
405015E
100
AcDbAttributeDefinition
  3

  2
MN
 70
     8
280
     0
  0
ATTDEF
  5
92
330
88
100
AcDbEntity
  8
AM_6
100
AcDbText
 10
-7.43333333333333
 20
36.97100960659098
 30
0.0
 40
0.5
  1
1/8 x 27PTF
100
AcDbAttributeDefinition
  3

  2
T
 70
     8
280
     0
  0
ATTDEF
  5
93
330
88
100
AcDbEntity
  8
AM_6
100
AcDbText
 10
-7.43333333333333
 20
36.47100960659098
 30
0.0
 40
0.5
  1
baldor
100
AcDbAttributeDefinition
  3

  2
COMPANY
 70
     8
280
     0
  0
LWPOLYLINE
  5
96
330
88
100
AcDbEntity
  8
AM_9
100
AcDbPolyline
 90
        3
 70
     0
 43
0.0
 10
-17.43333333333333
 20
35.79117030079521
 10
-16.1889536699242
 20
35.17562450436407
 10
-14.93333333333333
 20
34.6239950321313
  0
LWPOLYLINE
  5
97
330
88
100
AcDbEntity
  8
AM_9
100
AcDbPolyline
 90
        4
 70
     0
 43
0.0
 10
-19.93333333333333
 20
34.6239950321313
 10
-18.96712652446015
 20
35.04174478040969
 10
-18.00091971558696
 20
35.50295497555499
 10
-17.43333333333333
 20
35.79117030079521
  0
ELLIPSE
  5
98
330
88
100
AcDbEntity
  8
AM_9
100
AcDbEllipse
 10
-17.43333333333333
 20
26.80259710948567
 30
0.0
 11
-4.157993753183522
 21
5.092073740710890E-16
 31
0.0
210
0.0
220
0.0
230
1.0
 40
0.7071067811865472
 41
0.0
 42
6.283185307179586
  0
LINE
  5
99
330
88
100
AcDbEntity
  8
AM_9
100
AcDbLine
 10
-17.43333333333333
 20
37.61938155934634
 30
0.0
 11
-17.43333333333333
 21
35.79117030079521
 31
0.0
  0
LWPOLYLINE
  5
9A
330
88
100
AcDbEntity
  8
AM_9
100
AcDbPolyline
 90
        3
 70
     0
 43
0.0
 10
-22.43333333333333
 20
33.74992884847589
 10
-21.1889536699242
 20
34.1504147925943
 10
-19.93333333333333
 20
34.6239950321313
  0
ELLIPSE
  5
9B
330
88
100
AcDbEntity
  8
AM_9
100
AcDbEllipse
 10
-17.43333333333334
 20
31.56213285365234
 30
0.0
 11
4.999999999999986
 21
0.0
 31
0.0
210
0.0
220
0.0
230
1.0
 40
0.7071067811865467
 41
2.094395102393193
 42
3.141592653589793
  0
LWPOLYLINE
  5
9C
330
88
100
AcDbEntity
  8
AM_9
100
AcDbPolyline
 90
        3
 70
     0
 43
0.0
 10
-14.93333333333333
 20
34.6239950321313
 10
-13.68333333333333
 20
34.15236754409283
 10
-12.43333333333333
 20
33.74992884847589
  0
LWPOLYLINE
  5
9D
330
88
100
AcDbEntity
  8
AM_9
100
AcDbPolyline
 90
        3
 70
     0
 43
0.0
 10
-14.93333333333333
 20
36.74531537569094
 10
-16.18333333333333
 20
37.2169428637294
 10
-17.43333333333333
 20
37.61938155934634
  0
LWPOLYLINE
  5
9E
330
88
100
AcDbEntity
  8
AM_9
100
AcDbPolyline
 90
        4
 70
     0
 43
0.0
 10
-17.43333333333333
 20
37.61938155934634
 10
-18.00091971558697
 20
37.44416454409533
 10
-18.96423876567575
 20
37.11751132034042
 10
-19.93333333333333
 20
36.74531537569094
  0
LINE
  5
9F
330
88
100
AcDbEntity
  8
AM_9
100
AcDbLine
 10
-14.32226555712779
 20
36.486461392343
 30
0.0
 11
-14.93333333333333
 21
36.74531537569094
 31
0.0
  0
LINE
  5
A0
330
88
100
AcDbEntity
  8
AM_9
100
AcDbLine
 10
-19.93333333333333
 20
36.74531537569094
 30
0.0
 11
-20.54299969946
 21
36.48707631033994
 31
0.0
  0
ELLIPSE
  5
A1
330
88
100
AcDbEntity
  8
AM_9
100
AcDbEllipse
 10
-17.43333333333333
 20
31.56213285365233
 30
0.0
 11
4.999999999999996
 21
0.0
 31
0.0
210
0.0
220
0.0
230
1.0
 40
0.707106781186548
 41
5.235987755982988
 42
8.377580409572783
  0
ELLIPSE
  5
A2
330
88
100
AcDbEntity
  8
AM_9
100
AcDbEllipse
 10
-17.43333333333332
 20
31.56213285365232
 30
0.0
 11
5.000000000000003
 21
7.450580596923833E-8
 31
0.0
210
0.0
220
0.0
230
1.0
 40
0.7071067811865478
 41
3.141592632516369
 42
5.235987742812097
  0
ELLIPSE
  5
A3
330
88
100
AcDbEntity
  8
AM_9
100
AcDbEllipse
 10
-17.43333333333333
 20
31.56213285365233
 30
0.0
 11
4.949631665534959
 21
0.0
 31
0.0
210
0.0
220
0.0
230
1.0
 40
0.7071067811865475
 41
3.665191429188091
 42
9.456034611736142
  0
LINE
  5
A4
330
88
100
AcDbEntity
  8
AM_9
100
AcDbLine
 10
-12.67762793319715
 20
27.12174257958051
 30
0.0
 11
-12.48611931214762
 21
31.45275494671968
 31
0.0
  0
LINE
  5
A5
330
88
100
AcDbEntity
  8
AM_9
100
AcDbLine
 10
-22.38054735451904
 20
31.45275494671968
 30
0.0
 11
-22.18903873346951
 21
27.12174257958051
 31
0.0
  0
ELLIPSE
  5
A6
330
88
100
AcDbEntity
  8
AM_9
100
AcDbEllipse
 10
-17.43333333333332
 20
31.56213285365235
 30
0.0
 11
4.94963166553498
 21
0.0
 31
0.0
210
0.0
220
0.0
230
1.0
 40
0.707106781186548
 41
3.172849304556561
 42
3.665191429188097
  0
LINE
  5
A7
330
88
100
AcDbEntity
  8
AM_9
100
AcDbLine
 10
-19.91056325318891
 20
36.18267541958499
 30
0.0
 11
-20.18231045004827
 21
35.71111376872
 31
0.0
  0
LINE
  5
A8
330
88
100
AcDbEntity
  8
AM_9
100
AcDbLine
 10
-14.68435621661839
 20
35.71111376872
 30
0.0
 11
-14.95610341347775
 21
36.18267541958499
 31
0.0
  0
ELLIPSE
  5
A9
330
88
100
AcDbEntity
  8
AM_9
100
AcDbEllipse
 10
-17.43333333333333
 20
35.46889781970798
 30
0.0
 11
2.675000000000004
 21
0.0
 31
0.0
210
0.0
220
0.0
230
1.0
 40
0.70710678118655
 41
0.0
 42
2.754650415401399
  0
ELLIPSE
  5
AA
330
88
100
AcDbEntity
  8
AM_9
100
AcDbEllipse
 10
-17.43333333333316
 20
35.46889781970816
 30
0.0
 11
2.675000000000177
 21
0.0
 31
0.0
210
0.0
220
0.0
230
1.0
 40
0.7071067811865337
 41
2.754650415401503
 42
3.141592653589793
  0
ELLIPSE
  5
AB
330
88
100
AcDbEntity
  8
AM_9
100
AcDbEllipse
 10
-17.43333333333341
 20
34.89176666674329
 30
0.0
 11
2.982994982562602
 21
0.0
 31
0.0
210
0.0
220
0.0
230
1.0
 40
0.7071067811865467
 41
0.3869422381883929
 42
0.840499345540616
  0
LINE
  5
AC
330
88
100
AcDbEntity
  8
AM_9
100
AcDbLine
 10
-19.42326216606585
 20
36.46314222762191
 30
0.0
 11
-19.83991975078728
 21
36.19932275573503
 31
0.0
  0
LINE
  5
AD
330
88
100
AcDbEntity
  8
AM_9
100
AcDbLine
 10
-15.02674691587938
 20
36.19932275573503
 30
0.0
 11
-15.44340450060082
 21
36.46314222762191
 31
0.0
  0
ELLIPSE
  5
AE
330
88
100
AcDbEntity
  8
AM_9
100
AcDbEllipse
 10
-17.43333333333333
 20
34.89176666674334
 30
0.0
 11
2.982994982562493
 21
0.0
 31
0.0
210
0.0
220
0.0
230
1.0
 40
0.707106781186551
 41
0.8404993455406187
 42
2.75465041540141
  0
ELLIPSE
  5
AF
330
88
100
AcDbEntity
  8
AM_9
100
AcDbEllipse
 10
-17.43333333333333
 20
34.29892761630856
 30
0.0
 11
3.60758389460112
 21
0.0
 31
0.0
210
0.0
220
0.0
230
1.0
 40
0.7071067811865465
 41
0.8404993455406231
 42
2.33828702784179
  0
ELLIPSE
  5
B0
330
88
100
AcDbEntity
  8
AM_9
100
AcDbEllipse
 10
-17.43333333333258
 20
34.29892761630737
 30
0.0
 11
3.607583894602115
 21
0.0
 31
0.0
210
0.0
220
0.0
230
1.0
 40
0.7071067811866883
 41
-3.94489827933787
 42
-3.804975968778862
  0
ELLIPSE
  5
B1
330
88
100
AcDbEntity
  8
AM_9
100
AcDbEllipse
 10
-17.43333333333333
 20
33.68345319721196
 30
0.0
 11
4.999999999999982
 21
0.0
 31
0.0
210
0.0
220
0.0
230
1.0
 40
0.70710678118655
 41
1.047197551196598
 42
2.2433875149625
  0
ELLIPSE
  5
B2
330
88
100
AcDbEntity
  8
AM_9
100
AcDbEllipse
 10
-17.43333333333323
 20
33.68345319721109
 30
0.0
 11
4.999999999999851
 21
0.0
 31
0.0
210
0.0
220
0.0
230
1.0
 40
0.7071067811867079
 41
0.8982051386273477
 42
1.04719755119664
  0
LINE
  5
B3
330
88
100
AcDbEntity
  8
AM_9
100
AcDbLine
 10
-14.75833333333333
 20
35.58557043860377
 30
0.0
 11
-14.75833333333333
 21
35.96387256653858
 31
0.0
  0
LINE
  5
B4
330
88
100
AcDbEntity
  8
AM_9
100
AcDbLine
 10
-20.10833333333333
 20
35.96387256653858
 30
0.0
 11
-20.10833333333333
 21
35.58557043860377
 31
0.0
  0
ELLIPSE
  5
B5
330
88
100
AcDbEntity
  8
AM_9
100
AcDbEllipse
 10
-17.43333333333333
 20
35.96387256653858
 30
0.0
 11
2.675000000000004
 21
0.0
 31
0.0
210
0.0
220
0.0
230
1.0
 40
0.7071067811865474
 41
5.888394187479829
 42
9.42477796076938
  0
ELLIPSE
  5
B6
330
88
100
AcDbEntity
  8
AM_9
100
AcDbEllipse
 10
-17.43333333333343
 20
35.96387256653875
 30
0.0
 11
2.674999999999903
 21
3.986060619354104E-8
 31
0.0
210
0.0
220
0.0
230
1.0
 40
0.7071067811865608
 41
3.141592632516369
 42
3.536383753774907
  0
ELLIPSE
  5
B7
330
88
100
AcDbEntity
  8
AM_9
100
AcDbEllipse
 10
-17.43333333332463
 20
34.29892761631517
 30
0.0
 11
3.607583894588345
 21
0.0
 31
0.0
210
0.0
220
0.0
230
1.0
 40
0.7071067811865472
 41
0.6633833151883692
 42
0.8404993455406917
  0
ELLIPSE
  5
B8
330
88
100
AcDbEntity
  8
AM_9
100
AcDbEllipse
 10
-17.43333333333333
 20
33.68345319721195
 30
0.0
 11
4.750000000000016
 21
0.0
 31
0.0
210
0.0
220
0.0
230
1.0
 40
0.7071067811865464
 41
0.8736482899485969
 42
2.267944363641196
  0
ELLIPSE
  5
B9
330
88
100
AcDbEntity
  8
AM_9
100
AcDbEllipse
 10
-17.43333333333333
 20
36.88311138208108
 30
0.0
 11
3.175000000000002
 21
0.0
 31
0.0
210
0.0
220
0.0
230
1.0
 40
0.7071067811865465
 41
0.4159140521025515
 42
2.725678601487241
  0
ELLIPSE
  5
BA
330
88
100
AcDbEntity
  8
AM_9
100
AcDbEllipse
 10
-17.43333333333334
 20
27.22688642426312
 30
0.0
 11
4.758029456511776
 21
0.0
 31
0.0
210
0.0
220
0.0
230
1.0
 40
0.7071067811865485
 41
0.0
 42
6.283185307179586
  0
LWPOLYLINE
  5
BC
330
88
100
AcDbEntity
  8
AM_4
100
AcDbPolyline
 90
        3
 70
     0
 43
0.0
 10
-12.43333333333333
 20
35.57814010702702
 10
-13.67771299674246
 20
36.19368590345816
 10
-14.32226555712779
 20
36.486461392343
  0
LWPOLYLINE
  5
BD
330
88
100
AcDbEntity
  8
AM_4
100
AcDbPolyline
 90
        3
 70
     0
 43
0.0
 10
-20.54299969946
 20
36.48707631033994
 10
-21.18333333333333
 20
36.19632213756975
 10
-22.43333333333333
 20
35.57814010702702
  0
LINE
  5
BE
330
88
100
AcDbEntity
  8
AM_4
100
AcDbLine
 10
-12.43333333333333
 20
35.57814010702702
 30
0.0
 11
-12.43333333333333
 21
29.66744594383726
 31
0.0
  0
LWPOLYLINE
  5
BF
330
88
100
AcDbEntity
  8
AM_4
100
AcDbPolyline
 90
        4
 70
     0
 43
0.0
 10
-14.93333333333333
 20
30.62159101873299
 10
-13.96712652446015
 20
30.99274582636864
 10
-13.00091971558697
 20
31.32044018713738
 10
-12.43333333333333
 20
31.49565720238839
  0
LWPOLYLINE
  5
C0
330
88
100
AcDbEntity
  8
AM_4
100
AcDbPolyline
 90
        3
 70
     0
 43
0.0
 10
-14.93333333333333
 20
28.50027067517335
 10
-16.18333333333333
 20
28.02864318713488
 10
-17.43333333333333
 20
27.62620449151795
  0
LWPOLYLINE
  5
C1
330
88
100
AcDbEntity
  8
AM_4
100
AcDbPolyline
 90
        4
 70
     0
 43
0.0
 10
-12.43333333333333
 20
29.66744594383726
 10
-13.00091971558697
 20
29.37923061859705
 10
-13.96423876567575
 20
28.91933713161191
 10
-14.93333333333333
 20
28.50027067517335
  0
LWPOLYLINE
  5
C2
330
88
100
AcDbEntity
  8
AM_4
100
AcDbPolyline
 90
        3
 70
     0
 43
0.0
 10
-17.43333333333333
 20
29.45441575006908
 10
-16.1889536699242
 20
30.06996154650022
 10
-14.93333333333333
 20
30.62159101873299
  0
LINE
  5
C3
330
88
100
AcDbEntity
  8
AM_4
100
AcDbLine
 10
-20.18231045004827
 20
35.71111376872
 30
0.0
 11
-20.19578732271013
 21
35.6877274140699
 31
0.0
  0
LINE
  5
C4
330
88
100
AcDbEntity
  8
AM_4
100
AcDbLine
 10
-14.67087934395654
 20
35.6877274140699
 30
0.0
 11
-14.68435621661839
 21
35.71111376872
 31
0.0
  0
ELLIPSE
  5
C5
330
88
100
AcDbEntity
  8
AM_4
100
AcDbEllipse
 10
-17.43333333333331
 20
34.89176666674334
 30
0.0
 11
2.982994982562534
 21
0.0
 31
0.0
210
0.0
220
0.0
230
1.0
 40
0.707106781186546
 41
2.754650415401415
 42
3.665191429188094
  0
ELLIPSE
  5
C6
330
88
100
AcDbEntity
  8
AM_4
100
AcDbEllipse
 10
-17.43333333333333
 20
34.89176666674333
 30
0.0
 11
2.982994982562509
 21
0.0
 31
0.0
210
0.0
220
0.0
230
1.0
 40
0.7071067811865471
 41
3.665191429188091
 42
6.670127545367974
  0
ELLIPSE
  5
C7
330
88
100
AcDbEntity
  8
AM_4
100
AcDbEllipse
 10
-17.43333333333335
 20
34.29892761630855
 30
0.0
 11
3.607583894601097
 21
0.0
 31
0.0
210
0.0
220
0.0
230
1.0
 40
0.7071067811865469
 41
2.478209338400862
 42
3.665191429188093
  0
ELLIPSE
  5
C8
330
88
100
AcDbEntity
  8
AM_4
100
AcDbEllipse
 10
-17.43333333333331
 20
33.68345319721195
 30
0.0
 11
5.000000000000025
 21
0.0
 31
0.0
210
0.0
220
0.0
230
1.0
 40
0.7071067811865482
 41
2.2433875149625
 42
4.188790204786385
  0
ELLIPSE
  5
C9
330
88
100
AcDbEntity
  8
AM_4
100
AcDbEllipse
 10
-17.43333333333332
 20
33.68345319721193
 30
0.0
 11
4.999999999999974
 21
7.450580596923791E-8
 31
0.0
210
0.0
220
0.0
230
1.0
 40
0.7071067811865439
 41
4.188790191615496
 42
5.2359877428121
  0
ELLIPSE
  5
CA
330
88
100
AcDbEntity
  8
AM_4
100
AcDbEllipse
 10
-17.43333333333334
 20
33.68345319721195
 30
0.0
 11
5.000000000000007
 21
0.0
 31
0.0
210
0.0
220
0.0
230
1.0
 40
0.7071067811865466
 41
5.235987755982991
 42
6.283185307179586
  0
ELLIPSE
  5
CB
330
88
100
AcDbEntity
  8
AM_4
100
AcDbEllipse
 10
-17.43333333333332
 20
33.68345319721199
 30
0.0
 11
4.999999999999989
 21
0.0
 31
0.0
210
0.0
220
0.0
230
1.0
 40
0.7071067811865448
 41
0.0
 42
0.8982051386272882
  0
ELLIPSE
  5
CC
330
88
100
AcDbEntity
  8
AM_4
100
AcDbEllipse
 10
-17.43333333333333
 20
35.46889781970799
 30
0.0
 11
2.674999999999992
 21
0.0
 31
0.0
210
0.0
220
0.0
230
1.0
 40
0.7071067811865426
 41
3.665191429188091
 42
6.283185307179586
  0
LINE
  5
CD
330
88
100
AcDbEntity
  8
AM_4
100
AcDbLine
 10
-14.75833333333333
 20
35.468897819708
 30
0.0
 11
-14.75833333333333
 21
35.58557043860377
 31
0.0
  0
LINE
  5
CE
330
88
100
AcDbEntity
  8
AM_4
100
AcDbLine
 10
-20.10833333333333
 20
35.58557043860377
 30
0.0
 11
-20.10833333333333
 21
35.468897819708
 31
0.0
  0
ELLIPSE
  5
CF
330
88
100
AcDbEntity
  8
AM_4
100
AcDbEllipse
 10
-17.43333333333336
 20
35.46889781970799
 30
0.0
 11
2.67499999999997
 21
3.986060619354204E-8
 31
0.0
210
0.0
220
0.0
230
1.0
 40
0.7071067811865482
 41
3.141592638688632
 42
3.665191410748845
  0
LINE
  5
D0
330
88
100
AcDbEntity
  8
AM_4
100
AcDbLine
 10
-17.43333333333333
 20
29.45441575006908
 30
0.0
 11
-17.43333333333333
 21
27.62620449151795
 31
0.0
  0
LWPOLYLINE
  5
D1
330
88
100
AcDbEntity
  8
AM_4
100
AcDbPolyline
 90
        3
 70
     0
 43
0.0
 10
-19.93333333333333
 20
30.621591018733
 10
-18.68333333333333
 20
30.0725977806118
 10
-17.43333333333333
 20
29.45441575006908
  0
LWPOLYLINE
  5
D2
330
88
100
AcDbEntity
  8
AM_4
100
AcDbPolyline
 90
        3
 70
     0
 43
0.0
 10
-22.43333333333333
 20
31.49565720238839
 10
-21.1889536699242
 20
31.09517125826998
 10
-19.93333333333333
 20
30.621591018733
  0
LINE
  5
D3
330
88
100
AcDbEntity
  8
AM_4
100
AcDbLine
 10
-22.43333333333333
 20
35.57814010702702
 30
0.0
 11
-22.43333333333333
 21
29.66744594383726
 31
0.0
  0
LWPOLYLINE
  5
D4
330
88
100
AcDbEntity
  8
AM_4
100
AcDbPolyline
 90
        3
 70
     0
 43
0.0
 10
-19.93333333333333
 20
28.50027067517335
 10
-21.18333333333333
 20
29.04926391329454
 10
-22.43333333333333
 20
29.66744594383726
  0
LWPOLYLINE
  5
D5
330
88
100
AcDbEntity
  8
AM_4
100
AcDbPolyline
 90
        3
 70
     0
 43
0.0
 10
-17.43333333333333
 20
27.62620449151795
 10
-18.67771299674246
 20
28.02669043563636
 10
-19.93333333333333
 20
28.50027067517335
  0
ELLIPSE
  5
D6
330
88
100
AcDbEntity
  8
AM_4
100
AcDbEllipse
 10
-17.43333333333333
 20
34.29892761630856
 30
0.0
 11
3.607583894601117
 21
0.0
 31
0.0
210
0.0
220
0.0
230
1.0
 40
0.7071067811865472
 41
3.665191429188091
 42
6.946568622368509
  0
ELLIPSE
  5
D7
330
88
100
AcDbEntity
  8
AM_4
100
AcDbEllipse
 10
-17.43333333333333
 20
33.68345319721196
 30
0.0
 11
4.75
 21
0.0
 31
0.0
210
0.0
220
0.0
230
1.0
 40
0.7071067811865472
 41
2.267944363641197
 42
7.156833597128179
  0
ELLIPSE
  5
D8
330
88
100
AcDbEntity
  8
AM_4
100
AcDbEllipse
 10
-17.43333333333333
 20
35.96387256653858
 30
0.0
 11
2.674999999999997
 21
3.986060619354244E-8
 31
0.0
210
0.0
220
0.0
230
1.0
 40
0.7071067811865466
 41
3.665191410748845
 42
5.888394167965084
  0
LINE
  5
D9
330
88
100
AcDbEntity
  8
AM_4
100
AcDbLine
 10
-14.96410256410256
 20
35.23636847435627
 30
0.0
 11
-14.5025641025641
 21
36.01962521659367
 31
0.0
  0
LINE
  5
DA
330
88
100
AcDbEntity
  8
AM_4
100
AcDbLine
 10
-20.36410256410256
 20
36.01962521659367
 30
0.0
 11
-19.9025641025641
 21
35.23636847435627
 31
0.0
  0
ELLIPSE
  5
DB
330
88
100
AcDbEntity
  8
AM_4
100
AcDbEllipse
 10
-17.43333333333336
 20
36.88311138208111
 30
0.0
 11
3.175000000000031
 21
0.0
 31
0.0
210
0.0
220
0.0
230
1.0
 40
0.7071067811865468
 41
3.665191429188106
 42
6.699099359282122
  0
ELLIPSE
  5
DC
330
88
100
AcDbEntity
  8
AM_4
100
AcDbEllipse
 10
-17.43333333333126
 20
36.88311138208351
 30
0.0
 11
3.175000000002298
 21
0.0
 31
0.0
210
0.0
220
0.0
230
1.0
 40
0.7071067811867873
 41
3.536383773290174
 42
3.665191429188549
  0
ELLIPSE
  5
DD
330
88
100
AcDbEntity
  8
AM_4
100
AcDbEllipse
 10
-17.43333333333397
 20
35.96387256654009
 30
0.0
 11
2.674999999999294
 21
0.0
 31
0.0
210
0.0
220
0.0
230
1.0
 40
0.7071067811868308
 41
3.53638377329024
 42
3.665191429188728
  0
LINE
  5
DE
330
88
100
AcDbEntity
  8
AM_4
100
AcDbLine
 10
-19.59849245302524
 20
38.9735374417355
 30
0.0
 11
-20.33765633359286
 21
37.79017612898825
 31
0.0
  0
LINE
  5
DF
330
88
100
AcDbEntity
  8
AM_4
100
AcDbLine
 10
-14.5290103330738
 20
37.79017612898825
 30
0.0
 11
-15.26817421364142
 21
38.9735374417355
 31
0.0
  0
ELLIPSE
  5
E0
330
88
100
AcDbEntity
  8
AM_4
100
AcDbEllipse
 10
-17.4333333333333
 20
36.88311138208111
 30
0.0
 11
3.175000000000034
 21
4.731118679046683E-8
 31
0.0
210
0.0
220
0.0
230
1.0
 40
0.707106781186546
 41
2.725678582133817
 42
3.536383753774819
  0
ELLIPSE
  5
E1
330
88
100
AcDbEntity
  8
AM_4
100
AcDbEllipse
 10
-17.43333333333333
 20
38.2973249444542
 30
0.0
 11
2.366947548329675
 21
0.0
 31
0.0
210
0.0
220
0.0
230
1.0
 40
0.7071067811865414
 41
0.0
 42
6.283185307179586
  0
ENDBLK
  5
8B
330
88
100
AcDbEntity
  8
0
100
AcDbBlockEnd
  0
BLOCK
  5
E4
330
E2
100
AcDbEntity
  8
0
100
AcDbBlockBegin
  2
3_125647_0_in_125732_2
 70
     2
 10
0.0
 20
0.0
 30
0.0
  3
3_125647_0_in_125732_2
  1

  0
ATTDEF
  5
E6
330
E2
100
AcDbEntity
  8
AM_6
100
AcDbText
 10
-1.6
 20
30.97702064908979
 30
0.0
 40
0.5
  1
Eccentric Collar Intermediate Duty Insert Metric Bore
100
AcDbAttributeDefinition
  3

  2
NN
 70
     8
280
     0
  0
ATTDEF
  5
E7
330
E2
100
AcDbEntity
  8
AM_6
100
AcDbText
 10
-1.6
 20
30.47702064908979
 30
0.0
 40
0.5
  1
Eccentric Collar Bearing Inserts -(Intermediate Duty)
100
AcDbAttributeDefinition
  3

  2
NT
 70
     8
280
     0
  0
ATTDEF
  5
E8
330
E2
100
AcDbEntity
  8
AM_6
100
AcDbText
 10
-1.6
 20
29.97702064908979
 30
0.0
 40
0.5
  1
125647
100
AcDbAttributeDefinition
  3

  2
NB
 70
     8
280
     0
  0
ATTDEF
  5
E9
330
E2
100
AcDbEntity
  8
AM_6
100
AcDbText
 10
-1.6
 20
29.47702064908979
 30
0.0
 40
0.5
  1
$PN.
100
AcDbAttributeDefinition
  3

  2
NBSYN
 70
     8
280
     0
  0
ATTDEF
  5
EA
330
E2
100
AcDbEntity
  8
AM_6
100
AcDbText
 10
-1.6
 20
28.97702064908979
 30
0.0
 40
0.5
  1
125647
100
AcDbAttributeDefinition
  3

  2
LINA
 70
     8
280
     0
  0
ATTDEF
  5
EB
330
E2
100
AcDbEntity
  8
AM_6
100
AcDbText
 10
-1.6
 20
28.47702064908979
 30
0.0
 40
0.5
  1
206
100
AcDbAttributeDefinition
  3

  2
SERIES
 70
     8
280
     0
  0
ATTDEF
  5
EC
330
E2
100
AcDbEntity
  8
AM_6
100
AcDbText
 10
-1.6
 20
27.97702064908979
 30
0.0
 40
0.5
  1
30
100
AcDbAttributeDefinition
  3

  2
SS
 70
     8
280
     0
  0
ATTDEF
  5
ED
330
E2
100
AcDbEntity
  8
AM_6
100
AcDbText
 10
-1.6
 20
27.47702064908979
 30
0.0
 40
0.5
  1
125647
100
AcDbAttributeDefinition
  3

  2
PN
 70
     8
280
     0
  0
ATTDEF
  5
EE
330
E2
100
AcDbEntity
  8
AM_6
100
AcDbText
 10
-1.6
 20
26.97702064908979
 30
0.0
 40
0.5
  1
INS-SXV-30M
100
AcDbAttributeDefinition
  3

  2
DESCRIPTION
 70
     8
280
     0
  0
ATTDEF
  5
EF
330
E2
100
AcDbEntity
  8
AM_6
100
AcDbText
 10
-1.6
 20
26.47702064908979
 30
0.0
 40
0.5
  1
0.3
100
AcDbAttributeDefinition
  3

  2
WEIGHT
 70
     8
280
     0
  0
ATTDEF
  5
F0
330
E2
100
AcDbEntity
  8
AM_6
100
AcDbText
 10
-1.6
 20
25.97702064908979
 30
0.0
 40
0.5
  1
35.8
100
AcDbAttributeDefinition
  3

  2
A
 70
     8
280
     0
  0
ATTDEF
  5
F1
330
E2
100
AcDbEntity
  8
AM_6
100
AcDbText
 10
-1.6
 20
25.47702064908979
 30
0.0
 40
0.5
  1
17.5
100
AcDbAttributeDefinition
  3

  2
C
 70
     8
280
     0
  0
ATTDEF
  5
F2
330
E2
100
AcDbEntity
  8
AM_6
100
AcDbText
 10
-1.6
 20
24.97702064908979
 30
0.0
 40
0.5
  1
62.0
100
AcDbAttributeDefinition
  3

  2
D
 70
     8
280
     0
  0
ATTDEF
  5
F3
330
E2
100
AcDbEntity
  8
AM_6
100
AcDbText
 10
-1.6
 20
24.47702064908979
 30
0.0
 40
0.5
  1
4.1
100
AcDbAttributeDefinition
  3

  2
J
 70
     8
280
     0
  0
ATTDEF
  5
F4
330
E2
100
AcDbEntity
  8
AM_6
100
AcDbText
 10
-1.6
 20
23.97702064908979
 30
0.0
 40
0.5
  1
44.5
100
AcDbAttributeDefinition
  3

  2
L
 70
     8
280
     0
  0
ATTDEF
  5
F5
330
E2
100
AcDbEntity
  8
AM_6
100
AcDbText
 10
-1.6
 20
23.47702064908979
 30
0.0
 40
0.5
  1
M8 x 1.25
100
AcDbAttributeDefinition
  3

  2
N
 70
     8
280
     0
  0
ATTDEF
  5
F6
330
E2
100
AcDbEntity
  8
AM_6
100
AcDbText
 10
-1.6
 20
22.97702064908979
 30
0.0
 40
0.5
  1
8.9
100
AcDbAttributeDefinition
  3

  2
W
 70
     8
280
     0
  0
ATTDEF
  5
F7
330
E2
100
AcDbEntity
  8
AM_6
100
AcDbText
 10
-1.6
 20
22.47702064908979
 30
0.0
 40
0.5
  1
26.7
100
AcDbAttributeDefinition
  3

  2
Y
 70
     8
280
     0
  0
ATTDEF
  5
F8
330
E2
100
AcDbEntity
  8
AM_6
100
AcDbText
 10
-1.6
 20
21.97702064908979
 30
0.0
 40
0.5
  1
39.9
100
AcDbAttributeDefinition
  3

  2
Z
 70
     8
280
     0
  0
ATTDEF
  5
F9
330
E2
100
AcDbEntity
  8
AM_6
100
AcDbText
 10
-1.6
 20
21.47702064908979
 30
0.0
 40
0.5
  1
baldor
100
AcDbAttributeDefinition
  3

  2
COMPANY
 70
     8
280
     0
  0
LINE
  5
FA
330
E2
100
AcDbEntity
  8
AM_9
100
AcDbLine
 10
-9.399999999999999
 20
-29.46073770181658
 30
0.0
 11
-9.399999999999999
 21
-29.35919566253067
 31
0.0
  0
LWPOLYLINE
  5
FB
330
E2
100
AcDbEntity
  8
AM_9
100
AcDbPolyline
 90
        7
 70
     0
 43
0.0
 10
-9.400000000269811
 20
-29.35825786104191
 10
-9.407949067369092
 20
-29.40540756042398
 10
-9.465561483333309
 20
-29.49805417799773
 10
-9.576637615272134
 20
-29.59396965497803
 10
-9.738881805056797
 20
-29.69058653075495
 10
-9.946772862109917
 20
-29.78506544680003
 10
-10.18780487804857
 20
-29.87246202328776
  0
ELLIPSE
  5
FC
330
E2
100
AcDbEntity
  8
AM_9
100
AcDbEllipse
 10
-11.39999999999998
 20
-29.46073770181656
 30
0.0
 11
-1.999999999999982
 21
2.449293598294685E-16
 31
0.0
210
0.0
220
0.0
230
1.0
 40
0.2588190451025257
 41
2.221941372302991
 42
4.061243934876554
  0
ARC
  5
FD
330
E2
100
AcDbEntity
  8
AM_9
100
AcDbCircle
 10
-11.4
 20
-29.46073770181659
 30
0.0
 40
1.999999999999995
100
AcDbArc
 50
192.7151938233708
 51
0.0
  0
LINE
  5
FE
330
E2
100
AcDbEntity
  8
AM_9
100
AcDbLine
 10
-30.1
 20
-15.0
 30
0.0
 11
-7.024264068711927
 21
-15.0
 31
0.0
  0
LINE
  5
FF
330
E2
100
AcDbEntity
  8
AM_9
100
AcDbLine
 10
-7.024264068711927
 20
15.0
 30
0.0
 11
-30.1
 21
15.0
 31
0.0
  0
LINE
  5
100
330
E2
100
AcDbEntity
  8
AM_9
100
AcDbLine
 10
-41.97573593128808
 20
-15.0
 30
0.0
 11
-30.7
 21
-15.0
 31
0.0
  0
LINE
  5
101
330
E2
100
AcDbEntity
  8
AM_9
100
AcDbLine
 10
-30.7
 20
15.0
 30
0.0
 11
-41.97573593128808
 21
15.0
 31
0.0
  0
LINE
  5
102
330
E2
100
AcDbEntity
  8
AM_9
100
AcDbLine
 10
-30.7
 20
-15.0
 30
0.0
 11
-30.4
 21
-15.29999999999999
 31
0.0
  0
LINE
  5
103
330
E2
100
AcDbEntity
  8
AM_9
100
AcDbLine
 10
-30.4
 20
15.29999999999999
 30
0.0
 11
-30.7
 21
15.0
 31
0.0
  0
LINE
  5
104
330
E2
100
AcDbEntity
  8
AM_9
100
AcDbLine
 10
-30.7
 20
15.0
 30
0.0
 11
-30.7
 21
-15.0
 31
0.0
  0
LINE
  5
105
330
E2
100
AcDbEntity
  8
AM_9
100
AcDbLine
 10
-30.1
 20
15.0
 30
0.0
 11
-30.4
 21
15.29999999999999
 31
0.0
  0
LINE
  5
106
330
E2
100
AcDbEntity
  8
AM_9
100
AcDbLine
 10
-30.4
 20
-15.29999999999999
 30
0.0
 11
-30.1
 21
-15.0
 31
0.0
  0
LINE
  5
107
330
E2
100
AcDbEntity
  8
AM_9
100
AcDbLine
 10
-30.1
 20
15.0
 30
0.0
 11
-30.1
 21
-15.0
 31
0.0
  0
LINE
  5
108
330
E2
100
AcDbEntity
  8
AM_9
100
AcDbLine
 10
-30.4
 20
15.29999999999999
 30
0.0
 11
-30.4
 21
-15.29999999999999
 31
0.0
  0
LINE
  5
109
330
E2
100
AcDbEntity
  8
AM_9
100
AcDbLine
 10
-7.024264068711927
 20
-15.0
 30
0.0
 11
-6.6
 21
-15.42426406871193
 31
0.0
  0
LINE
  5
10A
330
E2
100
AcDbEntity
  8
AM_9
100
AcDbLine
 10
-6.6
 20
15.42426406871193
 30
0.0
 11
-7.024264068711927
 21
15.0
 31
0.0
  0
LINE
  5
10B
330
E2
100
AcDbEntity
  8
AM_9
100
AcDbLine
 10
-7.024264068711927
 20
15.0
 30
0.0
 11
-7.024264068711927
 21
-15.0
 31
0.0
  0
LINE
  5
10C
330
E2
100
AcDbEntity
  8
AM_9
100
AcDbLine
 10
-41.97573593128808
 20
15.0
 30
0.0
 11
-42.4
 21
15.42426406871193
 31
0.0
  0
LINE
  5
10D
330
E2
100
AcDbEntity
  8
AM_9
100
AcDbLine
 10
-42.4
 20
-15.42426406871193
 30
0.0
 11
-41.97573593128808
 21
-15.0
 31
0.0
  0
LINE
  5
10E
330
E2
100
AcDbEntity
  8
AM_9
100
AcDbLine
 10
-41.97573593128808
 20
15.0
 30
0.0
 11
-41.97573593128808
 21
-15.0
 31
0.0
  0
LWPOLYLINE
  5
10F
330
E2
100
AcDbEntity
  8
AM_9
100
AcDbPolyline
 90
       20
 70
     0
 43
0.0
 10
-39.72349980799999
 20
3.882285676537812
 10
-39.67891758914148
 20
3.355691300769788
 10
-39.54137697604959
 20
2.824006363719338
 10
-39.32295725364192
 20
2.332774996168091
 10
-39.01782862797653
 20
1.868124555993878
 10
-38.64502375080108
 20
1.463010352083463
 10
-38.19769867656527
 20
1.114184840589207
 10
-37.70668946296008
 20
0.8491446909006323
 10
-37.16174405145374
 20
0.6661266228496555
 10
-36.61887973829381
 20
0.5829311928833405
 10
-36.05323522446373
 20
0.5941231733883304
 10
-35.52363147749604
 20
0.6959441957055233
 10
-35.00393301911761
 20
0.8897011138805792
 10
-34.53270996974457
 20
1.160855476774343
 10
-34.10067390105799
 20
1.51431019347507
 10
-33.73492645790058
 20
1.930070908963279
 10
-33.4352538659798
 20
2.411976022898113
 10
-33.22664767207272
 20
2.919846480571819
 10
-33.10418297165993
 20
3.467220919266532
 10
-33.07649982694553
 20
3.882628451192284
  0
LINE
  5
110
330
E2
100
AcDbEntity
  8
AM_9
100
AcDbLine
 10
-33.07649980799999
 20
3.881855600180096
 30
0.0
 11
-33.07649980799999
 21
5.664900925855513
 31
0.0
  0
LINE
  5
111
330
E2
100
AcDbEntity
  8
AM_9
100
AcDbLine
 10
-39.72349980799999
 20
5.664900925855515
 30
0.0
 11
-39.72349980799999
 21
3.882285676537813
 31
0.0
  0
LWPOLYLINE
  5
112
330
E2
100
AcDbEntity
  8
AM_9
100
AcDbPolyline
 90
        4
 70
     0
 43
0.0
 10
-39.58599251699667
 20
4.788416807130414
 10
-39.60908412247291
 20
4.710913912981307
 10
-39.69422607420061
 20
4.305759145909533
 10
-39.72349980799999
 20
3.882285676537812
  0
LWPOLYLINE
  5
113
330
E2
100
AcDbEntity
  8
AM_9
100
AcDbPolyline
 90
        4
 70
     0
 43
0.0
 10
-33.07649982694553
 20
3.882628451192284
 10
-33.0785490711101
 20
3.994884961191473
 10
-33.14557518700521
 20
4.529466934887362
 10
-33.20763959750294
 20
4.767794553293026
  0
LINE
  5
114
330
E2
100
AcDbEntity
  8
AM_9
100
AcDbLine
 10
-6.749999999999999
 20
-19.95
 30
0.0
 11
-6.6
 21
-19.95
 31
0.0
  0
LINE
  5
115
330
E2
100
AcDbEntity
  8
AM_9
100
AcDbLine
 10
-6.6
 20
19.95
 30
0.0
 11
-6.749999999999999
 21
19.95
 31
0.0
  0
LINE
  5
116
330
E2
100
AcDbEntity
  8
AM_9
100
AcDbLine
 10
-6.6
 20
19.95
 30
0.0
 11
-6.6
 21
-19.95
 31
0.0
  0
LINE
  5
117
330
E2
100
AcDbEntity
  8
AM_9
100
AcDbLine
 10
-26.9
 20
-19.95000000000001
 30
0.0
 11
-24.25
 21
-19.95000000000001
 31
0.0
  0
LINE
  5
118
330
E2
100
AcDbEntity
  8
AM_9
100
AcDbLine
 10
-24.25
 20
19.95000000000001
 30
0.0
 11
-26.9
 21
19.95000000000001
 31
0.0
  0
LINE
  5
119
330
E2
100
AcDbEntity
  8
AM_9
100
AcDbLine
 10
-20.1125
 20
-29.52380952380952
 30
0.0
 11
-19.0875
 21
-29.52380952380952
 31
0.0
  0
LINE
  5
11A
330
E2
100
AcDbEntity
  8
AM_9
100
AcDbLine
 10
-19.0875
 20
29.52380952380952
 30
0.0
 11
-20.1125
 21
29.52380952380952
 31
0.0
  0
LINE
  5
11B
330
E2
100
AcDbEntity
  8
AM_9
100
AcDbLine
 10
-24.25
 20
29.2871558878632
 30
0.0
 11
-24.25
 21
-29.2871558878632
 31
0.0
  0
ARC
  5
11C
330
E2
100
AcDbEntity
  8
AM_9
100
AcDbCircle
 10
-23.65
 20
-29.2871558878632
 30
0.0
 40
0.6000000000000014
100
AcDbArc
 50
180.0
 51
254.4492325133816
  0
ARC
  5
11D
330
E2
100
AcDbEntity
  8
AM_9
100
AcDbCircle
 10
-23.65
 20
29.2871558878632
 30
0.0
 40
0.6000000000000036
100
AcDbArc
 50
105.5507674866184
 51
180.0
  0
LINE
  5
11E
330
E2
100
AcDbEntity
  8
AM_9
100
AcDbLine
 10
-6.749999999999999
 20
29.2871558878632
 30
0.0
 11
-6.749999999999999
 21
-29.2871558878632
 31
0.0
  0
ARC
  5
11F
330
E2
100
AcDbEntity
  8
AM_9
100
AcDbCircle
 10
-7.349999999999987
 20
-29.28715588786321
 30
0.0
 40
0.5999999999999875
100
AcDbArc
 50
285.5507674866179
 51
0.0
  0
ARC
  5
120
330
E2
100
AcDbEntity
  8
AM_9
100
AcDbCircle
 10
-7.349999999999987
 20
29.28715588786321
 30
0.0
 40
0.5999999999999881
100
AcDbArc
 50
0.0
 51
74.4492325133821
  0
ARC
  5
121
330
E2
100
AcDbEntity
  8
AM_9
100
AcDbCircle
 10
-15.49999999988242
 20
-0.0000000004871303
 30
0.0
 40
31.00000000050057
100
AcDbArc
 50
102.9238536579317
 51
105.5507674865869
  0
ARC
  5
122
330
E2
100
AcDbEntity
  8
AM_9
100
AcDbCircle
 10
-15.49999999996019
 20
-0.0000000001930616
 30
0.0
 40
31.00000000019657
100
AcDbArc
 50
98.55683049531501
 51
102.7220594091815
  0
ARC
  5
123
330
E2
100
AcDbEntity
  8
AM_9
100
AcDbCircle
 10
-15.49999999995012
 20
0.0000000002342624
 30
0.0
 40
31.00000000023863
100
AcDbArc
 50
254.4492325134083
 51
261.4431695046778
  0
LINE
  5
124
330
E2
100
AcDbEntity
  8
AM_9
100
AcDbLine
 10
-23.81085526315789
 20
29.86519185933392
 30
0.0
 11
-23.81085526315789
 21
-29.86519185933373
 31
0.0
  0
LINE
  5
125
330
E2
100
AcDbEntity
  8
AM_9
100
AcDbLine
 10
-20.1125
 20
30.65493180142444
 30
0.0
 11
-20.1125
 21
-30.65493180142425
 31
0.0
  0
ELLIPSE
  5
126
330
E2
100
AcDbEntity
  8
AM_9
100
AcDbEllipse
 10
-11.3784839397715
 20
-29.61534233761372
 30
0.0
 11
-1.974440323274852
 21
-0.2747794507850149
 31
0.0
210
0.0
220
0.0
230
1.0
 40
0.2565117850058608
 41
4.029872450513142
 42
8.465131864743356
  0
LWPOLYLINE
  5
127
330
E2
100
AcDbEntity
  8
AM_9
100
AcDbPolyline
 90
        7
 70
     0
 43
0.0
 10
-10.18780487804859
 20
-29.04901338034541
 10
-9.939534902982464
 20
-29.07490822746093
 10
-9.731653771923375
 20
-29.11596995434271
 10
-9.570389735227215
 20
-29.17152028358974
 10
-9.460566149243634
 20
-29.23973342079432
 10
-9.40640894740891
 20
-29.31836360169538
 10
-9.400000000269811
 20
-29.35825786104191
  0
ARC
  5
128
330
E2
100
AcDbEntity
  8
AM_9
100
AcDbCircle
 10
-15.49999999999995
 20
0.0000000000006182
 30
0.0
 40
30.99999999999941
100
AcDbArc
 50
74.44923251338103
 51
96.6454902125736
  0
ARC
  5
129
330
E2
100
AcDbEntity
  8
AM_9
100
AcDbCircle
 10
-15.49999999999992
 20
-0.0000000000010019
 30
0.0
 40
30.99999999999904
100
AcDbArc
 50
263.3545097874263
 51
285.5507674866191
  0
LINE
  5
12A
330
E2
100
AcDbEntity
  8
AM_9
100
AcDbLine
 10
-19.0875
 20
30.79171712896182
 30
0.0
 11
-19.0875
 21
-30.79171712896183
 31
0.0
  0
LINE
  5
12B
330
E2
100
AcDbEntity
  8
AM_9
100
AcDbLine
 10
-7.189144736842104
 20
29.8651918593342
 30
0.0
 11
-7.189144736842104
 21
-29.8651918593342
 31
0.0
  0
ELLIPSE
  5
12C
330
E2
100
AcDbEntity
  8
AM_4
100
AcDbEllipse
 10
-36.39999980799999
 20
5.664900925855513
 30
0.0
 11
3.323500000000003
 21
0.0
 31
0.0
210
0.0
220
0.0
230
1.0
 40
0.9659258262890684
 41
0.0
 42
3.141592653589793
  0
LWPOLYLINE
  5
12D
330
E2
100
AcDbEntity
  8
AM_4
100
AcDbPolyline
 90
       17
 70
     0
 43
0.0
 10
-33.20763959750294
 20
4.767794553293026
 10
-33.29721637480817
 20
5.020409104615899
 10
-33.53753498479291
 20
5.488830094339119
 10
-33.85179657562795
 20
5.903724548801826
 10
-34.24578596562224
 20
6.271206468071341
 10
-34.69658645306528
 20
6.567912626222803
 10
-35.21093213089391
 20
6.796040475017152
 10
-35.74210227320143
 20
6.936347993940019
 10
-36.30917481598543
 20
6.99492083488731
 10
-36.8502754266356
 20
6.968240835278494
 10
-37.39401868843264
 20
6.857830778706097
 10
-37.8933049355775
 20
6.673422794119539
 10
-38.36467111494499
 20
6.409068530245051
 10
-38.77858567959066
 20
6.077629808818614
 10
-39.13668390569087
 20
5.673018397525388
 10
-39.41267455088165
 20
5.220807229123813
 10
-39.58599251699667
 20
4.788416807130414
  0
ELLIPSE
  5
12E
330
E2
100
AcDbEntity
  8
AM_4
100
AcDbEllipse
 10
-36.39999980799999
 20
5.664900925855515
 30
0.0
 11
3.323500000000003
 21
0.0
 31
0.0
210
0.0
220
0.0
230
1.0
 40
0.9659258262890678
 41
3.141592653589793
 42
6.283185307179586
  0
LINE
  5
12F
330
E2
100
AcDbEntity
  8
AM_4
100
AcDbLine
 10
-28.0
 20
-19.0
 30
0.0
 11
-27.2
 21
-19.0
 31
0.0
  0
LINE
  5
130
330
E2
100
AcDbEntity
  8
AM_4
100
AcDbLine
 10
-27.2
 20
19.0
 30
0.0
 11
-28.0
 21
19.0
 31
0.0
  0
LINE
  5
131
330
E2
100
AcDbEntity
  8
AM_4
100
AcDbLine
 10
-27.2
 20
-19.95000000000001
 30
0.0
 11
-26.9
 21
-19.95000000000001
 31
0.0
  0
LINE
  5
132
330
E2
100
AcDbEntity
  8
AM_4
100
AcDbLine
 10
-26.9
 20
19.95000000000001
 30
0.0
 11
-27.2
 21
19.95000000000001
 31
0.0
  0
LINE
  5
133
330
E2
100
AcDbEntity
  8
AM_4
100
AcDbLine
 10
-27.2
 20
19.95000000000001
 30
0.0
 11
-27.2
 21
-19.95000000000001
 31
0.0
  0
LINE
  5
134
330
E2
100
AcDbEntity
  8
AM_4
100
AcDbLine
 10
-42.4
 20
21.05000000000001
 30
0.0
 11
-42.4
 21
-21.05000000000001
 31
0.0
  0
ARC
  5
135
330
E2
100
AcDbEntity
  8
AM_4
100
AcDbCircle
 10
-41.19999999999997
 20
-21.04999999999998
 30
0.0
 40
1.200000000000024
100
AcDbArc
 50
180.0
 51
270.0
  0
ARC
  5
136
330
E2
100
AcDbEntity
  8
AM_4
100
AcDbCircle
 10
-41.19999999999997
 20
21.04999999999998
 30
0.0
 40
1.200000000000021
100
AcDbArc
 50
90.0
 51
180.0
  0
LWPOLYLINE
  5
137
330
E2
100
AcDbEntity
  8
AM_4
100
AcDbPolyline
 90
       39
 70
     0
 43
0.0
 10
-33.85072307569198
 20
8.107658150501912
 10
-33.48509258074957
 20
7.752938121028962
 10
-33.18018429696902
 20
7.348686718803386
 10
-32.92312823635192
 20
6.845168919954133
 10
-32.76475237992141
 20
6.302274278178847
 10
-32.71447508893977
 20
5.776571453353527
 10
-32.75837190896599
 20
5.246909156710655
 10
-32.88939999228671
 20
4.74798740336922
 10
-33.10099920109288
 20
4.273640390278212
 10
-33.39536407457007
 20
3.824737909899677
 10
-33.75700146985046
 20
3.424623859659433
 10
-34.20700498249072
 20
3.060715128105382
 10
-34.70879994707519
 20
2.769700497165745
 10
-35.2894494991384
 20
2.546210553777804
 10
-35.89867297684428
 20
2.417557826389554
 10
-36.54798100890992
 20
2.388573758004152
 10
-37.19320140619768
 20
2.466392114038219
 10
-37.82341153204591
 20
2.65349001952007
 10
-38.41236425986408
 20
2.94376598077704
 10
-38.93218650879674
 20
3.324202306715217
 10
-39.37598863144922
 20
3.787825666411346
 10
-39.70851451333075
 20
4.292195313471212
 10
-39.94317715514172
 20
4.844334545262191
 10
-40.06122253105786
 20
5.379622527267125
 10
-40.08139914561069
 20
5.923331022310669
 10
-40.00810441976298
 20
6.42878394289286
 10
-39.84958788943352
 20
6.9126115222475
 10
-39.60903993550939
 20
7.36503901245695
 10
-39.29677944815334
 20
7.773566242682489
 10
-38.89760305962704
 20
8.149608688805156
 10
-38.44084996405328
 20
8.46155946540616
 10
-37.89898799996215
 20
8.71948746889959
 10
-37.31965679833449
 20
8.89438618561703
 10
-36.68430298774494
 20
8.985276317912277
 10
-36.04125631091612
 20
8.979928673942334
 10
-35.39434899458395
 20
8.873962405708799
 10
-34.7761653404549
 20
8.669207640632669
 10
-34.29089604665366
 20
8.420990946964345
 10
-33.85072307556629
 20
8.107658150523894
  0
LINE
  5
138
330
E2
100
AcDbEntity
  8
AM_4
100
AcDbLine
 10
-41.2
 20
-22.25
 30
0.0
 11
-29.2
 21
-22.25
 31
0.0
  0
LINE
  5
139
330
E2
100
AcDbEntity
  8
AM_4
100
AcDbLine
 10
-29.2
 20
22.25
 30
0.0
 11
-41.2
 21
22.25
 31
0.0
  0
LINE
  5
13A
330
E2
100
AcDbEntity
  8
AM_4
100
AcDbLine
 10
-41.2
 20
22.25
 30
0.0
 11
-41.2
 21
-22.25
 31
0.0
  0
LINE
  5
13B
330
E2
100
AcDbEntity
  8
AM_4
100
AcDbLine
 10
-28.0
 20
21.05000000000001
 30
0.0
 11
-28.0
 21
-21.05000000000001
 31
0.0
  0
ARC
  5
13C
330
E2
100
AcDbEntity
  8
AM_4
100
AcDbCircle
 10
-29.2
 20
-21.05
 30
0.0
 40
1.200000000000003
100
AcDbArc
 50
270.0
 51
0.0
  0
ARC
  5
13D
330
E2
100
AcDbEntity
  8
AM_4
100
AcDbCircle
 10
-29.2
 20
21.04999999999999
 30
0.0
 40
1.200000000000006
100
AcDbArc
 50
0.0
 51
90.0
  0
LINE
  5
13E
330
E2
100
AcDbEntity
  8
AM_4
100
AcDbLine
 10
-29.2
 20
22.25
 30
0.0
 11
-29.2
 21
-22.25
 31
0.0
  0
ENDBLK
  5
E5
330
E2
100
AcDbEntity
  8
0
100
AcDbBlockEnd
  0
BLOCK
  5
141
330
13F
100
AcDbEntity
  8
0
100
AcDbBlockBegin
  2
4_125732H_0_in_125732_2
 70
     2
 10
0.0
 20
0.0
 30
0.0
  3
4_125732H_0_in_125732_2
  1

  0
ATTDEF
  5
143
330
13F
100
AcDbEntity
  8
AM_6
100
AcDbText
 10
6.345000000000001
 20
70.6
 30
0.0
 40
0.5
  1
F2B-SXV -M-Housing
100
AcDbAttributeDefinition
  3

  2
NN
 70
     8
280
     0
  0
ATTDEF
  5
144
330
13F
100
AcDbEntity
  8
AM_6
100
AcDbText
 10
6.345000000000001
 20
70.1
 30
0.0
 40
0.5
  1
Eccentric Collar 2-Bolt Flange Bearings -(Normal Duty)
100
AcDbAttributeDefinition
  3

  2
NT
 70
     8
280
     0
  0
ATTDEF
  5
145
330
13F
100
AcDbEntity
  8
AM_6
100
AcDbText
 10
6.345000000000001
 20
69.6
 30
0.0
 40
0.5
  1
125732H
100
AcDbAttributeDefinition
  3

  2
NB
 70
     8
280
     0
  0
ATTDEF
  5
146
330
13F
100
AcDbEntity
  8
AM_6
100
AcDbText
 10
6.345000000000001
 20
69.1
 30
0.0
 40
0.5
  1
$PN.H
100
AcDbAttributeDefinition
  3

  2
NBSYN
 70
     8
280
     0
  0
ATTDEF
  5
147
330
13F
100
AcDbEntity
  8
AM_6
100
AcDbText
 10
6.345000000000001
 20
68.6
 30
0.0
 40
0.5
  1
125732
100
AcDbAttributeDefinition
  3

  2
LINA
 70
     8
280
     0
  0
ATTDEF
  5
148
330
13F
100
AcDbEntity
  8
AM_6
100
AcDbText
 10
6.345000000000001
 20
68.1
 30
0.0
 40
0.5
  1
206
100
AcDbAttributeDefinition
  3

  2
SERIES
 70
     8
280
     0
  0
ATTDEF
  5
149
330
13F
100
AcDbEntity
  8
AM_6
100
AcDbText
 10
6.345000000000001
 20
67.6
 30
0.0
 40
0.5
  1
30
100
AcDbAttributeDefinition
  3

  2
SS
 70
     8
280
     0
  0
ATTDEF
  5
14A
330
13F
100
AcDbEntity
  8
AM_6
100
AcDbText
 10
6.345000000000001
 20
67.1
 30
0.0
 40
0.5
  1
125732
100
AcDbAttributeDefinition
  3

  2
PN
 70
     8
280
     0
  0
ATTDEF
  5
14B
330
13F
100
AcDbEntity
  8
AM_6
100
AcDbText
 10
6.345000000000001
 20
66.6
 30
0.0
 40
0.5
  1
F2B-SXV-30M
100
AcDbAttributeDefinition
  3

  2
DESCRIPTION
 70
     8
280
     0
  0
ATTDEF
  5
14C
330
13F
100
AcDbEntity
  8
AM_6
100
AcDbText
 10
6.345000000000001
 20
66.1
 30
0.0
 40
0.5
  1
1.0
100
AcDbAttributeDefinition
  3

  2
W
 70
     8
280
     0
  0
ATTDEF
  5
14D
330
13F
100
AcDbEntity
  8
AM_6
100
AcDbText
 10
6.345000000000001
 20
65.6
 30
0.0
 40
0.5
  1
35.8
100
AcDbAttributeDefinition
  3

  2
A
 70
     8
280
     0
  0
ATTDEF
  5
14E
330
13F
100
AcDbEntity
  8
AM_6
100
AcDbText
 10
6.345000000000001
 20
65.1
 30
0.0
 40
0.5
  1
141.2
100
AcDbAttributeDefinition
  3

  2
B
 70
     8
280
     0
  0
ATTDEF
  5
14F
330
13F
100
AcDbEntity
  8
AM_6
100
AcDbText
 10
6.345000000000001
 20
64.6
 30
0.0
 40
0.5
  1
42.4
100
AcDbAttributeDefinition
  3

  2
C
 70
     8
280
     0
  0
ATTDEF
  5
150
330
13F
100
AcDbEntity
  8
AM_6
100
AcDbText
 10
6.345000000000001
 20
64.1
 30
0.0
 40
0.5
  1
116.6
100
AcDbAttributeDefinition
  3

  2
D
 70
     8
280
     0
  0
ATTDEF
  5
151
330
13F
100
AcDbEntity
  8
AM_6
100
AcDbText
 10
6.345000000000001
 20
63.59999999999999
 30
0.0
 40
0.5
  1
M10
100
AcDbAttributeDefinition
  3

  2
F
 70
     8
280
     0
  0
ATTDEF
  5
152
330
13F
100
AcDbEntity
  8
AM_6
100
AcDbText
 10
6.345000000000001
 20
63.09999999999999
 30
0.0
 40
0.5
  1
12.7
100
AcDbAttributeDefinition
  3

  2
H
 70
     8
280
     0
  0
ATTDEF
  5
153
330
13F
100
AcDbEntity
  8
AM_6
100
AcDbText
 10
6.345000000000001
 20
62.59999999999999
 30
0.0
 40
0.5
  1
15.5
100
AcDbAttributeDefinition
  3

  2
J
 70
     8
280
     0
  0
ATTDEF
  5
154
330
13F
100
AcDbEntity
  8
AM_6
100
AcDbText
 10
6.345000000000001
 20
62.09999999999999
 30
0.0
 40
0.5
  1
44.5
100
AcDbAttributeDefinition
  3

  2
L
 70
     8
280
     0
  0
ATTDEF
  5
155
330
13F
100
AcDbEntity
  8
AM_6
100
AcDbText
 10
6.345000000000001
 20
61.59999999999999
 30
0.0
 40
0.5
  1
79.5
100
AcDbAttributeDefinition
  3

  2
M
 70
     8
280
     0
  0
ATTDEF
  5
156
330
13F
100
AcDbEntity
  8
AM_6
100
AcDbText
 10
6.345000000000001
 20
61.09999999999999
 30
0.0
 40
0.5
  1
39.6
100
AcDbAttributeDefinition
  3

  2
N
 70
     8
280
     0
  0
ATTDEF
  5
157
330
13F
100
AcDbEntity
  8
AM_6
100
AcDbText
 10
6.345000000000001
 20
60.59999999999999
 30
0.0
 40
0.5
  1
2250
100
AcDbAttributeDefinition
  3

  2
CAPS
 70
     8
280
     0
  0
ATTDEF
  5
158
330
13F
100
AcDbEntity
  8
AM_6
100
AcDbText
 10
6.345000000000001
 20
60.09999999999999
 30
0.0
 40
0.5
  1
4368
100
AcDbAttributeDefinition
  3

  2
CAPD
 70
     8
280
     0
  0
ATTDEF
  5
159
330
13F
100
AcDbEntity
  8
AM_6
100
AcDbText
 10
6.345000000000001
 20
59.59999999999999
 30
0.0
 40
0.5
  1
baldor
100
AcDbAttributeDefinition
  3

  2
COMPANY
 70
     8
280
     0
  0
LINE
  5
15A
330
13F
100
AcDbEntity
  8
AM_9
100
AcDbLine
 10
-0.0000000000000015
 20
37.2829211010021
 30
0.0
 11
-2.540000000000001
 21
37.2829211010021
 31
0.0
  0
LINE
  5
15B
330
13F
100
AcDbEntity
  8
AM_9
100
AcDbLine
 10
-16.14
 20
32.2409891984788
 30
0.0
 11
-2.54
 21
32.2409891984788
 31
0.0
  0
LINE
  5
15C
330
13F
100
AcDbEntity
  8
AM_9
100
AcDbLine
 10
-16.14
 20
25.87404068895679
 30
0.0
 11
-2.540000000000002
 21
25.87404068895679
 31
0.0
  0
LINE
  5
15D
330
13F
100
AcDbEntity
  8
AM_9
100
AcDbLine
 10
-2.54
 20
32.50000000000001
 30
0.0
 11
-16.14
 21
32.50000000000001
 31
0.0
  0
LINE
  5
15E
330
13F
100
AcDbEntity
  8
AM_9
100
AcDbLine
 10
-12.7
 20
-63.3
 30
0.0
 11
0.0
 21
-63.3
 31
0.0
  0
LINE
  5
15F
330
13F
100
AcDbEntity
  8
AM_9
100
AcDbLine
 10
0.0
 20
-53.3
 30
0.0
 11
-12.7
 21
-53.3
 31
0.0
  0
LINE
  5
160
330
13F
100
AcDbEntity
  8
AM_9
100
AcDbLine
 10
-12.7
 20
53.3
 30
0.0
 11
0.0
 21
53.3
 31
0.0
  0
LINE
  5
161
330
13F
100
AcDbEntity
  8
AM_9
100
AcDbLine
 10
0.0
 20
63.3
 30
0.0
 11
-12.7
 21
63.3
 31
0.0
  0
LINE
  5
162
330
13F
100
AcDbEntity
  8
AM_9
100
AcDbLine
 10
-12.7
 20
34.89838641831223
 30
0.0
 11
-12.7
 21
37.69423530207997
 31
0.0
  0
LINE
  5
163
330
13F
100
AcDbEntity
  8
AM_9
100
AcDbLine
 10
-2.54
 20
-39.7754
 30
0.0
 11
0.0
 21
-39.7754
 31
0.0
  0
LINE
  5
164
330
13F
100
AcDbEntity
  8
AM_9
100
AcDbLine
 10
-2.54
 20
-39.7754
 30
0.0
 11
-2.54
 21
-37.28292110100208
 31
0.0
  0
LINE
  5
165
330
13F
100
AcDbEntity
  8
AM_9
100
AcDbLine
 10
-2.54
 20
37.68131625249685
 30
0.0
 11
-2.54
 21
39.77539999999999
 31
0.0
  0
LINE
  5
166
330
13F
100
AcDbEntity
  8
AM_9
100
AcDbLine
 10
0.0
 20
39.77539999999999
 30
0.0
 11
-2.54
 21
39.77539999999999
 31
0.0
  0
LINE
  5
167
330
13F
100
AcDbEntity
  8
AM_9
100
AcDbLine
 10
-16.14
 20
-32.5
 30
0.0
 11
-16.14
 21
-24.30233508113356
 31
0.0
  0
LINE
  5
168
330
13F
100
AcDbEntity
  8
AM_9
100
AcDbLine
 10
-16.14
 20
-32.2409891984788
 30
0.0
 11
-2.540000000000001
 21
-32.2409891984788
 31
0.0
  0
LINE
  5
169
330
13F
100
AcDbEntity
  8
AM_9
100
AcDbLine
 10
-16.14
 20
-25.87404068895679
 30
0.0
 11
-2.539999999999999
 21
-25.87404068895679
 31
0.0
  0
LINE
  5
16A
330
13F
100
AcDbEntity
  8
AM_9
100
AcDbLine
 10
-16.14
 20
-32.5
 30
0.0
 11
-2.54
 21
-32.5
 31
0.0
  0
LINE
  5
16B
330
13F
100
AcDbEntity
  8
AM_9
100
AcDbLine
 10
-2.539999999999999
 20
-34.57736259251622
 30
0.0
 11
0.0000000000000012
 21
-34.57736259251622
 31
0.0
  0
LINE
  5
16C
330
13F
100
AcDbEntity
  8
AM_9
100
AcDbLine
 10
-2.539999999999999
 20
34.57736259251623
 30
0.0
 11
0.0000000000000012
 21
34.57736259251623
 31
0.0
  0
LINE
  5
16D
330
13F
100
AcDbEntity
  8
AM_9
100
AcDbLine
 10
-11.43
 20
24.84537164783299
 30
0.0
 11
-11.43
 21
37.69382848876454
 31
0.0
  0
LINE
  5
16E
330
13F
100
AcDbEntity
  8
AM_9
100
AcDbLine
 10
-14.47279605560632
 20
37.69423530207997
 30
0.0
 11
-20.39387061106035
 21
37.69423530207997
 31
0.0
  0
LINE
  5
16F
330
13F
100
AcDbEntity
  8
AM_9
100
AcDbLine
 10
-16.14
 20
30.66928359065557
 30
0.0
 11
-2.54
 21
30.66928359065557
 31
0.0
  0
LINE
  5
170
330
13F
100
AcDbEntity
  8
AM_9
100
AcDbLine
 10
-2.539999999999999
 20
-24.30233508113356
 30
0.0
 11
-16.14
 21
-24.30233508113356
 31
0.0
  0
LINE
  5
171
330
13F
100
AcDbEntity
  8
AM_9
100
AcDbLine
 10
-16.14
 20
-30.66928359065557
 30
0.0
 11
-2.54
 21
-30.66928359065557
 31
0.0
  0
LINE
  5
172
330
13F
100
AcDbEntity
  8
AM_9
100
AcDbLine
 10
-2.540000000000001
 20
24.30233508113356
 30
0.0
 11
-16.14
 21
24.30233508113356
 31
0.0
  0
LINE
  5
173
330
13F
100
AcDbEntity
  8
AM_9
100
AcDbLine
 10
-26.9
 20
-31.0
 30
0.0
 11
-16.14
 21
-31.0
 31
0.0
  0
LINE
  5
174
330
13F
100
AcDbEntity
  8
AM_9
100
AcDbLine
 10
-16.14
 20
31.0
 30
0.0
 11
-26.9
 21
31.0
 31
0.0
  0
LINE
  5
175
330
13F
100
AcDbEntity
  8
AM_9
100
AcDbLine
 10
-16.14
 20
32.50000000000001
 30
0.0
 11
-16.14
 21
24.30233508113356
 31
0.0
  0
LINE
  5
176
330
13F
100
AcDbEntity
  8
AM_9
100
AcDbLine
 10
-20.60691175524133
 20
36.95028652629382
 30
0.0
 11
-14.25975491142535
 21
36.95028652629382
 31
0.0
  0
LWPOLYLINE
  5
177
330
13F
100
AcDbEntity
  8
AM_9
100
AcDbPolyline
 90
       11
 70
     0
 43
0.0
 10
-26.9
 20
33.42810704573555
 10
-26.8952375062416
 20
33.50865543603113
 10
-26.85761588873072
 20
33.6665610672641
 10
-26.78053956013874
 20
33.82212926528863
 10
-26.67119845789414
 20
33.96085679095745
 10
-26.52527872205635
 20
34.08791266279579
 10
-26.36027170683232
 20
34.1891015710704
 10
-26.16706469930751
 20
34.27090708611012
 10
-25.96999191802672
 20
34.32415492153253
 10
-25.75655593349499
 20
34.35343738873745
 10
-25.62999999999999
 20
34.35806089853458
  0
LINE
  5
178
330
13F
100
AcDbEntity
  8
AM_9
100
AcDbLine
 10
-11.43
 20
24.84537164783299
 30
0.0
 11
-2.540000000000002
 21
24.84537164783299
 31
0.0
  0
LINE
  5
179
330
13F
100
AcDbEntity
  8
AM_9
100
AcDbLine
 10
-11.43
 20
34.35806089853457
 30
0.0
 11
-25.62999999999999
 21
34.35806089853458
 31
0.0
  0
LINE
  5
17A
330
13F
100
AcDbEntity
  8
AM_9
100
AcDbLine
 10
-12.7
 20
34.89838641831223
 30
0.0
 11
-11.43
 21
34.89838641831223
 31
0.0
  0
LINE
  5
17B
330
13F
100
AcDbEntity
  8
AM_9
100
AcDbLine
 10
-16.25778620006564
 20
39.74999999999999
 30
0.0
 11
-18.60888046660103
 21
39.74999999999999
 31
0.0
  0
LINE
  5
17C
330
13F
100
AcDbEntity
  8
AM_9
100
AcDbLine
 10
-25.62999999999999
 20
19.98965110482394
 30
0.0
 11
-25.62999999999999
 21
37.69423530207997
 31
0.0
  0
LINE
  5
17F
330
13F
100
AcDbEntity
  8
AM_7
100
AcDbLine
 10
0.635
 20
58.3
 30
0.0
 11
-13.335
 21
58.3
 31
0.0
  0
LINE
  5
180
330
13F
100
AcDbEntity
  8
AM_7
100
AcDbLine
 10
0.635
 20
-58.3
 30
0.0
 11
-13.335
 21
-58.3
 31
0.0
  0
LINE
  5
181
330
13F
100
AcDbEntity
  8
AM_7
100
AcDbLine
 10
-44.19
 20
0.0
 30
0.0
 11
1.345
 21
0.0
 31
0.0
  0
LINE
  5
182
330
13F
100
AcDbEntity
  8
AM_4
100
AcDbLine
 10
-12.7
 20
-70.6
 30
0.0
 11
0.0
 21
-70.6
 31
0.0
  0
LINE
  5
183
330
13F
100
AcDbEntity
  8
AM_4
100
AcDbLine
 10
-12.7
 20
37.69423530207997
 30
0.0
 11
-12.7
 21
70.6
 31
0.0
  0
LINE
  5
184
330
13F
100
AcDbEntity
  8
AM_4
100
AcDbLine
 10
0.0
 20
70.6
 30
0.0
 11
-12.7
 21
70.6
 31
0.0
  0
LINE
  5
185
330
13F
100
AcDbEntity
  8
AM_4
100
AcDbLine
 10
-11.43
 20
61.49004825850661
 30
0.0
 11
-12.7
 21
61.49004825850661
 31
0.0
  0
LINE
  5
186
330
13F
100
AcDbEntity
  8
AM_4
100
AcDbLine
 10
-12.7
 20
-70.6
 30
0.0
 11
-12.7
 21
-34.89838641831222
 31
0.0
  0
LINE
  5
187
330
13F
100
AcDbEntity
  8
AM_4
100
AcDbLine
 10
-11.43
 20
-61.49004825850661
 30
0.0
 11
-12.7
 21
-61.49004825850661
 31
0.0
  0
LINE
  5
188
330
13F
100
AcDbEntity
  8
AM_4
100
AcDbLine
 10
-12.7
 20
63.92361063464836
 30
0.0
 11
0.0000000000000007
 21
63.92361063464836
 31
0.0
  0
LINE
  5
189
330
13F
100
AcDbEntity
  8
AM_4
100
AcDbLine
 10
-11.43
 20
63.22023556285723
 30
0.0
 11
-12.7
 21
63.22023556285728
 31
0.0
  0
LINE
  5
18A
330
13F
100
AcDbEntity
  8
AM_4
100
AcDbLine
 10
-11.43
 20
37.69382848876454
 30
0.0
 11
-11.43
 21
63.22023556285723
 31
0.0
  0
LINE
  5
18B
330
13F
100
AcDbEntity
  8
AM_4
100
AcDbLine
 10
0.0
 20
-70.6
 30
0.0
 11
0.0000000000000013
 21
-34.14174682603043
 31
0.0
  0
LINE
  5
18C
330
13F
100
AcDbEntity
  8
AM_4
100
AcDbLine
 10
0.0000000000000013
 20
-34.14174682603043
 30
0.0
 11
-2.539999999999999
 21
-34.14174682603043
 31
0.0
  0
LINE
  5
18D
330
13F
100
AcDbEntity
  8
AM_4
100
AcDbLine
 10
-2.539999999999999
 20
34.14174682603043
 30
0.0
 11
0.0000000000000013
 21
34.14174682603043
 31
0.0
  0
LINE
  5
18E
330
13F
100
AcDbEntity
  8
AM_4
100
AcDbLine
 10
0.0000000000000013
 20
34.14174682603043
 30
0.0
 11
0.0
 21
70.6
 31
0.0
  0
LINE
  5
18F
330
13F
100
AcDbEntity
  8
AM_4
100
AcDbLine
 10
-2.539999999999999
 20
-37.28292110100208
 30
0.0
 11
-2.539999999999999
 21
37.68131625249685
 31
0.0
  0
LINE
  5
190
330
13F
100
AcDbEntity
  8
AM_4
100
AcDbLine
 10
-2.539999999999999
 20
37.68131625249685
 30
0.0
 11
0.0000000000000015
 21
37.68131625249685
 31
0.0
  0
LINE
  5
191
330
13F
100
AcDbEntity
  8
AM_4
100
AcDbLine
 10
0.0000000000000015
 20
37.69382848876454
 30
0.0
 11
-14.47279605560632
 21
37.69423530207997
 31
0.0
  0
LINE
  5
192
330
13F
100
AcDbEntity
  8
AM_4
100
AcDbLine
 10
-20.39387061106035
 20
37.69423530207997
 30
0.0
 11
-26.9
 21
37.69423530207997
 31
0.0
  0
LINE
  5
193
330
13F
100
AcDbEntity
  8
AM_4
100
AcDbLine
 10
0.0000000000000015
 20
-37.28292110100207
 30
0.0
 11
-2.539999999999999
 21
-37.28292110100208
 31
0.0
  0
LINE
  5
194
330
13F
100
AcDbEntity
  8
AM_4
100
AcDbLine
 10
-11.43
 20
-63.22023556285726
 30
0.0
 11
-11.43
 21
-24.84537164783299
 31
0.0
  0
LINE
  5
195
330
13F
100
AcDbEntity
  8
AM_4
100
AcDbLine
 10
-12.7
 20
-63.22023556285725
 30
0.0
 11
-11.43
 21
-63.22023556285726
 31
0.0
  0
LINE
  5
196
330
13F
100
AcDbEntity
  8
AM_4
100
AcDbLine
 10
-12.7
 20
-63.92361063464837
 30
0.0
 11
0.0000000000000007
 21
-63.92361063464837
 31
0.0
  0
LINE
  5
197
330
13F
100
AcDbEntity
  8
AM_4
100
AcDbLine
 10
-14.25975491142535
 20
36.95028652629382
 30
0.0
 11
-2.540000000000006
 21
36.95028652629382
 31
0.0
  0
LINE
  5
198
330
13F
100
AcDbEntity
  8
AM_4
100
AcDbLine
 10
-26.9
 20
36.95028652629382
 30
0.0
 11
-20.60691175524133
 21
36.95028652629382
 31
0.0
  0
LINE
  5
199
330
13F
100
AcDbEntity
  8
AM_4
100
AcDbLine
 10
-26.9
 20
22.58187673258315
 30
0.0
 11
-2.539999999999998
 21
22.58187673258315
 31
0.0
  0
LINE
  5
19A
330
13F
100
AcDbEntity
  8
AM_4
100
AcDbLine
 10
-26.9
 20
26.17397918101082
 30
0.0
 11
-2.539999999999998
 21
26.17397918101082
 31
0.0
  0
LWPOLYLINE
  5
19B
330
13F
100
AcDbEntity
  8
AM_4
100
AcDbPolyline
 90
       10
 70
     0
 43
0.0
 10
-25.62999999999999
 20
19.98965110482394
 10
-25.8348332174727
 20
19.97748976071592
 10
-26.03966643494541
 20
19.93999479440532
 10
-26.22729132966342
 20
19.88049544415384
 10
-26.40324646684305
 20
19.79758948172541
 10
-26.55551705655368
 20
19.69674169466036
 10
-26.68604404204924
 20
19.57653610743089
 10
-26.78766368281963
 20
19.44235744954092
 10
-26.85897805942051
 20
19.29435330554136
 10
-26.9
 20
19.05969725202489
  0
LINE
  5
19C
330
13F
100
AcDbEntity
  8
AM_4
100
AcDbLine
 10
-26.9
 20
38.48
 30
0.0
 11
-26.9
 21
-38.48
 31
0.0
  0
ARC
  5
19D
330
13F
100
AcDbEntity
  8
AM_4
100
AcDbCircle
 10
-25.62999999999999
 20
-38.47999999999998
 30
0.0
 40
1.27000000000001
100
AcDbArc
 50
179.9999991462263
 51
270.0
  0
ARC
  5
19E
330
13F
100
AcDbEntity
  8
AM_4
100
AcDbCircle
 10
-25.62999999999999
 20
38.47999999999998
 30
0.0
 40
1.27000000000001
100
AcDbArc
 50
90.0
 51
179.9999991462263
  0
LINE
  5
19F
330
13F
100
AcDbEntity
  8
AM_4
100
AcDbLine
 10
-11.43
 20
-34.89838641831223
 30
0.0
 11
-12.7
 21
-34.89838641831222
 31
0.0
  0
LINE
  5
1A0
330
13F
100
AcDbEntity
  8
AM_4
100
AcDbLine
 10
-11.43
 20
-24.84537164783299
 30
0.0
 11
-2.539999999999998
 21
-24.845371647833
 31
0.0
  0
LINE
  5
1A1
330
13F
100
AcDbEntity
  8
AM_4
100
AcDbLine
 10
-25.62999999999999
 20
19.98965110482394
 30
0.0
 11
-2.539999999999998
 21
19.98965110482394
 31
0.0
  0
LINE
  5
1A2
330
13F
100
AcDbEntity
  8
AM_4
100
AcDbLine
 10
-25.62999999999999
 20
19.98965110482394
 30
0.0
 11
-25.62999999999999
 21
-39.74999999999999
 31
0.0
  0
LINE
  5
1A3
330
13F
100
AcDbEntity
  8
AM_4
100
AcDbLine
 10
-25.62999999999999
 20
-39.74999999999999
 30
0.0
 11
-12.7
 21
-39.74999999999999
 31
0.0
  0
LINE
  5
1A4
330
13F
100
AcDbEntity
  8
AM_4
100
AcDbLine
 10
-18.60888046660103
 20
39.74999999999999
 30
0.0
 11
-25.62999999999999
 21
39.74999999999999
 31
0.0
  0
LINE
  5
1A5
330
13F
100
AcDbEntity
  8
AM_4
100
AcDbLine
 10
-12.7
 20
39.74999999999999
 30
0.0
 11
-16.25778620006564
 21
39.74999999999999
 31
0.0
  0
LINE
  5
1A6
330
13F
100
AcDbEntity
  8
AM_4
100
AcDbLine
 10
-25.62999999999999
 20
39.74999999999999
 30
0.0
 11
-25.62999999999999
 21
37.69423530207997
 31
0.0
  0
ENDBLK
  5
142
330
13F
100
AcDbEntity
  8
0
100
AcDbBlockEnd
  0
ENDSEC
  0
SECTION
  2
ENTITIES
  0
INSERT
  5
6F
330
1F
100
AcDbEntity
  8
0
100
AcDbBlockReference
  2
1_125732_2
 10
0.0
 20
0.0
 30
0.0
  0
POINT
  5
1A8
330
1F
100
AcDbEntity
  8
ConnectionPoints
100
AcDbPoint
 10
-42.4
 20
0.0
 30
0.0000000000000026
  0
POINT
  5
1A9
330
1F
100
AcDbEntity
  8
ConnectionPoints
100
AcDbPoint
 10
-17.43333333333333
 20
31.56213285365232
 30
31.56213285365232
  0
POINT
  5
1AA
330
1F
100
AcDbEntity
  8
ConnectionPoints
100
AcDbPoint
 10
-17.43333333333333
 20
31.56213285365232
 30
31.56213285365232
  0
POINT
  5
1AB
330
1F
100
AcDbEntity
  8
ConnectionPoints
100
AcDbPoint
 10
-42.4
 20
0.0
 30
0.0000000000000026
  0
ENDSEC
  0
SECTION
  2
OBJECTS
  0
DICTIONARY
  5
C
330
0
100
AcDbDictionary
281
     1
  3
ACAD_DETAILVIEWSTYLE
350
1B3
  3
ACAD_GROUP
350
D
  3
ACAD_LAYOUT
350
1A
  3
ACAD_MATERIAL
350
43
  3
ACAD_MLEADERSTYLE
350
6B
  3
ACAD_MLINESTYLE
350
17
  3
ACAD_PLOTSETTINGS
350
19
  3
ACAD_PLOTSTYLENAME
350
E
  3
ACAD_SCALELIST
350
47
  3
ACAD_SECTIONVIEWSTYLE
350
1B4
  3
ACAD_TABLESTYLE
350
69
  3
ACAD_VISUALSTYLE
350
2A
  3
ACDB_RECOMPOSE_DATA
350
1B0
  3
AcDbVariableDictionary
350
1AC
  0
SUN
  5
6D
330
29
100
AcDbSun
 90
        1
290
     0
 63
     7
421
 16777215
 40
1.0
291
     1
 91
  2455826
 92
 54000000
292
     0
 70
     2
 71
   256
280
     1
  0
DICTIONARY
  5
1B3
102
{ACAD_REACTORS
330
C
102
}
330
C
100
AcDbDictionary
281
     1
  0
DICTIONARY
  5
D
102
{ACAD_REACTORS
330
C
102
}
330
C
100
AcDbDictionary
281
     1
  0
DICTIONARY
  5
1A
102
{ACAD_REACTORS
330
C
102
}
330
C
100
AcDbDictionary
281
     1
  3
Layout1
350
1E
  3
Layout2
350
26
  3
Model
350
22
  0
DICTIONARY
  5
43
102
{ACAD_REACTORS
330
C
102
}
330
C
100
AcDbDictionary
281
     1
  3
ByBlock
350
45
  3
ByLayer
350
44
  3
Global
350
46
  0
DICTIONARY
  5
6B
102
{ACAD_REACTORS
330
C
102
}
330
C
100
AcDbDictionary
281
     1
  3
Standard
350
6C
  0
DICTIONARY
  5
17
102
{ACAD_REACTORS
330
C
102
}
330
C
100
AcDbDictionary
281
     1
  3
Standard
350
18
  0
DICTIONARY
  5
19
102
{ACAD_REACTORS
330
C
102
}
330
C
100
AcDbDictionary
281
     1
  0
ACDBDICTIONARYWDFLT
  5
E
102
{ACAD_REACTORS
330
C
102
}
330
C
100
AcDbDictionary
281
     1
  3
Normal
350
F
100
AcDbDictionaryWithDefault
340
F
  0
DICTIONARY
  5
47
102
{ACAD_REACTORS
330
C
102
}
330
C
100
AcDbDictionary
281
     1
  3
A0
350
48
  3
A1
350
49
  3
A2
350
4A
  3
A3
350
4B
  3
A4
350
4C
  3
A5
350
4D
  3
A6
350
4E
  3
A7
350
4F
  3
A8
350
50
  3
A9
350
51
  3
B0
350
52
  3
B1
350
53
  3
B2
350
54
  3
B3
350
55
  3
B4
350
56
  3
B5
350
57
  3
B6
350
58
  3
B7
350
59
  3
B8
350
5A
  3
B9
350
5B
  3
C0
350
5C
  3
C1
350
5D
  3
C2
350
5E
  3
C3
350
5F
  3
C4
350
60
  3
C5
350
61
  3
C6
350
62
  3
C7
350
63
  3
C8
350
64
  3
C9
350
65
  3
D0
350
66
  3
D1
350
67
  3
D2
350
68
  0
DICTIONARY
  5
1B4
102
{ACAD_REACTORS
330
C
102
}
330
C
100
AcDbDictionary
281
     1
  0
DICTIONARY
  5
69
102
{ACAD_REACTORS
330
C
102
}
330
C
100
AcDbDictionary
281
     1
  3
Standard
350
6A
  0
DICTIONARY
  5
2A
102
{ACAD_REACTORS
330
C
102
}
330
C
100
AcDbDictionary
281
     1
  3
2dWireframe
350
2F
  3
Basic
350
32
  3
Brighten
350
36
  3
ColorChange
350
3A
  3
Conceptual
350
34
  3
Dim
350
35
  3
EdgeColorOff
350
3D
  3
Facepattern
350
39
  3
Flat
350
2B
  3
FlatWithEdges
350
2C
  3
Gouraud
350
2D
  3
GouraudWithEdges
350
2E
  3
Hidden
350
31
  3
JitterOff
350
3B
  3
Linepattern
350
38
  3
OverhangOff
350
3C
  3
Realistic
350
33
  3
Shaded
350
42
  3
Shaded with edges
350
41
  3
Shades of Gray
350
3E
  3
Sketchy
350
3F
  3
Thicken
350
37
  3
Wireframe
350
30
  3
X-Ray
350
40
  0
XRECORD
  5
1B0
102
{ACAD_REACTORS
330
C
102
}
330
C
100
AcDbXrecord
280
     1
 90
        1
330
6A
  0
DICTIONARY
  5
1AC
102
{ACAD_REACTORS
330
C
102
}
330
C
100
AcDbDictionary
281
     1
  3
CANNOSCALE
350
1AD
  3
CMLEADERSTYLE
350
1B2
  3
CTABLESTYLE
350
1B1
  0
LAYOUT
  5
1E
102
{ACAD_REACTORS
330
1A
102
}
330
1A
100
AcDbPlotSettings
  1

  2
none_device
  4

  6

 40
0.0
 41
0.0
 42
0.0
 43
0.0
 44
0.0
 45
0.0
 46
0.0
 47
0.0
 48
0.0
 49
0.0
140
0.0
141
0.0
142
1.0
143
1.0
 70
   688
 72
     1
 73
     0
 74
     5
  7

 75
    16
 76
     0
 77
     2
 78
   300
147
1.0
148
0.0
149
0.0
100
AcDbLayout
  1
Layout1
 70
     1
 71
     1
 10
0.0
 20
0.0
 11
420.0
 21
297.0
 12
0.0
 22
0.0
 32
0.0
 14
1.000000000000000E+20
 24
1.000000000000000E+20
 34
1.000000000000000E+20
 15
-1.000000000000000E+20
 25
-1.000000000000000E+20
 35
-1.000000000000000E+20
146
0.0
 13
0.0
 23
0.0
 33
0.0
 16
1.0
 26
0.0
 36
0.0
 17
0.0
 27
1.0
 37
0.0
 76
     0
330
1B
  0
LAYOUT
  5
26
102
{ACAD_REACTORS
330
1A
102
}
330
1A
100
AcDbPlotSettings
  1

  2
none_device
  4

  6

 40
0.0
 41
0.0
 42
0.0
 43
0.0
 44
0.0
 45
0.0
 46
0.0
 47
0.0
 48
0.0
 49
0.0
140
0.0
141
0.0
142
1.0
143
1.0
 70
   688
 72
     1
 73
     0
 74
     5
  7

 75
    16
 76
     0
 77
     2
 78
   300
147
1.0
148
0.0
149
0.0
100
AcDbLayout
  1
Layout2
 70
     1
 71
     2
 10
0.0
 20
0.0
 11
0.0
 21
0.0
 12
0.0
 22
0.0
 32
0.0
 14
0.0
 24
0.0
 34
0.0
 15
0.0
 25
0.0
 35
0.0
146
0.0
 13
0.0
 23
0.0
 33
0.0
 16
1.0
 26
0.0
 36
0.0
 17
0.0
 27
1.0
 37
0.0
 76
     0
330
23
  0
LAYOUT
  5
22
102
{ACAD_REACTORS
330
1A
102
}
330
1A
100
AcDbPlotSettings
  1

  2
none_device
  4
Letter_(8.50_x_11.00_Inches)
  6

 40
6.35
 41
6.35
 42
6.35000508
 43
6.35000508
 44
215.9
 45
279.4
 46
0.0
 47
0.0
 48
0.0
 49
0.0
140
0.0
141
0.0
142
1.0
143
1.0
 70
  1712
 72
     1
 73
     0
 74
     0
  7

 75
     0
 76
     0
 77
     2
 78
   300
147
1.0
148
0.0
149
0.0
100
AcDbLayout
  1
Model
 70
     1
 71
     0
 10
0.0
 20
0.0
 11
420.0
 21
297.0
 12
0.0
 22
0.0
 32
0.0
 14
1.000000000000000E+20
 24
1.000000000000000E+20
 34
1.000000000000000E+20
 15
-1.000000000000000E+20
 25
-1.000000000000000E+20
 35
-1.000000000000000E+20
146
0.0
 13
0.0
 23
0.0
 33
0.0
 16
1.0
 26
0.0
 36
0.0
 17
0.0
 27
1.0
 37
0.0
 76
     0
330
1F
331
29
  0
MATERIAL
  5
45
102
{ACAD_REACTORS
330
43
102
}
330
43
100
AcDbMaterial
  1
ByBlock
 72
     1
 94
      127
  0
MATERIAL
  5
44
102
{ACAD_REACTORS
330
43
102
}
330
43
100
AcDbMaterial
  1
ByLayer
 72
     1
 94
      127
  0
MATERIAL
  5
46
102
{ACAD_REACTORS
330
43
102
}
330
43
100
AcDbMaterial
  1
Global
 72
     1
 94
      127
  0
MLEADERSTYLE
  5
6C
102
{ACAD_REACTORS
330
6B
102
}
330
6B
100
AcDbMLeaderStyle
179
     2
170
     2
171
     1
172
     0
 90
        2
 40
0.0
 41
0.0
173
     1
 91
-1056964608
340
14
 92
       -2
290
     1
 42
2.0
291
     1
 43
8.0
  3
Standard
341
0
 44
4.0
300

342
11
174
     1
178
     6
175
     1
176
     0
 93
-1056964608
 45
4.0
292
     0
297
     0
 46
4.0
343
0
 94
-1056964608
 47
1.0
 49
1.0
140
1.0
293
     1
141
0.0
294
     1
177
     0
142
1.0
295
     0
296
     0
143
3.75
271
     0
272
     9
273
     9
298
     0
  0
MLINESTYLE
  5
18
102
{ACAD_REACTORS
330
17
102
}
330
17
100
AcDbMlineStyle
  2
Standard
 70
     0
  3

 62
   256
 51
90.0
 52
90.0
 71
     2
 49
0.5
 62
   256
  6
BYLAYER
 49
-0.5
 62
   256
  6
BYLAYER
  0
ACDBPLACEHOLDER
  5
F
102
{ACAD_REACTORS
330
E
102
}
330
E
  0
SCALE
  5
48
102
{ACAD_REACTORS
330
47
102
}
330
47
100
AcDbScale
 70
     0
300
1:1
140
1.0
141
1.0
290
     1
  0
SCALE
  5
49
102
{ACAD_REACTORS
330
47
102
}
330
47
100
AcDbScale
 70
     0
300
1:2
140
1.0
141
2.0
290
     0
  0
SCALE
  5
4A
102
{ACAD_REACTORS
330
47
102
}
330
47
100
AcDbScale
 70
     0
300
1:4
140
1.0
141
4.0
290
     0
  0
SCALE
  5
4B
102
{ACAD_REACTORS
330
47
102
}
330
47
100
AcDbScale
 70
     0
300
1:5
140
1.0
141
5.0
290
     0
  0
SCALE
  5
4C
102
{ACAD_REACTORS
330
47
102
}
330
47
100
AcDbScale
 70
     0
300
1:8
140
1.0
141
8.0
290
     0
  0
SCALE
  5
4D
102
{ACAD_REACTORS
330
47
102
}
330
47
100
AcDbScale
 70
     0
300
1:10
140
1.0
141
10.0
290
     0
  0
SCALE
  5
4E
102
{ACAD_REACTORS
330
47
102
}
330
47
100
AcDbScale
 70
     0
300
1:16
140
1.0
141
16.0
290
     0
  0
SCALE
  5
4F
102
{ACAD_REACTORS
330
47
102
}
330
47
100
AcDbScale
 70
     0
300
1:20
140
1.0
141
20.0
290
     0
  0
SCALE
  5
50
102
{ACAD_REACTORS
330
47
102
}
330
47
100
AcDbScale
 70
     0
300
1:30
140
1.0
141
30.0
290
     0
  0
SCALE
  5
51
102
{ACAD_REACTORS
330
47
102
}
330
47
100
AcDbScale
 70
     0
300
1:40
140
1.0
141
40.0
290
     0
  0
SCALE
  5
52
102
{ACAD_REACTORS
330
47
102
}
330
47
100
AcDbScale
 70
     0
300
1:50
140
1.0
141
50.0
290
     0
  0
SCALE
  5
53
102
{ACAD_REACTORS
330
47
102
}
330
47
100
AcDbScale
 70
     0
300
1:100
140
1.0
141
100.0
290
     0
  0
SCALE
  5
54
102
{ACAD_REACTORS
330
47
102
}
330
47
100
AcDbScale
 70
     0
300
2:1
140
2.0
141
1.0
290
     0
  0
SCALE
  5
55
102
{ACAD_REACTORS
330
47
102
}
330
47
100
AcDbScale
 70
     0
300
4:1
140
4.0
141
1.0
290
     0
  0
SCALE
  5
56
102
{ACAD_REACTORS
330
47
102
}
330
47
100
AcDbScale
 70
     0
300
8:1
140
8.0
141
1.0
290
     0
  0
SCALE
  5
57
102
{ACAD_REACTORS
330
47
102
}
330
47
100
AcDbScale
 70
     0
300
10:1
140
10.0
141
1.0
290
     0
  0
SCALE
  5
58
102
{ACAD_REACTORS
330
47
102
}
330
47
100
AcDbScale
 70
     0
300
100:1
140
100.0
141
1.0
290
     0
  0
SCALE
  5
59
102
{ACAD_REACTORS
330
47
102
}
330
47
100
AcDbScale
 70
     0
300
1/128" = 1'-0"
140
0.0078125
141
12.0
290
     0
  0
SCALE
  5
5A
102
{ACAD_REACTORS
330
47
102
}
330
47
100
AcDbScale
 70
     0
300
1/64" = 1'-0"
140
0.015625
141
12.0
290
     0
  0
SCALE
  5
5B
102
{ACAD_REACTORS
330
47
102
}
330
47
100
AcDbScale
 70
     0
300
1/32" = 1'-0"
140
0.03125
141
12.0
290
     0
  0
SCALE
  5
5C
102
{ACAD_REACTORS
330
47
102
}
330
47
100
AcDbScale
 70
     0
300
1/16" = 1'-0"
140
0.0625
141
12.0
290
     0
  0
SCALE
  5
5D
102
{ACAD_REACTORS
330
47
102
}
330
47
100
AcDbScale
 70
     0
300
3/32" = 1'-0"
140
0.09375
141
12.0
290
     0
  0
SCALE
  5
5E
102
{ACAD_REACTORS
330
47
102
}
330
47
100
AcDbScale
 70
     0
300
1/8" = 1'-0"
140
0.125
141
12.0
290
     0
  0
SCALE
  5
5F
102
{ACAD_REACTORS
330
47
102
}
330
47
100
AcDbScale
 70
     0
300
3/16" = 1'-0"
140
0.1875
141
12.0
290
     0
  0
SCALE
  5
60
102
{ACAD_REACTORS
330
47
102
}
330
47
100
AcDbScale
 70
     0
300
1/4" = 1'-0"
140
0.25
141
12.0
290
     0
  0
SCALE
  5
61
102
{ACAD_REACTORS
330
47
102
}
330
47
100
AcDbScale
 70
     0
300
3/8" = 1'-0"
140
0.375
141
12.0
290
     0
  0
SCALE
  5
62
102
{ACAD_REACTORS
330
47
102
}
330
47
100
AcDbScale
 70
     0
300
1/2" = 1'-0"
140
0.5
141
12.0
290
     0
  0
SCALE
  5
63
102
{ACAD_REACTORS
330
47
102
}
330
47
100
AcDbScale
 70
     0
300
3/4" = 1'-0"
140
0.75
141
12.0
290
     0
  0
SCALE
  5
64
102
{ACAD_REACTORS
330
47
102
}
330
47
100
AcDbScale
 70
     0
300
1" = 1'-0"
140
1.0
141
12.0
290
     0
  0
SCALE
  5
65
102
{ACAD_REACTORS
330
47
102
}
330
47
100
AcDbScale
 70
     0
300
1-1/2" = 1'-0"
140
1.5
141
12.0
290
     0
  0
SCALE
  5
66
102
{ACAD_REACTORS
330
47
102
}
330
47
100
AcDbScale
 70
     0
300
3" = 1'-0"
140
3.0
141
12.0
290
     0
  0
SCALE
  5
67
102
{ACAD_REACTORS
330
47
102
}
330
47
100
AcDbScale
 70
     0
300
6" = 1'-0"
140
6.0
141
12.0
290
     0
  0
SCALE
  5
68
102
{ACAD_REACTORS
330
47
102
}
330
47
100
AcDbScale
 70
     0
300
1'-0" = 1'-0"
140
12.0
141
12.0
290
     0
  0
TABLESTYLE
  5
6A
102
{ACAD_REACTORS
330
69
102
}
102
{ACAD_XDICTIONARY
360
1AE
102
}
330
69
100
AcDbTableStyle
  3
Standard
 70
     0
 71
     0
 40
0.06
 41
0.06
280
     0
281
     0
  7
Standard
140
4.5
170
     2
 62
     0
 63
   257
283
     0
 90
        4
 91
        0
  1

274
    -2
284
     1
 64
     0
275
    -2
285
     1
 65
     0
276
    -2
286
     1
 66
     0
277
    -2
287
     1
 67
     0
278
    -2
288
     1
 68
     0
279
    -2
289
     1
 69
     0
  7
Standard
140
6.0
170
     5
 62
     0
 63
   257
283
     0
 90
        4
 91
        0
  1

274
    -2
284
     1
 64
     0
275
    -2
285
     1
 65
     0
276
    -2
286
     1
 66
     0
277
    -2
287
     1
 67
     0
278
    -2
288
     1
 68
     0
279
    -2
289
     1
 69
     0
  7
Standard
140
4.5
170
     5
 62
     0
 63
   257
283
     0
 90
        4
 91
        0
  1

274
    -2
284
     1
 64
     0
275
    -2
285
     1
 65
     0
276
    -2
286
     1
 66
     0
277
    -2
287
     1
 67
     0
278
    -2
288
     1
 68
     0
279
    -2
289
     1
 69
     0
  0
VISUALSTYLE
  5
2F
102
{ACAD_REACTORS
330
2A
102
}
330
2A
100
AcDbVisualStyle
  2
2dWireframe
 70
     4
177
     3
291
     0
 70
    58
 90
        0
176
     1
 90
        2
176
     1
 90
        0
176
     1
 90
        0
176
     1
 40
0.6
176
     1
 40
30.0
176
     1
 62
     7
420
 16777215
176
     1
 90
        1
176
     1
 90
        4
176
     1
 62
     7
176
     1
 62
   257
176
     1
 90
        1
176
     1
 90
        1
176
     1
 40
1.0
176
     1
 90
        0
176
     1
 62
   257
176
     1
 40
1.0
176
     1
 90
        1
176
     1
 90
        6
176
     1
 90
        2
176
     1
 62
     7
176
     1
 90
        5
176
     1
 90
        0
176
     1
 90
        0
176
     1
290
     0
176
     1
 90
        1
176
     1
 40
0.0
176
     1
 90
        0
176
     1
290
     1
176
     1
290
     1
176
     1
290
     0
176
     1
290
     0
176
     1
290
     0
176
     1
290
     0
176
     1
290
     0
176
     1
290
     0
176
     1
290
     0
176
     1
 90
       50
176
     1
 40
0.0
176
     1
 40
1.0
176
     1
 90
        0
176
     1
 62
    18
420
        0
176
     1
 90
       50
176
     1
 90
        3
176
     1
 62
     5
420
      255
176
     1
290
     0
176
     1
 90
       50
176
     1
 90
       50
176
     1
 90
       50
176
     1
290
     0
176
     1
 90
       50
176
     1
 62
   256
176
     0
 40
1.0
176
     0
 90
        2
176
     1
  1
strokes_ogs.tif
176
     1
290
     0
176
     1
 40
1.0
176
     1
 40
1.0
176
     1
  0
VISUALSTYLE
  5
32
102
{ACAD_REACTORS
330
2A
102
}
330
2A
100
AcDbVisualStyle
  2
Basic
 70
     7
177
     3
291
     1
 70
    58
 90
        1
176
     1
 90
        0
176
     1
 90
        1
176
     1
 90
        0
176
     1
 40
0.6
176
     1
 40
30.0
176
     1
 62
     7
420
 16777215
176
     1
 90
        0
176
     1
 90
        4
176
     1
 62
     7
176
     1
 62
   257
176
     1
 90
        1
176
     1
 90
        1
176
     1
 40
1.0
176
     1
 90
        8
176
     1
 62
     7
176
     1
 40
1.0
176
     1
 90
        1
176
     1
 90
        6
176
     1
 90
        2
176
     1
 62
     7
176
     1
 90
        5
176
     1
 90
        0
176
     1
 90
        0
176
     1
290
     0
176
     1
 90
        1
176
     1
 40
0.0
176
     1
 90
        0
176
     1
290
     0
176
     1
290
     1
176
     1
290
     1
176
     1
290
     0
176
     1
290
     0
176
     1
290
     0
176
     1
290
     0
176
     1
290
     0
176
     1
290
     0
176
     1
 90
       50
176
     1
 40
0.0
176
     1
 40
1.0
176
     1
 90
        0
176
     1
 62
    18
420
        0
176
     1
 90
       50
176
     1
 90
        3
176
     1
 62
     5
420
      255
176
     1
290
     0
176
     1
 90
       50
176
     1
 90
       50
176
     1
 90
       50
176
     1
290
     0
176
     1
 90
       50
176
     1
 62
   256
176
     0
 40
1.0
176
     0
 90
        2
176
     1
  1
strokes_ogs.tif
176
     1
290
     0
176
     1
 40
1.0
176
     1
 40
1.0
176
     1
  0
VISUALSTYLE
  5
36
102
{ACAD_REACTORS
330
2A
102
}
330
2A
100
AcDbVisualStyle
  2
Brighten
 70
    12
177
     3
291
     1
 70
    58
 90
        2
176
     1
 90
        2
176
     1
 90
        0
176
     1
 90
        0
176
     1
 40
0.6
176
     1
 40
30.0
176
     1
 62
     7
420
 16777215
176
     1
 90
        1
176
     1
 90
        4
176
     1
 62
     7
176
     1
 62
   257
176
     1
 90
        1
176
     1
 90
        1
176
     1
 40
1.0
176
     1
 90
        8
176
     1
 62
     7
176
     1
 40
1.0
176
     1
 90
        1
176
     1
 90
        6
176
     1
 90
        2
176
     1
 62
     7
176
     1
 90
        5
176
     1
 90
        0
176
     1
 90
        0
176
     1
290
     0
176
     1
 90
        1
176
     1
 40
50.0
176
     1
 90
        0
176
     1
290
     0
176
     1
290
     1
176
     1
290
     1
176
     1
290
     0
176
     1
290
     0
176
     1
290
     0
176
     1
290
     0
176
     1
290
     0
176
     1
290
     0
176
     1
 90
       50
176
     1
 40
0.0
176
     1
 40
1.0
176
     1
 90
        0
176
     1
 62
    18
420
        0
176
     1
 90
       50
176
     1
 90
        3
176
     1
 62
     5
420
      255
176
     1
290
     0
176
     1
 90
       50
176
     1
 90
       50
176
     1
 90
       50
176
     1
290
     0
176
     1
 90
       50
176
     1
 62
   256
176
     0
 40
1.0
176
     0
 90
        2
176
     1
  1
strokes_ogs.tif
176
     1
290
     0
176
     1
 40
1.0
176
     1
 40
1.0
176
     1
  0
VISUALSTYLE
  5
3A
102
{ACAD_REACTORS
330
2A
102
}
330
2A
100
AcDbVisualStyle
  2
ColorChange
 70
    16
177
     3
291
     1
 70
    58
 90
        2
176
     1
 90
        2
176
     1
 90
        3
176
     1
 90
        0
176
     1
 40
0.6
176
     1
 40
30.0
176
     1
 62
     8
420
  8421504
176
     1
 90
        1
176
     1
 90
        4
176
     1
 62
     7
176
     1
 62
   257
176
     1
 90
        1
176
     1
 90
        1
176
     1
 40
1.0
176
     1
 90
        8
176
     1
 62
     8
420
  8421504
176
     1
 40
1.0
176
     1
 90
        1
176
     1
 90
        6
176
     1
 90
        2
176
     1
 62
     7
176
     1
 90
        5
176
     1
 90
        0
176
     1
 90
        0
176
     1
290
     0
176
     1
 90
        1
176
     1
 40
0.0
176
     1
 90
        0
176
     1
290
     0
176
     1
290
     1
176
     1
290
     1
176
     1
290
     0
176
     1
290
     0
176
     1
290
     0
176
     1
290
     0
176
     1
290
     0
176
     1
290
     0
176
     1
 90
       50
176
     1
 40
0.0
176
     1
 40
1.0
176
     1
 90
        0
176
     1
 62
    18
420
        0
176
     1
 90
       50
176
     1
 90
        3
176
     1
 62
     5
420
      255
176
     1
290
     0
176
     1
 90
       50
176
     1
 90
       50
176
     1
 90
       50
176
     1
290
     0
176
     1
 90
       50
176
     1
 62
   256
176
     0
 40
1.0
176
     0
 90
        2
176
     1
  1
strokes_ogs.tif
176
     1
290
     0
176
     1
 40
1.0
176
     1
 40
1.0
176
     1
  0
VISUALSTYLE
  5
34
102
{ACAD_REACTORS
330
2A
102
}
330
2A
100
AcDbVisualStyle
  2
Conceptual
 70
     9
177
     3
291
     0
 70
    58
 90
        3
176
     1
 90
        2
176
     1
 90
        0
176
     1
 90
        0
176
     1
 40
0.6
176
     1
 40
30.0
176
     1
 62
     7
420
 16777215
176
     1
 90
        2
176
     1
 90
        2
176
     1
 62
     7
176
     1
 62
   257
176
     1
 90
        1
176
     1
 90
        1
176
     1
 40
179.0
176
     1
 90
        8
176
     1
 62
     7
176
     1
 40
1.0
176
     1
 90
        1
176
     1
 90
        6
176
     1
 90
        2
176
     1
 62
     7
176
     1
 90
        3
176
     1
 90
        0
176
     1
 90
        0
176
     1
290
     0
176
     1
 90
        1
176
     1
 40
0.0
176
     1
 90
        0
176
     1
290
     0
176
     1
290
     1
176
     1
290
     1
176
     1
290
     0
176
     1
290
     0
176
     1
290
     0
176
     1
290
     0
176
     1
290
     0
176
     1
290
     0
176
     1
 90
       50
176
     1
 40
0.0
176
     1
 40
1.0
176
     1
 90
        0
176
     1
 62
    18
420
        0
176
     1
 90
       50
176
     1
 90
        3
176
     1
 62
     5
420
      255
176
     1
290
     0
176
     1
 90
       50
176
     1
 90
       50
176
     1
 90
       50
176
     1
290
     0
176
     1
 90
       50
176
     1
 62
   256
176
     0
 40
1.0
176
     0
 90
        2
176
     1
  1
strokes_ogs.tif
176
     1
290
     0
176
     1
 40
1.0
176
     1
 40
1.0
176
     1
  0
VISUALSTYLE
  5
35
102
{ACAD_REACTORS
330
2A
102
}
330
2A
100
AcDbVisualStyle
  2
Dim
 70
    11
177
     3
291
     1
 70
    58
 90
        2
176
     1
 90
        2
176
     1
 90
        0
176
     1
 90
        0
176
     1
 40
0.6
176
     1
 40
30.0
176
     1
 62
     7
420
 16777215
176
     1
 90
        1
176
     1
 90
        4
176
     1
 62
     7
176
     1
 62
   257
176
     1
 90
        1
176
     1
 90
        1
176
     1
 40
1.0
176
     1
 90
        8
176
     1
 62
     7
176
     1
 40
1.0
176
     1
 90
        1
176
     1
 90
        6
176
     1
 90
        2
176
     1
 62
     7
176
     1
 90
        5
176
     1
 90
        0
176
     1
 90
        0
176
     1
290
     0
176
     1
 90
        1
176
     1
 40
-50.0
176
     1
 90
        0
176
     1
290
     0
176
     1
290
     1
176
     1
290
     1
176
     1
290
     0
176
     1
290
     0
176
     1
290
     0
176
     1
290
     0
176
     1
290
     0
176
     1
290
     0
176
     1
 90
       50
176
     1
 40
0.0
176
     1
 40
1.0
176
     1
 90
        0
176
     1
 62
    18
420
        0
176
     1
 90
       50
176
     1
 90
        3
176
     1
 62
     5
420
      255
176
     1
290
     0
176
     1
 90
       50
176
     1
 90
       50
176
     1
 90
       50
176
     1
290
     0
176
     1
 90
       50
176
     1
 62
   256
176
     0
 40
1.0
176
     0
 90
        2
176
     1
  1
strokes_ogs.tif
176
     1
290
     0
176
     1
 40
1.0
176
     1
 40
1.0
176
     1
  0
VISUALSTYLE
  5
3D
102
{ACAD_REACTORS
330
2A
102
}
330
2A
100
AcDbVisualStyle
  2
EdgeColorOff
 70
    22
177
     3
291
     1
 70
    58
 90
        2
176
     0
 90
        2
176
     0
 90
        0
176
     0
 90
        0
176
     0
 40
0.6
176
     0
 40
30.0
176
     0
 62
     7
420
 16777215
176
     0
 90
        1
176
     0
 90
        4
176
     0
 62
     7
176
     0
 62
   257
176
     0
 90
        1
176
     0
 90
        1
176
     0
 40
1.0
176
     0
 90
        8
176
     2
 62
     7
176
     0
 40
1.0
176
     0
 90
        1
176
     0
 90
        6
176
     0
 90
        2
176
     0
 62
     7
176
     0
 90
        5
176
     0
 90
        0
176
     0
 90
        0
176
     0
290
     0
176
     0
 90
        1
176
     0
 40
0.0
176
     0
 90
        0
176
     0
290
     0
176
     0
290
     1
176
     0
290
     1
176
     0
290
     0
176
     0
290
     0
176
     0
290
     0
176
     0
290
     0
176
     0
290
     0
176
     0
290
     0
176
     0
 90
       50
176
     0
 40
0.0
176
     0
 40
1.0
176
     0
 90
        0
176
     0
 62
    18
420
        0
176
     0
 90
       50
176
     0
 90
        3
176
     0
 62
     5
420
      255
176
     0
290
     0
176
     0
 90
       50
176
     0
 90
       50
176
     0
 90
       50
176
     0
290
     0
176
     0
 90
       50
176
     0
 62
   256
176
     0
 40
1.0
176
     0
 90
        2
176
     0
  1
strokes_ogs.tif
176
     0
290
     0
176
     0
 40
1.0
176
     0
 40
1.0
176
     0
  0
VISUALSTYLE
  5
39
102
{ACAD_REACTORS
330
2A
102
}
330
2A
100
AcDbVisualStyle
  2
Facepattern
 70
    15
177
     3
291
     1
 70
    58
 90
        2
176
     1
 90
        2
176
     1
 90
        0
176
     1
 90
        0
176
     1
 40
0.6
176
     1
 40
30.0
176
     1
 62
     7
420
 16777215
176
     1
 90
        1
176
     1
 90
        4
176
     1
 62
     7
176
     1
 62
   257
176
     1
 90
        1
176
     1
 90
        1
176
     1
 40
1.0
176
     1
 90
        8
176
     1
 62
     7
176
     1
 40
1.0
176
     1
 90
        1
176
     1
 90
        6
176
     1
 90
        2
176
     1
 62
     7
176
     1
 90
        5
176
     1
 90
        0
176
     1
 90
        0
176
     1
290
     0
176
     1
 90
        1
176
     1
 40
0.0
176
     1
 90
        0
176
     1
290
     0
176
     1
290
     1
176
     1
290
     1
176
     1
290
     0
176
     1
290
     0
176
     1
290
     0
176
     1
290
     0
176
     1
290
     0
176
     1
290
     0
176
     1
 90
       50
176
     1
 40
0.0
176
     1
 40
1.0
176
     1
 90
        0
176
     1
 62
    18
420
        0
176
     1
 90
       50
176
     1
 90
        3
176
     1
 62
     5
420
      255
176
     1
290
     0
176
     1
 90
       50
176
     1
 90
       50
176
     1
 90
       50
176
     1
290
     0
176
     1
 90
       50
176
     1
 62
   256
176
     0
 40
1.0
176
     0
 90
        2
176
     1
  1
strokes_ogs.tif
176
     1
290
     0
176
     1
 40
1.0
176
     1
 40
1.0
176
     1
  0
VISUALSTYLE
  5
2B
102
{ACAD_REACTORS
330
2A
102
}
330
2A
100
AcDbVisualStyle
  2
Flat
 70
     0
177
     3
291
     1
 70
    58
 90
        2
176
     1
 90
        1
176
     1
 90
        1
176
     1
 90
        2
176
     1
 40
0.6
176
     1
 40
30.0
176
     1
 62
     7
420
 16777215
176
     1
 90
        0
176
     1
 90
        0
176
     1
 62
     7
176
     1
 62
   257
176
     1
 90
        1
176
     1
 90
        1
176
     1
 40
1.0
176
     1
 90
        8
176
     1
 62
     7
176
     1
 40
1.0
176
     1
 90
        1
176
     1
 90
        6
176
     1
 90
        2
176
     1
 62
     7
176
     1
 90
        5
176
     1
 90
        0
176
     1
 90
        0
176
     1
290
     0
176
     1
 90
       13
176
     1
 40
0.0
176
     1
 90
        0
176
     1
290
     0
176
     1
290
     1
176
     1
290
     1
176
     1
290
     0
176
     1
290
     0
176
     1
290
     0
176
     1
290
     0
176
     1
290
     0
176
     1
290
     0
176
     1
 90
       50
176
     1
 40
0.0
176
     1
 40
1.0
176
     1
 90
        0
176
     1
 62
    18
420
        0
176
     1
 90
       50
176
     1
 90
        3
176
     1
 62
     5
420
      255
176
     1
290
     0
176
     1
 90
       50
176
     1
 90
       50
176
     1
 90
       50
176
     1
290
     0
176
     1
 90
       50
176
     1
 62
   256
176
     0
 40
1.0
176
     0
 90
        2
176
     1
  1
strokes_ogs.tif
176
     1
290
     0
176
     1
 40
1.0
176
     1
 40
1.0
176
     1
  0
VISUALSTYLE
  5
2C
102
{ACAD_REACTORS
330
2A
102
}
330
2A
100
AcDbVisualStyle
  2
FlatWithEdges
 70
     1
177
     3
291
     1
 70
    58
 90
        2
176
     1
 90
        1
176
     1
 90
        1
176
     1
 90
        2
176
     1
 40
0.6
176
     1
 40
30.0
176
     1
 62
     7
420
 16777215
176
     1
 90
        1
176
     1
 90
        0
176
     1
 62
     7
176
     1
 62
   257
176
     1
 90
        1
176
     1
 90
        1
176
     1
 40
1.0
176
     1
 90
        0
176
     1
 62
   257
176
     1
 40
1.0
176
     1
 90
        1
176
     1
 90
        6
176
     1
 90
        2
176
     1
 62
     7
176
     1
 90
        5
176
     1
 90
        0
176
     1
 90
        0
176
     1
290
     0
176
     1
 90
       13
176
     1
 40
0.0
176
     1
 90
        0
176
     1
290
     0
176
     1
290
     1
176
     1
290
     1
176
     1
290
     0
176
     1
290
     0
176
     1
290
     0
176
     1
290
     0
176
     1
290
     0
176
     1
290
     0
176
     1
 90
       50
176
     1
 40
0.0
176
     1
 40
1.0
176
     1
 90
        0
176
     1
 62
    18
420
        0
176
     1
 90
       50
176
     1
 90
        3
176
     1
 62
     5
420
      255
176
     1
290
     0
176
     1
 90
       50
176
     1
 90
       50
176
     1
 90
       50
176
     1
290
     0
176
     1
 90
       50
176
     1
 62
   256
176
     0
 40
1.0
176
     0
 90
        2
176
     1
  1
strokes_ogs.tif
176
     1
290
     0
176
     1
 40
1.0
176
     1
 40
1.0
176
     1
  0
VISUALSTYLE
  5
2D
102
{ACAD_REACTORS
330
2A
102
}
330
2A
100
AcDbVisualStyle
  2
Gouraud
 70
     2
177
     3
291
     1
 70
    58
 90
        2
176
     1
 90
        2
176
     1
 90
        1
176
     1
 90
        2
176
     1
 40
0.6
176
     1
 40
30.0
176
     1
 62
     7
420
 16777215
176
     1
 90
        0
176
     1
 90
        0
176
     1
 62
     7
176
     1
 62
   257
176
     1
 90
        1
176
     1
 90
        1
176
     1
 40
1.0
176
     1
 90
        0
176
     1
 62
     7
176
     1
 40
1.0
176
     1
 90
        1
176
     1
 90
        6
176
     1
 90
        2
176
     1
 62
     7
176
     1
 90
        5
176
     1
 90
        0
176
     1
 90
        0
176
     1
290
     0
176
     1
 90
       13
176
     1
 40
0.0
176
     1
 90
        0
176
     1
290
     0
176
     1
290
     1
176
     1
290
     1
176
     1
290
     0
176
     1
290
     0
176
     1
290
     0
176
     1
290
     0
176
     1
290
     0
176
     1
290
     0
176
     1
 90
       50
176
     1
 40
0.0
176
     1
 40
1.0
176
     1
 90
        0
176
     1
 62
    18
420
        0
176
     1
 90
       50
176
     1
 90
        3
176
     1
 62
     5
420
      255
176
     1
290
     0
176
     1
 90
       50
176
     1
 90
       50
176
     1
 90
       50
176
     1
290
     0
176
     1
 90
       50
176
     1
 62
   256
176
     0
 40
1.0
176
     0
 90
        2
176
     1
  1
strokes_ogs.tif
176
     1
290
     0
176
     1
 40
1.0
176
     1
 40
1.0
176
     1
  0
VISUALSTYLE
  5
2E
102
{ACAD_REACTORS
330
2A
102
}
330
2A
100
AcDbVisualStyle
  2
GouraudWithEdges
 70
     3
177
     3
291
     1
 70
    58
 90
        2
176
     1
 90
        2
176
     1
 90
        1
176
     1
 90
        2
176
     1
 40
0.6
176
     1
 40
30.0
176
     1
 62
     7
420
 16777215
176
     1
 90
        1
176
     1
 90
        0
176
     1
 62
     7
176
     1
 62
   257
176
     1
 90
        1
176
     1
 90
        1
176
     1
 40
1.0
176
     1
 90
        0
176
     1
 62
   257
176
     1
 40
1.0
176
     1
 90
        1
176
     1
 90
        6
176
     1
 90
        2
176
     1
 62
     7
176
     1
 90
        5
176
     1
 90
        0
176
     1
 90
        0
176
     1
290
     0
176
     1
 90
       13
176
     1
 40
0.0
176
     1
 90
        0
176
     1
290
     0
176
     1
290
     1
176
     1
290
     1
176
     1
290
     0
176
     1
290
     0
176
     1
290
     0
176
     1
290
     0
176
     1
290
     0
176
     1
290
     0
176
     1
 90
       50
176
     1
 40
0.0
176
     1
 40
1.0
176
     1
 90
        0
176
     1
 62
    18
420
        0
176
     1
 90
       50
176
     1
 90
        3
176
     1
 62
     5
420
      255
176
     1
290
     0
176
     1
 90
       50
176
     1
 90
       50
176
     1
 90
       50
176
     1
290
     0
176
     1
 90
       50
176
     1
 62
   256
176
     0
 40
1.0
176
     0
 90
        2
176
     1
  1
strokes_ogs.tif
176
     1
290
     0
176
     1
 40
1.0
176
     1
 40
1.0
176
     1
  0
VISUALSTYLE
  5
31
102
{ACAD_REACTORS
330
2A
102
}
330
2A
100
AcDbVisualStyle
  2
Hidden
 70
     6
177
     3
291
     0
 70
    58
 90
        1
176
     1
 90
        2
176
     1
 90
        2
176
     1
 90
        0
176
     1
 40
0.6
176
     1
 40
30.0
176
     1
 62
     7
420
 16777215
176
     1
 90
        2
176
     1
 90
        2
176
     1
 62
     7
176
     1
 62
   257
176
     1
 90
        2
176
     1
 90
        1
176
     1
 40
40.0
176
     1
 90
        0
176
     1
 62
   257
176
     1
 40
1.0
176
     1
 90
        1
176
     1
 90
        6
176
     1
 90
        2
176
     1
 62
     7
176
     1
 90
        3
176
     1
 90
        0
176
     1
 90
        0
176
     1
290
     0
176
     1
 90
        1
176
     1
 40
0.0
176
     1
 90
        0
176
     1
290
     0
176
     1
290
     1
176
     1
290
     1
176
     1
290
     0
176
     1
290
     0
176
     1
290
     0
176
     1
290
     0
176
     1
290
     0
176
     1
290
     0
176
     1
 90
       50
176
     1
 40
0.0
176
     1
 40
1.0
176
     1
 90
        0
176
     1
 62
    18
420
        0
176
     1
 90
       50
176
     1
 90
        3
176
     1
 62
     5
420
      255
176
     1
290
     0
176
     1
 90
       50
176
     1
 90
       50
176
     1
 90
       50
176
     1
290
     0
176
     1
 90
       50
176
     1
 62
   256
176
     0
 40
1.0
176
     0
 90
        2
176
     1
  1
strokes_ogs.tif
176
     1
290
     0
176
     1
 40
1.0
176
     1
 40
1.0
176
     1
  0
VISUALSTYLE
  5
3B
102
{ACAD_REACTORS
330
2A
102
}
330
2A
100
AcDbVisualStyle
  2
JitterOff
 70
    20
177
     3
291
     1
 70
    58
 90
        2
176
     0
 90
        2
176
     0
 90
        0
176
     0
 90
        0
176
     0
 40
0.6
176
     0
 40
30.0
176
     0
 62
     7
420
 16777215
176
     0
 90
        1
176
     0
 90
        4
176
     0
 62
     7
176
     0
 62
   257
176
     0
 90
        1
176
     0
 90
        1
176
     0
 40
1.0
176
     0
 90
       10
176
     2
 62
     7
176
     0
 40
1.0
176
     0
 90
        1
176
     0
 90
        6
176
     0
 90
        2
176
     0
 62
     7
176
     0
 90
        5
176
     0
 90
        0
176
     0
 90
        0
176
     0
290
     0
176
     0
 90
        1
176
     0
 40
0.0
176
     0
 90
        0
176
     0
290
     0
176
     0
290
     1
176
     0
290
     1
176
     0
290
     0
176
     0
290
     0
176
     0
290
     0
176
     0
290
     0
176
     0
290
     0
176
     0
290
     0
176
     0
 90
       50
176
     0
 40
0.0
176
     0
 40
1.0
176
     0
 90
        0
176
     0
 62
    18
420
        0
176
     0
 90
       50
176
     0
 90
        3
176
     0
 62
     5
420
      255
176
     0
290
     0
176
     0
 90
       50
176
     0
 90
       50
176
     0
 90
       50
176
     0
290
     0
176
     0
 90
       50
176
     0
 62
   256
176
     0
 40
1.0
176
     0
 90
        2
176
     0
  1
strokes_ogs.tif
176
     0
290
     0
176
     0
 40
1.0
176
     0
 40
1.0
176
     0
  0
VISUALSTYLE
  5
38
102
{ACAD_REACTORS
330
2A
102
}
330
2A
100
AcDbVisualStyle
  2
Linepattern
 70
    14
177
     3
291
     1
 70
    58
 90
        2
176
     1
 90
        2
176
     1
 90
        0
176
     1
 90
        0
176
     1
 40
0.6
176
     1
 40
30.0
176
     1
 62
     7
420
 16777215
176
     1
 90
        1
176
     1
 90
        4
176
     1
 62
     7
176
     1
 62
   257
176
     1
 90
        7
176
     1
 90
        7
176
     1
 40
1.0
176
     1
 90
        8
176
     1
 62
     7
176
     1
 40
1.0
176
     1
 90
        1
176
     1
 90
        6
176
     1
 90
        2
176
     1
 62
     7
176
     1
 90
        5
176
     1
 90
        0
176
     1
 90
        0
176
     1
290
     0
176
     1
 90
        1
176
     1
 40
0.0
176
     1
 90
        0
176
     1
290
     0
176
     1
290
     1
176
     1
290
     1
176
     1
290
     0
176
     1
290
     0
176
     1
290
     0
176
     1
290
     0
176
     1
290
     0
176
     1
290
     0
176
     1
 90
       50
176
     1
 40
0.0
176
     1
 40
1.0
176
     1
 90
        0
176
     1
 62
    18
420
        0
176
     1
 90
       50
176
     1
 90
        3
176
     1
 62
     5
420
      255
176
     1
290
     0
176
     1
 90
       50
176
     1
 90
       50
176
     1
 90
       50
176
     1
290
     0
176
     1
 90
       50
176
     1
 62
   256
176
     0
 40
1.0
176
     0
 90
        2
176
     1
  1
strokes_ogs.tif
176
     1
290
     0
176
     1
 40
1.0
176
     1
 40
1.0
176
     1
  0
VISUALSTYLE
  5
3C
102
{ACAD_REACTORS
330
2A
102
}
330
2A
100
AcDbVisualStyle
  2
OverhangOff
 70
    21
177
     3
291
     1
 70
    58
 90
        2
176
     0
 90
        2
176
     0
 90
        0
176
     0
 90
        0
176
     0
 40
0.6
176
     0
 40
30.0
176
     0
 62
     7
420
 16777215
176
     0
 90
        1
176
     0
 90
        4
176
     0
 62
     7
176
     0
 62
   257
176
     0
 90
        1
176
     0
 90
        1
176
     0
 40
1.0
176
     0
 90
        9
176
     2
 62
     7
176
     0
 40
1.0
176
     0
 90
        1
176
     0
 90
        6
176
     0
 90
        2
176
     0
 62
     7
176
     0
 90
        5
176
     0
 90
        0
176
     0
 90
        0
176
     0
290
     0
176
     0
 90
        1
176
     0
 40
0.0
176
     0
 90
        0
176
     0
290
     0
176
     0
290
     1
176
     0
290
     1
176
     0
290
     0
176
     0
290
     0
176
     0
290
     0
176
     0
290
     0
176
     0
290
     0
176
     0
290
     0
176
     0
 90
       50
176
     0
 40
0.0
176
     0
 40
1.0
176
     0
 90
        0
176
     0
 62
    18
420
        0
176
     0
 90
       50
176
     0
 90
        3
176
     0
 62
     5
420
      255
176
     0
290
     0
176
     0
 90
       50
176
     0
 90
       50
176
     0
 90
       50
176
     0
290
     0
176
     0
 90
       50
176
     0
 62
   256
176
     0
 40
1.0
176
     0
 90
        2
176
     0
  1
strokes_ogs.tif
176
     0
290
     0
176
     0
 40
1.0
176
     0
 40
1.0
176
     0
  0
VISUALSTYLE
  5
33
102
{ACAD_REACTORS
330
2A
102
}
330
2A
100
AcDbVisualStyle
  2
Realistic
 70
     8
177
     3
291
     0
 70
    58
 90
        2
176
     1
 90
        3
176
     1
 90
        0
176
     1
 90
        2
176
     1
 40
0.6
176
     1
 40
30.0
176
     1
 62
     7
420
 16777215
176
     1
 90
        0
176
     1
 90
        0
176
     1
 62
     7
176
     1
 62
   257
176
     1
 90
        1
176
     1
 90
        1
176
     1
 40
1.0
176
     1
 90
        8
176
     1
 62
   257
176
     1
 40
1.0
176
     1
 90
        1
176
     1
 90
        6
176
     1
 90
        2
176
     1
 62
     7
176
     1
 90
        3
176
     1
 90
        0
176
     1
 90
        0
176
     1
290
     0
176
     1
 90
       13
176
     1
 40
0.0
176
     1
 90
        0
176
     1
290
     0
176
     1
290
     1
176
     1
290
     1
176
     1
290
     0
176
     1
290
     0
176
     1
290
     0
176
     1
290
     0
176
     1
290
     0
176
     1
290
     0
176
     1
 90
       50
176
     1
 40
0.0
176
     1
 40
1.0
176
     1
 90
        0
176
     1
 62
    18
420
        0
176
     1
 90
       50
176
     1
 90
        3
176
     1
 62
     5
420
      255
176
     1
290
     0
176
     1
 90
       50
176
     1
 90
       50
176
     1
 90
       50
176
     1
290
     0
176
     1
 90
       50
176
     1
 62
   256
176
     0
 40
1.0
176
     0
 90
        2
176
     1
  1
strokes_ogs.tif
176
     1
290
     0
176
     1
 40
1.0
176
     1
 40
1.0
176
     1
  0
VISUALSTYLE
  5
42
102
{ACAD_REACTORS
330
2A
102
}
330
2A
100
AcDbVisualStyle
  2
Shaded
 70
    27
177
     3
291
     0
 70
    58
 90
        2
176
     1
 90
        2
176
     1
 90
        1
176
     1
 90
        2
176
     1
 40
0.6
176
     1
 40
30.0
176
     1
 62
     7
420
 16777215
176
     1
 90
        0
176
     1
 90
        4
176
     1
 62
     7
176
     1
 62
   257
176
     1
 90
        1
176
     1
 90
        1
176
     1
 40
1.0
176
     1
 90
        8
176
     1
 62
   257
176
     1
 40
1.0
176
     1
 90
        1
176
     1
 90
        6
176
     1
 90
        2
176
     1
 62
     8
420
  7895160
176
     1
 90
        3
176
     1
 90
        0
176
     1
 90
        0
176
     1
290
     0
176
     1
 90
        5
176
     1
 40
0.0
176
     1
 90
        0
176
     1
290
     0
176
     1
290
     1
176
     1
290
     1
176
     1
290
     0
176
     1
290
     0
176
     1
290
     0
176
     1
290
     0
176
     1
290
     0
176
     1
290
     0
176
     1
 90
       50
176
     1
 40
0.0
176
     1
 40
1.0
176
     1
 90
        0
176
     1
 62
    18
420
        0
176
     1
 90
       50
176
     1
 90
        3
176
     1
 62
     5
420
      255
176
     1
290
     0
176
     1
 90
       50
176
     1
 90
       50
176
     1
 90
       50
176
     1
290
     0
176
     1
 90
       50
176
     1
 62
   256
176
     0
 40
1.0
176
     0
 90
        2
176
     1
  1
strokes_ogs.tif
176
     1
290
     0
176
     1
 40
1.0
176
     1
 40
1.0
176
     1
  0
VISUALSTYLE
  5
41
102
{ACAD_REACTORS
330
2A
102
}
330
2A
100
AcDbVisualStyle
  2
Shaded with edges
 70
    26
177
     3
291
     0
 70
    58
 90
        2
176
     1
 90
        2
176
     1
 90
        1
176
     1
 90
        2
176
     1
 40
0.6
176
     1
 40
30.0
176
     1
 62
     7
420
 16777215
176
     1
 90
        1
176
     1
 90
       10
176
     1
 62
     7
176
     1
 62
   257
176
     1
 90
        2
176
     1
 90
        1
176
     1
 40
1.0
176
     1
 90
        8
176
     1
 62
   257
176
     1
 40
1.0
176
     1
 90
        1
176
     1
 90
        6
176
     1
 90
        2
176
     1
 62
     7
176
     1
 90
        3
176
     1
 90
        0
176
     1
 90
        0
176
     1
290
     0
176
     1
 90
        5
176
     1
 40
0.0
176
     1
 90
        0
176
     1
290
     0
176
     1
290
     1
176
     1
290
     1
176
     1
290
     0
176
     1
290
     0
176
     1
290
     0
176
     1
290
     0
176
     1
290
     0
176
     1
290
     0
176
     1
 90
       50
176
     1
 40
0.0
176
     1
 40
1.0
176
     1
 90
        0
176
     1
 62
    18
420
        0
176
     1
 90
       50
176
     1
 90
        3
176
     1
 62
     5
420
      255
176
     1
290
     0
176
     1
 90
       50
176
     1
 90
       50
176
     1
 90
       50
176
     1
290
     0
176
     1
 90
       50
176
     1
 62
   256
176
     0
 40
1.0
176
     0
 90
        2
176
     1
  1
strokes_ogs.tif
176
     1
290
     0
176
     1
 40
1.0
176
     1
 40
1.0
176
     1
  0
VISUALSTYLE
  5
3E
102
{ACAD_REACTORS
330
2A
102
}
330
2A
100
AcDbVisualStyle
  2
Shades of Gray
 70
    23
177
     3
291
     0
 70
    58
 90
        2
176
     1
 90
        2
176
     1
 90
        3
176
     1
 90
        0
176
     1
 40
0.6
176
     1
 40
30.0
176
     1
 62
     7
420
 16777215
176
     1
 90
        2
176
     1
 90
        2
176
     1
 62
     7
176
     1
 62
     7
176
     1
 90
        1
176
     1
 90
        1
176
     1
 40
40.0
176
     1
 90
        8
176
     1
 62
     7
176
     1
 40
1.0
176
     1
 90
        1
176
     1
 90
        6
176
     1
 90
        2
176
     1
 62
     7
176
     1
 90
        3
176
     1
 90
        0
176
     1
 90
        0
176
     1
290
     0
176
     1
 90
        1
176
     1
 40
0.0
176
     1
 90
        0
176
     1
290
     0
176
     1
290
     1
176
     1
290
     1
176
     1
290
     0
176
     1
290
     0
176
     1
290
     0
176
     1
290
     0
176
     1
290
     0
176
     1
290
     0
176
     1
 90
       50
176
     1
 40
0.0
176
     1
 40
1.0
176
     1
 90
        0
176
     1
 62
    18
420
        0
176
     1
 90
       50
176
     1
 90
        3
176
     1
 62
     5
420
      255
176
     1
290
     0
176
     1
 90
       50
176
     1
 90
       50
176
     1
 90
       50
176
     1
290
     0
176
     1
 90
       50
176
     1
 62
   256
176
     0
 40
1.0
176
     0
 90
        2
176
     1
  1
strokes_ogs.tif
176
     1
290
     0
176
     1
 40
1.0
176
     1
 40
1.0
176
     1
  0
VISUALSTYLE
  5
3F
102
{ACAD_REACTORS
330
2A
102
}
330
2A
100
AcDbVisualStyle
  2
Sketchy
 70
    24
177
     3
291
     0
 70
    58
 90
        1
176
     1
 90
        2
176
     1
 90
        2
176
     1
 90
        0
176
     1
 40
0.6
176
     1
 40
30.0
176
     1
 62
     7
420
 16777215
176
     1
 90
        2
176
     1
 90
        2
176
     1
 62
     7
176
     1
 62
     7
176
     1
 90
        1
176
     1
 90
        1
176
     1
 40
40.0
176
     1
 90
       11
176
     1
 62
     7
176
     1
 40
1.0
176
     1
 90
        1
176
     1
 90
        6
176
     1
 90
        2
176
     1
 62
     7
176
     1
 90
        6
176
     1
 90
        0
176
     1
 90
        0
176
     1
290
     0
176
     1
 90
        1
176
     1
 40
0.0
176
     1
 90
        0
176
     1
290
     0
176
     1
290
     1
176
     1
290
     1
176
     1
290
     0
176
     1
290
     0
176
     1
290
     0
176
     1
290
     0
176
     1
290
     0
176
     1
290
     0
176
     1
 90
       50
176
     1
 40
0.0
176
     1
 40
1.0
176
     1
 90
        0
176
     1
 62
    18
420
        0
176
     1
 90
       50
176
     1
 90
        3
176
     1
 62
     5
420
      255
176
     1
290
     0
176
     1
 90
       50
176
     1
 90
       50
176
     1
 90
       50
176
     1
290
     0
176
     1
 90
       50
176
     1
 62
   256
176
     0
 40
1.0
176
     0
 90
        2
176
     1
  1
strokes_ogs.tif
176
     1
290
     0
176
     1
 40
1.0
176
     1
 40
1.0
176
     1
  0
VISUALSTYLE
  5
37
102
{ACAD_REACTORS
330
2A
102
}
330
2A
100
AcDbVisualStyle
  2
Thicken
 70
    13
177
     3
291
     1
 70
    58
 90
        2
176
     1
 90
        2
176
     1
 90
        0
176
     1
 90
        0
176
     1
 40
0.6
176
     1
 40
30.0
176
     1
 62
     7
420
 16777215
176
     1
 90
        1
176
     1
 90
        4
176
     1
 62
     7
176
     1
 62
   257
176
     1
 90
        1
176
     1
 90
        1
176
     1
 40
1.0
176
     1
 90
       12
176
     1
 62
     7
176
     1
 40
1.0
176
     1
 90
        1
176
     1
 90
        6
176
     1
 90
        2
176
     1
 62
     7
176
     1
 90
        5
176
     1
 90
        0
176
     1
 90
        0
176
     1
290
     0
176
     1
 90
        1
176
     1
 40
0.0
176
     1
 90
        0
176
     1
290
     0
176
     1
290
     1
176
     1
290
     1
176
     1
290
     0
176
     1
290
     0
176
     1
290
     0
176
     1
290
     0
176
     1
290
     0
176
     1
290
     0
176
     1
 90
       50
176
     1
 40
0.0
176
     1
 40
1.0
176
     1
 90
        0
176
     1
 62
    18
420
        0
176
     1
 90
       50
176
     1
 90
        3
176
     1
 62
     5
420
      255
176
     1
290
     0
176
     1
 90
       50
176
     1
 90
       50
176
     1
 90
       50
176
     1
290
     0
176
     1
 90
       50
176
     1
 62
   256
176
     0
 40
1.0
176
     0
 90
        2
176
     1
  1
strokes_ogs.tif
176
     1
290
     0
176
     1
 40
1.0
176
     1
 40
1.0
176
     1
  0
VISUALSTYLE
  5
30
102
{ACAD_REACTORS
330
2A
102
}
330
2A
100
AcDbVisualStyle
  2
Wireframe
 70
     5
177
     3
291
     0
 70
    58
 90
        0
176
     1
 90
        2
176
     1
 90
        0
176
     1
 90
        0
176
     1
 40
0.6
176
     1
 40
30.0
176
     1
 62
     7
420
 16777215
176
     1
 90
        1
176
     1
 90
        4
176
     1
 62
     7
176
     1
 62
   257
176
     1
 90
        1
176
     1
 90
        1
176
     1
 40
1.0
176
     1
 90
        0
176
     1
 62
   257
176
     1
 40
1.0
176
     1
 90
        1
176
     1
 90
        6
176
     1
 90
        2
176
     1
 62
     7
176
     1
 90
        3
176
     1
 90
        0
176
     1
 90
        0
176
     1
290
     0
176
     1
 90
        1
176
     1
 40
0.0
176
     1
 90
        0
176
     1
290
     0
176
     1
290
     1
176
     1
290
     1
176
     1
290
     0
176
     1
290
     0
176
     1
290
     0
176
     1
290
     0
176
     1
290
     0
176
     1
290
     0
176
     1
 90
       50
176
     1
 40
0.0
176
     1
 40
1.0
176
     1
 90
        0
176
     1
 62
    18
420
        0
176
     1
 90
       50
176
     1
 90
        3
176
     1
 62
     5
420
      255
176
     1
290
     0
176
     1
 90
       50
176
     1
 90
       50
176
     1
 90
       50
176
     1
290
     0
176
     1
 90
       50
176
     1
 62
   256
176
     0
 40
1.0
176
     0
 90
        2
176
     1
  1
strokes_ogs.tif
176
     1
290
     0
176
     1
 40
1.0
176
     1
 40
1.0
176
     1
  0
VISUALSTYLE
  5
40
102
{ACAD_REACTORS
330
2A
102
}
330
2A
100
AcDbVisualStyle
  2
X-Ray
 70
    25
177
     3
291
     0
 70
    58
 90
        2
176
     1
 90
        2
176
     1
 90
        1
176
     1
 90
        1
176
     1
 40
0.5
176
     1
 40
30.0
176
     1
 62
     7
420
 16777215
176
     1
 90
        1
176
     1
 90
        0
176
     1
 62
     7
176
     1
 62
   257
176
     1
 90
        1
176
     1
 90
        1
176
     1
 40
1.0
176
     1
 90
        8
176
     1
 62
     7
176
     1
 40
1.0
176
     1
 90
        1
176
     1
 90
        6
176
     1
 90
        2
176
     1
 62
     7
176
     1
 90
        3
176
     1
 90
        0
176
     1
 90
        0
176
     1
290
     0
176
     1
 90
       13
176
     1
 40
0.0
176
     1
 90
        0
176
     1
290
     0
176
     1
290
     1
176
     1
290
     1
176
     1
290
     0
176
     1
290
     0
176
     1
290
     0
176
     1
290
     0
176
     1
290
     0
176
     1
290
     0
176
     1
 90
       50
176
     1
 40
0.0
176
     1
 40
1.0
176
     1
 90
        0
176
     1
 62
    18
420
        0
176
     1
 90
       50
176
     1
 90
        3
176
     1
 62
     5
420
      255
176
     1
290
     0
176
     1
 90
       50
176
     1
 90
       50
176
     1
 90
       50
176
     1
290
     0
176
     1
 90
       50
176
     1
 62
   256
176
     0
 40
1.0
176
     0
 90
        2
176
     1
  1
strokes_ogs.tif
176
     1
290
     0
176
     1
 40
1.0
176
     1
 40
1.0
176
     1
  0
DICTIONARYVAR
  5
1AD
102
{ACAD_REACTORS
330
1AC
102
}
330
1AC
100
DictionaryVariables
280
     0
  1
1:1
  0
DICTIONARYVAR
  5
1B2
102
{ACAD_REACTORS
330
1AC
102
}
330
1AC
100
DictionaryVariables
280
     0
  1
Standard
  0
DICTIONARYVAR
  5
1B1
102
{ACAD_REACTORS
330
1AC
102
}
330
1AC
100
DictionaryVariables
280
     0
  1
Standard
  0
DICTIONARY
  5
1AE
330
6A
100
AcDbDictionary
280
     1
281
     1
  3
ACAD_ROUNDTRIP_2008_TABLESTYLE_CELLSTYLEMAP
360
1AF
  0
CELLSTYLEMAP
  5
1AF
102
{ACAD_REACTORS
330
1AE
102
}
330
1AE
100
AcDbCellStyleMap
 90
        3
300
CELLSTYLE
  1
TABLEFORMAT_BEGIN
 90
        5
170
     1
 91
        0
 92
    32768
 62
   257
 93
        1
300
CONTENTFORMAT
  1
CONTENTFORMAT_BEGIN
 90
        0
 91
        0
 92
        4
 93
        0
300

 40
0.0
140
1.0
 94
        5
 62
     0
340
11
144
6.0
309
CONTENTFORMAT_END
171
     1
301
MARGIN
  1
CELLMARGIN_BEGIN
 40
1.5
 40
1.5
 40
1.5
 40
1.5
 40
1.5
 40
1.5
309
CELLMARGIN_END
 94
        6
 95
        1
302
GRIDFORMAT
  1
GRIDFORMAT_BEGIN
 90
        0
 91
        1
 62
     0
 92
       -2
340
14
 93
        0
 40
0.045
309
GRIDFORMAT_END
 95
        2
302
GRIDFORMAT
  1
GRIDFORMAT_BEGIN
 90
        0
 91
        1
 62
     0
 92
       -2
340
14
 93
        0
 40
0.045
309
GRIDFORMAT_END
 95
        4
302
GRIDFORMAT
  1
GRIDFORMAT_BEGIN
 90
        0
 91
        1
 62
     0
 92
       -2
340
14
 93
        0
 40
0.045
309
GRIDFORMAT_END
 95
        8
302
GRIDFORMAT
  1
GRIDFORMAT_BEGIN
 90
        0
 91
        1
 62
     0
 92
       -2
340
14
 93
        0
 40
0.045
309
GRIDFORMAT_END
 95
       16
302
GRIDFORMAT
  1
GRIDFORMAT_BEGIN
 90
        0
 91
        1
 62
     0
 92
       -2
340
14
 93
        0
 40
0.045
309
GRIDFORMAT_END
 95
       32
302
GRIDFORMAT
  1
GRIDFORMAT_BEGIN
 90
        0
 91
        1
 62
     0
 92
       -2
340
14
 93
        0
 40
0.045
309
GRIDFORMAT_END
309
TABLEFORMAT_END
  1
CELLSTYLE_BEGIN
 90
        1
 91
        1
300
_TITLE
309
CELLSTYLE_END
300
CELLSTYLE
  1
TABLEFORMAT_BEGIN
 90
        5
170
     1
 91
        0
 92
        0
 62
   257
 93
        1
300
CONTENTFORMAT
  1
CONTENTFORMAT_BEGIN
 90
        0
 91
        0
 92
        4
 93
        0
300

 40
0.0
140
1.0
 94
        5
 62
     0
340
11
144
4.5
309
CONTENTFORMAT_END
171
     1
301
MARGIN
  1
CELLMARGIN_BEGIN
 40
1.5
 40
1.5
 40
1.5
 40
1.5
 40
1.5
 40
1.5
309
CELLMARGIN_END
 94
        6
 95
        1
302
GRIDFORMAT
  1
GRIDFORMAT_BEGIN
 90
        0
 91
        1
 62
     0
 92
       -2
340
14
 93
        0
 40
0.045
309
GRIDFORMAT_END
 95
        2
302
GRIDFORMAT
  1
GRIDFORMAT_BEGIN
 90
        0
 91
        1
 62
     0
 92
       -2
340
14
 93
        0
 40
0.045
309
GRIDFORMAT_END
 95
        4
302
GRIDFORMAT
  1
GRIDFORMAT_BEGIN
 90
        0
 91
        1
 62
     0
 92
       -2
340
14
 93
        0
 40
0.045
309
GRIDFORMAT_END
 95
        8
302
GRIDFORMAT
  1
GRIDFORMAT_BEGIN
 90
        0
 91
        1
 62
     0
 92
       -2
340
14
 93
        0
 40
0.045
309
GRIDFORMAT_END
 95
       16
302
GRIDFORMAT
  1
GRIDFORMAT_BEGIN
 90
        0
 91
        1
 62
     0
 92
       -2
340
14
 93
        0
 40
0.045
309
GRIDFORMAT_END
 95
       32
302
GRIDFORMAT
  1
GRIDFORMAT_BEGIN
 90
        0
 91
        1
 62
     0
 92
       -2
340
14
 93
        0
 40
0.045
309
GRIDFORMAT_END
309
TABLEFORMAT_END
  1
CELLSTYLE_BEGIN
 90
        2
 91
        1
300
_HEADER
309
CELLSTYLE_END
300
CELLSTYLE
  1
TABLEFORMAT_BEGIN
 90
        5
170
     1
 91
        0
 92
        0
 62
   257
 93
        1
300
CONTENTFORMAT
  1
CONTENTFORMAT_BEGIN
 90
        0
 91
        0
 92
        4
 93
        0
300

 40
0.0
140
1.0
 94
        2
 62
     0
340
11
144
4.5
309
CONTENTFORMAT_END
171
     1
301
MARGIN
  1
CELLMARGIN_BEGIN
 40
1.5
 40
1.5
 40
1.5
 40
1.5
 40
1.5
 40
1.5
309
CELLMARGIN_END
 94
        6
 95
        1
302
GRIDFORMAT
  1
GRIDFORMAT_BEGIN
 90
        0
 91
        1
 62
     0
 92
       -2
340
14
 93
        0
 40
0.045
309
GRIDFORMAT_END
 95
        2
302
GRIDFORMAT
  1
GRIDFORMAT_BEGIN
 90
        0
 91
        1
 62
     0
 92
       -2
340
14
 93
        0
 40
0.045
309
GRIDFORMAT_END
 95
        4
302
GRIDFORMAT
  1
GRIDFORMAT_BEGIN
 90
        0
 91
        1
 62
     0
 92
       -2
340
14
 93
        0
 40
0.045
309
GRIDFORMAT_END
 95
        8
302
GRIDFORMAT
  1
GRIDFORMAT_BEGIN
 90
        0
 91
        1
 62
     0
 92
       -2
340
14
 93
        0
 40
0.045
309
GRIDFORMAT_END
 95
       16
302
GRIDFORMAT
  1
GRIDFORMAT_BEGIN
 90
        0
 91
        1
 62
     0
 92
       -2
340
14
 93
        0
 40
0.045
309
GRIDFORMAT_END
 95
       32
302
GRIDFORMAT
  1
GRIDFORMAT_BEGIN
 90
        0
 91
        1
 62
     0
 92
       -2
340
14
 93
        0
 40
0.045
309
GRIDFORMAT_END
309
TABLEFORMAT_END
  1
CELLSTYLE_BEGIN
 90
        3
 91
        2
300
_DATA
309
CELLSTYLE_END
  0
ENDSEC
  0
EOF