0
SECTION
  2
HEADER
  9
$ACADVER
  1
AC1027
  9
$ACADMAINTVER
 70
   105
  9
$DWGCODEPAGE
  3
ANSI_1252
  9
$REQUIREDVERSIONS
160
                 0
  9
$COMMENTS
  1
File was created by Cadenas
  9
$CUSTOMPROPERTYTAG
  1
NN
  9
$CUSTOMPROPERTY
  1
Eccentric Collar Intermediate Duty Four-Bolt Flange Metric Bore
  9
$CUSTOMPROPERTYTAG
  1
NT
  9
$CUSTOMPROPERTY
  1
Eccentric Collar 4-Bolt Flange Bearings -(Intermediate Duty)
  9
$CUSTOMPROPERTYTAG
  1
NB
  9
$CUSTOMPROPERTY
  1
125726
  9
$CUSTOMPROPERTYTAG
  1
NBSYN
  9
$CUSTOMPROPERTY
  1
$PN.
  9
$CUSTOMPROPERTYTAG
  1
LINA
  9
$CUSTOMPROPERTY
  1
125726
  9
$CUSTOMPROPERTYTAG
  1
SERIES
  9
$CUSTOMPROPERTY
  1
209
  9
$CUSTOMPROPERTYTAG
  1
SS
  9
$CUSTOMPROPERTY
  1
45
  9
$CUSTOMPROPERTYTAG
  1
PN
  9
$CUSTOMPROPERTY
  1
125726
  9
$CUSTOMPROPERTYTAG
  1
DESCRIPTION
  9
$CUSTOMPROPERTY
  1
F4B-SXV-45M
  9
$CUSTOMPROPERTYTAG
  1
W
  9
$CUSTOMPROPERTY
  1
2.7
  9
$CUSTOMPROPERTYTAG
  1
A
  9
$CUSTOMPROPERTY
  1
42.9
  9
$CUSTOMPROPERTYTAG
  1
B
  9
$CUSTOMPROPERTY
  1
136.7
  9
$CUSTOMPROPERTYTAG
  1
C
  9
$CUSTOMPROPERTY
  1
52.6
  9
$CUSTOMPROPERTYTAG
  1
D
  9
$CUSTOMPROPERTY
  1
104.9
  9
$CUSTOMPROPERTYTAG
  1
F
  9
$CUSTOMPROPERTY
  1
M14
  9
$CUSTOMPROPERTYTAG
  1
H
  9
$CUSTOMPROPERTY
  1
16.0
  9
$CUSTOMPROPERTYTAG
  1
J
  9
$CUSTOMPROPERTY
  1
16.8
  9
$CUSTOMPROPERTYTAG
  1
L
  9
$CUSTOMPROPERTY
  1
63.5
  9
$CUSTOMPROPERTYTAG
  1
N
  9
$CUSTOMPROPERTY
  1
69.9
  9
$CUSTOMPROPERTYTAG
  1
COMPANY
  9
$CUSTOMPROPERTY
  1
baldor
  9
$INSBASE
 10
0.0
 20
0.0
 30
0.0
  9
$EXTMIN
 10
1.000000000000000E+20
 20
1.000000000000000E+20
 30
1.000000000000000E+20
  9
$EXTMAX
 10
-1.000000000000000E+20
 20
-1.000000000000000E+20
 30
-1.000000000000000E+20
  9
$LIMMIN
 10
0.0
 20
0.0
  9
$LIMMAX
 10
420.0
 20
297.0
  9
$ORTHOMODE
 70
     0
  9
$REGENMODE
 70
     1
  9
$FILLMODE
 70
     1
  9
$QTEXTMODE
 70
     0
  9
$MIRRTEXT
 70
     1
  9
$LTSCALE
 40
1.0
  9
$ATTMODE
 70
     1
  9
$TEXTSIZE
 40
2.5
  9
$TRACEWID
 40
1.0
  9
$TEXTSTYLE
  7
Standard
  9
$CLAYER
  8
0
  9
$CELTYPE
  6
ByLayer
  9
$CECOLOR
 62
   256
  9
$CELTSCALE
 40
1.0
  9
$DISPSILH
 70
     0
  9
$DIMSCALE
 40
1.0
  9
$DIMASZ
 40
2.5
  9
$DIMEXO
 40
0.625
  9
$DIMDLI
 40
3.75
  9
$DIMRND
 40
0.0
  9
$DIMDLE
 40
0.0
  9
$DIMEXE
 40
1.25
  9
$DIMTP
 40
0.0
  9
$DIMTM
 40
0.0
  9
$DIMTXT
 40
2.5
  9
$DIMCEN
 40
2.5
  9
$DIMTSZ
 40
0.0
  9
$DIMTOL
 70
     0
  9
$DIMLIM
 70
     0
  9
$DIMTIH
 70
     0
  9
$DIMTOH
 70
     0
  9
$DIMSE1
 70
     0
  9
$DIMSE2
 70
     0
  9
$DIMTAD
 70
     1
  9
$DIMZIN
 70
     8
  9
$DIMBLK
  1

  9
$DIMASO
 70
     1
  9
$DIMSHO
 70
     1
  9
$DIMPOST
  1

  9
$DIMAPOST
  1

  9
$DIMALT
 70
     0
  9
$DIMALTD
 70
     3
  9
$DIMALTF
 40
0.03937007874016
  9
$DIMLFAC
 40
1.0
  9
$DIMTOFL
 70
     1
  9
$DIMTVP
 40
0.0
  9
$DIMTIX
 70
     0
  9
$DIMSOXD
 70
     0
  9
$DIMSAH
 70
     0
  9
$DIMBLK1
  1

  9
$DIMBLK2
  1

  9
$DIMSTYLE
  2
ISO-25
  9
$DIMCLRD
 70
     0
  9
$DIMCLRE
 70
     0
  9
$DIMCLRT
 70
     0
  9
$DIMTFAC
 40
1.0
  9
$DIMGAP
 40
0.625
  9
$DIMJUST
 70
     0
  9
$DIMSD1
 70
     0
  9
$DIMSD2
 70
     0
  9
$DIMTOLJ
 70
     0
  9
$DIMTZIN
 70
     8
  9
$DIMALTZ
 70
     0
  9
$DIMALTTZ
 70
     0
  9
$DIMUPT
 70
     0
  9
$DIMDEC
 70
     2
  9
$DIMTDEC
 70
     2
  9
$DIMALTU
 70
     2
  9
$DIMALTTD
 70
     3
  9
$DIMTXSTY
  7
Standard
  9
$DIMAUNIT
 70
     0
  9
$DIMADEC
 70
     0
  9
$DIMALTRND
 40
0.0
  9
$DIMAZIN
 70
     0
  9
$DIMDSEP
 70
    44
  9
$DIMATFIT
 70
     3
  9
$DIMFRAC
 70
     0
  9
$DIMLDRBLK
  1

  9
$DIMLUNIT
 70
     2
  9
$DIMLWD
 70
    -2
  9
$DIMLWE
 70
    -2
  9
$DIMTMOVE
 70
     0
  9
$DIMFXL
 40
1.0
  9
$DIMFXLON
 70
     0
  9
$DIMJOGANG
 40
0.7853981633974483
  9
$DIMTFILL
 70
     0
  9
$DIMTFILLCLR
 70
     0
  9
$DIMARCSYM
 70
     0
  9
$DIMLTYPE
  6

  9
$DIMLTEX1
  6

  9
$DIMLTEX2
  6

  9
$DIMTXTDIRECTION
 70
     0
  9
$LUNITS
 70
     2
  9
$LUPREC
 70
     4
  9
$SKETCHINC
 40
1.0
  9
$FILLETRAD
 40
10.0
  9
$AUNITS
 70
     0
  9
$AUPREC
 70
     0
  9
$MENU
  1
.
  9
$ELEVATION
 40
0.0
  9
$PELEVATION
 40
0.0
  9
$THICKNESS
 40
0.0
  9
$LIMCHECK
 70
     0
  9
$CHAMFERA
 40
0.0
  9
$CHAMFERB
 40
0.0
  9
$CHAMFERC
 40
0.0
  9
$CHAMFERD
 40
0.0
  9
$SKPOLY
 70
     0
  9
$TDCREATE
 40
2458168.986824583
  9
$TDUCREATE
 40
2458168.945157917
  9
$TDUPDATE
 40
2458168.986824583
  9
$TDUUPDATE
 40
2458168.945157917
  9
$TDINDWG
 40
0.0000000116
  9
$TDUSRTIMER
 40
0.0000000116
  9
$USRTIMER
 70
     1
  9
$ANGBASE
 50
0.0
  9
$ANGDIR
 70
     0
  9
$PDMODE
 70
     0
  9
$PDSIZE
 40
0.0
  9
$PLINEWID
 40
0.0
  9
$SPLFRAME
 70
     0
  9
$SPLINETYPE
 70
     6
  9
$SPLINESEGS
 70
     8
  9
$HANDSEED
  5
177
  9
$SURFTAB1
 70
     6
  9
$SURFTAB2
 70
     6
  9
$SURFTYPE
 70
     6
  9
$SURFU
 70
     6
  9
$SURFV
 70
     6
  9
$UCSBASE
  2

  9
$UCSNAME
  2

  9
$UCSORG
 10
0.0
 20
0.0
 30
0.0
  9
$UCSXDIR
 10
1.0
 20
0.0
 30
0.0
  9
$UCSYDIR
 10
0.0
 20
1.0
 30
0.0
  9
$UCSORTHOREF
  2

  9
$UCSORTHOVIEW
 70
     0
  9
$UCSORGTOP
 10
0.0
 20
0.0
 30
0.0
  9
$UCSORGBOTTOM
 10
0.0
 20
0.0
 30
0.0
  9
$UCSORGLEFT
 10
0.0
 20
0.0
 30
0.0
  9
$UCSORGRIGHT
 10
0.0
 20
0.0
 30
0.0
  9
$UCSORGFRONT
 10
0.0
 20
0.0
 30
0.0
  9
$UCSORGBACK
 10
0.0
 20
0.0
 30
0.0
  9
$PUCSBASE
  2

  9
$PUCSNAME
  2

  9
$PUCSORG
 10
0.0
 20
0.0
 30
0.0
  9
$PUCSXDIR
 10
1.0
 20
0.0
 30
0.0
  9
$PUCSYDIR
 10
0.0
 20
1.0
 30
0.0
  9
$PUCSORTHOREF
  2

  9
$PUCSORTHOVIEW
 70
     0
  9
$PUCSORGTOP
 10
0.0
 20
0.0
 30
0.0
  9
$PUCSORGBOTTOM
 10
0.0
 20
0.0
 30
0.0
  9
$PUCSORGLEFT
 10
0.0
 20
0.0
 30
0.0
  9
$PUCSORGRIGHT
 10
0.0
 20
0.0
 30
0.0
  9
$PUCSORGFRONT
 10
0.0
 20
0.0
 30
0.0
  9
$PUCSORGBACK
 10
0.0
 20
0.0
 30
0.0
  9
$USERI1
 70
     0
  9
$USERI2
 70
     0
  9
$USERI3
 70
     0
  9
$USERI4
 70
     0
  9
$USERI5
 70
     0
  9
$USERR1
 40
0.0
  9
$USERR2
 40
0.0
  9
$USERR3
 40
0.0
  9
$USERR4
 40
0.0
  9
$USERR5
 40
0.0
  9
$WORLDVIEW
 70
     1
  9
$SHADEDGE
 70
     3
  9
$SHADEDIF
 70
    70
  9
$TILEMODE
 70
     1
  9
$MAXACTVP
 70
    64
  9
$PINSBASE
 10
0.0
 20
0.0
 30
0.0
  9
$PLIMCHECK
 70
     0
  9
$PEXTMIN
 10
1.000000000000000E+20
 20
1.000000000000000E+20
 30
1.000000000000000E+20
  9
$PEXTMAX
 10
-1.000000000000000E+20
 20
-1.000000000000000E+20
 30
-1.000000000000000E+20
  9
$PLIMMIN
 10
0.0
 20
0.0
  9
$PLIMMAX
 10
420.0
 20
297.0
  9
$UNITMODE
 70
     0
  9
$VISRETAIN
 70
     1
  9
$PLINEGEN
 70
     0
  9
$PSLTSCALE
 70
     1
  9
$TREEDEPTH
 70
  3020
  9
$CMLSTYLE
  2
Standard
  9
$CMLJUST
 70
     0
  9
$CMLSCALE
 40
20.0
  9
$PROXYGRAPHICS
 70
     1
  9
$MEASUREMENT
 70
     1
  9
$CELWEIGHT
370
    -1
  9
$ENDCAPS
280
     0
  9
$JOINSTYLE
280
     0
  9
$LWDISPLAY
290
     0
  9
$INSUNITS
 70
     4
  9
$HYPERLINKBASE
  1

  9
$STYLESHEET
  1

  9
$XEDIT
290
     1
  9
$CEPSNTYPE
380
     0
  9
$PSTYLEMODE
290
     1
  9
$FINGERPRINTGUID
  2
{9AAF9BAF-74E1-4DB1-B3A1-013DC7426DB6}
  9
$VERSIONGUID
  2
{FAEB1C32-E019-11D5-929B-00C0DF256EC4}
  9
$EXTNAMES
290
     1
  9
$PSVPSCALE
 40
0.0
  9
$OLESTARTUP
290
     0
  9
$SORTENTS
280
   127
  9
$INDEXCTL
280
     0
  9
$HIDETEXT
280
     1
  9
$XCLIPFRAME
280
     2
  9
$HALOGAP
280
     0
  9
$OBSCOLOR
 70
   257
  9
$OBSLTYPE
280
     0
  9
$INTERSECTIONDISPLAY
280
     0
  9
$INTERSECTIONCOLOR
 70
   257
  9
$DIMASSOC
280
     2
  9
$PROJECTNAME
  1

  9
$CAMERADISPLAY
290
     0
  9
$LENSLENGTH
 40
50.0
  9
$CAMERAHEIGHT
 40
0.0
  9
$STEPSPERSEC
 40
2.0
  9
$STEPSIZE
 40
6.0
  9
$3DDWFPREC
 40
2.0
  9
$PSOLWIDTH
 40
5.0
  9
$PSOLHEIGHT
 40
80.0
  9
$LOFTANG1
 40
1.570796326794897
  9
$LOFTANG2
 40
1.570796326794897
  9
$LOFTMAG1
 40
0.0
  9
$LOFTMAG2
 40
0.0
  9
$LOFTPARAM
 70
     7
  9
$LOFTNORMALS
280
     1
  9
$LATITUDE
 40
37.795
  9
$LONGITUDE
 40
-122.394
  9
$NORTHDIRECTION
 40
0.0
  9
$TIMEZONE
 70
 -8000
  9
$LIGHTGLYPHDISPLAY
280
     1
  9
$TILEMODELIGHTSYNCH
280
     1
  9
$CMATERIAL
347
44
  9
$SOLIDHIST
280
     0
  9
$SHOWHIST
280
     1
  9
$DWFFRAME
280
     2
  9
$DGNFRAME
280
     2
  9
$REALWORLDSCALE
290
     1
  9
$INTERFERECOLOR
 62
   256
  9
$CSHADOW
280
     0
  9
$SHADOWPLANELOCATION
 40
0.0
  0
ENDSEC
  0
SECTION
  2
CLASSES
  0
CLASS
  1
ACDBDICTIONARYWDFLT
  2
AcDbDictionaryWithDefault
  3
ObjectDBX Classes
 90
        0
 91
        4
280
     0
281
     0
  0
CLASS
  1
VISUALSTYLE
  2
AcDbVisualStyle
  3
ObjectDBX Classes
 90
     4095
 91
        4
280
     0
281
     0
  0
CLASS
  1
MATERIAL
  2
AcDbMaterial
  3
ObjectDBX Classes
 90
     1153
 91
        4
280
     0
281
     0
  0
CLASS
  1
SCALE
  2
AcDbScale
  3
ObjectDBX Classes
 90
     1153
 91
        4
280
     0
281
     0
  0
CLASS
  1
TABLESTYLE
  2
AcDbTableStyle
  3
ObjectDBX Classes
 90
     4095
 91
        4
280
     0
281
     0
  0
CLASS
  1
MLEADERSTYLE
  2
AcDbMLeaderStyle
  3
ACDB_MLEADERSTYLE_CLASS
 90
     4095
 91
        4
280
     0
281
     0
  0
CLASS
  1
SUN
  2
AcDbSun
  3
SCENEOE
 90
     1153
 91
        4
280
     0
281
     0
  0
CLASS
  1
DICTIONARYVAR
  2
AcDbDictionaryVar
  3
ObjectDBX Classes
 90
        0
 91
        4
280
     0
281
     0
  0
CLASS
  1
CELLSTYLEMAP
  2
AcDbCellStyleMap
  3
ObjectDBX Classes
 90
     1152
 91
        4
280
     0
281
     0
  0
ENDSEC
  0
SECTION
  2
TABLES
  0
TABLE
  2
VPORT
  5
8
330
0
100
AcDbSymbolTable
 70
     1
  0
VPORT
  5
29
330
8
100
AcDbSymbolTableRecord
100
AcDbViewportTableRecord
  2
*Active
 70
     0
 10
0.0
 20
0.0
 11
1.0
 21
1.0
 12
-21.65982142857143
 22
1.431399999999996
 13
0.0
 23
0.0
 14
10.0
 24
10.0
 15
10.0
 25
10.0
 16
0.0
 26
0.0
 36
1.0
 17
0.0
 27
0.0
 37
0.0
 40
142.354056
 41
0.4742335145386675
 42
50.0
 43
0.0
 44
0.0
 50
0.0
 51
0.0
 71
     0
 72
   100
 73
     1
 74
     3
 75
     0
 76
     0
 77
     0
 78
     0
281
     0
 65
     1
110
0.0
120
0.0
130
0.0
111
1.0
121
0.0
131
0.0
112
0.0
122
1.0
132
0.0
 79
     0
146
0.0
348
2F
 60
     3
 61
     5
292
     1
282
     1
141
0.0
142
0.0
 63
   250
361
6D
  0
ENDTAB
  0
TABLE
  2
LTYPE
  5
5
330
0
100
AcDbSymbolTable
 70
     3
  0
LTYPE
  5
14
330
5
100
AcDbSymbolTableRecord
100
AcDbLinetypeTableRecord
  2
ByBlock
 70
     0
  3

 72
    65
 73
     0
 40
0.0
  0
LTYPE
  5
15
330
5
100
AcDbSymbolTableRecord
100
AcDbLinetypeTableRecord
  2
ByLayer
 70
     0
  3

 72
    65
 73
     0
 40
0.0
  0
LTYPE
  5
16
330
5
100
AcDbSymbolTableRecord
100
AcDbLinetypeTableRecord
  2
Continuous
 70
     0
  3
Solid line
 72
    65
 73
     0
 40
0.0
  0
LTYPE
  5
8F
330
5
100
AcDbSymbolTableRecord
100
AcDbLinetypeTableRecord
  2
Dashed
 70
     0
  3

 72
    65
 73
     2
 40
2.0
 49
1.0
 74
     0
 49
-1.0
 74
     0
  0
LTYPE
  5
9D
330
5
100
AcDbSymbolTableRecord
100
AcDbLinetypeTableRecord
  2
Center
 70
     0
  3

 72
    65
 73
     4
 40
1.5
 49
0.45
 74
     0
 49
-0.5
 74
     0
 49
0.05
 74
     0
 49
-0.5
 74
     0
  0
ENDTAB
  0
TABLE
  2
LAYER
  5
2
330
0
100
AcDbSymbolTable
 70
     8
  0
LAYER
  5
10
330
2
100
AcDbSymbolTableRecord
100
AcDbLayerTableRecord
  2
0
 70
     0
 62
     7
  6
Continuous
370
    -3
390
F
347
46
348
0
  0
LAYER
  5
6E
330
2
100
AcDbSymbolTableRecord
100
AcDbLayerTableRecord
  2
AM_6
 70
     0
 62
    -2
  6
Continuous
370
    35
390
F
347
46
348
0
  0
LAYER
  5
90
330
2
100
AcDbSymbolTableRecord
100
AcDbLayerTableRecord
  2
AM_9
 70
     0
 62
     6
  6
Dashed
370
    25
390
F
347
46
348
0
  0
LAYER
  5
97
330
2
100
AcDbSymbolTableRecord
100
AcDbLayerTableRecord
  2
AM_5
 70
     0
 62
     3
  6
Continuous
370
    25
390
F
347
46
348
0
  0
LAYER
  5
9E
330
2
100
AcDbSymbolTableRecord
100
AcDbLayerTableRecord
  2
AM_7
 70
     0
 62
     7
  6
Center
370
    25
390
F
347
46
348
0
  0
LAYER
  5
A0
330
2
100
AcDbSymbolTableRecord
100
AcDbLayerTableRecord
  2
AM_0
 70
     0
 62
     7
  6
Continuous
370
    50
390
F
347
46
348
0
  0
LAYER
  5
11A
330
2
100
AcDbSymbolTableRecord
100
AcDbLayerTableRecord
  2
AM_4
 70
     0
 62
     3
  6
Continuous
370
    25
390
F
347
46
348
0
  0
LAYER
  5
168
330
2
100
AcDbSymbolTableRecord
100
AcDbLayerTableRecord
  2
ConnectionPoints
 70
     0
 62
     7
  6
Continuous
370
    50
390
F
347
46
348
0
  0
ENDTAB
  0
TABLE
  2
STYLE
  5
3
330
0
100
AcDbSymbolTable
 70
     1
  0
STYLE
  5
11
330
3
100
AcDbSymbolTableRecord
100
AcDbTextStyleTableRecord
  2
Standard
 70
     0
 40
0.0
 41
1.0
 50
0.0
 71
     0
 42
2.5
  3
txt
  4

  0
ENDTAB
  0
TABLE
  2
VIEW
  5
6
330
0
100
AcDbSymbolTable
 70
     0
  0
ENDTAB
  0
TABLE
  2
UCS
  5
7
330
0
100
AcDbSymbolTable
 70
     0
  0
ENDTAB
  0
TABLE
  2
APPID
  5
9
330
0
100
AcDbSymbolTable
 70
     1
  0
APPID
  5
12
330
9
100
AcDbSymbolTableRecord
100
AcDbRegAppTableRecord
  2
ACAD
 70
     0
  0
ENDTAB
  0
TABLE
  2
DIMSTYLE
  5
A
330
0
100
AcDbSymbolTable
 70
     1
100
AcDbDimStyleTable
  0
DIMSTYLE
105
27
330
A
100
AcDbSymbolTableRecord
100
AcDbDimStyleTableRecord
  2
ISO-25
 70
     0
 41
2.5
 42
0.625
 43
3.75
 44
1.25
 73
     0
 74
     0
 77
     1
 78
     8
140
2.5
141
2.5
143
0.03937007874016
147
0.625
171
     3
172
     1
178
     0
271
     2
272
     2
274
     3
278
    44
283
     0
284
     8
340
11
  0
ENDTAB
  0
TABLE
  2
BLOCK_RECORD
  5
1
330
0
100
AcDbSymbolTable
 70
     4
  0
BLOCK_RECORD
  5
1F
330
1
100
AcDbSymbolTableRecord
100
AcDbBlockTableRecord
  2
*Model_Space
340
22
 70
     0
280
     1
281
     0
  0
BLOCK_RECORD
  5
1B
330
1
100
AcDbSymbolTableRecord
100
AcDbBlockTableRecord
  2
*Paper_Space
340
1E
 70
     0
280
     1
281
     0
  0
BLOCK_RECORD
  5
23
330
1
100
AcDbSymbolTableRecord
100
AcDbBlockTableRecord
  2
*Paper_Space0
340
26
 70
     0
280
     1
281
     0
  0
BLOCK_RECORD
  5
83
330
1
100
AcDbSymbolTableRecord
100
AcDbBlockTableRecord
  2
1_405015E_Metric_0_in_125726_2
340
0
102
{BLKREFS
331
84
102
}
 70
     0
280
     1
281
     0
  0
BLOCK_RECORD
  5
C8
330
1
100
AcDbSymbolTableRecord
100
AcDbBlockTableRecord
  2
2_125650_0_in_125726_2
340
0
102
{BLKREFS
331
C9
102
}
 70
     0
280
     1
281
     0
  0
BLOCK_RECORD
  5
120
330
1
100
AcDbSymbolTableRecord
100
AcDbBlockTableRecord
  2
3_125726H_0_in_125726_2
340
0
102
{BLKREFS
331
121
102
}
 70
     0
280
     1
281
     0
  0
ENDTAB
  0
ENDSEC
  0
SECTION
  2
BLOCKS
  0
BLOCK
  5
20
330
1F
100
AcDbEntity
  8
0
100
AcDbBlockBegin
  2
*Model_Space
 70
     0
 10
0.0
 20
0.0
 30
0.0
  3
*Model_Space
  1

  0
ENDBLK
  5
21
330
1F
100
AcDbEntity
  8
0
100
AcDbBlockEnd
  0
BLOCK
  5
1C
330
1B
100
AcDbEntity
 67
     1
  8
0
100
AcDbBlockBegin
  2
*Paper_Space
 70
     0
 10
0.0
 20
0.0
 30
0.0
  3
*Paper_Space
  1

  0
ENDBLK
  5
1D
330
1B
100
AcDbEntity
 67
     1
  8
0
100
AcDbBlockEnd
  0
BLOCK
  5
24
330
23
100
AcDbEntity
  8
0
100
AcDbBlockBegin
  2
*Paper_Space0
 70
     0
 10
0.0
 20
0.0
 30
0.0
  3
*Paper_Space0
  1

  0
ENDBLK
  5
25
330
23
100
AcDbEntity
  8
0
100
AcDbBlockEnd
  0
BLOCK
  5
85
330
83
100
AcDbEntity
  8
0
100
AcDbBlockBegin
  2
1_405015E_Metric_0_in_125726_2
 70
     2
 10
0.0
 20
0.0
 30
0.0
  3
1_405015E_Metric_0_in_125726_2
  1

  0
ATTDEF
  5
87
330
83
100
AcDbEntity
  8
AM_6
100
AcDbText
 10
-15.12649730810374
 20
70.7128
 30
0.0
 40
0.5
  1
405015E -Metric
100
AcDbAttributeDefinition
  3

  2
NN
 70
     8
280
     0
  0
ATTDEF
  5
88
330
83
100
AcDbEntity
  8
AM_6
100
AcDbText
 10
-15.12649730810374
 20
70.2128
 30
0.0
 40
0.5
  1
Grease Fitting
100
AcDbAttributeDefinition
  3

  2
NT
 70
     8
280
     0
  0
ATTDEF
  5
89
330
83
100
AcDbEntity
  8
AM_6
100
AcDbText
 10
-15.12649730810374
 20
69.7128
 30
0.0
 40
0.5
  1
405015E-Metric
100
AcDbAttributeDefinition
  3

  2
NB
 70
     8
280
     0
  0
ATTDEF
  5
8A
330
83
100
AcDbEntity
  8
AM_6
100
AcDbText
 10
-15.12649730810374
 20
69.2128
 30
0.0
 40
0.5
  1
$MN.-Metric
100
AcDbAttributeDefinition
  3

  2
NBSYN
 70
     8
280
     0
  0
ATTDEF
  5
8B
330
83
100
AcDbEntity
  8
AM_6
100
AcDbText
 10
-15.12649730810374
 20
68.7128
 30
0.0
 40
0.5
  1
405015E
100
AcDbAttributeDefinition
  3

  2
LINA
 70
     8
280
     0
  0
ATTDEF
  5
8C
330
83
100
AcDbEntity
  8
AM_6
100
AcDbText
 10
-15.12649730810374
 20
68.2128
 30
0.0
 40
0.5
  1
405015E
100
AcDbAttributeDefinition
  3

  2
MN
 70
     8
280
     0
  0
ATTDEF
  5
8D
330
83
100
AcDbEntity
  8
AM_6
100
AcDbText
 10
-15.12649730810374
 20
67.7128
 30
0.0
 40
0.5
  1
1/8 x 27PTF
100
AcDbAttributeDefinition
  3

  2
T
 70
     8
280
     0
  0
ATTDEF
  5
8E
330
83
100
AcDbEntity
  8
AM_6
100
AcDbText
 10
-15.12649730810374
 20
67.2128
 30
0.0
 40
0.5
  1
baldor
100
AcDbAttributeDefinition
  3

  2
COMPANY
 70
     8
280
     0
  0
LINE
  5
91
330
83
100
AcDbEntity
  8
AM_9
 48
0.0788183806600721
100
AcDbLine
 10
-30.05799375318352
 20
53.64400000000001
 30
0.0
 11
-21.74200624681648
 21
53.64400000000001
 31
0.0
  0
LINE
  5
92
330
83
100
AcDbEntity
  8
AM_9
 48
0.0788183806600721
100
AcDbLine
 10
-21.74200624681648
 20
53.64400000000001
 30
0.0
 11
-21.14197054348823
 21
54.24403570332825
 31
0.0
  0
LINE
  5
93
330
83
100
AcDbEntity
  8
AM_9
 48
0.0788183806600721
100
AcDbLine
 10
-30.65802945651178
 20
54.24403570332825
 30
0.0
 11
-30.05799375318352
 21
53.64400000000001
 31
0.0
  0
LINE
  5
94
330
83
100
AcDbEntity
  8
AM_9
 48
0.0788183806600721
100
AcDbLine
 10
-30.65802945651178
 20
54.24403570332825
 30
0.0
 11
-21.14197054348823
 21
54.24403570332825
 31
0.0
  0
LINE
  5
95
330
83
100
AcDbEntity
  8
AM_9
 48
0.0788183806600721
100
AcDbLine
 10
-21.14197054348823
 20
54.24403570332825
 30
0.0
 11
-20.95036833446504
 21
60.37500000000001
 31
0.0
  0
LINE
  5
96
330
83
100
AcDbEntity
  8
AM_9
 48
0.0788183806600721
100
AcDbLine
 10
-30.84963166553497
 20
60.37500000000001
 30
0.0
 11
-30.65802945651178
 21
54.24403570332825
 31
0.0
  0
LINE
  5
98
330
83
100
AcDbEntity
  8
AM_5
 48
0.0788183806600721
100
AcDbLine
 10
-21.56491707355493
 20
59.31057036016893
 30
0.0
 11
-21.74200624681648
 21
53.64400000000001
 31
0.0
  0
LINE
  5
99
330
83
100
AcDbEntity
  8
AM_5
 48
0.0788183806600721
100
AcDbLine
 10
-20.95036833446504
 20
60.375
 30
0.0
 11
-21.56491707355493
 21
59.31057036016893
 31
0.0
  0
LINE
  5
9A
330
83
100
AcDbEntity
  8
AM_5
 48
0.0788183806600721
100
AcDbLine
 10
-20.98363342303391
 20
59.31057036016893
 30
0.0
 11
-30.81636657696609
 21
59.31057036016893
 31
0.0
  0
LINE
  5
9B
330
83
100
AcDbEntity
  8
AM_5
 48
0.0788183806600721
100
AcDbLine
 10
-30.23508292644508
 20
59.31057036016893
 30
0.0
 11
-30.05799375318352
 21
53.64400000000001
 31
0.0
  0
LINE
  5
9C
330
83
100
AcDbEntity
  8
AM_5
 48
0.0788183806600721
100
AcDbLine
 10
-30.84963166553497
 20
60.375
 30
0.0
 11
-30.23508292644508
 21
59.31057036016893
 31
0.0
  0
LINE
  5
9F
330
83
100
AcDbEntity
  8
AM_7
 48
0.0788183806600721
100
AcDbLine
 10
-25.9
 20
70.7128
 30
0.0
 11
-25.9
 21
52.8312
 31
0.0
  0
LINE
  5
A1
330
83
100
AcDbEntity
  8
AM_0
 48
0.0788183806600721
100
AcDbLine
 10
-20.9
 20
60.37500000000001
 30
0.0
 11
-20.12649730810374
 21
60.58225942163691
 31
0.0
  0
LINE
  5
A2
330
83
100
AcDbEntity
  8
AM_0
 48
0.0788183806600721
100
AcDbLine
 10
-30.9
 20
63.375
 30
0.0
 11
-20.90000000000001
 21
63.375
 31
0.0
  0
LINE
  5
A3
330
83
100
AcDbEntity
  8
AM_0
 48
0.0788183806600721
100
AcDbLine
 10
-20.12649730810374
 20
63.16774057836311
 30
0.0
 11
-20.90000000000001
 21
63.375
 31
0.0
  0
LINE
  5
A4
330
83
100
AcDbEntity
  8
AM_0
 48
0.0788183806600721
100
AcDbLine
 10
-31.67350269189626
 20
60.58225942163691
 30
0.0
 11
-30.9
 21
60.37500000000001
 31
0.0
  0
LINE
  5
A5
330
83
100
AcDbEntity
  8
AM_0
 48
0.0788183806600721
100
AcDbLine
 10
-30.9
 20
63.375
 30
0.0
 11
-31.67350269189626
 21
63.16774057836311
 31
0.0
  0
LINE
  5
A6
330
83
100
AcDbEntity
  8
AM_0
 48
0.0788183806600721
100
AcDbLine
 10
-23.225
 20
65.9
 30
0.0
 11
-23.225
 21
66.60000000000001
 31
0.0
  0
LINE
  5
A7
330
83
100
AcDbEntity
  8
AM_0
 48
0.0788183806600721
100
AcDbLine
 10
-28.575
 20
66.60000000000001
 30
0.0
 11
-28.575
 21
65.9
 31
0.0
  0
LINE
  5
A8
330
83
100
AcDbEntity
  8
AM_0
 48
0.0788183806600721
100
AcDbLine
 10
-28.575
 20
65.9
 30
0.0
 11
-23.225
 21
65.9
 31
0.0
  0
LINE
  5
A9
330
83
100
AcDbEntity
  8
AM_0
 48
0.0788183806600721
100
AcDbLine
 10
-28.575
 20
65.9
 30
0.0
 11
-28.88299498256251
 21
65.08381329620936
 31
0.0
  0
LINE
  5
AA
330
83
100
AcDbEntity
  8
AM_0
 48
0.0788183806600721
100
AcDbLine
 10
-22.91700501743749
 20
65.08381329620936
 30
0.0
 11
-23.225
 21
65.9
 31
0.0
  0
LINE
  5
AB
330
83
100
AcDbEntity
  8
AM_0
 48
0.0788183806600721
100
AcDbLine
 10
-28.575
 20
66.60000000000001
 30
0.0
 11
-23.225
 21
66.60000000000001
 31
0.0
  0
LINE
  5
AC
330
83
100
AcDbEntity
  8
AM_0
 48
0.0788183806600721
100
AcDbLine
 10
-23.225
 20
66.60000000000001
 30
0.0
 11
-22.725
 21
67.9
 31
0.0
  0
LINE
  5
AD
330
83
100
AcDbEntity
  8
AM_0
 48
0.0788183806600721
100
AcDbLine
 10
-29.075
 20
67.9
 30
0.0
 11
-28.575
 21
66.60000000000001
 31
0.0
  0
LINE
  5
AE
330
83
100
AcDbEntity
  8
AM_0
 48
0.0788183806600721
100
AcDbLine
 10
-28.26694754832969
 20
69.9
 30
0.0
 11
-23.53305245167032
 21
69.9
 31
0.0
  0
LINE
  5
AF
330
83
100
AcDbEntity
  8
AM_0
 48
0.0788183806600721
100
AcDbLine
 10
-29.075
 20
67.9
 30
0.0
 11
-22.725
 21
67.9
 31
0.0
  0
LINE
  5
B0
330
83
100
AcDbEntity
  8
AM_0
 48
0.0788183806600721
100
AcDbLine
 10
-28.26694754832969
 20
69.9
 30
0.0
 11
-29.075
 21
67.9
 31
0.0
  0
LINE
  5
B1
330
83
100
AcDbEntity
  8
AM_0
 48
0.0788183806600721
100
AcDbLine
 10
-22.725
 20
67.9
 30
0.0
 11
-23.53305245167032
 21
69.9
 31
0.0
  0
LINE
  5
B2
330
83
100
AcDbEntity
  8
AM_0
 48
0.0788183806600721
100
AcDbLine
 10
-28.88299498256251
 20
65.08381329620936
 30
0.0
 11
-22.91700501743749
 21
65.08381329620936
 31
0.0
  0
LINE
  5
B3
330
83
100
AcDbEntity
  8
AM_0
 48
0.0788183806600721
100
AcDbLine
 10
-28.88299498256251
 20
65.08381329620936
 30
0.0
 11
-29.50758389460112
 21
64.24541227078011
 31
0.0
  0
LINE
  5
B4
330
83
100
AcDbEntity
  8
AM_0
 48
0.0788183806600721
100
AcDbLine
 10
-22.29241610539889
 20
64.24541227078011
 30
0.0
 11
-22.91700501743749
 21
65.08381329620936
 31
0.0
  0
LINE
  5
B5
330
83
100
AcDbEntity
  8
AM_0
 48
0.0788183806600721
100
AcDbLine
 10
-29.50758389460112
 20
64.24541227078011
 30
0.0
 11
-22.29241610539889
 21
64.24541227078011
 31
0.0
  0
LINE
  5
B6
330
83
100
AcDbEntity
  8
AM_0
 48
0.0788183806600721
100
AcDbLine
 10
-29.50758389460112
 20
64.24541227078011
 30
0.0
 11
-30.65
 21
63.375
 31
0.0
  0
LINE
  5
B7
330
83
100
AcDbEntity
  8
AM_0
 48
0.0788183806600721
100
AcDbLine
 10
-21.15
 20
63.375
 30
0.0
 11
-22.29241610539889
 21
64.24541227078011
 31
0.0
  0
LWPOLYLINE
  5
B8
330
83
100
AcDbEntity
  8
AM_0
 48
0.0788183806600721
100
AcDbPolyline
 90
        3
 70
     0
 43
0.0
 10
-31.67350269189626
 20
63.16774057836311
 10
-30.9550597582529
 20
63.3198108582944
 10
-30.2301270189222
 20
63.375
  0
LINE
  5
B9
330
83
100
AcDbEntity
  8
AM_0
 48
0.0788183806600721
100
AcDbLine
 10
-31.67350269189626
 20
63.16774057836311
 30
0.0
 11
-31.67350269189626
 21
60.58225942163691
 31
0.0
  0
LWPOLYLINE
  5
BA
330
83
100
AcDbEntity
  8
AM_0
 48
0.0788183806600721
100
AcDbPolyline
 90
        3
 70
     0
 43
0.0
 10
-30.2301270189222
 20
60.37500000000001
 10
-30.95181485540923
 20
60.42970584651508
 10
-31.67350269189626
 20
60.58225942163691
  0
LWPOLYLINE
  5
BB
330
83
100
AcDbEntity
  8
AM_0
 48
0.0788183806600721
100
AcDbPolyline
 90
        3
 70
     0
 43
0.0
 10
-28.78675134594813
 20
60.58225942163691
 10
-29.50519427959149
 20
60.4301891417056
 10
-30.2301270189222
 20
60.37500000000001
  0
LINE
  5
BC
330
83
100
AcDbEntity
  8
AM_0
 48
0.0788183806600721
100
AcDbLine
 10
-20.12649730810374
 20
63.16774057836311
 30
0.0
 11
-20.12649730810374
 21
60.58225942163691
 31
0.0
  0
LWPOLYLINE
  5
BD
330
83
100
AcDbEntity
  8
AM_0
 48
0.0788183806600721
100
AcDbPolyline
 90
        3
 70
     0
 43
0.0
 10
-21.56987298107781
 20
63.375
 10
-20.84818514459078
 20
63.32029415348493
 10
-20.12649730810374
 20
63.16774057836311
  0
LWPOLYLINE
  5
BE
330
83
100
AcDbEntity
  8
AM_0
 48
0.0788183806600721
100
AcDbPolyline
 90
        3
 70
     0
 43
0.0
 10
-20.12649730810374
 20
60.58225942163691
 10
-20.8449402417471
 20
60.4301891417056
 10
-21.56987298107781
 20
60.37500000000001
  0
LWPOLYLINE
  5
BF
330
83
100
AcDbEntity
  8
AM_0
 48
0.0788183806600721
100
AcDbPolyline
 90
        3
 70
     0
 43
0.0
 10
-21.56987298107781
 20
60.37500000000001
 10
-22.29156081756484
 20
60.42970584651508
 10
-23.01324865405187
 20
60.58225942163691
  0
LWPOLYLINE
  5
C0
330
83
100
AcDbEntity
  8
AM_0
 48
0.0788183806600721
100
AcDbPolyline
 90
        3
 70
     0
 43
0.0
 10
-23.01324865405187
 20
63.16774057836311
 10
-22.29480572040852
 20
63.3198108582944
 10
-21.56987298107781
 20
63.375
  0
LINE
  5
C1
330
83
100
AcDbEntity
  8
AM_0
 48
0.0788183806600721
100
AcDbLine
 10
-23.01324865405187
 20
63.16774057836311
 30
0.0
 11
-23.01324865405187
 21
60.58225942163691
 31
0.0
  0
LWPOLYLINE
  5
C2
330
83
100
AcDbEntity
  8
AM_0
 48
0.0788183806600721
100
AcDbPolyline
 90
        4
 70
     0
 43
0.0
 10
-25.9
 20
63.375
 10
-24.78432047760844
 20
63.34205240150252
 10
-23.66864095521688
 20
63.24764244961909
 10
-23.01324865405187
 20
63.16774057836311
  0
LINE
  5
C3
330
83
100
AcDbEntity
  8
AM_0
 48
0.0788183806600721
100
AcDbLine
 10
-28.78675134594813
 20
63.16774057836311
 30
0.0
 11
-28.78675134594813
 21
60.58225942163691
 31
0.0
  0
LWPOLYLINE
  5
C4
330
83
100
AcDbEntity
  8
AM_0
 48
0.0788183806600721
100
AcDbPolyline
 90
        3
 70
     0
 43
0.0
 10
-25.9
 20
60.37500000000001
 10
-27.34337567297407
 20
60.42970584651508
 10
-28.78675134594813
 20
60.58225942163691
  0
LWPOLYLINE
  5
C5
330
83
100
AcDbEntity
  8
AM_0
 48
0.0788183806600721
100
AcDbPolyline
 90
        4
 70
     0
 43
0.0
 10
-23.01324865405187
 20
60.58225942163691
 10
-23.66864095521688
 20
60.50235755038092
 10
-24.78098598098539
 20
60.40814245672374
 10
-25.9
 20
60.37500000000001
  0
LWPOLYLINE
  5
C6
330
83
100
AcDbEntity
  8
AM_0
 48
0.0788183806600721
100
AcDbPolyline
 90
        3
 70
     0
 43
0.0
 10
-30.2301270189222
 20
63.375
 10
-29.50843918243516
 20
63.32029415348493
 10
-28.78675134594813
 20
63.16774057836311
  0
LWPOLYLINE
  5
C7
330
83
100
AcDbEntity
  8
AM_0
 48
0.0788183806600721
100
AcDbPolyline
 90
        3
 70
     0
 43
0.0
 10
-28.78675134594813
 20
63.16774057836311
 10
-27.34986547866141
 20
63.3198108582944
 10
-25.9
 20
63.375
  0
ENDBLK
  5
86
330
83
100
AcDbEntity
  8
0
100
AcDbBlockEnd
  0
BLOCK
  5
CA
330
C8
100
AcDbEntity
  8
0
100
AcDbBlockBegin
  2
2_125650_0_in_125726_2
 70
     2
 10
0.0
 20
0.0
 30
0.0
  3
2_125650_0_in_125726_2
  1

  0
ATTDEF
  5
CC
330
C8
100
AcDbEntity
  8
AM_6
100
AcDbText
 10
-4.549999999999994
 20
42.4920831996253
 30
0.0
 40
0.5
  1
Eccentric Collar Intermediate Duty Insert Metric Bore
100
AcDbAttributeDefinition
  3

  2
NN
 70
     8
280
     0
  0
ATTDEF
  5
CD
330
C8
100
AcDbEntity
  8
AM_6
100
AcDbText
 10
-4.549999999999994
 20
41.9920831996253
 30
0.0
 40
0.5
  1
Eccentric Collar Bearing Inserts -(Intermediate Duty)
100
AcDbAttributeDefinition
  3

  2
NT
 70
     8
280
     0
  0
ATTDEF
  5
CE
330
C8
100
AcDbEntity
  8
AM_6
100
AcDbText
 10
-4.549999999999994
 20
41.4920831996253
 30
0.0
 40
0.5
  1
125650
100
AcDbAttributeDefinition
  3

  2
NB
 70
     8
280
     0
  0
ATTDEF
  5
CF
330
C8
100
AcDbEntity
  8
AM_6
100
AcDbText
 10
-4.549999999999994
 20
40.9920831996253
 30
0.0
 40
0.5
  1
$PN.
100
AcDbAttributeDefinition
  3

  2
NBSYN
 70
     8
280
     0
  0
ATTDEF
  5
D0
330
C8
100
AcDbEntity
  8
AM_6
100
AcDbText
 10
-4.549999999999994
 20
40.4920831996253
 30
0.0
 40
0.5
  1
125650
100
AcDbAttributeDefinition
  3

  2
LINA
 70
     8
280
     0
  0
ATTDEF
  5
D1
330
C8
100
AcDbEntity
  8
AM_6
100
AcDbText
 10
-4.549999999999994
 20
39.9920831996253
 30
0.0
 40
0.5
  1
209
100
AcDbAttributeDefinition
  3

  2
SERIES
 70
     8
280
     0
  0
ATTDEF
  5
D2
330
C8
100
AcDbEntity
  8
AM_6
100
AcDbText
 10
-4.549999999999994
 20
39.4920831996253
 30
0.0
 40
0.5
  1
45
100
AcDbAttributeDefinition
  3

  2
SS
 70
     8
280
     0
  0
ATTDEF
  5
D3
330
C8
100
AcDbEntity
  8
AM_6
100
AcDbText
 10
-4.549999999999994
 20
38.9920831996253
 30
0.0
 40
0.5
  1
125650
100
AcDbAttributeDefinition
  3

  2
PN
 70
     8
280
     0
  0
ATTDEF
  5
D4
330
C8
100
AcDbEntity
  8
AM_6
100
AcDbText
 10
-4.549999999999994
 20
38.4920831996253
 30
0.0
 40
0.5
  1
INS-SXV-45M
100
AcDbAttributeDefinition
  3

  2
DESCRIPTION
 70
     8
280
     0
  0
ATTDEF
  5
D5
330
C8
100
AcDbEntity
  8
AM_6
100
AcDbText
 10
-4.549999999999994
 20
37.9920831996253
 30
0.0
 40
0.5
  1
0.8
100
AcDbAttributeDefinition
  3

  2
WEIGHT
 70
     8
280
     0
  0
ATTDEF
  5
D6
330
C8
100
AcDbEntity
  8
AM_6
100
AcDbText
 10
-4.549999999999994
 20
37.4920831996253
 30
0.0
 40
0.5
  1
42.9
100
AcDbAttributeDefinition
  3

  2
A
 70
     8
280
     0
  0
ATTDEF
  5
D7
330
C8
100
AcDbEntity
  8
AM_6
100
AcDbText
 10
-4.549999999999994
 20
36.9920831996253
 30
0.0
 40
0.5
  1
22.1
100
AcDbAttributeDefinition
  3

  2
C
 70
     8
280
     0
  0
ATTDEF
  5
D8
330
C8
100
AcDbEntity
  8
AM_6
100
AcDbText
 10
-4.549999999999994
 20
36.4920831996253
 30
0.0
 40
0.5
  1
85.0
100
AcDbAttributeDefinition
  3

  2
D
 70
     8
280
     0
  0
ATTDEF
  5
D9
330
C8
100
AcDbEntity
  8
AM_6
100
AcDbText
 10
-4.549999999999994
 20
35.9920831996253
 30
0.0
 40
0.5
  1
6.4
100
AcDbAttributeDefinition
  3

  2
J
 70
     8
280
     0
  0
ATTDEF
  5
DA
330
C8
100
AcDbEntity
  8
AM_6
100
AcDbText
 10
-4.549999999999994
 20
35.4920831996253
 30
0.0
 40
0.5
  1
63.5
100
AcDbAttributeDefinition
  3

  2
L
 70
     8
280
     0
  0
ATTDEF
  5
DB
330
C8
100
AcDbEntity
  8
AM_6
100
AcDbText
 10
-4.549999999999994
 20
34.9920831996253
 30
0.0
 40
0.5
  1
M8 x 1.25
100
AcDbAttributeDefinition
  3

  2
N
 70
     8
280
     0
  0
ATTDEF
  5
DC
330
C8
100
AcDbEntity
  8
AM_6
100
AcDbText
 10
-4.549999999999994
 20
34.4920831996253
 30
0.0
 40
0.5
  1
10.9
100
AcDbAttributeDefinition
  3

  2
W
 70
     8
280
     0
  0
ATTDEF
  5
DD
330
C8
100
AcDbEntity
  8
AM_6
100
AcDbText
 10
-4.549999999999994
 20
33.9920831996253
 30
0.0
 40
0.5
  1
32.0
100
AcDbAttributeDefinition
  3

  2
Y
 70
     8
280
     0
  0
ATTDEF
  5
DE
330
C8
100
AcDbEntity
  8
AM_6
100
AcDbText
 10
-4.549999999999994
 20
33.4920831996253
 30
0.0
 40
0.5
  1
56.4
100
AcDbAttributeDefinition
  3

  2
Z
 70
     8
280
     0
  0
ATTDEF
  5
DF
330
C8
100
AcDbEntity
  8
AM_6
100
AcDbText
 10
-4.549999999999994
 20
32.9920831996253
 30
0.0
 40
0.5
  1
baldor
100
AcDbAttributeDefinition
  3

  2
COMPANY
 70
     8
280
     0
  0
LINE
  5
E0
330
C8
100
AcDbEntity
  8
AM_9
 48
0.916580886052232
100
AcDbLine
 10
-43.276499808
 20
22.49859941770901
 30
0.0
 11
-43.276499808
 21
31.49702366891198
 31
0.0
  0
LINE
  5
E1
330
C8
100
AcDbEntity
  8
AM_9
 48
0.916580886052232
100
AcDbLine
 10
-49.923499808
 20
31.49702366891198
 30
0.0
 11
-49.923499808
 21
22.5
 31
0.0
  0
LINE
  5
E2
330
C8
100
AcDbEntity
  8
AM_9
 48
0.916580886052232
100
AcDbLine
 10
-49.923499808
 20
31.49702366891198
 30
0.0
 11
-43.276499808
 21
31.49702366891198
 31
0.0
  0
LINE
  5
E3
330
C8
100
AcDbEntity
  8
AM_9
 48
0.916580886052232
100
AcDbLine
 10
-43.276499808
 20
31.49702366891198
 30
0.0
 11
-43.02352347691198
 21
31.75
 31
0.0
  0
LINE
  5
E4
330
C8
100
AcDbEntity
  8
AM_9
 48
0.916580886052232
100
AcDbLine
 10
-50.17647613908802
 20
31.75
 30
0.0
 11
-49.923499808
 21
31.49702366891198
 31
0.0
  0
LINE
  5
E5
330
C8
100
AcDbEntity
  8
AM_9
 48
0.916580886052232
100
AcDbLine
 10
-40.15000000000001
 20
-22.5
 30
0.0
 11
-9.700000000000001
 21
-22.5
 31
0.0
  0
LINE
  5
E6
330
C8
100
AcDbEntity
  8
AM_9
 48
0.916580886052232
100
AcDbLine
 10
-9.700000000000001
 20
22.5
 30
0.0
 11
-40.15000000000001
 21
22.5
 31
0.0
  0
LWPOLYLINE
  5
E7
330
C8
100
AcDbEntity
  8
AM_9
 48
0.916580886052232
100
AcDbPolyline
 90
       20
 70
     0
 43
0.0
 10
-49.923499808
 20
22.5
 10
-49.87823038701962
 20
22.49335776355365
 10
-49.73850680446782
 20
22.47341927515431
 10
-49.51630154603377
 20
22.44346594395034
 10
-49.20542494349921
 20
22.40519109239399
 10
-48.82891148098026
 20
22.36453431207427
 10
-48.37772052651523
 20
22.32408203494689
 10
-47.88688375826506
 20
22.29036603673098
 10
-47.34391297803275
 20
22.26561821631163
 10
-46.79903693222347
 20
22.25407745845284
 10
-46.23239366270863
 20
22.25622344487168
 10
-45.69640576558194
 20
22.27152509244693
 10
-45.17096095949557
 20
22.29902463742607
 10
-44.69779450335819
 20
22.33433976572864
 10
-44.2653140039339
 20
22.37532358545252
 10
-43.90584393141672
 20
22.4156825378423
 10
-43.61355748847705
 20
22.45268771167135
 10
-43.41302219827749
 20
22.48023963472971
 10
-43.29879598071433
 20
22.49671741519828
 10
-43.27649980800712
 20
22.49999999999894
  0
LINE
  5
E8
330
C8
100
AcDbEntity
  8
AM_9
 48
0.916580886052232
100
AcDbLine
 10
-51.96360389693211
 20
-22.5
 30
0.0
 11
-41.05
 21
-22.5
 31
0.0
  0
LINE
  5
E9
330
C8
100
AcDbEntity
  8
AM_9
 48
0.916580886052232
100
AcDbLine
 10
-41.05
 20
22.5
 30
0.0
 11
-43.28601554873674
 21
22.5
 31
0.0
  0
LINE
  5
EA
330
C8
100
AcDbEntity
  8
AM_9
 48
0.916580886052232
100
AcDbLine
 10
-49.923499808
 20
22.5
 30
0.0
 11
-51.96360389693211
 21
22.5
 31
0.0
  0
LINE
  5
EB
330
C8
100
AcDbEntity
  8
AM_9
 48
0.916580886052232
100
AcDbLine
 10
-41.05
 20
-22.5
 30
0.0
 11
-40.59999999999999
 21
-22.95000000000001
 31
0.0
  0
LINE
  5
EC
330
C8
100
AcDbEntity
  8
AM_9
 48
0.916580886052232
100
AcDbLine
 10
-40.59999999999999
 20
22.95000000000001
 30
0.0
 11
-41.05
 21
22.5
 31
0.0
  0
LINE
  5
ED
330
C8
100
AcDbEntity
  8
AM_9
 48
0.916580886052232
100
AcDbLine
 10
-41.05
 20
22.5
 30
0.0
 11
-41.05
 21
-22.5
 31
0.0
  0
LINE
  5
EE
330
C8
100
AcDbEntity
  8
AM_9
 48
0.916580886052232
100
AcDbLine
 10
-40.15000000000001
 20
22.5
 30
0.0
 11
-40.59999999999999
 21
22.95000000000001
 31
0.0
  0
LINE
  5
EF
330
C8
100
AcDbEntity
  8
AM_9
 48
0.916580886052232
100
AcDbLine
 10
-40.59999999999999
 20
-22.95000000000001
 30
0.0
 11
-40.15000000000001
 21
-22.5
 31
0.0
  0
LINE
  5
F0
330
C8
100
AcDbEntity
  8
AM_9
 48
0.916580886052232
100
AcDbLine
 10
-40.15000000000001
 20
22.5
 30
0.0
 11
-40.15000000000001
 21
-22.5
 31
0.0
  0
LINE
  5
F1
330
C8
100
AcDbEntity
  8
AM_9
 48
0.916580886052232
100
AcDbLine
 10
-51.96360389693211
 20
22.5
 30
0.0
 11
-52.6
 21
23.13639610306789
 31
0.0
  0
LINE
  5
F2
330
C8
100
AcDbEntity
  8
AM_9
 48
0.916580886052232
100
AcDbLine
 10
-52.6
 20
-23.13639610306789
 30
0.0
 11
-51.96360389693211
 21
-22.5
 31
0.0
  0
LINE
  5
F3
330
C8
100
AcDbEntity
  8
AM_9
 48
0.916580886052232
100
AcDbLine
 10
-51.96360389693211
 20
22.5
 30
0.0
 11
-51.96360389693211
 21
-22.5
 31
0.0
  0
LINE
  5
F4
330
C8
100
AcDbEntity
  8
AM_9
 48
0.916580886052232
100
AcDbLine
 10
-9.700000000000001
 20
-28.2
 30
0.0
 11
-9.549999999999999
 21
-28.2
 31
0.0
  0
LINE
  5
F5
330
C8
100
AcDbEntity
  8
AM_9
 48
0.916580886052232
100
AcDbLine
 10
-9.549999999999999
 20
28.2
 30
0.0
 11
-9.700000000000001
 21
28.2
 31
0.0
  0
LINE
  5
F6
330
C8
100
AcDbEntity
  8
AM_9
 48
0.916580886052232
100
AcDbLine
 10
-9.700000000000001
 20
28.2
 30
0.0
 11
-9.700000000000001
 21
-28.2
 31
0.0
  0
LINE
  5
F7
330
C8
100
AcDbEntity
  8
AM_9
 48
0.916580886052232
100
AcDbLine
 10
-35.8
 20
-28.2
 30
0.0
 11
-31.65
 21
-28.2
 31
0.0
  0
LINE
  5
F8
330
C8
100
AcDbEntity
  8
AM_9
 48
0.916580886052232
100
AcDbLine
 10
-31.65
 20
28.2
 30
0.0
 11
-35.8
 21
28.2
 31
0.0
  0
LINE
  5
F9
330
C8
100
AcDbEntity
  8
AM_9
 48
0.916580886052232
100
AcDbLine
 10
-27.8
 20
-40.47619047619048
 30
0.0
 11
-26.2
 21
-40.47619047619048
 31
0.0
  0
LINE
  5
FA
330
C8
100
AcDbEntity
  8
AM_9
 48
0.916580886052232
100
AcDbLine
 10
-26.2
 20
40.47619047619048
 30
0.0
 11
-27.8
 21
40.47619047619048
 31
0.0
  0
LINE
  5
FB
330
C8
100
AcDbEntity
  8
AM_9
 48
0.916580886052232
100
AcDbLine
 10
-31.65
 20
40.34275027808591
 30
0.0
 11
-31.65
 21
-40.34275027808591
 31
0.0
  0
ARC
  5
FC
330
C8
100
AcDbEntity
  8
AM_9
 48
0.916580886052232
100
AcDbCircle
 10
-30.75000000000006
 20
-40.34275027808595
 30
0.0
 40
0.8999999999999417
100
AcDbArc
 50
179.9999999999973
 51
255.8778235431167
  0
ARC
  5
FD
330
C8
100
AcDbEntity
  8
AM_9
 48
0.916580886052232
100
AcDbCircle
 10
-30.75000000000006
 20
40.34275027808595
 30
0.0
 40
0.8999999999999462
100
AcDbArc
 50
104.1221764568833
 51
180.0000000000027
  0
LINE
  5
FE
330
C8
100
AcDbEntity
  8
AM_9
 48
0.916580886052232
100
AcDbLine
 10
-9.549999999999999
 20
40.34275027808591
 30
0.0
 11
-9.549999999999999
 21
-40.34275027808591
 31
0.0
  0
ARC
  5
FF
330
C8
100
AcDbEntity
  8
AM_9
 48
0.916580886052232
100
AcDbCircle
 10
-10.45000000000002
 20
-40.34275027808589
 30
0.0
 40
0.9000000000000212
100
AcDbArc
 50
284.12217317071
 51
359.9999999999986
  0
ARC
  5
100
330
C8
100
AcDbEntity
  8
AM_9
 48
0.916580886052232
100
AcDbCircle
 10
-10.45000000000002
 20
40.34275027808589
 30
0.0
 40
0.9000000000000163
100
AcDbArc
 50
0.000000000001357
 51
75.87782682929
  0
ARC
  5
101
330
C8
100
AcDbEntity
  8
AM_9
 48
0.916580886052232
100
AcDbCircle
 10
-20.60000000000431
 20
0.0000000000200515
 30
0.0
 40
42.49999999997951
100
AcDbArc
 50
99.75361958475848
 51
104.1221764568866
  0
ARC
  5
102
330
C8
100
AcDbEntity
  8
AM_9
 48
0.916580886052232
100
AcDbCircle
 10
-20.59999999935321
 20
0.00000000306229
 30
0.0
 40
42.50000000312531
100
AcDbArc
 50
255.8778235432753
 51
260.2463804150799
  0
LINE
  5
103
330
C8
100
AcDbEntity
  8
AM_9
 48
0.916580886052232
100
AcDbLine
 10
-30.96959134615386
 20
41.21555016390987
 30
0.0
 11
-30.96959134615386
 21
-41.21555016390756
 31
0.0
  0
LINE
  5
104
330
C8
100
AcDbEntity
  8
AM_9
 48
0.916580886052232
100
AcDbLine
 10
-27.8
 20
41.88567774311405
 30
0.0
 11
-27.8
 21
-41.88567774311173
 31
0.0
  0
ARC
  5
105
330
C8
100
AcDbEntity
  8
AM_9
 48
0.916580886052232
100
AcDbCircle
 10
-20.60000000000013
 20
-0.000000000002089
 30
0.0
 40
42.50000000000206
100
AcDbArc
 50
75.87782361270453
 51
97.5715798357459
  0
ARC
  5
106
330
C8
100
AcDbEntity
  8
AM_9
 48
0.916580886052232
100
AcDbCircle
 10
-20.5999999999983
 20
-0.0000000000308162
 30
0.0
 40
42.49999999997022
100
AcDbArc
 50
262.4284201642459
 51
284.1221763873037
  0
LINE
  5
107
330
C8
100
AcDbEntity
  8
AM_9
 48
0.916580886052232
100
AcDbLine
 10
-26.2
 20
42.12944338583173
 30
0.0
 11
-26.2
 21
-42.12944338583227
 31
0.0
  0
LINE
  5
108
330
C8
100
AcDbEntity
  8
AM_9
 48
0.916580886052232
100
AcDbLine
 10
-10.23040870390524
 20
41.21555017650445
 30
0.0
 11
-10.23040870390524
 21
-41.21555017650498
 31
0.0
  0
LINE
  5
109
330
C8
100
AcDbEntity
  8
AM_5
 48
0.916580886052232
100
AcDbLine
 10
-42.599999808
 20
22.5
 30
0.0
 11
-42.599999808
 21
31.75
 31
0.0
  0
LINE
  5
10A
330
C8
100
AcDbEntity
  8
AM_5
 48
0.916580886052232
100
AcDbLine
 10
-50.59999980799999
 20
22.5
 30
0.0
 11
-50.59999980799999
 21
31.75
 31
0.0
  0
CIRCLE
  5
10B
330
C8
100
AcDbEntity
  8
AM_9
 48
0.916580886052232
100
AcDbCircle
 10
-14.20000000000001
 20
0.0000000000000003
 30
0.0
 40
1.999999999999989
  0
LINE
  5
10C
330
C8
100
AcDbEntity
  8
AM_7
 48
0.916580886052232
100
AcDbLine
 10
-46.599999808
 20
32.70894536108337
 30
0.0
 11
-46.599999808
 21
20.92966813331317
 31
0.0
  0
LINE
  5
10D
330
C8
100
AcDbEntity
  8
AM_7
 48
0.916580886052232
100
AcDbLine
 10
-14.2
 20
-2.100000000000001
 30
0.0
 11
-14.2
 21
2.100000000000006
 31
0.0
  0
LINE
  5
10E
330
C8
100
AcDbEntity
  8
AM_0
 48
0.916580886052232
100
AcDbLine
 10
-40.59999999999999
 20
-26.85714285714285
 30
0.0
 11
-39.8
 21
-26.85714285714285
 31
0.0
  0
LINE
  5
10F
330
C8
100
AcDbEntity
  8
AM_0
 48
0.916580886052232
100
AcDbLine
 10
-39.8
 20
26.85714285714285
 30
0.0
 11
-40.59999999999999
 21
26.85714285714285
 31
0.0
  0
LINE
  5
110
330
C8
100
AcDbEntity
  8
AM_0
 48
0.916580886052232
100
AcDbLine
 10
-39.8
 20
-28.2
 30
0.0
 11
-35.8
 21
-28.2
 31
0.0
  0
LINE
  5
111
330
C8
100
AcDbEntity
  8
AM_0
 48
0.916580886052232
100
AcDbLine
 10
-35.8
 20
28.2
 30
0.0
 11
-39.8
 21
28.2
 31
0.0
  0
LINE
  5
112
330
C8
100
AcDbEntity
  8
AM_0
 48
0.916580886052232
100
AcDbLine
 10
-39.8
 20
28.2
 30
0.0
 11
-39.8
 21
-28.2
 31
0.0
  0
LINE
  5
113
330
C8
100
AcDbEntity
  8
AM_0
 48
0.916580886052232
100
AcDbLine
 10
-50.8
 20
-31.75
 30
0.0
 11
-42.4
 21
-31.75
 31
0.0
  0
LINE
  5
114
330
C8
100
AcDbEntity
  8
AM_0
 48
0.916580886052232
100
AcDbLine
 10
-42.4
 20
31.75
 30
0.0
 11
-43.02352347691198
 21
31.75
 31
0.0
  0
LINE
  5
115
330
C8
100
AcDbEntity
  8
AM_0
 48
0.916580886052232
100
AcDbLine
 10
-50.16474852282384
 20
31.75
 30
0.0
 11
-50.8
 21
31.75
 31
0.0
  0
LWPOLYLINE
  5
116
330
C8
100
AcDbEntity
  8
AM_0
 48
0.916580886052232
100
AcDbPolyline
 90
       21
 70
     0
 43
0.0
 10
-43.02352347691198
 20
31.75
 10
-43.02352355020639
 20
31.74999999257962
 10
-43.07243168396806
 20
31.74508167112667
 10
-43.2074125042679
 20
31.73185223734246
 10
-43.43098858619787
 20
31.71105492896812
 10
-43.73025082348684
 20
31.68540157269631
 10
-44.10773530497999
 20
31.65662473078563
 10
-44.55487130850992
 20
31.62773291102491
 10
-45.06553968298875
 20
31.60166049122643
 10
-45.62728325079454
 20
31.58154619350555
 10
-46.23035645576719
 20
31.56997404283576
 10
-46.84570884911288
 20
31.56888348732629
 10
-47.47152751101952
 20
31.578879238815
 10
-48.06003153552416
 20
31.59847897875691
 10
-48.62296660920586
 20
31.62644793081201
 10
-49.10237039693447
 20
31.65734293758107
 10
-49.52129833885658
 20
31.68964181395102
 10
-49.82748003223533
 20
31.71635925805671
 10
-50.04781866113565
 20
31.73720427767347
 10
-50.15624328979413
 20
31.74795728862091
 10
-50.17647613908677
 20
31.74999999999988
  0
LINE
  5
117
330
C8
100
AcDbEntity
  8
AM_0
 48
0.916580886052232
100
AcDbLine
 10
-40.59999999999999
 20
29.95
 30
0.0
 11
-40.59999999999999
 21
-29.95
 31
0.0
  0
ARC
  5
118
330
C8
100
AcDbEntity
  8
AM_0
 48
0.916580886052232
100
AcDbCircle
 10
-42.39999999999998
 20
-29.95000000000001
 30
0.0
 40
1.799999999999986
100
AcDbArc
 50
269.9999999999993
 51
0.0000000000004523
  0
ARC
  5
119
330
C8
100
AcDbEntity
  8
AM_0
 48
0.916580886052232
100
AcDbCircle
 10
-42.39999999999999
 20
29.95000000000001
 30
0.0
 40
1.799999999999997
100
AcDbArc
 50
359.9999999999998
 51
90.00000000000024
  0
LINE
  5
11B
330
C8
100
AcDbEntity
  8
AM_4
 48
0.916580886052232
100
AcDbLine
 10
-42.4
 20
31.75
 30
0.0
 11
-42.4
 21
-31.75
 31
0.0
  0
LINE
  5
11C
330
C8
100
AcDbEntity
  8
AM_0
 48
0.916580886052232
100
AcDbLine
 10
-52.6
 20
29.95
 30
0.0
 11
-52.6
 21
-29.95
 31
0.0
  0
ARC
  5
11D
330
C8
100
AcDbEntity
  8
AM_0
 48
0.916580886052232
100
AcDbCircle
 10
-50.80000000000002
 20
-29.95000000000001
 30
0.0
 40
1.79999999999999
100
AcDbArc
 50
179.9999999999997
 51
270.0000000000007
  0
ARC
  5
11E
330
C8
100
AcDbEntity
  8
AM_0
 48
0.916580886052232
100
AcDbCircle
 10
-50.80000000000001
 20
29.95
 30
0.0
 40
1.800000000000004
100
AcDbArc
 50
89.99999999999955
 51
179.9999999999999
  0
LINE
  5
11F
330
C8
100
AcDbEntity
  8
AM_4
 48
0.916580886052232
100
AcDbLine
 10
-50.8
 20
31.75
 30
0.0
 11
-50.8
 21
-31.75
 31
0.0
  0
ENDBLK
  5
CB
330
C8
100
AcDbEntity
  8
0
100
AcDbBlockEnd
  0
BLOCK
  5
122
330
120
100
AcDbEntity
  8
0
100
AcDbBlockBegin
  2
3_125726H_0_in_125726_2
 70
     2
 10
0.0
 20
0.0
 30
0.0
  3
3_125726H_0_in_125726_2
  1

  0
ATTDEF
  5
124
330
120
100
AcDbEntity
  8
AM_6
100
AcDbText
 10
6.79
 20
68.35
 30
0.0
 40
0.5
  1
F4B-SXV -M-Housing
100
AcDbAttributeDefinition
  3

  2
NN
 70
     8
280
     0
  0
ATTDEF
  5
125
330
120
100
AcDbEntity
  8
AM_6
100
AcDbText
 10
6.79
 20
67.85
 30
0.0
 40
0.5
  1
Eccentric Collar 4-Bolt Flange Bearings -(Intermediate Duty)
100
AcDbAttributeDefinition
  3

  2
NT
 70
     8
280
     0
  0
ATTDEF
  5
126
330
120
100
AcDbEntity
  8
AM_6
100
AcDbText
 10
6.79
 20
67.35
 30
0.0
 40
0.5
  1
125726H
100
AcDbAttributeDefinition
  3

  2
NB
 70
     8
280
     0
  0
ATTDEF
  5
127
330
120
100
AcDbEntity
  8
AM_6
100
AcDbText
 10
6.79
 20
66.85
 30
0.0
 40
0.5
  1
$PN.H
100
AcDbAttributeDefinition
  3

  2
NBSYN
 70
     8
280
     0
  0
ATTDEF
  5
128
330
120
100
AcDbEntity
  8
AM_6
100
AcDbText
 10
6.79
 20
66.35
 30
0.0
 40
0.5
  1
125726
100
AcDbAttributeDefinition
  3

  2
LINA
 70
     8
280
     0
  0
ATTDEF
  5
129
330
120
100
AcDbEntity
  8
AM_6
100
AcDbText
 10
6.79
 20
65.85
 30
0.0
 40
0.5
  1
209
100
AcDbAttributeDefinition
  3

  2
SERIES
 70
     8
280
     0
  0
ATTDEF
  5
12A
330
120
100
AcDbEntity
  8
AM_6
100
AcDbText
 10
6.79
 20
65.35
 30
0.0
 40
0.5
  1
45
100
AcDbAttributeDefinition
  3

  2
SS
 70
     8
280
     0
  0
ATTDEF
  5
12B
330
120
100
AcDbEntity
  8
AM_6
100
AcDbText
 10
6.79
 20
64.85
 30
0.0
 40
0.5
  1
125726
100
AcDbAttributeDefinition
  3

  2
PN
 70
     8
280
     0
  0
ATTDEF
  5
12C
330
120
100
AcDbEntity
  8
AM_6
100
AcDbText
 10
6.79
 20
64.35
 30
0.0
 40
0.5
  1
F4B-SXV-45M
100
AcDbAttributeDefinition
  3

  2
DESCRIPTION
 70
     8
280
     0
  0
ATTDEF
  5
12D
330
120
100
AcDbEntity
  8
AM_6
100
AcDbText
 10
6.79
 20
63.84999999999999
 30
0.0
 40
0.5
  1
2.7
100
AcDbAttributeDefinition
  3

  2
W
 70
     8
280
     0
  0
ATTDEF
  5
12E
330
120
100
AcDbEntity
  8
AM_6
100
AcDbText
 10
6.79
 20
63.34999999999999
 30
0.0
 40
0.5
  1
42.9
100
AcDbAttributeDefinition
  3

  2
A
 70
     8
280
     0
  0
ATTDEF
  5
12F
330
120
100
AcDbEntity
  8
AM_6
100
AcDbText
 10
6.79
 20
62.84999999999999
 30
0.0
 40
0.5
  1
136.7
100
AcDbAttributeDefinition
  3

  2
B
 70
     8
280
     0
  0
ATTDEF
  5
130
330
120
100
AcDbEntity
  8
AM_6
100
AcDbText
 10
6.79
 20
62.34999999999999
 30
0.0
 40
0.5
  1
52.6
100
AcDbAttributeDefinition
  3

  2
C
 70
     8
280
     0
  0
ATTDEF
  5
131
330
120
100
AcDbEntity
  8
AM_6
100
AcDbText
 10
6.79
 20
61.84999999999999
 30
0.0
 40
0.5
  1
104.9
100
AcDbAttributeDefinition
  3

  2
D
 70
     8
280
     0
  0
ATTDEF
  5
132
330
120
100
AcDbEntity
  8
AM_6
100
AcDbText
 10
6.79
 20
61.34999999999999
 30
0.0
 40
0.5
  1
M14
100
AcDbAttributeDefinition
  3

  2
F
 70
     8
280
     0
  0
ATTDEF
  5
133
330
120
100
AcDbEntity
  8
AM_6
100
AcDbText
 10
6.79
 20
60.84999999999999
 30
0.0
 40
0.5
  1
16.0
100
AcDbAttributeDefinition
  3

  2
H
 70
     8
280
     0
  0
ATTDEF
  5
134
330
120
100
AcDbEntity
  8
AM_6
100
AcDbText
 10
6.79
 20
60.34999999999999
 30
0.0
 40
0.5
  1
16.8
100
AcDbAttributeDefinition
  3

  2
J
 70
     8
280
     0
  0
ATTDEF
  5
135
330
120
100
AcDbEntity
  8
AM_6
100
AcDbText
 10
6.79
 20
59.84999999999999
 30
0.0
 40
0.5
  1
63.5
100
AcDbAttributeDefinition
  3

  2
L
 70
     8
280
     0
  0
ATTDEF
  5
136
330
120
100
AcDbEntity
  8
AM_6
100
AcDbText
 10
6.79
 20
59.34999999999999
 30
0.0
 40
0.5
  1
69.9
100
AcDbAttributeDefinition
  3

  2
N
 70
     8
280
     0
  0
ATTDEF
  5
137
330
120
100
AcDbEntity
  8
AM_6
100
AcDbText
 10
6.79
 20
58.84999999999999
 30
0.0
 40
0.5
  1
4450
100
AcDbAttributeDefinition
  3

  2
CAPS
 70
     8
280
     0
  0
ATTDEF
  5
138
330
120
100
AcDbEntity
  8
AM_6
100
AcDbText
 10
6.79
 20
58.34999999999999
 30
0.0
 40
0.5
  1
7891
100
AcDbAttributeDefinition
  3

  2
CAPD
 70
     8
280
     0
  0
ATTDEF
  5
139
330
120
100
AcDbEntity
  8
AM_6
100
AcDbText
 10
6.79
 20
57.84999999999999
 30
0.0
 40
0.5
  1
baldor
100
AcDbAttributeDefinition
  3

  2
COMPANY
 70
     8
280
     0
  0
LINE
  5
13A
330
120
100
AcDbEntity
  8
AM_9
100
AcDbLine
 10
-10.66666672
 20
62.12500000000001
 30
0.0
 11
-14.4
 21
62.12500000000001
 31
0.0
  0
LINE
  5
13B
330
120
100
AcDbEntity
  8
AM_9
100
AcDbLine
 10
-10.66666672
 20
60.37500000000001
 30
0.0
 11
-10.66666672
 21
68.35
 31
0.0
  0
LINE
  5
13C
330
120
100
AcDbEntity
  8
AM_9
100
AcDbLine
 10
-10.66666672
 20
60.37500000000001
 30
0.0
 11
-16.0
 21
60.37500000000001
 31
0.0
  0
LINE
  5
13D
330
120
100
AcDbEntity
  8
AM_9
100
AcDbLine
 10
-16.0
 20
58.62500000000001
 30
0.0
 11
-14.4
 21
58.62500000000001
 31
0.0
  0
LINE
  5
13E
330
120
100
AcDbEntity
  8
AM_9
100
AcDbLine
 10
-14.4
 20
56.87714288460744
 30
0.0
 11
-16.0
 21
56.87714288460744
 31
0.0
  0
LINE
  5
13F
330
120
100
AcDbEntity
  8
AM_9
100
AcDbLine
 10
-16.0
 20
-58.27777777777779
 30
0.0
 11
-14.4
 21
-58.27777777777779
 31
0.0
  0
LINE
  5
140
330
120
100
AcDbEntity
  8
AM_9
100
AcDbLine
 10
-14.4
 20
-53.47608414245659
 30
0.0
 11
-16.0
 21
-53.47608414245659
 31
0.0
  0
LINE
  5
141
330
120
100
AcDbEntity
  8
AM_9
100
AcDbLine
 10
-14.4
 20
-52.50674919469745
 30
0.0
 11
-16.0
 21
-52.50674919469745
 31
0.0
  0
LINE
  5
142
330
120
100
AcDbEntity
  8
AM_9
100
AcDbLine
 10
-14.4
 20
-52.01161804838933
 30
0.0
 11
-16.0
 21
-52.01161804838933
 31
0.0
  0
LINE
  5
143
330
120
100
AcDbEntity
  8
AM_9
100
AcDbLine
 10
-14.4
 20
53.47608414245659
 30
0.0
 11
-16.0
 21
53.47608414245659
 31
0.0
  0
LINE
  5
144
330
120
100
AcDbEntity
  8
AM_9
100
AcDbLine
 10
-14.4
 20
52.50674919469746
 30
0.0
 11
-16.0
 21
52.50674919469746
 31
0.0
  0
LINE
  5
145
330
120
100
AcDbEntity
  8
AM_9
100
AcDbLine
 10
-16.0
 20
52.01161804838933
 30
0.0
 11
-14.4
 21
52.01161804838933
 31
0.0
  0
LINE
  5
146
330
120
100
AcDbEntity
  8
AM_9
100
AcDbLine
 10
-25.06
 20
-18.0
 30
0.0
 11
0.0000000000000025
 21
-18.0
 31
0.0
  0
LINE
  5
147
330
120
100
AcDbEntity
  8
AM_9
100
AcDbLine
 10
-25.06
 20
17.99999999999999
 30
0.0
 11
0.0000000000000025
 21
17.99999999999999
 31
0.0
  0
LINE
  5
148
330
120
100
AcDbEntity
  8
AM_9
100
AcDbLine
 10
-35.8
 20
-42.5
 30
0.0
 11
0.0
 21
-42.5
 31
0.0
  0
LINE
  5
149
330
120
100
AcDbEntity
  8
AM_9
100
AcDbLine
 10
0.0
 20
42.5
 30
0.0
 11
-35.8
 21
42.5
 31
0.0
  0
LINE
  5
14A
330
120
100
AcDbEntity
  8
AM_9
100
AcDbLine
 10
-25.06
 20
-18.0
 30
0.0
 11
-25.06
 21
17.99999999999999
 31
0.0
  0
LINE
  5
14B
330
120
100
AcDbEntity
  8
AM_9
100
AcDbLine
 10
-16.0
 20
-59.45
 30
0.0
 11
0.0000000000000032
 21
-59.45
 31
0.0
  0
LINE
  5
14C
330
120
100
AcDbEntity
  8
AM_9
100
AcDbLine
 10
0.0000000000000032
 20
-45.45
 30
0.0
 11
-16.0
 21
-45.45
 31
0.0
  0
LINE
  5
14D
330
120
100
AcDbEntity
  8
AM_9
100
AcDbLine
 10
-16.0
 20
45.45
 30
0.0
 11
0.0000000000000032
 21
45.45
 31
0.0
  0
LINE
  5
14E
330
120
100
AcDbEntity
  8
AM_9
100
AcDbLine
 10
0.0000000000000032
 20
59.45
 30
0.0
 11
-16.0
 21
59.45
 31
0.0
  0
LINE
  5
14F
330
120
100
AcDbEntity
  8
AM_9
100
AcDbLine
 10
-14.4
 20
-63.6929978208661
 30
0.0
 11
-16.0
 21
-63.6929978208661
 31
0.0
  0
LINE
  5
150
330
120
100
AcDbEntity
  8
AM_9
100
AcDbLine
 10
-14.4
 20
-52.45
 30
0.0
 11
-14.4
 21
-68.35
 31
0.0
  0
LINE
  5
151
330
120
100
AcDbEntity
  8
AM_9
100
AcDbLine
 10
-14.4
 20
68.35
 30
0.0
 11
-14.4
 21
52.44999999999999
 31
0.0
  0
LINE
  5
152
330
120
100
AcDbEntity
  8
AM_9
100
AcDbLine
 10
-14.4
 20
63.69299782086611
 30
0.0
 11
-16.0
 21
63.69299782086611
 31
0.0
  0
LINE
  5
153
330
120
100
AcDbEntity
  8
AM_7
100
AcDbLine
 10
0.7999999999999968
 20
52.45
 30
0.0
 11
-16.8
 21
52.45
 31
0.0
  0
LINE
  5
154
330
120
100
AcDbEntity
  8
AM_7
100
AcDbLine
 10
0.7999999999999968
 20
-52.45
 30
0.0
 11
-16.8
 21
-52.45
 31
0.0
  0
LINE
  5
155
330
120
100
AcDbEntity
  8
AM_7
100
AcDbLine
 10
1.79
 20
0.0
 30
0.0
 11
-54.7525
 21
0.0
 31
0.0
  0
LINE
  5
156
330
120
100
AcDbEntity
  8
AM_0
100
AcDbLine
 10
-35.8
 20
-52.45
 30
0.0
 11
-35.8
 21
60.375
 31
0.0
  0
LINE
  5
157
330
120
100
AcDbEntity
  8
AM_0
100
AcDbLine
 10
-35.8
 20
60.375
 30
0.0
 11
-16.0
 21
60.37500000000001
 31
0.0
  0
LINE
  5
158
330
120
100
AcDbEntity
  8
AM_4
100
AcDbLine
 10
-35.8
 20
58.62500000000001
 30
0.0
 11
-16.0
 21
58.62500000000001
 31
0.0
  0
LINE
  5
159
330
120
100
AcDbEntity
  8
AM_0
100
AcDbLine
 10
-35.8
 20
50.88921791499649
 30
0.0
 11
-16.0
 21
50.88921791499649
 31
0.0
  0
LINE
  5
15A
330
120
100
AcDbEntity
  8
AM_0
100
AcDbLine
 10
-35.8
 20
-52.45
 30
0.0
 11
-16.0
 21
-52.45
 31
0.0
  0
LINE
  5
15B
330
120
100
AcDbEntity
  8
AM_4
100
AcDbLine
 10
-14.4
 20
-25.28518680415842
 30
0.0
 11
-16.0
 21
-25.28518680415842
 31
0.0
  0
LINE
  5
15C
330
120
100
AcDbEntity
  8
AM_4
100
AcDbLine
 10
-14.4
 20
25.28518680415845
 30
0.0
 11
-16.0
 21
25.28518680415845
 31
0.0
  0
LINE
  5
15D
330
120
100
AcDbEntity
  8
AM_4
100
AcDbLine
 10
-14.4
 20
-30.99008850072439
 30
0.0
 11
-16.0
 21
-30.99008850072439
 31
0.0
  0
LINE
  5
15E
330
120
100
AcDbEntity
  8
AM_4
100
AcDbLine
 10
-14.4
 20
30.99008850072439
 30
0.0
 11
-16.0
 21
30.99008850072439
 31
0.0
  0
LINE
  5
15F
330
120
100
AcDbEntity
  8
AM_0
100
AcDbLine
 10
-16.0
 20
-68.35
 30
0.0
 11
0.0000000000000032
 21
-68.35
 31
0.0
  0
LINE
  5
160
330
120
100
AcDbEntity
  8
AM_4
100
AcDbLine
 10
-14.4
 20
-41.20700217913389
 30
0.0
 11
-16.0
 21
-41.20700217913389
 31
0.0
  0
LINE
  5
161
330
120
100
AcDbEntity
  8
AM_0
100
AcDbLine
 10
-14.4
 20
-52.45
 30
0.0
 11
-14.4
 21
52.44999999999999
 31
0.0
  0
LINE
  5
162
330
120
100
AcDbEntity
  8
AM_4
100
AcDbLine
 10
-14.4
 20
-52.45
 30
0.0
 11
0.0000000000000042
 21
-52.45
 31
0.0
  0
LINE
  5
163
330
120
100
AcDbEntity
  8
AM_0
100
AcDbLine
 10
-16.0
 20
-68.35
 30
0.0
 11
-16.0
 21
68.35
 31
0.0
  0
LINE
  5
164
330
120
100
AcDbEntity
  8
AM_4
100
AcDbLine
 10
-14.4
 20
41.2070021791339
 30
0.0
 11
-16.0
 21
41.2070021791339
 31
0.0
  0
LINE
  5
165
330
120
100
AcDbEntity
  8
AM_4
100
AcDbLine
 10
-14.4
 20
52.44999999999999
 30
0.0
 11
0.0000000000000042
 21
52.44999999999997
 31
0.0
  0
LINE
  5
166
330
120
100
AcDbEntity
  8
AM_0
100
AcDbLine
 10
0.0000000000000032
 20
-68.35
 30
0.0
 11
0.0000000000000032
 21
68.35
 31
0.0
  0
LINE
  5
167
330
120
100
AcDbEntity
  8
AM_0
100
AcDbLine
 10
-16.0
 20
68.35
 30
0.0
 11
0.0000000000000032
 21
68.35
 31
0.0
  0
ENDBLK
  5
123
330
120
100
AcDbEntity
  8
0
100
AcDbBlockEnd
  0
ENDSEC
  0
SECTION
  2
ENTITIES
  0
ATTDEF
  5
6F
330
1F
100
AcDbEntity
  8
AM_6
100
AcDbText
 10
6.79
 20
70.7128
 30
0.0
 40
0.5
  1
Eccentric Collar Intermediate Duty Four-Bolt Flange Metric Bore
100
AcDbAttributeDefinition
  3

  2
NN
 70
     8
280
     0
  0
ATTDEF
  5
70
330
1F
100
AcDbEntity
  8
AM_6
100
AcDbText
 10
6.79
 20
70.2128
 30
0.0
 40
0.5
  1
Eccentric Collar 4-Bolt Flange Bearings -(Intermediate Duty)
100
AcDbAttributeDefinition
  3

  2
NT
 70
     8
280
     0
  0
ATTDEF
  5
71
330
1F
100
AcDbEntity
  8
AM_6
100
AcDbText
 10
6.79
 20
69.7128
 30
0.0
 40
0.5
  1
125726
100
AcDbAttributeDefinition
  3

  2
NB
 70
     8
280
     0
  0
ATTDEF
  5
72
330
1F
100
AcDbEntity
  8
AM_6
100
AcDbText
 10
6.79
 20
69.2128
 30
0.0
 40
0.5
  1
$PN.
100
AcDbAttributeDefinition
  3

  2
NBSYN
 70
     8
280
     0
  0
ATTDEF
  5
73
330
1F
100
AcDbEntity
  8
AM_6
100
AcDbText
 10
6.79
 20
68.7128
 30
0.0
 40
0.5
  1
125726
100
AcDbAttributeDefinition
  3

  2
LINA
 70
     8
280
     0
  0
ATTDEF
  5
74
330
1F
100
AcDbEntity
  8
AM_6
100
AcDbText
 10
6.79
 20
68.2128
 30
0.0
 40
0.5
  1
209
100
AcDbAttributeDefinition
  3

  2
SERIES
 70
     8
280
     0
  0
ATTDEF
  5
75
330
1F
100
AcDbEntity
  8
AM_6
100
AcDbText
 10
6.79
 20
67.7128
 30
0.0
 40
0.5
  1
45
100
AcDbAttributeDefinition
  3

  2
SS
 70
     8
280
     0
  0
ATTDEF
  5
76
330
1F
100
AcDbEntity
  8
AM_6
100
AcDbText
 10
6.79
 20
67.2128
 30
0.0
 40
0.5
  1
125726
100
AcDbAttributeDefinition
  3

  2
PN
 70
     8
280
     0
  0
ATTDEF
  5
77
330
1F
100
AcDbEntity
  8
AM_6
100
AcDbText
 10
6.79
 20
66.7128
 30
0.0
 40
0.5
  1
F4B-SXV-45M
100
AcDbAttributeDefinition
  3

  2
DESCRIPTION
 70
     8
280
     0
  0
ATTDEF
  5
78
330
1F
100
AcDbEntity
  8
AM_6
100
AcDbText
 10
6.79
 20
66.2128
 30
0.0
 40
0.5
  1
2.7
100
AcDbAttributeDefinition
  3

  2
W
 70
     8
280
     0
  0
ATTDEF
  5
79
330
1F
100
AcDbEntity
  8
AM_6
100
AcDbText
 10
6.79
 20
65.7128
 30
0.0
 40
0.5
  1
42.9
100
AcDbAttributeDefinition
  3

  2
A
 70
     8
280
     0
  0
ATTDEF
  5
7A
330
1F
100
AcDbEntity
  8
AM_6
100
AcDbText
 10
6.79
 20
65.2128
 30
0.0
 40
0.5
  1
136.7
100
AcDbAttributeDefinition
  3

  2
B
 70
     8
280
     0
  0
ATTDEF
  5
7B
330
1F
100
AcDbEntity
  8
AM_6
100
AcDbText
 10
6.79
 20
64.7128
 30
0.0
 40
0.5
  1
52.6
100
AcDbAttributeDefinition
  3

  2
C
 70
     8
280
     0
  0
ATTDEF
  5
7C
330
1F
100
AcDbEntity
  8
AM_6
100
AcDbText
 10
6.79
 20
64.2128
 30
0.0
 40
0.5
  1
104.9
100
AcDbAttributeDefinition
  3

  2
D
 70
     8
280
     0
  0
ATTDEF
  5
7D
330
1F
100
AcDbEntity
  8
AM_6
100
AcDbText
 10
6.79
 20
63.7128
 30
0.0
 40
0.5
  1
M14
100
AcDbAttributeDefinition
  3

  2
F
 70
     8
280
     0
  0
ATTDEF
  5
7E
330
1F
100
AcDbEntity
  8
AM_6
100
AcDbText
 10
6.79
 20
63.2128
 30
0.0
 40
0.5
  1
16.0
100
AcDbAttributeDefinition
  3

  2
H
 70
     8
280
     0
  0
ATTDEF
  5
7F
330
1F
100
AcDbEntity
  8
AM_6
100
AcDbText
 10
6.79
 20
62.7128
 30
0.0
 40
0.5
  1
16.8
100
AcDbAttributeDefinition
  3

  2
J
 70
     8
280
     0
  0
ATTDEF
  5
80
330
1F
100
AcDbEntity
  8
AM_6
100
AcDbText
 10
6.79
 20
62.2128
 30
0.0
 40
0.5
  1
63.5
100
AcDbAttributeDefinition
  3

  2
L
 70
     8
280
     0
  0
ATTDEF
  5
81
330
1F
100
AcDbEntity
  8
AM_6
100
AcDbText
 10
6.79
 20
61.7128
 30
0.0
 40
0.5
  1
69.9
100
AcDbAttributeDefinition
  3

  2
N
 70
     8
280
     0
  0
ATTDEF
  5
82
330
1F
100
AcDbEntity
  8
AM_6
100
AcDbText
 10
6.79
 20
61.2128
 30
0.0
 40
0.5
  1
baldor
100
AcDbAttributeDefinition
  3

  2
COMPANY
 70
     8
280
     0
  0
INSERT
  5
84
330
1F
100
AcDbEntity
  8
0
100
AcDbBlockReference
  2
1_405015E_Metric_0_in_125726_2
 10
0.0
 20
0.0
 30
0.0
  0
INSERT
  5
C9
330
1F
100
AcDbEntity
  8
0
100
AcDbBlockReference
  2
2_125650_0_in_125726_2
 10
0.0
 20
0.0
 30
0.0
  0
INSERT
  5
121
330
1F
100
AcDbEntity
  8
0
100
AcDbBlockReference
  2
3_125726H_0_in_125726_2
 10
0.0
 20
0.0
 30
0.0
  0
POINT
  5
169
330
1F
100
AcDbEntity
  8
ConnectionPoints
100
AcDbPoint
 10
-52.6
 20
0.0
 30
0.0000000000000032
  0
POINT
  5
16A
330
1F
100
AcDbEntity
  8
ConnectionPoints
100
AcDbPoint
 10
-25.9
 20
60.37500000000001
 30
0.0000000000000016
  0
POINT
  5
16B
330
1F
100
AcDbEntity
  8
ConnectionPoints
100
AcDbPoint
 10
-25.9
 20
60.37500000000001
 30
0.0000000000000016
  0
POINT
  5
16C
330
1F
100
AcDbEntity
  8
ConnectionPoints
100
AcDbPoint
 10
-52.6
 20
0.0
 30
0.0000000000000032
  0
ENDSEC
  0
SECTION
  2
OBJECTS
  0
DICTIONARY
  5
C
330
0
100
AcDbDictionary
281
     1
  3
ACAD_DETAILVIEWSTYLE
350
174
  3
ACAD_GROUP
350
D
  3
ACAD_LAYOUT
350
1A
  3
ACAD_MATERIAL
350
43
  3
ACAD_MLEADERSTYLE
350
6B
  3
ACAD_MLINESTYLE
350
17
  3
ACAD_PLOTSETTINGS
350
19
  3
ACAD_PLOTSTYLENAME
350
E
  3
ACAD_SCALELIST
350
47
  3
ACAD_SECTIONVIEWSTYLE
350
175
  3
ACAD_TABLESTYLE
350
69
  3
ACAD_VISUALSTYLE
350
2A
  3
ACDB_RECOMPOSE_DATA
350
171
  3
AcDbVariableDictionary
350
16D
  0
SUN
  5
6D
330
29
100
AcDbSun
 90
        1
290
     0
 63
     7
421
 16777215
 40
1.0
291
     1
 91
  2455826
 92
 54000000
292
     0
 70
     2
 71
   256
280
     1
  0
DICTIONARY
  5
174
102
{ACAD_REACTORS
330
C
102
}
330
C
100
AcDbDictionary
281
     1
  0
DICTIONARY
  5
D
102
{ACAD_REACTORS
330
C
102
}
330
C
100
AcDbDictionary
281
     1
  0
DICTIONARY
  5
1A
102
{ACAD_REACTORS
330
C
102
}
330
C
100
AcDbDictionary
281
     1
  3
Layout1
350
1E
  3
Layout2
350
26
  3
Model
350
22
  0
DICTIONARY
  5
43
102
{ACAD_REACTORS
330
C
102
}
330
C
100
AcDbDictionary
281
     1
  3
ByBlock
350
45
  3
ByLayer
350
44
  3
Global
350
46
  0
DICTIONARY
  5
6B
102
{ACAD_REACTORS
330
C
102
}
330
C
100
AcDbDictionary
281
     1
  3
Standard
350
6C
  0
DICTIONARY
  5
17
102
{ACAD_REACTORS
330
C
102
}
330
C
100
AcDbDictionary
281
     1
  3
Standard
350
18
  0
DICTIONARY
  5
19
102
{ACAD_REACTORS
330
C
102
}
330
C
100
AcDbDictionary
281
     1
  0
ACDBDICTIONARYWDFLT
  5
E
102
{ACAD_REACTORS
330
C
102
}
330
C
100
AcDbDictionary
281
     1
  3
Normal
350
F
100
AcDbDictionaryWithDefault
340
F
  0
DICTIONARY
  5
47
102
{ACAD_REACTORS
330
C
102
}
330
C
100
AcDbDictionary
281
     1
  3
A0
350
48
  3
A1
350
49
  3
A2
350
4A
  3
A3
350
4B
  3
A4
350
4C
  3
A5
350
4D
  3
A6
350
4E
  3
A7
350
4F
  3
A8
350
50
  3
A9
350
51
  3
B0
350
52
  3
B1
350
53
  3
B2
350
54
  3
B3
350
55
  3
B4
350
56
  3
B5
350
57
  3
B6
350
58
  3
B7
350
59
  3
B8
350
5A
  3
B9
350
5B
  3
C0
350
5C
  3
C1
350
5D
  3
C2
350
5E
  3
C3
350
5F
  3
C4
350
60
  3
C5
350
61
  3
C6
350
62
  3
C7
350
63
  3
C8
350
64
  3
C9
350
65
  3
D0
350
66
  3
D1
350
67
  3
D2
350
68
  0
DICTIONARY
  5
175
102
{ACAD_REACTORS
330
C
102
}
330
C
100
AcDbDictionary
281
     1
  0
DICTIONARY
  5
69
102
{ACAD_REACTORS
330
C
102
}
330
C
100
AcDbDictionary
281
     1
  3
Standard
350
6A
  0
DICTIONARY
  5
2A
102
{ACAD_REACTORS
330
C
102
}
330
C
100
AcDbDictionary
281
     1
  3
2dWireframe
350
2F
  3
Basic
350
32
  3
Brighten
350
36
  3
ColorChange
350
3A
  3
Conceptual
350
34
  3
Dim
350
35
  3
EdgeColorOff
350
3D
  3
Facepattern
350
39
  3
Flat
350
2B
  3
FlatWithEdges
350
2C
  3
Gouraud
350
2D
  3
GouraudWithEdges
350
2E
  3
Hidden
350
31
  3
JitterOff
350
3B
  3
Linepattern
350
38
  3
OverhangOff
350
3C
  3
Realistic
350
33
  3
Shaded
350
42
  3
Shaded with edges
350
41
  3
Shades of Gray
350
3E
  3
Sketchy
350
3F
  3
Thicken
350
37
  3
Wireframe
350
30
  3
X-Ray
350
40
  0
XRECORD
  5
171
102
{ACAD_REACTORS
330
C
102
}
330
C
100
AcDbXrecord
280
     1
 90
        1
330
6A
  0
DICTIONARY
  5
16D
102
{ACAD_REACTORS
330
C
102
}
330
C
100
AcDbDictionary
281
     1
  3
CANNOSCALE
350
16E
  3
CMLEADERSTYLE
350
173
  3
CTABLESTYLE
350
172
  3
SECTIONTHICKNESSINC
350
176
  0
LAYOUT
  5
1E
102
{ACAD_REACTORS
330
1A
102
}
330
1A
100
AcDbPlotSettings
  1

  2
none_device
  4

  6

 40
0.0
 41
0.0
 42
0.0
 43
0.0
 44
0.0
 45
0.0
 46
0.0
 47
0.0
 48
0.0
 49
0.0
140
0.0
141
0.0
142
1.0
143
1.0
 70
   688
 72
     1
 73
     0
 74
     5
  7

 75
    16
 76
     0
 77
     2
 78
   300
147
1.0
148
0.0
149
0.0
100
AcDbLayout
  1
Layout1
 70
     1
 71
     1
 10
0.0
 20
0.0
 11
420.0
 21
297.0
 12
0.0
 22
0.0
 32
0.0
 14
1.000000000000000E+20
 24
1.000000000000000E+20
 34
1.000000000000000E+20
 15
-1.000000000000000E+20
 25
-1.000000000000000E+20
 35
-1.000000000000000E+20
146
0.0
 13
0.0
 23
0.0
 33
0.0
 16
1.0
 26
0.0
 36
0.0
 17
0.0
 27
1.0
 37
0.0
 76
     0
330
1B
  0
LAYOUT
  5
26
102
{ACAD_REACTORS
330
1A
102
}
330
1A
100
AcDbPlotSettings
  1

  2
none_device
  4

  6

 40
0.0
 41
0.0
 42
0.0
 43
0.0
 44
0.0
 45
0.0
 46
0.0
 47
0.0
 48
0.0
 49
0.0
140
0.0
141
0.0
142
1.0
143
1.0
 70
   688
 72
     1
 73
     0
 74
     5
  7

 75
    16
 76
     0
 77
     2
 78
   300
147
1.0
148
0.0
149
0.0
100
AcDbLayout
  1
Layout2
 70
     1
 71
     2
 10
0.0
 20
0.0
 11
0.0
 21
0.0
 12
0.0
 22
0.0
 32
0.0
 14
0.0
 24
0.0
 34
0.0
 15
0.0
 25
0.0
 35
0.0
146
0.0
 13
0.0
 23
0.0
 33
0.0
 16
1.0
 26
0.0
 36
0.0
 17
0.0
 27
1.0
 37
0.0
 76
     0
330
23
  0
LAYOUT
  5
22
102
{ACAD_REACTORS
330
1A
102
}
330
1A
100
AcDbPlotSettings
  1

  2
none_device
  4
Letter_(8.50_x_11.00_Inches)
  6

 40
6.35
 41
6.35
 42
6.35000508
 43
6.35000508
 44
215.9
 45
279.4
 46
0.0
 47
0.0
 48
0.0
 49
0.0
140
0.0
141
0.0
142
1.0
143
1.0
 70
  1712
 72
     1
 73
     0
 74
     0
  7

 75
     0
 76
     0
 77
     2
 78
   300
147
1.0
148
0.0
149
0.0
100
AcDbLayout
  1
Model
 70
     1
 71
     0
 10
0.0
 20
0.0
 11
420.0
 21
297.0
 12
0.0
 22
0.0
 32
0.0
 14
1.000000000000000E+20
 24
1.000000000000000E+20
 34
1.000000000000000E+20
 15
-1.000000000000000E+20
 25
-1.000000000000000E+20
 35
-1.000000000000000E+20
146
0.0
 13
0.0
 23
0.0
 33
0.0
 16
1.0
 26
0.0
 36
0.0
 17
0.0
 27
1.0
 37
0.0
 76
     0
330
1F
331
29
  0
MATERIAL
  5
45
102
{ACAD_REACTORS
330
43
102
}
330
43
100
AcDbMaterial
  1
ByBlock
 72
     1
 94
      127
  0
MATERIAL
  5
44
102
{ACAD_REACTORS
330
43
102
}
330
43
100
AcDbMaterial
  1
ByLayer
 72
     1
 94
      127
  0
MATERIAL
  5
46
102
{ACAD_REACTORS
330
43
102
}
330
43
100
AcDbMaterial
  1
Global
 72
     1
 94
      127
  0
MLEADERSTYLE
  5
6C
102
{ACAD_REACTORS
330
6B
102
}
330
6B
100
AcDbMLeaderStyle
179
     2
170
     2
171
     1
172
     0
 90
        2
 40
0.0
 41
0.0
173
     1
 91
-1056964608
340
14
 92
       -2
290
     1
 42
2.0
291
     1
 43
8.0
  3
Standard
341
0
 44
4.0
300

342
11
174
     1
178
     6
175
     1
176
     0
 93
-1056964608
 45
4.0
292
     0
297
     0
 46
4.0
343
0
 94
-1056964608
 47
1.0
 49
1.0
140
1.0
293
     1
141
0.0
294
     1
177
     0
142
1.0
295
     0
296
     0
143
3.75
271
     0
272
     9
273
     9
298
     0
  0
MLINESTYLE
  5
18
102
{ACAD_REACTORS
330
17
102
}
330
17
100
AcDbMlineStyle
  2
Standard
 70
     0
  3

 62
   256
 51
90.0
 52
90.0
 71
     2
 49
0.5
 62
   256
  6
BYLAYER
 49
-0.5
 62
   256
  6
BYLAYER
  0
ACDBPLACEHOLDER
  5
F
102
{ACAD_REACTORS
330
E
102
}
330
E
  0
SCALE
  5
48
102
{ACAD_REACTORS
330
47
102
}
330
47
100
AcDbScale
 70
     0
300
1:1
140
1.0
141
1.0
290
     1
  0
SCALE
  5
49
102
{ACAD_REACTORS
330
47
102
}
330
47
100
AcDbScale
 70
     0
300
1:2
140
1.0
141
2.0
290
     0
  0
SCALE
  5
4A
102
{ACAD_REACTORS
330
47
102
}
330
47
100
AcDbScale
 70
     0
300
1:4
140
1.0
141
4.0
290
     0
  0
SCALE
  5
4B
102
{ACAD_REACTORS
330
47
102
}
330
47
100
AcDbScale
 70
     0
300
1:5
140
1.0
141
5.0
290
     0
  0
SCALE
  5
4C
102
{ACAD_REACTORS
330
47
102
}
330
47
100
AcDbScale
 70
     0
300
1:8
140
1.0
141
8.0
290
     0
  0
SCALE
  5
4D
102
{ACAD_REACTORS
330
47
102
}
330
47
100
AcDbScale
 70
     0
300
1:10
140
1.0
141
10.0
290
     0
  0
SCALE
  5
4E
102
{ACAD_REACTORS
330
47
102
}
330
47
100
AcDbScale
 70
     0
300
1:16
140
1.0
141
16.0
290
     0
  0
SCALE
  5
4F
102
{ACAD_REACTORS
330
47
102
}
330
47
100
AcDbScale
 70
     0
300
1:20
140
1.0
141
20.0
290
     0
  0
SCALE
  5
50
102
{ACAD_REACTORS
330
47
102
}
330
47
100
AcDbScale
 70
     0
300
1:30
140
1.0
141
30.0
290
     0
  0
SCALE
  5
51
102
{ACAD_REACTORS
330
47
102
}
330
47
100
AcDbScale
 70
     0
300
1:40
140
1.0
141
40.0
290
     0
  0
SCALE
  5
52
102
{ACAD_REACTORS
330
47
102
}
330
47
100
AcDbScale
 70
     0
300
1:50
140
1.0
141
50.0
290
     0
  0
SCALE
  5
53
102
{ACAD_REACTORS
330
47
102
}
330
47
100
AcDbScale
 70
     0
300
1:100
140
1.0
141
100.0
290
     0
  0
SCALE
  5
54
102
{ACAD_REACTORS
330
47
102
}
330
47
100
AcDbScale
 70
     0
300
2:1
140
2.0
141
1.0
290
     0
  0
SCALE
  5
55
102
{ACAD_REACTORS
330
47
102
}
330
47
100
AcDbScale
 70
     0
300
4:1
140
4.0
141
1.0
290
     0
  0
SCALE
  5
56
102
{ACAD_REACTORS
330
47
102
}
330
47
100
AcDbScale
 70
     0
300
8:1
140
8.0
141
1.0
290
     0
  0
SCALE
  5
57
102
{ACAD_REACTORS
330
47
102
}
330
47
100
AcDbScale
 70
     0
300
10:1
140
10.0
141
1.0
290
     0
  0
SCALE
  5
58
102
{ACAD_REACTORS
330
47
102
}
330
47
100
AcDbScale
 70
     0
300
100:1
140
100.0
141
1.0
290
     0
  0
SCALE
  5
59
102
{ACAD_REACTORS
330
47
102
}
330
47
100
AcDbScale
 70
     0
300
1/128" = 1'-0"
140
0.0078125
141
12.0
290
     0
  0
SCALE
  5
5A
102
{ACAD_REACTORS
330
47
102
}
330
47
100
AcDbScale
 70
     0
300
1/64" = 1'-0"
140
0.015625
141
12.0
290
     0
  0
SCALE
  5
5B
102
{ACAD_REACTORS
330
47
102
}
330
47
100
AcDbScale
 70
     0
300
1/32" = 1'-0"
140
0.03125
141
12.0
290
     0
  0
SCALE
  5
5C
102
{ACAD_REACTORS
330
47
102
}
330
47
100
AcDbScale
 70
     0
300
1/16" = 1'-0"
140
0.0625
141
12.0
290
     0
  0
SCALE
  5
5D
102
{ACAD_REACTORS
330
47
102
}
330
47
100
AcDbScale
 70
     0
300
3/32" = 1'-0"
140
0.09375
141
12.0
290
     0
  0
SCALE
  5
5E
102
{ACAD_REACTORS
330
47
102
}
330
47
100
AcDbScale
 70
     0
300
1/8" = 1'-0"
140
0.125
141
12.0
290
     0
  0
SCALE
  5
5F
102
{ACAD_REACTORS
330
47
102
}
330
47
100
AcDbScale
 70
     0
300
3/16" = 1'-0"
140
0.1875
141
12.0
290
     0
  0
SCALE
  5
60
102
{ACAD_REACTORS
330
47
102
}
330
47
100
AcDbScale
 70
     0
300
1/4" = 1'-0"
140
0.25
141
12.0
290
     0
  0
SCALE
  5
61
102
{ACAD_REACTORS
330
47
102
}
330
47
100
AcDbScale
 70
     0
300
3/8" = 1'-0"
140
0.375
141
12.0
290
     0
  0
SCALE
  5
62
102
{ACAD_REACTORS
330
47
102
}
330
47
100
AcDbScale
 70
     0
300
1/2" = 1'-0"
140
0.5
141
12.0
290
     0
  0
SCALE
  5
63
102
{ACAD_REACTORS
330
47
102
}
330
47
100
AcDbScale
 70
     0
300
3/4" = 1'-0"
140
0.75
141
12.0
290
     0
  0
SCALE
  5
64
102
{ACAD_REACTORS
330
47
102
}
330
47
100
AcDbScale
 70
     0
300
1" = 1'-0"
140
1.0
141
12.0
290
     0
  0
SCALE
  5
65
102
{ACAD_REACTORS
330
47
102
}
330
47
100
AcDbScale
 70
     0
300
1-1/2" = 1'-0"
140
1.5
141
12.0
290
     0
  0
SCALE
  5
66
102
{ACAD_REACTORS
330
47
102
}
330
47
100
AcDbScale
 70
     0
300
3" = 1'-0"
140
3.0
141
12.0
290
     0
  0
SCALE
  5
67
102
{ACAD_REACTORS
330
47
102
}
330
47
100
AcDbScale
 70
     0
300
6" = 1'-0"
140
6.0
141
12.0
290
     0
  0
SCALE
  5
68
102
{ACAD_REACTORS
330
47
102
}
330
47
100
AcDbScale
 70
     0
300
1'-0" = 1'-0"
140
12.0
141
12.0
290
     0
  0
TABLESTYLE
  5
6A
102
{ACAD_REACTORS
330
69
102
}
102
{ACAD_XDICTIONARY
360
16F
102
}
330
69
100
AcDbTableStyle
  3
Standard
 70
     0
 71
     0
 40
0.06
 41
0.06
280
     0
281
     0
  7
Standard
140
4.5
170
     2
 62
     0
 63
   257
283
     0
 90
        4
 91
        0
  1

274
    -2
284
     1
 64
     0
275
    -2
285
     1
 65
     0
276
    -2
286
     1
 66
     0
277
    -2
287
     1
 67
     0
278
    -2
288
     1
 68
     0
279
    -2
289
     1
 69
     0
  7
Standard
140
6.0
170
     5
 62
     0
 63
   257
283
     0
 90
        4
 91
        0
  1

274
    -2
284
     1
 64
     0
275
    -2
285
     1
 65
     0
276
    -2
286
     1
 66
     0
277
    -2
287
     1
 67
     0
278
    -2
288
     1
 68
     0
279
    -2
289
     1
 69
     0
  7
Standard
140
4.5
170
     5
 62
     0
 63
   257
283
     0
 90
        4
 91
        0
  1

274
    -2
284
     1
 64
     0
275
    -2
285
     1
 65
     0
276
    -2
286
     1
 66
     0
277
    -2
287
     1
 67
     0
278
    -2
288
     1
 68
     0
279
    -2
289
     1
 69
     0
  0
VISUALSTYLE
  5
2F
102
{ACAD_REACTORS
330
2A
102
}
330
2A
100
AcDbVisualStyle
  2
2dWireframe
 70
     4
177
     3
291
     0
 70
    58
 90
        0
176
     1
 90
        2
176
     1
 90
        0
176
     1
 90
        0
176
     1
 40
0.6
176
     1
 40
30.0
176
     1
 62
     7
420
 16777215
176
     1
 90
        1
176
     1
 90
        4
176
     1
 62
     7
176
     1
 62
   257
176
     1
 90
        1
176
     1
 90
        1
176
     1
 40
1.0
176
     1
 90
        0
176
     1
 62
   257
176
     1
 40
1.0
176
     1
 90
        1
176
     1
 90
        6
176
     1
 90
        2
176
     1
 62
     7
176
     1
 90
        5
176
     1
 90
        0
176
     1
 90
        0
176
     1
290
     0
176
     1
 90
        1
176
     1
 40
0.0
176
     1
 90
        0
176
     1
290
     1
176
     1
290
     1
176
     1
290
     0
176
     1
290
     0
176
     1
290
     0
176
     1
290
     0
176
     1
290
     0
176
     1
290
     0
176
     1
290
     0
176
     1
 90
       50
176
     1
 40
0.0
176
     1
 40
1.0
176
     1
 90
        0
176
     1
 62
    18
420
        0
176
     1
 90
       50
176
     1
 90
        3
176
     1
 62
     5
420
      255
176
     1
290
     0
176
     1
 90
       50
176
     1
 90
       50
176
     1
 90
       50
176
     1
290
     0
176
     1
 90
       50
176
     1
 62
   256
176
     0
 40
1.0
176
     0
 90
        2
176
     1
  1
strokes_ogs.tif
176
     1
290
     0
176
     1
 40
1.0
176
     1
 40
1.0
176
     1
  0
VISUALSTYLE
  5
32
102
{ACAD_REACTORS
330
2A
102
}
330
2A
100
AcDbVisualStyle
  2
Basic
 70
     7
177
     3
291
     1
 70
    58
 90
        1
176
     1
 90
        0
176
     1
 90
        1
176
     1
 90
        0
176
     1
 40
0.6
176
     1
 40
30.0
176
     1
 62
     7
420
 16777215
176
     1
 90
        0
176
     1
 90
        4
176
     1
 62
     7
176
     1
 62
   257
176
     1
 90
        1
176
     1
 90
        1
176
     1
 40
1.0
176
     1
 90
        8
176
     1
 62
     7
176
     1
 40
1.0
176
     1
 90
        1
176
     1
 90
        6
176
     1
 90
        2
176
     1
 62
     7
176
     1
 90
        5
176
     1
 90
        0
176
     1
 90
        0
176
     1
290
     0
176
     1
 90
        1
176
     1
 40
0.0
176
     1
 90
        0
176
     1
290
     0
176
     1
290
     1
176
     1
290
     1
176
     1
290
     0
176
     1
290
     0
176
     1
290
     0
176
     1
290
     0
176
     1
290
     0
176
     1
290
     0
176
     1
 90
       50
176
     1
 40
0.0
176
     1
 40
1.0
176
     1
 90
        0
176
     1
 62
    18
420
        0
176
     1
 90
       50
176
     1
 90
        3
176
     1
 62
     5
420
      255
176
     1
290
     0
176
     1
 90
       50
176
     1
 90
       50
176
     1
 90
       50
176
     1
290
     0
176
     1
 90
       50
176
     1
 62
   256
176
     0
 40
1.0
176
     0
 90
        2
176
     1
  1
strokes_ogs.tif
176
     1
290
     0
176
     1
 40
1.0
176
     1
 40
1.0
176
     1
  0
VISUALSTYLE
  5
36
102
{ACAD_REACTORS
330
2A
102
}
330
2A
100
AcDbVisualStyle
  2
Brighten
 70
    12
177
     3
291
     1
 70
    58
 90
        2
176
     1
 90
        2
176
     1
 90
        0
176
     1
 90
        0
176
     1
 40
0.6
176
     1
 40
30.0
176
     1
 62
     7
420
 16777215
176
     1
 90
        1
176
     1
 90
        4
176
     1
 62
     7
176
     1
 62
   257
176
     1
 90
        1
176
     1
 90
        1
176
     1
 40
1.0
176
     1
 90
        8
176
     1
 62
     7
176
     1
 40
1.0
176
     1
 90
        1
176
     1
 90
        6
176
     1
 90
        2
176
     1
 62
     7
176
     1
 90
        5
176
     1
 90
        0
176
     1
 90
        0
176
     1
290
     0
176
     1
 90
        1
176
     1
 40
50.0
176
     1
 90
        0
176
     1
290
     0
176
     1
290
     1
176
     1
290
     1
176
     1
290
     0
176
     1
290
     0
176
     1
290
     0
176
     1
290
     0
176
     1
290
     0
176
     1
290
     0
176
     1
 90
       50
176
     1
 40
0.0
176
     1
 40
1.0
176
     1
 90
        0
176
     1
 62
    18
420
        0
176
     1
 90
       50
176
     1
 90
        3
176
     1
 62
     5
420
      255
176
     1
290
     0
176
     1
 90
       50
176
     1
 90
       50
176
     1
 90
       50
176
     1
290
     0
176
     1
 90
       50
176
     1
 62
   256
176
     0
 40
1.0
176
     0
 90
        2
176
     1
  1
strokes_ogs.tif
176
     1
290
     0
176
     1
 40
1.0
176
     1
 40
1.0
176
     1
  0
VISUALSTYLE
  5
3A
102
{ACAD_REACTORS
330
2A
102
}
330
2A
100
AcDbVisualStyle
  2
ColorChange
 70
    16
177
     3
291
     1
 70
    58
 90
        2
176
     1
 90
        2
176
     1
 90
        3
176
     1
 90
        0
176
     1
 40
0.6
176
     1
 40
30.0
176
     1
 62
     8
420
  8421504
176
     1
 90
        1
176
     1
 90
        4
176
     1
 62
     7
176
     1
 62
   257
176
     1
 90
        1
176
     1
 90
        1
176
     1
 40
1.0
176
     1
 90
        8
176
     1
 62
     8
420
  8421504
176
     1
 40
1.0
176
     1
 90
        1
176
     1
 90
        6
176
     1
 90
        2
176
     1
 62
     7
176
     1
 90
        5
176
     1
 90
        0
176
     1
 90
        0
176
     1
290
     0
176
     1
 90
        1
176
     1
 40
0.0
176
     1
 90
        0
176
     1
290
     0
176
     1
290
     1
176
     1
290
     1
176
     1
290
     0
176
     1
290
     0
176
     1
290
     0
176
     1
290
     0
176
     1
290
     0
176
     1
290
     0
176
     1
 90
       50
176
     1
 40
0.0
176
     1
 40
1.0
176
     1
 90
        0
176
     1
 62
    18
420
        0
176
     1
 90
       50
176
     1
 90
        3
176
     1
 62
     5
420
      255
176
     1
290
     0
176
     1
 90
       50
176
     1
 90
       50
176
     1
 90
       50
176
     1
290
     0
176
     1
 90
       50
176
     1
 62
   256
176
     0
 40
1.0
176
     0
 90
        2
176
     1
  1
strokes_ogs.tif
176
     1
290
     0
176
     1
 40
1.0
176
     1
 40
1.0
176
     1
  0
VISUALSTYLE
  5
34
102
{ACAD_REACTORS
330
2A
102
}
330
2A
100
AcDbVisualStyle
  2
Conceptual
 70
     9
177
     3
291
     0
 70
    58
 90
        3
176
     1
 90
        2
176
     1
 90
        0
176
     1
 90
        0
176
     1
 40
0.6
176
     1
 40
30.0
176
     1
 62
     7
420
 16777215
176
     1
 90
        2
176
     1
 90
        2
176
     1
 62
     7
176
     1
 62
   257
176
     1
 90
        1
176
     1
 90
        1
176
     1
 40
179.0
176
     1
 90
        8
176
     1
 62
     7
176
     1
 40
1.0
176
     1
 90
        1
176
     1
 90
        6
176
     1
 90
        2
176
     1
 62
     7
176
     1
 90
        3
176
     1
 90
        0
176
     1
 90
        0
176
     1
290
     0
176
     1
 90
        1
176
     1
 40
0.0
176
     1
 90
        0
176
     1
290
     0
176
     1
290
     1
176
     1
290
     1
176
     1
290
     0
176
     1
290
     0
176
     1
290
     0
176
     1
290
     0
176
     1
290
     0
176
     1
290
     0
176
     1
 90
       50
176
     1
 40
0.0
176
     1
 40
1.0
176
     1
 90
        0
176
     1
 62
    18
420
        0
176
     1
 90
       50
176
     1
 90
        3
176
     1
 62
     5
420
      255
176
     1
290
     0
176
     1
 90
       50
176
     1
 90
       50
176
     1
 90
       50
176
     1
290
     0
176
     1
 90
       50
176
     1
 62
   256
176
     0
 40
1.0
176
     0
 90
        2
176
     1
  1
strokes_ogs.tif
176
     1
290
     0
176
     1
 40
1.0
176
     1
 40
1.0
176
     1
  0
VISUALSTYLE
  5
35
102
{ACAD_REACTORS
330
2A
102
}
330
2A
100
AcDbVisualStyle
  2
Dim
 70
    11
177
     3
291
     1
 70
    58
 90
        2
176
     1
 90
        2
176
     1
 90
        0
176
     1
 90
        0
176
     1
 40
0.6
176
     1
 40
30.0
176
     1
 62
     7
420
 16777215
176
     1
 90
        1
176
     1
 90
        4
176
     1
 62
     7
176
     1
 62
   257
176
     1
 90
        1
176
     1
 90
        1
176
     1
 40
1.0
176
     1
 90
        8
176
     1
 62
     7
176
     1
 40
1.0
176
     1
 90
        1
176
     1
 90
        6
176
     1
 90
        2
176
     1
 62
     7
176
     1
 90
        5
176
     1
 90
        0
176
     1
 90
        0
176
     1
290
     0
176
     1
 90
        1
176
     1
 40
-50.0
176
     1
 90
        0
176
     1
290
     0
176
     1
290
     1
176
     1
290
     1
176
     1
290
     0
176
     1
290
     0
176
     1
290
     0
176
     1
290
     0
176
     1
290
     0
176
     1
290
     0
176
     1
 90
       50
176
     1
 40
0.0
176
     1
 40
1.0
176
     1
 90
        0
176
     1
 62
    18
420
        0
176
     1
 90
       50
176
     1
 90
        3
176
     1
 62
     5
420
      255
176
     1
290
     0
176
     1
 90
       50
176
     1
 90
       50
176
     1
 90
       50
176
     1
290
     0
176
     1
 90
       50
176
     1
 62
   256
176
     0
 40
1.0
176
     0
 90
        2
176
     1
  1
strokes_ogs.tif
176
     1
290
     0
176
     1
 40
1.0
176
     1
 40
1.0
176
     1
  0
VISUALSTYLE
  5
3D
102
{ACAD_REACTORS
330
2A
102
}
330
2A
100
AcDbVisualStyle
  2
EdgeColorOff
 70
    22
177
     3
291
     1
 70
    58
 90
        2
176
     0
 90
        2
176
     0
 90
        0
176
     0
 90
        0
176
     0
 40
0.6
176
     0
 40
30.0
176
     0
 62
     7
420
 16777215
176
     0
 90
        1
176
     0
 90
        4
176
     0
 62
     7
176
     0
 62
   257
176
     0
 90
        1
176
     0
 90
        1
176
     0
 40
1.0
176
     0
 90
        8
176
     2
 62
     7
176
     0
 40
1.0
176
     0
 90
        1
176
     0
 90
        6
176
     0
 90
        2
176
     0
 62
     7
176
     0
 90
        5
176
     0
 90
        0
176
     0
 90
        0
176
     0
290
     0
176
     0
 90
        1
176
     0
 40
0.0
176
     0
 90
        0
176
     0
290
     0
176
     0
290
     1
176
     0
290
     1
176
     0
290
     0
176
     0
290
     0
176
     0
290
     0
176
     0
290
     0
176
     0
290
     0
176
     0
290
     0
176
     0
 90
       50
176
     0
 40
0.0
176
     0
 40
1.0
176
     0
 90
        0
176
     0
 62
    18
420
        0
176
     0
 90
       50
176
     0
 90
        3
176
     0
 62
     5
420
      255
176
     0
290
     0
176
     0
 90
       50
176
     0
 90
       50
176
     0
 90
       50
176
     0
290
     0
176
     0
 90
       50
176
     0
 62
   256
176
     0
 40
1.0
176
     0
 90
        2
176
     0
  1
strokes_ogs.tif
176
     0
290
     0
176
     0
 40
1.0
176
     0
 40
1.0
176
     0
  0
VISUALSTYLE
  5
39
102
{ACAD_REACTORS
330
2A
102
}
330
2A
100
AcDbVisualStyle
  2
Facepattern
 70
    15
177
     3
291
     1
 70
    58
 90
        2
176
     1
 90
        2
176
     1
 90
        0
176
     1
 90
        0
176
     1
 40
0.6
176
     1
 40
30.0
176
     1
 62
     7
420
 16777215
176
     1
 90
        1
176
     1
 90
        4
176
     1
 62
     7
176
     1
 62
   257
176
     1
 90
        1
176
     1
 90
        1
176
     1
 40
1.0
176
     1
 90
        8
176
     1
 62
     7
176
     1
 40
1.0
176
     1
 90
        1
176
     1
 90
        6
176
     1
 90
        2
176
     1
 62
     7
176
     1
 90
        5
176
     1
 90
        0
176
     1
 90
        0
176
     1
290
     0
176
     1
 90
        1
176
     1
 40
0.0
176
     1
 90
        0
176
     1
290
     0
176
     1
290
     1
176
     1
290
     1
176
     1
290
     0
176
     1
290
     0
176
     1
290
     0
176
     1
290
     0
176
     1
290
     0
176
     1
290
     0
176
     1
 90
       50
176
     1
 40
0.0
176
     1
 40
1.0
176
     1
 90
        0
176
     1
 62
    18
420
        0
176
     1
 90
       50
176
     1
 90
        3
176
     1
 62
     5
420
      255
176
     1
290
     0
176
     1
 90
       50
176
     1
 90
       50
176
     1
 90
       50
176
     1
290
     0
176
     1
 90
       50
176
     1
 62
   256
176
     0
 40
1.0
176
     0
 90
        2
176
     1
  1
strokes_ogs.tif
176
     1
290
     0
176
     1
 40
1.0
176
     1
 40
1.0
176
     1
  0
VISUALSTYLE
  5
2B
102
{ACAD_REACTORS
330
2A
102
}
330
2A
100
AcDbVisualStyle
  2
Flat
 70
     0
177
     3
291
     1
 70
    58
 90
        2
176
     1
 90
        1
176
     1
 90
        1
176
     1
 90
        2
176
     1
 40
0.6
176
     1
 40
30.0
176
     1
 62
     7
420
 16777215
176
     1
 90
        0
176
     1
 90
        0
176
     1
 62
     7
176
     1
 62
   257
176
     1
 90
        1
176
     1
 90
        1
176
     1
 40
1.0
176
     1
 90
        8
176
     1
 62
     7
176
     1
 40
1.0
176
     1
 90
        1
176
     1
 90
        6
176
     1
 90
        2
176
     1
 62
     7
176
     1
 90
        5
176
     1
 90
        0
176
     1
 90
        0
176
     1
290
     0
176
     1
 90
       13
176
     1
 40
0.0
176
     1
 90
        0
176
     1
290
     0
176
     1
290
     1
176
     1
290
     1
176
     1
290
     0
176
     1
290
     0
176
     1
290
     0
176
     1
290
     0
176
     1
290
     0
176
     1
290
     0
176
     1
 90
       50
176
     1
 40
0.0
176
     1
 40
1.0
176
     1
 90
        0
176
     1
 62
    18
420
        0
176
     1
 90
       50
176
     1
 90
        3
176
     1
 62
     5
420
      255
176
     1
290
     0
176
     1
 90
       50
176
     1
 90
       50
176
     1
 90
       50
176
     1
290
     0
176
     1
 90
       50
176
     1
 62
   256
176
     0
 40
1.0
176
     0
 90
        2
176
     1
  1
strokes_ogs.tif
176
     1
290
     0
176
     1
 40
1.0
176
     1
 40
1.0
176
     1
  0
VISUALSTYLE
  5
2C
102
{ACAD_REACTORS
330
2A
102
}
330
2A
100
AcDbVisualStyle
  2
FlatWithEdges
 70
     1
177
     3
291
     1
 70
    58
 90
        2
176
     1
 90
        1
176
     1
 90
        1
176
     1
 90
        2
176
     1
 40
0.6
176
     1
 40
30.0
176
     1
 62
     7
420
 16777215
176
     1
 90
        1
176
     1
 90
        0
176
     1
 62
     7
176
     1
 62
   257
176
     1
 90
        1
176
     1
 90
        1
176
     1
 40
1.0
176
     1
 90
        0
176
     1
 62
   257
176
     1
 40
1.0
176
     1
 90
        1
176
     1
 90
        6
176
     1
 90
        2
176
     1
 62
     7
176
     1
 90
        5
176
     1
 90
        0
176
     1
 90
        0
176
     1
290
     0
176
     1
 90
       13
176
     1
 40
0.0
176
     1
 90
        0
176
     1
290
     0
176
     1
290
     1
176
     1
290
     1
176
     1
290
     0
176
     1
290
     0
176
     1
290
     0
176
     1
290
     0
176
     1
290
     0
176
     1
290
     0
176
     1
 90
       50
176
     1
 40
0.0
176
     1
 40
1.0
176
     1
 90
        0
176
     1
 62
    18
420
        0
176
     1
 90
       50
176
     1
 90
        3
176
     1
 62
     5
420
      255
176
     1
290
     0
176
     1
 90
       50
176
     1
 90
       50
176
     1
 90
       50
176
     1
290
     0
176
     1
 90
       50
176
     1
 62
   256
176
     0
 40
1.0
176
     0
 90
        2
176
     1
  1
strokes_ogs.tif
176
     1
290
     0
176
     1
 40
1.0
176
     1
 40
1.0
176
     1
  0
VISUALSTYLE
  5
2D
102
{ACAD_REACTORS
330
2A
102
}
330
2A
100
AcDbVisualStyle
  2
Gouraud
 70
     2
177
     3
291
     1
 70
    58
 90
        2
176
     1
 90
        2
176
     1
 90
        1
176
     1
 90
        2
176
     1
 40
0.6
176
     1
 40
30.0
176
     1
 62
     7
420
 16777215
176
     1
 90
        0
176
     1
 90
        0
176
     1
 62
     7
176
     1
 62
   257
176
     1
 90
        1
176
     1
 90
        1
176
     1
 40
1.0
176
     1
 90
        0
176
     1
 62
     7
176
     1
 40
1.0
176
     1
 90
        1
176
     1
 90
        6
176
     1
 90
        2
176
     1
 62
     7
176
     1
 90
        5
176
     1
 90
        0
176
     1
 90
        0
176
     1
290
     0
176
     1
 90
       13
176
     1
 40
0.0
176
     1
 90
        0
176
     1
290
     0
176
     1
290
     1
176
     1
290
     1
176
     1
290
     0
176
     1
290
     0
176
     1
290
     0
176
     1
290
     0
176
     1
290
     0
176
     1
290
     0
176
     1
 90
       50
176
     1
 40
0.0
176
     1
 40
1.0
176
     1
 90
        0
176
     1
 62
    18
420
        0
176
     1
 90
       50
176
     1
 90
        3
176
     1
 62
     5
420
      255
176
     1
290
     0
176
     1
 90
       50
176
     1
 90
       50
176
     1
 90
       50
176
     1
290
     0
176
     1
 90
       50
176
     1
 62
   256
176
     0
 40
1.0
176
     0
 90
        2
176
     1
  1
strokes_ogs.tif
176
     1
290
     0
176
     1
 40
1.0
176
     1
 40
1.0
176
     1
  0
VISUALSTYLE
  5
2E
102
{ACAD_REACTORS
330
2A
102
}
330
2A
100
AcDbVisualStyle
  2
GouraudWithEdges
 70
     3
177
     3
291
     1
 70
    58
 90
        2
176
     1
 90
        2
176
     1
 90
        1
176
     1
 90
        2
176
     1
 40
0.6
176
     1
 40
30.0
176
     1
 62
     7
420
 16777215
176
     1
 90
        1
176
     1
 90
        0
176
     1
 62
     7
176
     1
 62
   257
176
     1
 90
        1
176
     1
 90
        1
176
     1
 40
1.0
176
     1
 90
        0
176
     1
 62
   257
176
     1
 40
1.0
176
     1
 90
        1
176
     1
 90
        6
176
     1
 90
        2
176
     1
 62
     7
176
     1
 90
        5
176
     1
 90
        0
176
     1
 90
        0
176
     1
290
     0
176
     1
 90
       13
176
     1
 40
0.0
176
     1
 90
        0
176
     1
290
     0
176
     1
290
     1
176
     1
290
     1
176
     1
290
     0
176
     1
290
     0
176
     1
290
     0
176
     1
290
     0
176
     1
290
     0
176
     1
290
     0
176
     1
 90
       50
176
     1
 40
0.0
176
     1
 40
1.0
176
     1
 90
        0
176
     1
 62
    18
420
        0
176
     1
 90
       50
176
     1
 90
        3
176
     1
 62
     5
420
      255
176
     1
290
     0
176
     1
 90
       50
176
     1
 90
       50
176
     1
 90
       50
176
     1
290
     0
176
     1
 90
       50
176
     1
 62
   256
176
     0
 40
1.0
176
     0
 90
        2
176
     1
  1
strokes_ogs.tif
176
     1
290
     0
176
     1
 40
1.0
176
     1
 40
1.0
176
     1
  0
VISUALSTYLE
  5
31
102
{ACAD_REACTORS
330
2A
102
}
330
2A
100
AcDbVisualStyle
  2
Hidden
 70
     6
177
     3
291
     0
 70
    58
 90
        1
176
     1
 90
        2
176
     1
 90
        2
176
     1
 90
        0
176
     1
 40
0.6
176
     1
 40
30.0
176
     1
 62
     7
420
 16777215
176
     1
 90
        2
176
     1
 90
        2
176
     1
 62
     7
176
     1
 62
   257
176
     1
 90
        2
176
     1
 90
        1
176
     1
 40
40.0
176
     1
 90
        0
176
     1
 62
   257
176
     1
 40
1.0
176
     1
 90
        1
176
     1
 90
        6
176
     1
 90
        2
176
     1
 62
     7
176
     1
 90
        3
176
     1
 90
        0
176
     1
 90
        0
176
     1
290
     0
176
     1
 90
        1
176
     1
 40
0.0
176
     1
 90
        0
176
     1
290
     0
176
     1
290
     1
176
     1
290
     1
176
     1
290
     0
176
     1
290
     0
176
     1
290
     0
176
     1
290
     0
176
     1
290
     0
176
     1
290
     0
176
     1
 90
       50
176
     1
 40
0.0
176
     1
 40
1.0
176
     1
 90
        0
176
     1
 62
    18
420
        0
176
     1
 90
       50
176
     1
 90
        3
176
     1
 62
     5
420
      255
176
     1
290
     0
176
     1
 90
       50
176
     1
 90
       50
176
     1
 90
       50
176
     1
290
     0
176
     1
 90
       50
176
     1
 62
   256
176
     0
 40
1.0
176
     0
 90
        2
176
     1
  1
strokes_ogs.tif
176
     1
290
     0
176
     1
 40
1.0
176
     1
 40
1.0
176
     1
  0
VISUALSTYLE
  5
3B
102
{ACAD_REACTORS
330
2A
102
}
330
2A
100
AcDbVisualStyle
  2
JitterOff
 70
    20
177
     3
291
     1
 70
    58
 90
        2
176
     0
 90
        2
176
     0
 90
        0
176
     0
 90
        0
176
     0
 40
0.6
176
     0
 40
30.0
176
     0
 62
     7
420
 16777215
176
     0
 90
        1
176
     0
 90
        4
176
     0
 62
     7
176
     0
 62
   257
176
     0
 90
        1
176
     0
 90
        1
176
     0
 40
1.0
176
     0
 90
       10
176
     2
 62
     7
176
     0
 40
1.0
176
     0
 90
        1
176
     0
 90
        6
176
     0
 90
        2
176
     0
 62
     7
176
     0
 90
        5
176
     0
 90
        0
176
     0
 90
        0
176
     0
290
     0
176
     0
 90
        1
176
     0
 40
0.0
176
     0
 90
        0
176
     0
290
     0
176
     0
290
     1
176
     0
290
     1
176
     0
290
     0
176
     0
290
     0
176
     0
290
     0
176
     0
290
     0
176
     0
290
     0
176
     0
290
     0
176
     0
 90
       50
176
     0
 40
0.0
176
     0
 40
1.0
176
     0
 90
        0
176
     0
 62
    18
420
        0
176
     0
 90
       50
176
     0
 90
        3
176
     0
 62
     5
420
      255
176
     0
290
     0
176
     0
 90
       50
176
     0
 90
       50
176
     0
 90
       50
176
     0
290
     0
176
     0
 90
       50
176
     0
 62
   256
176
     0
 40
1.0
176
     0
 90
        2
176
     0
  1
strokes_ogs.tif
176
     0
290
     0
176
     0
 40
1.0
176
     0
 40
1.0
176
     0
  0
VISUALSTYLE
  5
38
102
{ACAD_REACTORS
330
2A
102
}
330
2A
100
AcDbVisualStyle
  2
Linepattern
 70
    14
177
     3
291
     1
 70
    58
 90
        2
176
     1
 90
        2
176
     1
 90
        0
176
     1
 90
        0
176
     1
 40
0.6
176
     1
 40
30.0
176
     1
 62
     7
420
 16777215
176
     1
 90
        1
176
     1
 90
        4
176
     1
 62
     7
176
     1
 62
   257
176
     1
 90
        7
176
     1
 90
        7
176
     1
 40
1.0
176
     1
 90
        8
176
     1
 62
     7
176
     1
 40
1.0
176
     1
 90
        1
176
     1
 90
        6
176
     1
 90
        2
176
     1
 62
     7
176
     1
 90
        5
176
     1
 90
        0
176
     1
 90
        0
176
     1
290
     0
176
     1
 90
        1
176
     1
 40
0.0
176
     1
 90
        0
176
     1
290
     0
176
     1
290
     1
176
     1
290
     1
176
     1
290
     0
176
     1
290
     0
176
     1
290
     0
176
     1
290
     0
176
     1
290
     0
176
     1
290
     0
176
     1
 90
       50
176
     1
 40
0.0
176
     1
 40
1.0
176
     1
 90
        0
176
     1
 62
    18
420
        0
176
     1
 90
       50
176
     1
 90
        3
176
     1
 62
     5
420
      255
176
     1
290
     0
176
     1
 90
       50
176
     1
 90
       50
176
     1
 90
       50
176
     1
290
     0
176
     1
 90
       50
176
     1
 62
   256
176
     0
 40
1.0
176
     0
 90
        2
176
     1
  1
strokes_ogs.tif
176
     1
290
     0
176
     1
 40
1.0
176
     1
 40
1.0
176
     1
  0
VISUALSTYLE
  5
3C
102
{ACAD_REACTORS
330
2A
102
}
330
2A
100
AcDbVisualStyle
  2
OverhangOff
 70
    21
177
     3
291
     1
 70
    58
 90
        2
176
     0
 90
        2
176
     0
 90
        0
176
     0
 90
        0
176
     0
 40
0.6
176
     0
 40
30.0
176
     0
 62
     7
420
 16777215
176
     0
 90
        1
176
     0
 90
        4
176
     0
 62
     7
176
     0
 62
   257
176
     0
 90
        1
176
     0
 90
        1
176
     0
 40
1.0
176
     0
 90
        9
176
     2
 62
     7
176
     0
 40
1.0
176
     0
 90
        1
176
     0
 90
        6
176
     0
 90
        2
176
     0
 62
     7
176
     0
 90
        5
176
     0
 90
        0
176
     0
 90
        0
176
     0
290
     0
176
     0
 90
        1
176
     0
 40
0.0
176
     0
 90
        0
176
     0
290
     0
176
     0
290
     1
176
     0
290
     1
176
     0
290
     0
176
     0
290
     0
176
     0
290
     0
176
     0
290
     0
176
     0
290
     0
176
     0
290
     0
176
     0
 90
       50
176
     0
 40
0.0
176
     0
 40
1.0
176
     0
 90
        0
176
     0
 62
    18
420
        0
176
     0
 90
       50
176
     0
 90
        3
176
     0
 62
     5
420
      255
176
     0
290
     0
176
     0
 90
       50
176
     0
 90
       50
176
     0
 90
       50
176
     0
290
     0
176
     0
 90
       50
176
     0
 62
   256
176
     0
 40
1.0
176
     0
 90
        2
176
     0
  1
strokes_ogs.tif
176
     0
290
     0
176
     0
 40
1.0
176
     0
 40
1.0
176
     0
  0
VISUALSTYLE
  5
33
102
{ACAD_REACTORS
330
2A
102
}
330
2A
100
AcDbVisualStyle
  2
Realistic
 70
     8
177
     3
291
     0
 70
    58
 90
        2
176
     1
 90
        3
176
     1
 90
        0
176
     1
 90
        2
176
     1
 40
0.6
176
     1
 40
30.0
176
     1
 62
     7
420
 16777215
176
     1
 90
        0
176
     1
 90
        0
176
     1
 62
     7
176
     1
 62
   257
176
     1
 90
        1
176
     1
 90
        1
176
     1
 40
1.0
176
     1
 90
        8
176
     1
 62
   257
176
     1
 40
1.0
176
     1
 90
        1
176
     1
 90
        6
176
     1
 90
        2
176
     1
 62
     7
176
     1
 90
        3
176
     1
 90
        0
176
     1
 90
        0
176
     1
290
     0
176
     1
 90
       13
176
     1
 40
0.0
176
     1
 90
        0
176
     1
290
     0
176
     1
290
     1
176
     1
290
     1
176
     1
290
     0
176
     1
290
     0
176
     1
290
     0
176
     1
290
     0
176
     1
290
     0
176
     1
290
     0
176
     1
 90
       50
176
     1
 40
0.0
176
     1
 40
1.0
176
     1
 90
        0
176
     1
 62
    18
420
        0
176
     1
 90
       50
176
     1
 90
        3
176
     1
 62
     5
420
      255
176
     1
290
     0
176
     1
 90
       50
176
     1
 90
       50
176
     1
 90
       50
176
     1
290
     0
176
     1
 90
       50
176
     1
 62
   256
176
     0
 40
1.0
176
     0
 90
        2
176
     1
  1
strokes_ogs.tif
176
     1
290
     0
176
     1
 40
1.0
176
     1
 40
1.0
176
     1
  0
VISUALSTYLE
  5
42
102
{ACAD_REACTORS
330
2A
102
}
330
2A
100
AcDbVisualStyle
  2
Shaded
 70
    27
177
     3
291
     0
 70
    58
 90
        2
176
     1
 90
        2
176
     1
 90
        1
176
     1
 90
        2
176
     1
 40
0.6
176
     1
 40
30.0
176
     1
 62
     7
420
 16777215
176
     1
 90
        0
176
     1
 90
        4
176
     1
 62
     7
176
     1
 62
   257
176
     1
 90
        1
176
     1
 90
        1
176
     1
 40
1.0
176
     1
 90
        8
176
     1
 62
   257
176
     1
 40
1.0
176
     1
 90
        1
176
     1
 90
        6
176
     1
 90
        2
176
     1
 62
     8
420
  7895160
176
     1
 90
        3
176
     1
 90
        0
176
     1
 90
        0
176
     1
290
     0
176
     1
 90
        5
176
     1
 40
0.0
176
     1
 90
        0
176
     1
290
     0
176
     1
290
     1
176
     1
290
     1
176
     1
290
     0
176
     1
290
     0
176
     1
290
     0
176
     1
290
     0
176
     1
290
     0
176
     1
290
     0
176
     1
 90
       50
176
     1
 40
0.0
176
     1
 40
1.0
176
     1
 90
        0
176
     1
 62
    18
420
        0
176
     1
 90
       50
176
     1
 90
        3
176
     1
 62
     5
420
      255
176
     1
290
     0
176
     1
 90
       50
176
     1
 90
       50
176
     1
 90
       50
176
     1
290
     0
176
     1
 90
       50
176
     1
 62
   256
176
     0
 40
1.0
176
     0
 90
        2
176
     1
  1
strokes_ogs.tif
176
     1
290
     0
176
     1
 40
1.0
176
     1
 40
1.0
176
     1
  0
VISUALSTYLE
  5
41
102
{ACAD_REACTORS
330
2A
102
}
330
2A
100
AcDbVisualStyle
  2
Shaded with edges
 70
    26
177
     3
291
     0
 70
    58
 90
        2
176
     1
 90
        2
176
     1
 90
        1
176
     1
 90
        2
176
     1
 40
0.6
176
     1
 40
30.0
176
     1
 62
     7
420
 16777215
176
     1
 90
        1
176
     1
 90
       10
176
     1
 62
     7
176
     1
 62
   257
176
     1
 90
        2
176
     1
 90
        1
176
     1
 40
1.0
176
     1
 90
        8
176
     1
 62
   257
176
     1
 40
1.0
176
     1
 90
        1
176
     1
 90
        6
176
     1
 90
        2
176
     1
 62
     7
176
     1
 90
        3
176
     1
 90
        0
176
     1
 90
        0
176
     1
290
     0
176
     1
 90
        5
176
     1
 40
0.0
176
     1
 90
        0
176
     1
290
     0
176
     1
290
     1
176
     1
290
     1
176
     1
290
     0
176
     1
290
     0
176
     1
290
     0
176
     1
290
     0
176
     1
290
     0
176
     1
290
     0
176
     1
 90
       50
176
     1
 40
0.0
176
     1
 40
1.0
176
     1
 90
        0
176
     1
 62
    18
420
        0
176
     1
 90
       50
176
     1
 90
        3
176
     1
 62
     5
420
      255
176
     1
290
     0
176
     1
 90
       50
176
     1
 90
       50
176
     1
 90
       50
176
     1
290
     0
176
     1
 90
       50
176
     1
 62
   256
176
     0
 40
1.0
176
     0
 90
        2
176
     1
  1
strokes_ogs.tif
176
     1
290
     0
176
     1
 40
1.0
176
     1
 40
1.0
176
     1
  0
VISUALSTYLE
  5
3E
102
{ACAD_REACTORS
330
2A
102
}
330
2A
100
AcDbVisualStyle
  2
Shades of Gray
 70
    23
177
     3
291
     0
 70
    58
 90
        2
176
     1
 90
        2
176
     1
 90
        3
176
     1
 90
        0
176
     1
 40
0.6
176
     1
 40
30.0
176
     1
 62
     7
420
 16777215
176
     1
 90
        2
176
     1
 90
        2
176
     1
 62
     7
176
     1
 62
     7
176
     1
 90
        1
176
     1
 90
        1
176
     1
 40
40.0
176
     1
 90
        8
176
     1
 62
     7
176
     1
 40
1.0
176
     1
 90
        1
176
     1
 90
        6
176
     1
 90
        2
176
     1
 62
     7
176
     1
 90
        3
176
     1
 90
        0
176
     1
 90
        0
176
     1
290
     0
176
     1
 90
        1
176
     1
 40
0.0
176
     1
 90
        0
176
     1
290
     0
176
     1
290
     1
176
     1
290
     1
176
     1
290
     0
176
     1
290
     0
176
     1
290
     0
176
     1
290
     0
176
     1
290
     0
176
     1
290
     0
176
     1
 90
       50
176
     1
 40
0.0
176
     1
 40
1.0
176
     1
 90
        0
176
     1
 62
    18
420
        0
176
     1
 90
       50
176
     1
 90
        3
176
     1
 62
     5
420
      255
176
     1
290
     0
176
     1
 90
       50
176
     1
 90
       50
176
     1
 90
       50
176
     1
290
     0
176
     1
 90
       50
176
     1
 62
   256
176
     0
 40
1.0
176
     0
 90
        2
176
     1
  1
strokes_ogs.tif
176
     1
290
     0
176
     1
 40
1.0
176
     1
 40
1.0
176
     1
  0
VISUALSTYLE
  5
3F
102
{ACAD_REACTORS
330
2A
102
}
330
2A
100
AcDbVisualStyle
  2
Sketchy
 70
    24
177
     3
291
     0
 70
    58
 90
        1
176
     1
 90
        2
176
     1
 90
        2
176
     1
 90
        0
176
     1
 40
0.6
176
     1
 40
30.0
176
     1
 62
     7
420
 16777215
176
     1
 90
        2
176
     1
 90
        2
176
     1
 62
     7
176
     1
 62
     7
176
     1
 90
        1
176
     1
 90
        1
176
     1
 40
40.0
176
     1
 90
       11
176
     1
 62
     7
176
     1
 40
1.0
176
     1
 90
        1
176
     1
 90
        6
176
     1
 90
        2
176
     1
 62
     7
176
     1
 90
        6
176
     1
 90
        0
176
     1
 90
        0
176
     1
290
     0
176
     1
 90
        1
176
     1
 40
0.0
176
     1
 90
        0
176
     1
290
     0
176
     1
290
     1
176
     1
290
     1
176
     1
290
     0
176
     1
290
     0
176
     1
290
     0
176
     1
290
     0
176
     1
290
     0
176
     1
290
     0
176
     1
 90
       50
176
     1
 40
0.0
176
     1
 40
1.0
176
     1
 90
        0
176
     1
 62
    18
420
        0
176
     1
 90
       50
176
     1
 90
        3
176
     1
 62
     5
420
      255
176
     1
290
     0
176
     1
 90
       50
176
     1
 90
       50
176
     1
 90
       50
176
     1
290
     0
176
     1
 90
       50
176
     1
 62
   256
176
     0
 40
1.0
176
     0
 90
        2
176
     1
  1
strokes_ogs.tif
176
     1
290
     0
176
     1
 40
1.0
176
     1
 40
1.0
176
     1
  0
VISUALSTYLE
  5
37
102
{ACAD_REACTORS
330
2A
102
}
330
2A
100
AcDbVisualStyle
  2
Thicken
 70
    13
177
     3
291
     1
 70
    58
 90
        2
176
     1
 90
        2
176
     1
 90
        0
176
     1
 90
        0
176
     1
 40
0.6
176
     1
 40
30.0
176
     1
 62
     7
420
 16777215
176
     1
 90
        1
176
     1
 90
        4
176
     1
 62
     7
176
     1
 62
   257
176
     1
 90
        1
176
     1
 90
        1
176
     1
 40
1.0
176
     1
 90
       12
176
     1
 62
     7
176
     1
 40
1.0
176
     1
 90
        1
176
     1
 90
        6
176
     1
 90
        2
176
     1
 62
     7
176
     1
 90
        5
176
     1
 90
        0
176
     1
 90
        0
176
     1
290
     0
176
     1
 90
        1
176
     1
 40
0.0
176
     1
 90
        0
176
     1
290
     0
176
     1
290
     1
176
     1
290
     1
176
     1
290
     0
176
     1
290
     0
176
     1
290
     0
176
     1
290
     0
176
     1
290
     0
176
     1
290
     0
176
     1
 90
       50
176
     1
 40
0.0
176
     1
 40
1.0
176
     1
 90
        0
176
     1
 62
    18
420
        0
176
     1
 90
       50
176
     1
 90
        3
176
     1
 62
     5
420
      255
176
     1
290
     0
176
     1
 90
       50
176
     1
 90
       50
176
     1
 90
       50
176
     1
290
     0
176
     1
 90
       50
176
     1
 62
   256
176
     0
 40
1.0
176
     0
 90
        2
176
     1
  1
strokes_ogs.tif
176
     1
290
     0
176
     1
 40
1.0
176
     1
 40
1.0
176
     1
  0
VISUALSTYLE
  5
30
102
{ACAD_REACTORS
330
2A
102
}
330
2A
100
AcDbVisualStyle
  2
Wireframe
 70
     5
177
     3
291
     0
 70
    58
 90
        0
176
     1
 90
        2
176
     1
 90
        0
176
     1
 90
        0
176
     1
 40
0.6
176
     1
 40
30.0
176
     1
 62
     7
420
 16777215
176
     1
 90
        1
176
     1
 90
        4
176
     1
 62
     7
176
     1
 62
   257
176
     1
 90
        1
176
     1
 90
        1
176
     1
 40
1.0
176
     1
 90
        0
176
     1
 62
   257
176
     1
 40
1.0
176
     1
 90
        1
176
     1
 90
        6
176
     1
 90
        2
176
     1
 62
     7
176
     1
 90
        3
176
     1
 90
        0
176
     1
 90
        0
176
     1
290
     0
176
     1
 90
        1
176
     1
 40
0.0
176
     1
 90
        0
176
     1
290
     0
176
     1
290
     1
176
     1
290
     1
176
     1
290
     0
176
     1
290
     0
176
     1
290
     0
176
     1
290
     0
176
     1
290
     0
176
     1
290
     0
176
     1
 90
       50
176
     1
 40
0.0
176
     1
 40
1.0
176
     1
 90
        0
176
     1
 62
    18
420
        0
176
     1
 90
       50
176
     1
 90
        3
176
     1
 62
     5
420
      255
176
     1
290
     0
176
     1
 90
       50
176
     1
 90
       50
176
     1
 90
       50
176
     1
290
     0
176
     1
 90
       50
176
     1
 62
   256
176
     0
 40
1.0
176
     0
 90
        2
176
     1
  1
strokes_ogs.tif
176
     1
290
     0
176
     1
 40
1.0
176
     1
 40
1.0
176
     1
  0
VISUALSTYLE
  5
40
102
{ACAD_REACTORS
330
2A
102
}
330
2A
100
AcDbVisualStyle
  2
X-Ray
 70
    25
177
     3
291
     0
 70
    58
 90
        2
176
     1
 90
        2
176
     1
 90
        1
176
     1
 90
        1
176
     1
 40
0.5
176
     1
 40
30.0
176
     1
 62
     7
420
 16777215
176
     1
 90
        1
176
     1
 90
        0
176
     1
 62
     7
176
     1
 62
   257
176
     1
 90
        1
176
     1
 90
        1
176
     1
 40
1.0
176
     1
 90
        8
176
     1
 62
     7
176
     1
 40
1.0
176
     1
 90
        1
176
     1
 90
        6
176
     1
 90
        2
176
     1
 62
     7
176
     1
 90
        3
176
     1
 90
        0
176
     1
 90
        0
176
     1
290
     0
176
     1
 90
       13
176
     1
 40
0.0
176
     1
 90
        0
176
     1
290
     0
176
     1
290
     1
176
     1
290
     1
176
     1
290
     0
176
     1
290
     0
176
     1
290
     0
176
     1
290
     0
176
     1
290
     0
176
     1
290
     0
176
     1
 90
       50
176
     1
 40
0.0
176
     1
 40
1.0
176
     1
 90
        0
176
     1
 62
    18
420
        0
176
     1
 90
       50
176
     1
 90
        3
176
     1
 62
     5
420
      255
176
     1
290
     0
176
     1
 90
       50
176
     1
 90
       50
176
     1
 90
       50
176
     1
290
     0
176
     1
 90
       50
176
     1
 62
   256
176
     0
 40
1.0
176
     0
 90
        2
176
     1
  1
strokes_ogs.tif
176
     1
290
     0
176
     1
 40
1.0
176
     1
 40
1.0
176
     1
  0
DICTIONARYVAR
  5
16E
102
{ACAD_REACTORS
330
16D
102
}
330
16D
100
DictionaryVariables
280
     0
  1
1:1
  0
DICTIONARYVAR
  5
173
102
{ACAD_REACTORS
330
16D
102
}
330
16D
100
DictionaryVariables
280
     0
  1
Standard
  0
DICTIONARYVAR
  5
172
102
{ACAD_REACTORS
330
16D
102
}
330
16D
100
DictionaryVariables
280
     0
  1
Standard
  0
DICTIONARYVAR
  5
176
102
{ACAD_REACTORS
330
16D
102
}
330
16D
100
DictionaryVariables
280
     0
  1
6.000000
  0
DICTIONARY
  5
16F
330
6A
100
AcDbDictionary
280
     1
281
     1
  3
ACAD_ROUNDTRIP_2008_TABLESTYLE_CELLSTYLEMAP
360
170
  0
CELLSTYLEMAP
  5
170
102
{ACAD_REACTORS
330
16F
102
}
330
16F
100
AcDbCellStyleMap
 90
        3
300
CELLSTYLE
  1
TABLEFORMAT_BEGIN
 90
        5
170
     1
 91
        0
 92
    32768
 62
   257
 93
        1
300
CONTENTFORMAT
  1
CONTENTFORMAT_BEGIN
 90
        0
 91
        0
 92
        4
 93
        0
300

 40
0.0
140
1.0
 94
        5
 62
     0
340
11
144
6.0
309
CONTENTFORMAT_END
171
     1
301
MARGIN
  1
CELLMARGIN_BEGIN
 40
1.5
 40
1.5
 40
1.5
 40
1.5
 40
1.5
 40
1.5
309
CELLMARGIN_END
 94
        6
 95
        1
302
GRIDFORMAT
  1
GRIDFORMAT_BEGIN
 90
        0
 91
        1
 62
     0
 92
       -2
340
14
 93
        0
 40
0.045
309
GRIDFORMAT_END
 95
        2
302
GRIDFORMAT
  1
GRIDFORMAT_BEGIN
 90
        0
 91
        1
 62
     0
 92
       -2
340
14
 93
        0
 40
0.045
309
GRIDFORMAT_END
 95
        4
302
GRIDFORMAT
  1
GRIDFORMAT_BEGIN
 90
        0
 91
        1
 62
     0
 92
       -2
340
14
 93
        0
 40
0.045
309
GRIDFORMAT_END
 95
        8
302
GRIDFORMAT
  1
GRIDFORMAT_BEGIN
 90
        0
 91
        1
 62
     0
 92
       -2
340
14
 93
        0
 40
0.045
309
GRIDFORMAT_END
 95
       16
302
GRIDFORMAT
  1
GRIDFORMAT_BEGIN
 90
        0
 91
        1
 62
     0
 92
       -2
340
14
 93
        0
 40
0.045
309
GRIDFORMAT_END
 95
       32
302
GRIDFORMAT
  1
GRIDFORMAT_BEGIN
 90
        0
 91
        1
 62
     0
 92
       -2
340
14
 93
        0
 40
0.045
309
GRIDFORMAT_END
309
TABLEFORMAT_END
  1
CELLSTYLE_BEGIN
 90
        1
 91
        1
300
_TITLE
309
CELLSTYLE_END
300
CELLSTYLE
  1
TABLEFORMAT_BEGIN
 90
        5
170
     1
 91
        0
 92
        0
 62
   257
 93
        1
300
CONTENTFORMAT
  1
CONTENTFORMAT_BEGIN
 90
        0
 91
        0
 92
        4
 93
        0
300

 40
0.0
140
1.0
 94
        5
 62
     0
340
11
144
4.5
309
CONTENTFORMAT_END
171
     1
301
MARGIN
  1
CELLMARGIN_BEGIN
 40
1.5
 40
1.5
 40
1.5
 40
1.5
 40
1.5
 40
1.5
309
CELLMARGIN_END
 94
        6
 95
        1
302
GRIDFORMAT
  1
GRIDFORMAT_BEGIN
 90
        0
 91
        1
 62
     0
 92
       -2
340
14
 93
        0
 40
0.045
309
GRIDFORMAT_END
 95
        2
302
GRIDFORMAT
  1
GRIDFORMAT_BEGIN
 90
        0
 91
        1
 62
     0
 92
       -2
340
14
 93
        0
 40
0.045
309
GRIDFORMAT_END
 95
        4
302
GRIDFORMAT
  1
GRIDFORMAT_BEGIN
 90
        0
 91
        1
 62
     0
 92
       -2
340
14
 93
        0
 40
0.045
309
GRIDFORMAT_END
 95
        8
302
GRIDFORMAT
  1
GRIDFORMAT_BEGIN
 90
        0
 91
        1
 62
     0
 92
       -2
340
14
 93
        0
 40
0.045
309
GRIDFORMAT_END
 95
       16
302
GRIDFORMAT
  1
GRIDFORMAT_BEGIN
 90
        0
 91
        1
 62
     0
 92
       -2
340
14
 93
        0
 40
0.045
309
GRIDFORMAT_END
 95
       32
302
GRIDFORMAT
  1
GRIDFORMAT_BEGIN
 90
        0
 91
        1
 62
     0
 92
       -2
340
14
 93
        0
 40
0.045
309
GRIDFORMAT_END
309
TABLEFORMAT_END
  1
CELLSTYLE_BEGIN
 90
        2
 91
        1
300
_HEADER
309
CELLSTYLE_END
300
CELLSTYLE
  1
TABLEFORMAT_BEGIN
 90
        5
170
     1
 91
        0
 92
        0
 62
   257
 93
        1
300
CONTENTFORMAT
  1
CONTENTFORMAT_BEGIN
 90
        0
 91
        0
 92
        4
 93
        0
300

 40
0.0
140
1.0
 94
        2
 62
     0
340
11
144
4.5
309
CONTENTFORMAT_END
171
     1
301
MARGIN
  1
CELLMARGIN_BEGIN
 40
1.5
 40
1.5
 40
1.5
 40
1.5
 40
1.5
 40
1.5
309
CELLMARGIN_END
 94
        6
 95
        1
302
GRIDFORMAT
  1
GRIDFORMAT_BEGIN
 90
        0
 91
        1
 62
     0
 92
       -2
340
14
 93
        0
 40
0.045
309
GRIDFORMAT_END
 95
        2
302
GRIDFORMAT
  1
GRIDFORMAT_BEGIN
 90
        0
 91
        1
 62
     0
 92
       -2
340
14
 93
        0
 40
0.045
309
GRIDFORMAT_END
 95
        4
302
GRIDFORMAT
  1
GRIDFORMAT_BEGIN
 90
        0
 91
        1
 62
     0
 92
       -2
340
14
 93
        0
 40
0.045
309
GRIDFORMAT_END
 95
        8
302
GRIDFORMAT
  1
GRIDFORMAT_BEGIN
 90
        0
 91
        1
 62
     0
 92
       -2
340
14
 93
        0
 40
0.045
309
GRIDFORMAT_END
 95
       16
302
GRIDFORMAT
  1
GRIDFORMAT_BEGIN
 90
        0
 91
        1
 62
     0
 92
       -2
340
14
 93
        0
 40
0.045
309
GRIDFORMAT_END
 95
       32
302
GRIDFORMAT
  1
GRIDFORMAT_BEGIN
 90
        0
 91
        1
 62
     0
 92
       -2
340
14
 93
        0
 40
0.045
309
GRIDFORMAT_END
309
TABLEFORMAT_END
  1
CELLSTYLE_BEGIN
 90
        3
 91
        2
300
_DATA
309
CELLSTYLE_END
  0
ENDSEC
  0
EOF