0
SECTION
  2
HEADER
  9
$ACADVER
  1
AC1027
  9
$ACADMAINTVER
 70
     8
  9
$DWGCODEPAGE
  3
ANSI_1252
  9
$REQUIREDVERSIONS
160
                 0
  9
$COMMENTS
  1
File was created by Cadenas
  9
$CUSTOMPROPERTYTAG
  1
NN
  9
$CUSTOMPROPERTY
  1
Eccentric Collar Low Backing Height Intermediate Duty Two-Bolt Pillow Block Metric Bore
  9
$CUSTOMPROPERTYTAG
  1
NT
  9
$CUSTOMPROPERTY
  1
Eccentric Collar Pillow Block Bearings -(Intermediate Duty) -Low Backing Height
  9
$CUSTOMPROPERTYTAG
  1
NB
  9
$CUSTOMPROPERTY
  1
125716
  9
$CUSTOMPROPERTYTAG
  1
NBSYN
  9
$CUSTOMPROPERTY
  1
$PN.
  9
$CUSTOMPROPERTYTAG
  1
LINA
  9
$CUSTOMPROPERTY
  1
125716
  9
$CUSTOMPROPERTYTAG
  1
SERIES
  9
$CUSTOMPROPERTY
  1
208
  9
$CUSTOMPROPERTYTAG
  1
SS
  9
$CUSTOMPROPERTY
  1
40
  9
$CUSTOMPROPERTYTAG
  1
PN
  9
$CUSTOMPROPERTY
  1
125716
  9
$CUSTOMPROPERTYTAG
  1
DESCRIPTION
  9
$CUSTOMPROPERTY
  1
P2B-SXVB-40M
  9
$CUSTOMPROPERTYTAG
  1
WEIGHT
  9
$CUSTOMPROPERTY
  1
2.2
  9
$CUSTOMPROPERTYTAG
  1
A
  9
$CUSTOMPROPERTY
  1
43.6
  9
$CUSTOMPROPERTYTAG
  1
B
  9
$CUSTOMPROPERTY
  1
184.2
  9
$CUSTOMPROPERTYTAG
  1
C
  9
$CUSTOMPROPERTY
  1
49.0
  9
$CUSTOMPROPERTYTAG
  1
DMIN
  9
$CUSTOMPROPERTY
  1
131.6
  9
$CUSTOMPROPERTYTAG
  1
DMAX
  9
$CUSTOMPROPERTY
  1
149.4
  9
$CUSTOMPROPERTYTAG
  1
F
  9
$CUSTOMPROPERTY
  1
M12
  9
$CUSTOMPROPERTYTAG
  1
G
  9
$CUSTOMPROPERTY
  1
23.1
  9
$CUSTOMPROPERTYTAG
  1
H
  9
$CUSTOMPROPERTY
  1
19.1
  9
$CUSTOMPROPERTYTAG
  1
J
  9
$CUSTOMPROPERTY
  1
101.6
  9
$CUSTOMPROPERTYTAG
  1
L
  9
$CUSTOMPROPERTY
  1
60.5
  9
$CUSTOMPROPERTYTAG
  1
M
  9
$CUSTOMPROPERTY
  1
49.3
  9
$CUSTOMPROPERTYTAG
  1
R
  9
$CUSTOMPROPERTY
  1
11.0
  9
$CUSTOMPROPERTYTAG
  1
S
  9
$CUSTOMPROPERTY
  1
32.6
  9
$CUSTOMPROPERTYTAG
  1
U
  9
$CUSTOMPROPERTY
  1
82.8
  9
$CUSTOMPROPERTYTAG
  1
V
  9
$CUSTOMPROPERTY
  1
165.6
  9
$CUSTOMPROPERTYTAG
  1
W
  9
$CUSTOMPROPERTY
  1
17.5
  9
$CUSTOMPROPERTYTAG
  1
X
  9
$CUSTOMPROPERTY
  1
3.0
  9
$CUSTOMPROPERTYTAG
  1
COMPANY
  9
$CUSTOMPROPERTY
  1
baldor
  9
$INSBASE
 10
0.0
 20
0.0
 30
0.0
  9
$EXTMIN
 10
1.000000000000000E+20
 20
1.000000000000000E+20
 30
1.000000000000000E+20
  9
$EXTMAX
 10
-1.000000000000000E+20
 20
-1.000000000000000E+20
 30
-1.000000000000000E+20
  9
$LIMMIN
 10
0.0
 20
0.0
  9
$LIMMAX
 10
420.0
 20
297.0
  9
$ORTHOMODE
 70
     0
  9
$REGENMODE
 70
     1
  9
$FILLMODE
 70
     1
  9
$QTEXTMODE
 70
     0
  9
$MIRRTEXT
 70
     1
  9
$LTSCALE
 40
1.0
  9
$ATTMODE
 70
     1
  9
$TEXTSIZE
 40
2.5
  9
$TRACEWID
 40
1.0
  9
$TEXTSTYLE
  7
Standard
  9
$CLAYER
  8
0
  9
$CELTYPE
  6
ByLayer
  9
$CECOLOR
 62
   256
  9
$CELTSCALE
 40
1.0
  9
$DISPSILH
 70
     0
  9
$DIMSCALE
 40
1.0
  9
$DIMASZ
 40
2.5
  9
$DIMEXO
 40
0.625
  9
$DIMDLI
 40
3.75
  9
$DIMRND
 40
0.0
  9
$DIMDLE
 40
0.0
  9
$DIMEXE
 40
1.25
  9
$DIMTP
 40
0.0
  9
$DIMTM
 40
0.0
  9
$DIMTXT
 40
2.5
  9
$DIMCEN
 40
2.5
  9
$DIMTSZ
 40
0.0
  9
$DIMTOL
 70
     0
  9
$DIMLIM
 70
     0
  9
$DIMTIH
 70
     0
  9
$DIMTOH
 70
     0
  9
$DIMSE1
 70
     0
  9
$DIMSE2
 70
     0
  9
$DIMTAD
 70
     1
  9
$DIMZIN
 70
     8
  9
$DIMBLK
  1

  9
$DIMASO
 70
     1
  9
$DIMSHO
 70
     1
  9
$DIMPOST
  1

  9
$DIMAPOST
  1

  9
$DIMALT
 70
     0
  9
$DIMALTD
 70
     3
  9
$DIMALTF
 40
0.03937007874016
  9
$DIMLFAC
 40
1.0
  9
$DIMTOFL
 70
     1
  9
$DIMTVP
 40
0.0
  9
$DIMTIX
 70
     0
  9
$DIMSOXD
 70
     0
  9
$DIMSAH
 70
     0
  9
$DIMBLK1
  1

  9
$DIMBLK2
  1

  9
$DIMSTYLE
  2
ISO-25
  9
$DIMCLRD
 70
     0
  9
$DIMCLRE
 70
     0
  9
$DIMCLRT
 70
     0
  9
$DIMTFAC
 40
1.0
  9
$DIMGAP
 40
0.625
  9
$DIMJUST
 70
     0
  9
$DIMSD1
 70
     0
  9
$DIMSD2
 70
     0
  9
$DIMTOLJ
 70
     0
  9
$DIMTZIN
 70
     8
  9
$DIMALTZ
 70
     0
  9
$DIMALTTZ
 70
     0
  9
$DIMUPT
 70
     0
  9
$DIMDEC
 70
     2
  9
$DIMTDEC
 70
     2
  9
$DIMALTU
 70
     2
  9
$DIMALTTD
 70
     3
  9
$DIMTXSTY
  7
Standard
  9
$DIMAUNIT
 70
     0
  9
$DIMADEC
 70
     0
  9
$DIMALTRND
 40
0.0
  9
$DIMAZIN
 70
     0
  9
$DIMDSEP
 70
    44
  9
$DIMATFIT
 70
     3
  9
$DIMFRAC
 70
     0
  9
$DIMLDRBLK
  1

  9
$DIMLUNIT
 70
     2
  9
$DIMLWD
 70
    -2
  9
$DIMLWE
 70
    -2
  9
$DIMTMOVE
 70
     0
  9
$DIMFXL
 40
1.0
  9
$DIMFXLON
 70
     0
  9
$DIMJOGANG
 40
0.7853981633974483
  9
$DIMTFILL
 70
     0
  9
$DIMTFILLCLR
 70
     0
  9
$DIMARCSYM
 70
     0
  9
$DIMLTYPE
  6

  9
$DIMLTEX1
  6

  9
$DIMLTEX2
  6

  9
$DIMTXTDIRECTION
 70
     0
  9
$LUNITS
 70
     2
  9
$LUPREC
 70
     4
  9
$SKETCHINC
 40
1.0
  9
$FILLETRAD
 40
10.0
  9
$AUNITS
 70
     0
  9
$AUPREC
 70
     0
  9
$MENU
  1
.
  9
$ELEVATION
 40
0.0
  9
$PELEVATION
 40
0.0
  9
$THICKNESS
 40
0.0
  9
$LIMCHECK
 70
     0
  9
$CHAMFERA
 40
0.0
  9
$CHAMFERB
 40
0.0
  9
$CHAMFERC
 40
0.0
  9
$CHAMFERD
 40
0.0
  9
$SKPOLY
 70
     0
  9
$TDCREATE
 40
2458168.986279329
  9
$TDUCREATE
 40
2458168.944612662
  9
$TDUPDATE
 40
2458168.986279329
  9
$TDUUPDATE
 40
2458168.944612662
  9
$TDINDWG
 40
0.0000000116
  9
$TDUSRTIMER
 40
0.0000000116
  9
$USRTIMER
 70
     1
  9
$ANGBASE
 50
0.0
  9
$ANGDIR
 70
     0
  9
$PDMODE
 70
     0
  9
$PDSIZE
 40
0.0
  9
$PLINEWID
 40
0.0
  9
$SPLFRAME
 70
     0
  9
$SPLINETYPE
 70
     6
  9
$SPLINESEGS
 70
     8
  9
$HANDSEED
  5
1E1
  9
$SURFTAB1
 70
     6
  9
$SURFTAB2
 70
     6
  9
$SURFTYPE
 70
     6
  9
$SURFU
 70
     6
  9
$SURFV
 70
     6
  9
$UCSBASE
  2

  9
$UCSNAME
  2

  9
$UCSORG
 10
0.0
 20
0.0
 30
0.0
  9
$UCSXDIR
 10
1.0
 20
0.0
 30
0.0
  9
$UCSYDIR
 10
0.0
 20
1.0
 30
0.0
  9
$UCSORTHOREF
  2

  9
$UCSORTHOVIEW
 70
     0
  9
$UCSORGTOP
 10
0.0
 20
0.0
 30
0.0
  9
$UCSORGBOTTOM
 10
0.0
 20
0.0
 30
0.0
  9
$UCSORGLEFT
 10
0.0
 20
0.0
 30
0.0
  9
$UCSORGRIGHT
 10
0.0
 20
0.0
 30
0.0
  9
$UCSORGFRONT
 10
0.0
 20
0.0
 30
0.0
  9
$UCSORGBACK
 10
0.0
 20
0.0
 30
0.0
  9
$PUCSBASE
  2

  9
$PUCSNAME
  2

  9
$PUCSORG
 10
0.0
 20
0.0
 30
0.0
  9
$PUCSXDIR
 10
1.0
 20
0.0
 30
0.0
  9
$PUCSYDIR
 10
0.0
 20
1.0
 30
0.0
  9
$PUCSORTHOREF
  2

  9
$PUCSORTHOVIEW
 70
     0
  9
$PUCSORGTOP
 10
0.0
 20
0.0
 30
0.0
  9
$PUCSORGBOTTOM
 10
0.0
 20
0.0
 30
0.0
  9
$PUCSORGLEFT
 10
0.0
 20
0.0
 30
0.0
  9
$PUCSORGRIGHT
 10
0.0
 20
0.0
 30
0.0
  9
$PUCSORGFRONT
 10
0.0
 20
0.0
 30
0.0
  9
$PUCSORGBACK
 10
0.0
 20
0.0
 30
0.0
  9
$USERI1
 70
     0
  9
$USERI2
 70
     0
  9
$USERI3
 70
     0
  9
$USERI4
 70
     0
  9
$USERI5
 70
     0
  9
$USERR1
 40
0.0
  9
$USERR2
 40
0.0
  9
$USERR3
 40
0.0
  9
$USERR4
 40
0.0
  9
$USERR5
 40
0.0
  9
$WORLDVIEW
 70
     1
  9
$SHADEDGE
 70
     3
  9
$SHADEDIF
 70
    70
  9
$TILEMODE
 70
     1
  9
$MAXACTVP
 70
    64
  9
$PINSBASE
 10
0.0
 20
0.0
 30
0.0
  9
$PLIMCHECK
 70
     0
  9
$PEXTMIN
 10
1.000000000000000E+20
 20
1.000000000000000E+20
 30
1.000000000000000E+20
  9
$PEXTMAX
 10
-1.000000000000000E+20
 20
-1.000000000000000E+20
 30
-1.000000000000000E+20
  9
$PLIMMIN
 10
0.0
 20
0.0
  9
$PLIMMAX
 10
420.0
 20
297.0
  9
$UNITMODE
 70
     0
  9
$VISRETAIN
 70
     1
  9
$PLINEGEN
 70
     0
  9
$PSLTSCALE
 70
     1
  9
$TREEDEPTH
 70
  3020
  9
$CMLSTYLE
  2
Standard
  9
$CMLJUST
 70
     0
  9
$CMLSCALE
 40
20.0
  9
$PROXYGRAPHICS
 70
     1
  9
$MEASUREMENT
 70
     1
  9
$CELWEIGHT
370
    -1
  9
$ENDCAPS
280
     0
  9
$JOINSTYLE
280
     0
  9
$LWDISPLAY
290
     0
  9
$INSUNITS
 70
     4
  9
$HYPERLINKBASE
  1

  9
$STYLESHEET
  1

  9
$XEDIT
290
     1
  9
$CEPSNTYPE
380
     0
  9
$PSTYLEMODE
290
     1
  9
$FINGERPRINTGUID
  2
{C5FC71A0-2052-46E3-8455-2A91C4039D02}
  9
$VERSIONGUID
  2
{FAEB1C32-E019-11D5-929B-00C0DF256EC4}
  9
$EXTNAMES
290
     1
  9
$PSVPSCALE
 40
0.0
  9
$OLESTARTUP
290
     0
  9
$SORTENTS
280
   127
  9
$INDEXCTL
280
     0
  9
$HIDETEXT
280
     1
  9
$XCLIPFRAME
280
     2
  9
$HALOGAP
280
     0
  9
$OBSCOLOR
 70
   257
  9
$OBSLTYPE
280
     0
  9
$INTERSECTIONDISPLAY
280
     0
  9
$INTERSECTIONCOLOR
 70
   257
  9
$DIMASSOC
280
     2
  9
$PROJECTNAME
  1

  9
$CAMERADISPLAY
290
     0
  9
$LENSLENGTH
 40
50.0
  9
$CAMERAHEIGHT
 40
0.0
  9
$STEPSPERSEC
 40
2.0
  9
$STEPSIZE
 40
6.0
  9
$3DDWFPREC
 40
2.0
  9
$PSOLWIDTH
 40
5.0
  9
$PSOLHEIGHT
 40
80.0
  9
$LOFTANG1
 40
1.570796326794897
  9
$LOFTANG2
 40
1.570796326794897
  9
$LOFTMAG1
 40
0.0
  9
$LOFTMAG2
 40
0.0
  9
$LOFTPARAM
 70
     7
  9
$LOFTNORMALS
280
     1
  9
$LATITUDE
 40
37.795
  9
$LONGITUDE
 40
-122.394
  9
$NORTHDIRECTION
 40
0.0
  9
$TIMEZONE
 70
 -8000
  9
$LIGHTGLYPHDISPLAY
280
     1
  9
$TILEMODELIGHTSYNCH
280
     1
  9
$CMATERIAL
347
44
  9
$SOLIDHIST
280
     0
  9
$SHOWHIST
280
     1
  9
$DWFFRAME
280
     2
  9
$DGNFRAME
280
     2
  9
$REALWORLDSCALE
290
     1
  9
$INTERFERECOLOR
 62
   256
  9
$CSHADOW
280
     0
  9
$SHADOWPLANELOCATION
 40
0.0
  0
ENDSEC
  0
SECTION
  2
CLASSES
  0
CLASS
  1
ACDBDICTIONARYWDFLT
  2
AcDbDictionaryWithDefault
  3
ObjectDBX Classes
 90
        0
 91
        4
280
     0
281
     0
  0
CLASS
  1
VISUALSTYLE
  2
AcDbVisualStyle
  3
ObjectDBX Classes
 90
     4095
 91
        4
280
     0
281
     0
  0
CLASS
  1
MATERIAL
  2
AcDbMaterial
  3
ObjectDBX Classes
 90
     1153
 91
        4
280
     0
281
     0
  0
CLASS
  1
SCALE
  2
AcDbScale
  3
ObjectDBX Classes
 90
     1153
 91
        4
280
     0
281
     0
  0
CLASS
  1
TABLESTYLE
  2
AcDbTableStyle
  3
ObjectDBX Classes
 90
     4095
 91
        4
280
     0
281
     0
  0
CLASS
  1
MLEADERSTYLE
  2
AcDbMLeaderStyle
  3
ACDB_MLEADERSTYLE_CLASS
 90
     4095
 91
        4
280
     0
281
     0
  0
CLASS
  1
SUN
  2
AcDbSun
  3
SCENEOE
 90
     1153
 91
        4
280
     0
281
     0
  0
CLASS
  1
DICTIONARYVAR
  2
AcDbDictionaryVar
  3
ObjectDBX Classes
 90
        0
 91
        4
280
     0
281
     0
  0
CLASS
  1
CELLSTYLEMAP
  2
AcDbCellStyleMap
  3
ObjectDBX Classes
 90
     1152
 91
        4
280
     0
281
     0
  0
ENDSEC
  0
SECTION
  2
TABLES
  0
TABLE
  2
VPORT
  5
8
330
0
100
AcDbSymbolTable
 70
     1
  0
VPORT
  5
29
330
8
100
AcDbSymbolTableRecord
100
AcDbViewportTableRecord
  2
*Active
 70
     0
 10
0.0
 20
0.0
 11
1.0
 21
1.0
 12
0.0
 22
-3.916249999999991
 13
0.0
 23
0.0
 14
10.0
 24
10.0
 15
10.0
 25
10.0
 16
0.0
 26
0.0
 36
1.0
 17
0.0
 27
0.0
 37
0.0
 40
62.96715000000002
 41
2.983841574535292
 42
50.0
 43
0.0
 44
0.0
 50
0.0
 51
0.0
 71
     0
 72
   100
 73
     1
 74
     3
 75
     0
 76
     0
 77
     0
 78
     0
281
     0
 65
     1
110
0.0
120
0.0
130
0.0
111
1.0
121
0.0
131
0.0
112
0.0
122
1.0
132
0.0
 79
     0
146
0.0
348
2F
 60
     3
 61
     5
292
     1
282
     1
141
0.0
142
0.0
 63
   250
361
6D
  0
ENDTAB
  0
TABLE
  2
LTYPE
  5
5
330
0
100
AcDbSymbolTable
 70
     3
  0
LTYPE
  5
14
330
5
100
AcDbSymbolTableRecord
100
AcDbLinetypeTableRecord
  2
ByBlock
 70
     0
  3

 72
    65
 73
     0
 40
0.0
  0
LTYPE
  5
15
330
5
100
AcDbSymbolTableRecord
100
AcDbLinetypeTableRecord
  2
ByLayer
 70
     0
  3

 72
    65
 73
     0
 40
0.0
  0
LTYPE
  5
16
330
5
100
AcDbSymbolTableRecord
100
AcDbLinetypeTableRecord
  2
Continuous
 70
     0
  3
Solid line
 72
    65
 73
     0
 40
0.0
  0
LTYPE
  5
9B
330
5
100
AcDbSymbolTableRecord
100
AcDbLinetypeTableRecord
  2
Dashed
 70
     0
  3

 72
    65
 73
     2
 40
2.0
 49
1.0
 74
     0
 49
-1.0
 74
     0
  0
LTYPE
  5
116
330
5
100
AcDbSymbolTableRecord
100
AcDbLinetypeTableRecord
  2
Center
 70
     0
  3

 72
    65
 73
     4
 40
1.5
 49
0.45
 74
     0
 49
-0.5
 74
     0
 49
0.05
 74
     0
 49
-0.5
 74
     0
  0
ENDTAB
  0
TABLE
  2
LAYER
  5
2
330
0
100
AcDbSymbolTable
 70
     7
  0
LAYER
  5
10
330
2
100
AcDbSymbolTableRecord
100
AcDbLayerTableRecord
  2
0
 70
     0
 62
     7
  6
Continuous
370
    -3
390
F
347
46
348
0
  0
LAYER
  5
72
330
2
100
AcDbSymbolTableRecord
100
AcDbLayerTableRecord
  2
AM_6
 70
     0
 62
    -2
  6
Continuous
370
    35
390
F
347
46
348
0
  0
LAYER
  5
9C
330
2
100
AcDbSymbolTableRecord
100
AcDbLayerTableRecord
  2
AM_9
 70
     0
 62
     6
  6
Dashed
370
    25
390
F
347
46
348
0
  0
LAYER
  5
B9
330
2
100
AcDbSymbolTableRecord
100
AcDbLayerTableRecord
  2
AM_4
 70
     0
 62
     7
  6
Continuous
370
    50
390
F
347
46
348
0
  0
LAYER
  5
117
330
2
100
AcDbSymbolTableRecord
100
AcDbLayerTableRecord
  2
AM_7
 70
     0
 62
     7
  6
Center
370
    25
390
F
347
46
348
0
  0
LAYER
  5
12B
330
2
100
AcDbSymbolTableRecord
100
AcDbLayerTableRecord
  2
AM_5
 70
     0
 62
     3
  6
Continuous
370
    25
390
F
347
46
348
0
  0
LAYER
  5
1D3
330
2
100
AcDbSymbolTableRecord
100
AcDbLayerTableRecord
  2
ConnectionPoints
 70
     0
 62
     7
  6
Continuous
370
    50
390
F
347
46
348
0
  0
ENDTAB
  0
TABLE
  2
STYLE
  5
3
330
0
100
AcDbSymbolTable
 70
     1
  0
STYLE
  5
11
330
3
100
AcDbSymbolTableRecord
100
AcDbTextStyleTableRecord
  2
Standard
 70
     0
 40
0.0
 41
1.0
 50
0.0
 71
     0
 42
2.5
  3
txt
  4

  0
ENDTAB
  0
TABLE
  2
VIEW
  5
6
330
0
100
AcDbSymbolTable
 70
     0
  0
ENDTAB
  0
TABLE
  2
UCS
  5
7
330
0
100
AcDbSymbolTable
 70
     0
  0
ENDTAB
  0
TABLE
  2
APPID
  5
9
330
0
100
AcDbSymbolTable
 70
     1
  0
APPID
  5
12
330
9
100
AcDbSymbolTableRecord
100
AcDbRegAppTableRecord
  2
ACAD
 70
     0
  0
ENDTAB
  0
TABLE
  2
DIMSTYLE
  5
A
330
0
100
AcDbSymbolTable
 70
     1
100
AcDbDimStyleTable
  0
DIMSTYLE
105
27
330
A
100
AcDbSymbolTableRecord
100
AcDbDimStyleTableRecord
  2
ISO-25
 70
     0
 41
2.5
 42
0.625
 43
3.75
 44
1.25
 73
     0
 74
     0
 77
     1
 78
     8
140
2.5
141
2.5
143
0.03937007874016
147
0.625
171
     3
172
     1
178
     0
271
     2
272
     2
274
     3
278
    44
283
     0
284
     8
340
11
  0
ENDTAB
  0
TABLE
  2
BLOCK_RECORD
  5
1
330
0
100
AcDbSymbolTable
 70
     5
  0
BLOCK_RECORD
  5
1F
330
1
100
AcDbSymbolTableRecord
100
AcDbBlockTableRecord
  2
*Model_Space
340
22
 70
     0
280
     1
281
     0
  0
BLOCK_RECORD
  5
1B
330
1
100
AcDbSymbolTableRecord
100
AcDbBlockTableRecord
  2
*Paper_Space
340
1E
 70
     0
280
     1
281
     0
  0
BLOCK_RECORD
  5
23
330
1
100
AcDbSymbolTableRecord
100
AcDbBlockTableRecord
  2
*Paper_Space0
340
26
 70
     0
280
     1
281
     0
  0
BLOCK_RECORD
  5
6E
330
1
100
AcDbSymbolTableRecord
100
AcDbBlockTableRecord
  2
1_125716_4
340
0
102
{BLKREFS
331
6F
102
}
 70
     0
280
     1
281
     0
  0
BLOCK_RECORD
  5
8F
330
1
100
AcDbSymbolTableRecord
100
AcDbBlockTableRecord
  2
2_405015E_Metric_0_in_125716_4
340
0
102
{BLKREFS
331
90
102
}
 70
     0
280
     1
281
     0
  0
BLOCK_RECORD
  5
D7
330
1
100
AcDbSymbolTableRecord
100
AcDbBlockTableRecord
  2
3_125649_0_in_125716_4
340
0
102
{BLKREFS
331
D8
102
}
 70
     0
280
     1
281
     0
  0
BLOCK_RECORD
  5
12D
330
1
100
AcDbSymbolTableRecord
100
AcDbBlockTableRecord
  2
4_125716H_0_in_125716_4
340
0
102
{BLKREFS
331
12E
102
}
 70
     0
280
     1
281
     0
  0
ENDTAB
  0
ENDSEC
  0
SECTION
  2
BLOCKS
  0
BLOCK
  5
20
330
1F
100
AcDbEntity
  8
0
100
AcDbBlockBegin
  2
*Model_Space
 70
     0
 10
0.0
 20
0.0
 30
0.0
  3
*Model_Space
  1

  0
ENDBLK
  5
21
330
1F
100
AcDbEntity
  8
0
100
AcDbBlockEnd
  0
BLOCK
  5
1C
330
1B
100
AcDbEntity
 67
     1
  8
0
100
AcDbBlockBegin
  2
*Paper_Space
 70
     0
 10
0.0
 20
0.0
 30
0.0
  3
*Paper_Space
  1

  0
ENDBLK
  5
1D
330
1B
100
AcDbEntity
 67
     1
  8
0
100
AcDbBlockEnd
  0
BLOCK
  5
24
330
23
100
AcDbEntity
  8
0
100
AcDbBlockBegin
  2
*Paper_Space0
 70
     0
 10
0.0
 20
0.0
 30
0.0
  3
*Paper_Space0
  1

  0
ENDBLK
  5
25
330
23
100
AcDbEntity
  8
0
100
AcDbBlockEnd
  0
BLOCK
  5
70
330
6E
100
AcDbEntity
  8
0
100
AcDbBlockBegin
  2
1_125716_4
 70
     2
 10
0.0
 20
0.0
 30
0.0
  3
1_125716_4
  1

  0
ATTDEF
  5
73
330
6E
100
AcDbEntity
  8
AM_6
100
AcDbText
 10
97.10000000000001
 20
26.95
 30
0.0
 40
0.5
  1
Eccentric Collar Low Backing Height Intermediate Duty Two-Bolt Pillow Block Metric Bore
100
AcDbAttributeDefinition
  3

  2
NN
 70
     8
280
     0
  0
ATTDEF
  5
74
330
6E
100
AcDbEntity
  8
AM_6
100
AcDbText
 10
97.10000000000001
 20
26.45
 30
0.0
 40
0.5
  1
Eccentric Collar Pillow Block Bearings -(Intermediate Duty) -Low Backing Height
100
AcDbAttributeDefinition
  3

  2
NT
 70
     8
280
     0
  0
ATTDEF
  5
75
330
6E
100
AcDbEntity
  8
AM_6
100
AcDbText
 10
97.10000000000001
 20
25.95
 30
0.0
 40
0.5
  1
125716
100
AcDbAttributeDefinition
  3

  2
NB
 70
     8
280
     0
  0
ATTDEF
  5
76
330
6E
100
AcDbEntity
  8
AM_6
100
AcDbText
 10
97.10000000000001
 20
25.45
 30
0.0
 40
0.5
  1
$PN.
100
AcDbAttributeDefinition
  3

  2
NBSYN
 70
     8
280
     0
  0
ATTDEF
  5
77
330
6E
100
AcDbEntity
  8
AM_6
100
AcDbText
 10
97.10000000000001
 20
24.95
 30
0.0
 40
0.5
  1
125716
100
AcDbAttributeDefinition
  3

  2
LINA
 70
     8
280
     0
  0
ATTDEF
  5
78
330
6E
100
AcDbEntity
  8
AM_6
100
AcDbText
 10
97.10000000000001
 20
24.45
 30
0.0
 40
0.5
  1
208
100
AcDbAttributeDefinition
  3

  2
SERIES
 70
     8
280
     0
  0
ATTDEF
  5
79
330
6E
100
AcDbEntity
  8
AM_6
100
AcDbText
 10
97.10000000000001
 20
23.95
 30
0.0
 40
0.5
  1
40
100
AcDbAttributeDefinition
  3

  2
SS
 70
     8
280
     0
  0
ATTDEF
  5
7A
330
6E
100
AcDbEntity
  8
AM_6
100
AcDbText
 10
97.10000000000001
 20
23.45
 30
0.0
 40
0.5
  1
125716
100
AcDbAttributeDefinition
  3

  2
PN
 70
     8
280
     0
  0
ATTDEF
  5
7B
330
6E
100
AcDbEntity
  8
AM_6
100
AcDbText
 10
97.10000000000001
 20
22.95
 30
0.0
 40
0.5
  1
P2B-SXVB-40M
100
AcDbAttributeDefinition
  3

  2
DESCRIPTION
 70
     8
280
     0
  0
ATTDEF
  5
7C
330
6E
100
AcDbEntity
  8
AM_6
100
AcDbText
 10
97.10000000000001
 20
22.45
 30
0.0
 40
0.5
  1
2.2
100
AcDbAttributeDefinition
  3

  2
WEIGHT
 70
     8
280
     0
  0
ATTDEF
  5
7D
330
6E
100
AcDbEntity
  8
AM_6
100
AcDbText
 10
97.10000000000001
 20
21.95
 30
0.0
 40
0.5
  1
43.6
100
AcDbAttributeDefinition
  3

  2
A
 70
     8
280
     0
  0
ATTDEF
  5
7E
330
6E
100
AcDbEntity
  8
AM_6
100
AcDbText
 10
97.10000000000001
 20
21.45
 30
0.0
 40
0.5
  1
184.2
100
AcDbAttributeDefinition
  3

  2
B
 70
     8
280
     0
  0
ATTDEF
  5
7F
330
6E
100
AcDbEntity
  8
AM_6
100
AcDbText
 10
97.10000000000001
 20
20.95
 30
0.0
 40
0.5
  1
49.0
100
AcDbAttributeDefinition
  3

  2
C
 70
     8
280
     0
  0
ATTDEF
  5
80
330
6E
100
AcDbEntity
  8
AM_6
100
AcDbText
 10
97.10000000000001
 20
20.45
 30
0.0
 40
0.5
  1
131.6
100
AcDbAttributeDefinition
  3

  2
DMIN
 70
     8
280
     0
  0
ATTDEF
  5
81
330
6E
100
AcDbEntity
  8
AM_6
100
AcDbText
 10
97.10000000000001
 20
19.95
 30
0.0
 40
0.5
  1
149.4
100
AcDbAttributeDefinition
  3

  2
DMAX
 70
     8
280
     0
  0
ATTDEF
  5
82
330
6E
100
AcDbEntity
  8
AM_6
100
AcDbText
 10
97.10000000000001
 20
19.45
 30
0.0
 40
0.5
  1
M12
100
AcDbAttributeDefinition
  3

  2
F
 70
     8
280
     0
  0
ATTDEF
  5
83
330
6E
100
AcDbEntity
  8
AM_6
100
AcDbText
 10
97.10000000000001
 20
18.95
 30
0.0
 40
0.5
  1
23.1
100
AcDbAttributeDefinition
  3

  2
G
 70
     8
280
     0
  0
ATTDEF
  5
84
330
6E
100
AcDbEntity
  8
AM_6
100
AcDbText
 10
97.10000000000001
 20
18.45
 30
0.0
 40
0.5
  1
19.1
100
AcDbAttributeDefinition
  3

  2
H
 70
     8
280
     0
  0
ATTDEF
  5
85
330
6E
100
AcDbEntity
  8
AM_6
100
AcDbText
 10
97.10000000000001
 20
17.95
 30
0.0
 40
0.5
  1
101.6
100
AcDbAttributeDefinition
  3

  2
J
 70
     8
280
     0
  0
ATTDEF
  5
86
330
6E
100
AcDbEntity
  8
AM_6
100
AcDbText
 10
97.10000000000001
 20
17.45
 30
0.0
 40
0.5
  1
60.5
100
AcDbAttributeDefinition
  3

  2
L
 70
     8
280
     0
  0
ATTDEF
  5
87
330
6E
100
AcDbEntity
  8
AM_6
100
AcDbText
 10
97.10000000000001
 20
16.95
 30
0.0
 40
0.5
  1
49.3
100
AcDbAttributeDefinition
  3

  2
M
 70
     8
280
     0
  0
ATTDEF
  5
88
330
6E
100
AcDbEntity
  8
AM_6
100
AcDbText
 10
97.10000000000001
 20
16.45
 30
0.0
 40
0.5
  1
11.0
100
AcDbAttributeDefinition
  3

  2
R
 70
     8
280
     0
  0
ATTDEF
  5
89
330
6E
100
AcDbEntity
  8
AM_6
100
AcDbText
 10
97.10000000000001
 20
15.95
 30
0.0
 40
0.5
  1
32.6
100
AcDbAttributeDefinition
  3

  2
S
 70
     8
280
     0
  0
ATTDEF
  5
8A
330
6E
100
AcDbEntity
  8
AM_6
100
AcDbText
 10
97.10000000000001
 20
15.45
 30
0.0
 40
0.5
  1
82.8
100
AcDbAttributeDefinition
  3

  2
U
 70
     8
280
     0
  0
ATTDEF
  5
8B
330
6E
100
AcDbEntity
  8
AM_6
100
AcDbText
 10
97.10000000000001
 20
14.95
 30
0.0
 40
0.5
  1
165.6
100
AcDbAttributeDefinition
  3

  2
V
 70
     8
280
     0
  0
ATTDEF
  5
8C
330
6E
100
AcDbEntity
  8
AM_6
100
AcDbText
 10
97.10000000000001
 20
14.45
 30
0.0
 40
0.5
  1
17.5
100
AcDbAttributeDefinition
  3

  2
W
 70
     8
280
     0
  0
ATTDEF
  5
8D
330
6E
100
AcDbEntity
  8
AM_6
100
AcDbText
 10
97.10000000000001
 20
13.95
 30
0.0
 40
0.5
  1
3.0
100
AcDbAttributeDefinition
  3

  2
X
 70
     8
280
     0
  0
ATTDEF
  5
8E
330
6E
100
AcDbEntity
  8
AM_6
100
AcDbText
 10
97.10000000000001
 20
13.45
 30
0.0
 40
0.5
  1
baldor
100
AcDbAttributeDefinition
  3

  2
COMPANY
 70
     8
280
     0
  0
INSERT
  5
90
330
6E
100
AcDbEntity
  8
0
100
AcDbBlockReference
  2
2_405015E_Metric_0_in_125716_4
 10
0.0
 20
0.0
 30
0.0
  0
INSERT
  5
D8
330
6E
100
AcDbEntity
  8
0
100
AcDbBlockReference
  2
3_125649_0_in_125716_4
 10
0.0
 20
0.0
 30
0.0
  0
INSERT
  5
12E
330
6E
100
AcDbEntity
  8
0
100
AcDbBlockReference
  2
4_125716H_0_in_125716_4
 10
0.0
 20
0.0
 30
0.0
  0
ENDBLK
  5
71
330
6E
100
AcDbEntity
  8
0
100
AcDbBlockEnd
  0
BLOCK
  5
91
330
8F
100
AcDbEntity
  8
0
100
AcDbBlockBegin
  2
2_405015E_Metric_0_in_125716_4
 70
     2
 10
0.0
 20
0.0
 30
0.0
  3
2_405015E_Metric_0_in_125716_4
  1

  0
ATTDEF
  5
93
330
8F
100
AcDbEntity
  8
AM_6
100
AcDbText
 10
50.39056140899508
 20
5.000000000000005
 30
0.0
 40
0.5
  1
405015E -Metric
100
AcDbAttributeDefinition
  3

  2
NN
 70
     8
280
     0
  0
ATTDEF
  5
94
330
8F
100
AcDbEntity
  8
AM_6
100
AcDbText
 10
50.39056140899508
 20
4.500000000000005
 30
0.0
 40
0.5
  1
Grease Fitting
100
AcDbAttributeDefinition
  3

  2
NT
 70
     8
280
     0
  0
ATTDEF
  5
95
330
8F
100
AcDbEntity
  8
AM_6
100
AcDbText
 10
50.39056140899508
 20
4.000000000000005
 30
0.0
 40
0.5
  1
405015E-Metric
100
AcDbAttributeDefinition
  3

  2
NB
 70
     8
280
     0
  0
ATTDEF
  5
96
330
8F
100
AcDbEntity
  8
AM_6
100
AcDbText
 10
50.39056140899508
 20
3.500000000000005
 30
0.0
 40
0.5
  1
$MN.-Metric
100
AcDbAttributeDefinition
  3

  2
NBSYN
 70
     8
280
     0
  0
ATTDEF
  5
97
330
8F
100
AcDbEntity
  8
AM_6
100
AcDbText
 10
50.39056140899508
 20
3.000000000000005
 30
0.0
 40
0.5
  1
405015E
100
AcDbAttributeDefinition
  3

  2
LINA
 70
     8
280
     0
  0
ATTDEF
  5
98
330
8F
100
AcDbEntity
  8
AM_6
100
AcDbText
 10
50.39056140899508
 20
2.500000000000005
 30
0.0
 40
0.5
  1
405015E
100
AcDbAttributeDefinition
  3

  2
MN
 70
     8
280
     0
  0
ATTDEF
  5
99
330
8F
100
AcDbEntity
  8
AM_6
100
AcDbText
 10
50.39056140899508
 20
2.000000000000005
 30
0.0
 40
0.5
  1
1/8 x 27PTF
100
AcDbAttributeDefinition
  3

  2
T
 70
     8
280
     0
  0
ATTDEF
  5
9A
330
8F
100
AcDbEntity
  8
AM_6
100
AcDbText
 10
50.39056140899508
 20
1.500000000000005
 30
0.0
 40
0.5
  1
baldor
100
AcDbAttributeDefinition
  3

  2
COMPANY
 70
     8
280
     0
  0
LWPOLYLINE
  5
9D
330
8F
100
AcDbEntity
  8
AM_9
100
AcDbPolyline
 90
        3
 70
     0
 43
0.0
 10
40.0435468345354
 20
2.500000000000002
 10
40.59254007265658
 20
1.250000000000002
 10
41.21072210319931
 20
0.000000000000002
  0
LWPOLYLINE
  5
9E
330
8F
100
AcDbEntity
  8
AM_9
100
AcDbPolyline
 90
        3
 70
     0
 43
0.0
 10
41.21072210319931
 20
0.000000000000002
 10
40.59517630676817
 20
-1.244379663409131
 10
40.0435468345354
 20
-2.499999999999997
  0
ELLIPSE
  5
9F
330
8F
100
AcDbEntity
  8
AM_9
100
AcDbEllipse
 10
32.22214891188978
 20
0.000000000000002
 30
0.0
 11
2.546036870355444E-16
 21
4.15799375318352
 31
0.0
210
0.0
220
0.0
230
1.0
 40
0.7071067811865476
 41
0.0
 42
6.283185307179586
  0
LWPOLYLINE
  5
A0
330
8F
100
AcDbEntity
  8
AM_9
100
AcDbPolyline
 90
        3
 70
     0
 43
0.0
 10
43.03893336175044
 20
0.0000000000000023
 10
42.63844741763202
 20
1.244379663409136
 10
42.16486717809504
 20
2.500000000000002
  0
LWPOLYLINE
  5
A1
330
8F
100
AcDbEntity
  8
AM_9
100
AcDbPolyline
 90
        3
 70
     0
 43
0.0
 10
42.16486717809504
 20
-2.499999999999996
 10
42.63649466613351
 20
-1.249999999999996
 10
43.03893336175044
 20
0.0000000000000023
  0
LWPOLYLINE
  5
A2
330
8F
100
AcDbEntity
  8
AM_9
100
AcDbPolyline
 90
        3
 70
     0
 43
0.0
 10
40.0435468345354
 20
-2.499999999999997
 10
39.57191934649693
 20
-3.749999999999997
 10
39.16948065088
 20
-4.999999999999997
  0
LINE
  5
A3
330
8F
100
AcDbEntity
  8
AM_9
100
AcDbLine
 10
43.03893336175044
 20
0.0000000000000023
 30
0.0
 11
41.21072210319931
 21
0.000000000000002
 31
0.0
  0
LWPOLYLINE
  5
A4
330
8F
100
AcDbEntity
  8
AM_9
100
AcDbPolyline
 90
        3
 70
     0
 43
0.0
 10
39.16948065088
 20
5.000000000000003
 10
39.56996659499841
 20
3.755620336590868
 10
40.0435468345354
 20
2.500000000000002
  0
LINE
  5
A5
330
8F
100
AcDbEntity
  8
AM_9
100
AcDbLine
 10
41.90542280758491
 20
-3.112413073492108
 30
0.0
 11
42.16486717809504
 21
-2.499999999999996
 31
0.0
  0
LINE
  5
A6
330
8F
100
AcDbEntity
  8
AM_9
100
AcDbLine
 10
42.16486717809504
 20
2.500000000000002
 30
0.0
 11
41.90897553150231
 21
3.104314532384709
 31
0.0
  0
LINE
  5
A7
330
8F
100
AcDbEntity
  8
AM_9
100
AcDbLine
 10
32.54129438198461
 20
-4.755705400136177
 30
0.0
 11
36.87214515786649
 21
-4.947206875946621
 31
0.0
  0
LINE
  5
A8
330
8F
100
AcDbEntity
  8
AM_9
100
AcDbLine
 10
36.87214515786649
 20
4.947206875946628
 30
0.0
 11
32.54129438198461
 21
4.755705400136183
 31
0.0
  0
ELLIPSE
  5
A9
330
8F
100
AcDbEntity
  8
AM_9
100
AcDbEllipse
 10
39.10300499961706
 20
0.0000000000003122
 30
0.0
 11
-9.184850993604079E-16
 21
-4.999999999999417
 31
0.0
210
0.0
220
0.0
230
1.0
 40
0.7071067811864438
 41
0.8982051386271097
 42
2.243387514962588
  0
LINE
  5
AA
330
8F
100
AcDbEntity
  8
AM_9
100
AcDbLine
 10
41.88269403002602
 20
1.989928832732516
 30
0.0
 11
41.61887455813913
 21
2.406586417453949
 31
0.0
  0
LINE
  5
AB
330
8F
100
AcDbEntity
  8
AM_9
100
AcDbLine
 10
41.61887455813913
 20
-2.406586417453943
 30
0.0
 11
41.88269403002602
 21
-1.989928832732511
 31
0.0
  0
ELLIPSE
  5
AC
330
8F
100
AcDbEntity
  8
AM_9
100
AcDbEllipse
 10
40.31131846914737
 20
0.0000000000000288
 30
0.0
 11
-5.479672885901851E-16
 21
-2.982994982562598
 31
0.0
210
0.0
220
0.0
230
1.0
 40
0.7071067811865476
 41
0.3869422381884116
 42
2.754650415401374
  0
ELLIPSE
  5
AD
330
8F
100
AcDbEntity
  8
AM_9
100
AcDbEllipse
 10
39.71847941872116
 20
-0.0000000000111817
 30
0.0
 11
-6.627024103738041E-16
 21
-3.607583894584699
 31
0.0
210
0.0
220
0.0
230
1.0
 40
0.7071067811865468
 41
0.6633833151882094
 42
2.478209338405399
  0
LINE
  5
AE
330
8F
100
AcDbEntity
  8
AM_9
100
AcDbLine
 10
41.60222722198908
 20
2.477229919855584
 30
0.0
 11
41.1306655711241
 21
2.748977116714938
 31
0.0
  0
LINE
  5
AF
330
8F
100
AcDbEntity
  8
AM_9
100
AcDbLine
 10
41.1306655711241
 20
-2.748977116714933
 30
0.0
 11
41.60222722198908
 21
-2.477229919855578
 31
0.0
  0
ELLIPSE
  5
B0
330
8F
100
AcDbEntity
  8
AM_9
100
AcDbEllipse
 10
40.88844962211207
 20
0.0000000000000139
 30
0.0
 11
-4.913895281578789E-16
 21
-2.675000000000019
 31
0.0
210
0.0
220
0.0
230
1.0
 40
0.707106781186554
 41
0.0
 42
3.141592653589793
  0
ELLIPSE
  5
B1
330
8F
100
AcDbEntity
  8
AM_9
100
AcDbEllipse
 10
39.1030049996161
 20
-0.0000000000000092
 30
0.0
 11
-8.725608443924816E-16
 21
-4.749999999999959
 31
0.0
210
0.0
220
0.0
230
1.0
 40
0.7071067811865474
 41
0.8736482899485543
 42
2.267944363641243
  0
LINE
  5
B2
330
8F
100
AcDbEntity
  8
AM_9
100
AcDbLine
 10
41.00512224100788
 20
-2.674999999999997
 30
0.0
 11
41.38342436894268
 21
-2.674999999999997
 31
0.0
  0
LINE
  5
B3
330
8F
100
AcDbEntity
  8
AM_9
100
AcDbLine
 10
41.38342436894268
 20
2.675000000000002
 30
0.0
 11
41.00512224100788
 21
2.675000000000002
 31
0.0
  0
ELLIPSE
  5
B4
330
8F
100
AcDbEntity
  8
AM_9
100
AcDbEllipse
 10
41.38342436894268
 20
0.000000000000008
 30
0.0
 11
-4.913895281578758E-16
 21
-2.675000000000002
 31
0.0
210
0.0
220
0.0
230
1.0
 40
0.7071067811865479
 41
5.888394187479824
 42
9.81956908046914
  0
ELLIPSE
  5
B5
330
8F
100
AcDbEntity
  8
AM_9
100
AcDbEllipse
 10
42.3026631844852
 20
-0.0000000000000044
 30
0.0
 11
-5.832380380939300E-16
 21
-3.175000000000017
 31
0.0
210
0.0
220
0.0
230
1.0
 40
0.7071067811865432
 41
0.4159140521025488
 42
2.725678601487245
  0
ELLIPSE
  5
B6
330
8F
100
AcDbEntity
  8
AM_9
100
AcDbEllipse
 10
36.98168465605643
 20
-0.0000000000000089
 30
0.0
 11
-9.184850993605174E-16
 21
-5.000000000000014
 31
0.0
210
0.0
220
0.0
230
1.0
 40
0.7071067811865483
 41
0.0
 42
6.283185307179586
  0
ELLIPSE
  5
B7
330
8F
100
AcDbEntity
  8
AM_9
100
AcDbEllipse
 10
36.98168465605642
 20
-0.0000000000000044
 30
0.0
 11
-9.092325864233693E-16
 21
-4.949631665534979
 31
0.0
210
0.0
220
0.0
230
1.0
 40
0.7071067811865481
 41
0.0
 42
6.283185307179586
  0
ELLIPSE
  5
B8
330
8F
100
AcDbEntity
  8
AM_9
100
AcDbEllipse
 10
32.64643822666721
 20
0.0000000000000044
 30
0.0
 11
-8.740358316248936E-16
 21
-4.758029456511768
 31
0.0
210
0.0
220
0.0
230
1.0
 40
0.7071067811865497
 41
0.0
 42
6.283185307179586
  0
LWPOLYLINE
  5
BA
330
8F
100
AcDbEntity
  8
AM_4
100
AcDbPolyline
 90
        3
 70
     0
 43
0.0
 10
40.99769190943113
 20
-4.999999999999997
 10
41.61323770586226
 20
-3.755620336590864
 10
41.90542280758491
 20
-3.112413073492108
  0
LWPOLYLINE
  5
BB
330
8F
100
AcDbEntity
  8
AM_4
100
AcDbPolyline
 90
        3
 70
     0
 43
0.0
 10
41.90897553150231
 20
3.104314532384709
 10
41.61587393997385
 20
3.750000000000003
 10
40.99769190943113
 20
5.000000000000003
  0
ELLIPSE
  5
BC
330
8F
100
AcDbEntity
  8
AM_4
100
AcDbEllipse
 10
39.10300499961607
 20
0.0000000000000044
 30
0.0
 11
-9.184850993605126E-16
 21
-4.999999999999988
 31
0.0
210
0.0
220
0.0
230
1.0
 40
0.7071067811865479
 41
2.243387514962533
 42
7.181390445806846
  0
ELLIPSE
  5
BD
330
8F
100
AcDbEntity
  8
AM_4
100
AcDbEllipse
 10
39.71847941871267
 20
0.000000000000002
 30
0.0
 11
-6.627024103768196E-16
 21
-3.607583894601115
 31
0.0
210
0.0
220
0.0
230
1.0
 40
0.7071067811865476
 41
2.478209338400871
 42
6.94656862236851
  0
LINE
  5
BE
330
8F
100
AcDbEntity
  8
AM_4
100
AcDbLine
 10
41.1306655711241
 20
2.748977116714938
 30
0.0
 11
41.10727921647401
 21
2.762453989376798
 31
0.0
  0
LINE
  5
BF
330
8F
100
AcDbEntity
  8
AM_4
100
AcDbLine
 10
41.10727921647401
 20
-2.762453989376794
 30
0.0
 11
41.1306655711241
 21
-2.748977116714933
 31
0.0
  0
ELLIPSE
  5
C0
330
8F
100
AcDbEntity
  8
AM_4
100
AcDbEllipse
 10
40.31131846914744
 20
0.0000000000000029
 30
0.0
 11
-5.479672885901694E-16
 21
-2.982994982562513
 31
0.0
210
0.0
220
0.0
230
1.0
 40
0.7071067811865487
 41
2.754650415401407
 42
6.670127545367972
  0
ELLIPSE
  5
C1
330
8F
100
AcDbEntity
  8
AM_4
100
AcDbEllipse
 10
39.10300499961606
 20
0.0000000000000024
 30
0.0
 11
-8.725608443924888E-16
 21
-4.749999999999998
 31
0.0
210
0.0
220
0.0
230
1.0
 40
0.7071067811865475
 41
2.267944363641233
 42
7.156833597128144
  0
LWPOLYLINE
  5
C2
330
8F
100
AcDbEntity
  8
AM_4
100
AcDbPolyline
 90
        3
 70
     0
 43
0.0
 10
36.91520900479249
 20
5.000000000000003
 10
36.51472306067409
 20
3.755620336590869
 10
36.04114282113709
 20
2.500000000000002
  0
LINE
  5
C3
330
8F
100
AcDbEntity
  8
AM_4
100
AcDbLine
 10
40.99769190943113
 20
5.000000000000003
 30
0.0
 11
35.08699774624136
 21
5.000000000000003
 31
0.0
  0
LWPOLYLINE
  5
C4
330
8F
100
AcDbEntity
  8
AM_4
100
AcDbPolyline
 90
        3
 70
     0
 43
0.0
 10
33.91982247757745
 20
2.500000000000002
 10
34.46881571569864
 20
3.750000000000002
 10
35.08699774624136
 20
5.000000000000003
  0
LWPOLYLINE
  5
C5
330
8F
100
AcDbEntity
  8
AM_4
100
AcDbPolyline
 90
        3
 70
     0
 43
0.0
 10
33.04575629392205
 20
0.0000000000000025
 10
33.44624223804046
 20
1.244379663409135
 10
33.91982247757745
 20
2.500000000000002
  0
LINE
  5
C6
330
8F
100
AcDbEntity
  8
AM_4
100
AcDbLine
 10
40.99769190943113
 20
-4.999999999999997
 30
0.0
 11
35.08699774624136
 21
-4.999999999999997
 31
0.0
  0
LWPOLYLINE
  5
C7
330
8F
100
AcDbEntity
  8
AM_4
100
AcDbPolyline
 90
        3
 70
     0
 43
0.0
 10
36.04114282113709
 20
-2.499999999999996
 10
36.51277030917556
 20
-3.749999999999997
 10
36.91520900479249
 20
-4.999999999999997
  0
LINE
  5
C8
330
8F
100
AcDbEntity
  8
AM_4
100
AcDbLine
 10
34.87396755247318
 20
0.0000000000000026
 30
0.0
 11
33.04575629392205
 21
0.0000000000000025
 31
0.0
  0
LWPOLYLINE
  5
C9
330
8F
100
AcDbEntity
  8
AM_4
100
AcDbPolyline
 90
        3
 70
     0
 43
0.0
 10
33.91982247757745
 20
-2.499999999999997
 10
33.44819498953898
 20
-1.249999999999997
 10
33.04575629392205
 20
0.0000000000000025
  0
LWPOLYLINE
  5
CA
330
8F
100
AcDbEntity
  8
AM_4
100
AcDbPolyline
 90
        3
 70
     0
 43
0.0
 10
35.08699774624136
 20
-4.999999999999997
 10
34.47145194981022
 20
-3.755620336590864
 10
33.91982247757745
 20
-2.499999999999997
  0
LWPOLYLINE
  5
CB
330
8F
100
AcDbEntity
  8
AM_4
100
AcDbPolyline
 90
        3
 70
     0
 43
0.0
 10
36.04114282113709
 20
2.500000000000002
 10
35.4921495830159
 20
1.250000000000003
 10
34.87396755247318
 20
0.0000000000000026
  0
LWPOLYLINE
  5
CC
330
8F
100
AcDbEntity
  8
AM_4
100
AcDbPolyline
 90
        3
 70
     0
 43
0.0
 10
34.87396755247318
 20
0.0000000000000026
 10
35.48951334890432
 20
-1.24437966340913
 10
36.04114282113709
 20
-2.499999999999996
  0
LINE
  5
CD
330
8F
100
AcDbEntity
  8
AM_4
100
AcDbLine
 10
40.8884496221121
 20
-2.674999999999997
 30
0.0
 11
41.00512224100788
 21
-2.674999999999997
 31
0.0
  0
LINE
  5
CE
330
8F
100
AcDbEntity
  8
AM_4
100
AcDbLine
 10
41.00512224100788
 20
2.675000000000002
 30
0.0
 11
40.8884496221121
 21
2.675000000000002
 31
0.0
  0
ELLIPSE
  5
CF
330
8F
100
AcDbEntity
  8
AM_4
100
AcDbEllipse
 10
40.88844962211209
 20
0.0000000000000029
 30
0.0
 11
-4.913895281578751E-16
 21
-2.674999999999998
 31
0.0
210
0.0
220
0.0
230
1.0
 40
0.7071067811865489
 41
3.141592653589793
 42
6.283185307179586
  0
LINE
  5
D0
330
8F
100
AcDbEntity
  8
AM_4
100
AcDbLine
 10
40.65592027676037
 20
-2.469230769230767
 30
0.0
 11
41.43917701899777
 21
-2.930769230769228
 31
0.0
  0
LINE
  5
D1
330
8F
100
AcDbEntity
  8
AM_4
100
AcDbLine
 10
41.43917701899777
 20
2.930769230769233
 30
0.0
 11
40.65592027676037
 21
2.469230769230772
 31
0.0
  0
ELLIPSE
  5
D2
330
8F
100
AcDbEntity
  8
AM_4
100
AcDbEllipse
 10
42.3026631844852
 20
0.0000000000000024
 30
0.0
 11
-5.832380380939284E-16
 21
-3.175000000000008
 31
0.0
210
0.0
220
0.0
230
1.0
 40
0.7071067811865452
 41
2.725678601487245
 42
6.699099359282135
  0
ELLIPSE
  5
D3
330
8F
100
AcDbEntity
  8
AM_4
100
AcDbEllipse
 10
41.38342436894269
 20
0.0000000000000024
 30
0.0
 11
-4.913895281578760E-16
 21
-2.675000000000003
 31
0.0
210
0.0
220
0.0
230
1.0
 40
0.7071067811865502
 41
3.536383773289558
 42
5.888394187479823
  0
LINE
  5
D4
330
8F
100
AcDbEntity
  8
AM_4
100
AcDbLine
 10
44.39308924413961
 20
2.16515911969191
 30
0.0
 11
43.20972793139236
 21
2.904323000259529
 31
0.0
  0
LINE
  5
D5
330
8F
100
AcDbEntity
  8
AM_4
100
AcDbLine
 10
43.20972793139236
 20
-2.904323000259525
 30
0.0
 11
44.39308924413961
 21
-2.165159119691905
 31
0.0
  0
ELLIPSE
  5
D6
330
8F
100
AcDbEntity
  8
AM_4
100
AcDbEllipse
 10
43.71687674685827
 20
-0.0000000000000084
 30
0.0
 11
-4.348012108217470E-16
 21
-2.366947548329704
 31
0.0
210
0.0
220
0.0
230
1.0
 40
0.7071067811865507
 41
0.0
 42
6.283185307179586
  0
ENDBLK
  5
92
330
8F
100
AcDbEntity
  8
0
100
AcDbBlockEnd
  0
BLOCK
  5
D9
330
D7
100
AcDbEntity
  8
0
100
AcDbBlockBegin
  2
3_125649_0_in_125716_4
 70
     2
 10
0.0
 20
0.0
 30
0.0
  3
3_125649_0_in_125716_4
  1

  0
ATTDEF
  5
DB
330
D7
100
AcDbEntity
  8
AM_6
100
AcDbText
 10
47.7975
 20
11.05
 30
0.0
 40
0.5
  1
Eccentric Collar Intermediate Duty Insert Metric Bore
100
AcDbAttributeDefinition
  3

  2
NN
 70
     8
280
     0
  0
ATTDEF
  5
DC
330
D7
100
AcDbEntity
  8
AM_6
100
AcDbText
 10
47.7975
 20
10.55
 30
0.0
 40
0.5
  1
Eccentric Collar Bearing Inserts -(Intermediate Duty)
100
AcDbAttributeDefinition
  3

  2
NT
 70
     8
280
     0
  0
ATTDEF
  5
DD
330
D7
100
AcDbEntity
  8
AM_6
100
AcDbText
 10
47.7975
 20
10.05
 30
0.0
 40
0.5
  1
125649
100
AcDbAttributeDefinition
  3

  2
NB
 70
     8
280
     0
  0
ATTDEF
  5
DE
330
D7
100
AcDbEntity
  8
AM_6
100
AcDbText
 10
47.7975
 20
9.55
 30
0.0
 40
0.5
  1
$PN.
100
AcDbAttributeDefinition
  3

  2
NBSYN
 70
     8
280
     0
  0
ATTDEF
  5
DF
330
D7
100
AcDbEntity
  8
AM_6
100
AcDbText
 10
47.7975
 20
9.05
 30
0.0
 40
0.5
  1
125649
100
AcDbAttributeDefinition
  3

  2
LINA
 70
     8
280
     0
  0
ATTDEF
  5
E0
330
D7
100
AcDbEntity
  8
AM_6
100
AcDbText
 10
47.7975
 20
8.55
 30
0.0
 40
0.5
  1
208
100
AcDbAttributeDefinition
  3

  2
SERIES
 70
     8
280
     0
  0
ATTDEF
  5
E1
330
D7
100
AcDbEntity
  8
AM_6
100
AcDbText
 10
47.7975
 20
8.05
 30
0.0
 40
0.5
  1
40
100
AcDbAttributeDefinition
  3

  2
SS
 70
     8
280
     0
  0
ATTDEF
  5
E2
330
D7
100
AcDbEntity
  8
AM_6
100
AcDbText
 10
47.7975
 20
7.550000000000001
 30
0.0
 40
0.5
  1
125649
100
AcDbAttributeDefinition
  3

  2
PN
 70
     8
280
     0
  0
ATTDEF
  5
E3
330
D7
100
AcDbEntity
  8
AM_6
100
AcDbText
 10
47.7975
 20
7.050000000000001
 30
0.0
 40
0.5
  1
INS-SXV-40M
100
AcDbAttributeDefinition
  3

  2
DESCRIPTION
 70
     8
280
     0
  0
ATTDEF
  5
E4
330
D7
100
AcDbEntity
  8
AM_6
100
AcDbText
 10
47.7975
 20
6.550000000000001
 30
0.0
 40
0.5
  1
0.8
100
AcDbAttributeDefinition
  3

  2
WEIGHT
 70
     8
280
     0
  0
ATTDEF
  5
E5
330
D7
100
AcDbEntity
  8
AM_6
100
AcDbText
 10
47.7975
 20
6.050000000000001
 30
0.0
 40
0.5
  1
43.6
100
AcDbAttributeDefinition
  3

  2
A
 70
     8
280
     0
  0
ATTDEF
  5
E6
330
D7
100
AcDbEntity
  8
AM_6
100
AcDbText
 10
47.7975
 20
5.550000000000001
 30
0.0
 40
0.5
  1
22.1
100
AcDbAttributeDefinition
  3

  2
C
 70
     8
280
     0
  0
ATTDEF
  5
E7
330
D7
100
AcDbEntity
  8
AM_6
100
AcDbText
 10
47.7975
 20
5.050000000000001
 30
0.0
 40
0.5
  1
80.0
100
AcDbAttributeDefinition
  3

  2
D
 70
     8
280
     0
  0
ATTDEF
  5
E8
330
D7
100
AcDbEntity
  8
AM_6
100
AcDbText
 10
47.7975
 20
4.550000000000001
 30
0.0
 40
0.5
  1
5.6
100
AcDbAttributeDefinition
  3

  2
J
 70
     8
280
     0
  0
ATTDEF
  5
E9
330
D7
100
AcDbEntity
  8
AM_6
100
AcDbText
 10
47.7975
 20
4.050000000000001
 30
0.0
 40
0.5
  1
60.5
100
AcDbAttributeDefinition
  3

  2
L
 70
     8
280
     0
  0
ATTDEF
  5
EA
330
D7
100
AcDbEntity
  8
AM_6
100
AcDbText
 10
47.7975
 20
3.550000000000001
 30
0.0
 40
0.5
  1
M10 x 1.5
100
AcDbAttributeDefinition
  3

  2
N
 70
     8
280
     0
  0
ATTDEF
  5
EB
330
D7
100
AcDbEntity
  8
AM_6
100
AcDbText
 10
47.7975
 20
3.050000000000001
 30
0.0
 40
0.5
  1
11.0
100
AcDbAttributeDefinition
  3

  2
W
 70
     8
280
     0
  0
ATTDEF
  5
EC
330
D7
100
AcDbEntity
  8
AM_6
100
AcDbText
 10
47.7975
 20
2.550000000000001
 30
0.0
 40
0.5
  1
32.6
100
AcDbAttributeDefinition
  3

  2
Y
 70
     8
280
     0
  0
ATTDEF
  5
ED
330
D7
100
AcDbEntity
  8
AM_6
100
AcDbText
 10
47.7975
 20
2.050000000000001
 30
0.0
 40
0.5
  1
52.1
100
AcDbAttributeDefinition
  3

  2
Z
 70
     8
280
     0
  0
ATTDEF
  5
EE
330
D7
100
AcDbEntity
  8
AM_6
100
AcDbText
 10
47.7975
 20
1.550000000000001
 30
0.0
 40
0.5
  1
baldor
100
AcDbAttributeDefinition
  3

  2
COMPANY
 70
     8
280
     0
  0
ARC
  5
EF
330
D7
100
AcDbEntity
  8
AM_9
100
AcDbCircle
 10
39.49999999999999
 20
5.599999999999989
 30
0.0
 40
2.500000000000014
100
AcDbArc
 50
278.6838613880395
 51
90.0
  0
LINE
  5
F0
330
D7
100
AcDbEntity
  8
AM_9
100
AcDbLine
 10
39.5
 20
8.1
 30
0.0
 11
39.17197573539143
 21
8.1
 31
0.0
  0
LINE
  5
F1
330
D7
100
AcDbEntity
  8
AM_9
100
AcDbLine
 10
39.5
 20
8.1
 30
0.0
 11
39.5
 21
5.791071428573574
 31
0.0
  0
LINE
  5
F2
330
D7
100
AcDbEntity
  8
AM_9
100
AcDbLine
 10
20.0
 20
-17.2
 30
0.0
 11
20.0
 21
11.0
 31
0.0
  0
LINE
  5
F3
330
D7
100
AcDbEntity
  8
AM_9
100
AcDbLine
 10
-20.0
 20
11.0
 30
0.0
 11
-20.0
 21
-17.2
 31
0.0
  0
LINE
  5
F4
330
D7
100
AcDbEntity
  8
AM_9
100
AcDbLine
 10
20.0
 20
-32.03431457505076
 30
0.0
 11
20.0
 21
-18.0
 31
0.0
  0
LINE
  5
F5
330
D7
100
AcDbEntity
  8
AM_9
100
AcDbLine
 10
-20.0
 20
-18.0
 30
0.0
 11
-20.0
 21
-32.03431457505076
 31
0.0
  0
LINE
  5
F6
330
D7
100
AcDbEntity
  8
AM_9
100
AcDbLine
 10
-20.0
 20
-17.2
 30
0.0
 11
20.0
 21
-17.2
 31
0.0
  0
LINE
  5
F7
330
D7
100
AcDbEntity
  8
AM_9
100
AcDbLine
 10
-20.0
 20
-17.2
 30
0.0
 11
-20.4
 21
-17.6
 31
0.0
  0
LINE
  5
F8
330
D7
100
AcDbEntity
  8
AM_9
100
AcDbLine
 10
20.4
 20
-17.6
 30
0.0
 11
20.0
 21
-17.2
 31
0.0
  0
LINE
  5
F9
330
D7
100
AcDbEntity
  8
AM_9
100
AcDbLine
 10
-20.0
 20
-18.0
 30
0.0
 11
20.0
 21
-18.0
 31
0.0
  0
LINE
  5
FA
330
D7
100
AcDbEntity
  8
AM_9
100
AcDbLine
 10
20.0
 20
-18.0
 30
0.0
 11
20.4
 21
-17.6
 31
0.0
  0
LINE
  5
FB
330
D7
100
AcDbEntity
  8
AM_9
100
AcDbLine
 10
-20.4
 20
-17.6
 30
0.0
 11
-20.0
 21
-18.0
 31
0.0
  0
LINE
  5
FC
330
D7
100
AcDbEntity
  8
AM_9
100
AcDbLine
 10
-20.0
 20
-32.03431457505076
 30
0.0
 11
20.0
 21
-32.03431457505076
 31
0.0
  0
LINE
  5
FD
330
D7
100
AcDbEntity
  8
AM_9
100
AcDbLine
 10
-20.0
 20
-32.03431457505076
 30
0.0
 11
-20.56568542494923
 21
-32.6
 31
0.0
  0
LINE
  5
FE
330
D7
100
AcDbEntity
  8
AM_9
100
AcDbLine
 10
20.56568542494923
 20
-32.6
 30
0.0
 11
20.0
 21
-32.03431457505076
 31
0.0
  0
LINE
  5
FF
330
D7
100
AcDbEntity
  8
AM_9
100
AcDbLine
 10
-26.05
 20
11.0
 30
0.0
 11
26.05
 21
11.0
 31
0.0
  0
LINE
  5
100
330
D7
100
AcDbEntity
  8
AM_9
100
AcDbLine
 10
26.05
 20
11.0
 30
0.0
 11
26.05
 21
11.05
 31
0.0
  0
LINE
  5
101
330
D7
100
AcDbEntity
  8
AM_9
100
AcDbLine
 10
-26.05
 20
11.05
 30
0.0
 11
-26.05
 21
11.0
 31
0.0
  0
LINE
  5
102
330
D7
100
AcDbEntity
  8
AM_9
100
AcDbLine
 10
26.05
 20
-15.50856976714024
 30
0.0
 11
26.05
 21
-11.05
 31
0.0
  0
LINE
  5
103
330
D7
100
AcDbEntity
  8
AM_9
100
AcDbLine
 10
-26.05
 20
-11.05
 30
0.0
 11
-26.05
 21
-15.50856976714024
 31
0.0
  0
LINE
  5
104
330
D7
100
AcDbEntity
  8
AM_9
100
AcDbLine
 10
38.09523809523812
 20
-6.3
 30
0.0
 11
38.09523809523812
 21
-4.899999999999998
 31
0.0
  0
LINE
  5
105
330
D7
100
AcDbEntity
  8
AM_9
100
AcDbLine
 10
-38.09523809523812
 20
-4.899999999999998
 30
0.0
 11
-38.09523809523812
 21
-6.3
 31
0.0
  0
LINE
  5
106
330
D7
100
AcDbEntity
  8
AM_9
100
AcDbLine
 10
-37.8361929903102
 20
-11.05
 30
0.0
 11
37.83619299017331
 21
-11.05
 31
0.0
  0
ARC
  5
107
330
D7
100
AcDbEntity
  8
AM_9
100
AcDbCircle
 10
37.83619299031021
 20
-10.24999999999999
 30
0.0
 40
0.8000000000000078
100
AcDbArc
 50
270.0
 51
344.8421259871013
  0
ARC
  5
108
330
D7
100
AcDbEntity
  8
AM_9
100
AcDbCircle
 10
-37.83619299031021
 20
-10.24999999999999
 30
0.0
 40
0.8000000000000059
100
AcDbArc
 50
195.1578740128987
 51
270.0
  0
LINE
  5
109
330
D7
100
AcDbEntity
  8
AM_9
100
AcDbLine
 10
-37.83619299031022
 20
11.05
 30
0.0
 11
37.83619299017333
 21
11.05
 31
0.0
  0
ARC
  5
10A
330
D7
100
AcDbEntity
  8
AM_9
100
AcDbCircle
 10
37.83619299031022
 20
10.24999999999998
 30
0.0
 40
0.8000000000000193
100
AcDbArc
 50
15.1578740129002
 51
90.0
  0
ARC
  5
10B
330
D7
100
AcDbEntity
  8
AM_9
100
AcDbCircle
 10
-37.83619299031022
 20
10.24999999999998
 30
0.0
 40
0.8000000000000203
100
AcDbArc
 50
90.0
 51
164.8421259870998
  0
LINE
  5
10C
330
D7
100
AcDbEntity
  8
AM_9
100
AcDbLine
 10
-39.50075948636938
 20
-6.3
 30
0.0
 11
39.50075948637092
 21
-6.3
 31
0.0
  0
LINE
  5
10D
330
D7
100
AcDbEntity
  8
AM_9
100
AcDbLine
 10
-38.6083601941941
 20
-10.45918367346938
 30
0.0
 11
38.60836019419565
 21
-10.45918367346938
 31
0.0
  0
ARC
  5
10E
330
D7
100
AcDbEntity
  8
AM_9
100
AcDbCircle
 10
0.0000000010560797
 20
-0.0000000002262723
 30
0.0
 40
39.99999999892299
100
AcDbArc
 50
344.8421259870189
 51
350.9381830461469
  0
ARC
  5
10F
330
D7
100
AcDbEntity
  8
AM_9
100
AcDbCircle
 10
-0.0000000010552768
 20
-0.0000000002260849
 30
0.0
 40
39.99999999892382
100
AcDbArc
 50
189.0618169538533
 51
195.157874012981
  0
LINE
  5
110
330
D7
100
AcDbEntity
  8
AM_9
100
AcDbLine
 10
-34.64101615137755
 20
-4.900000000000007
 30
0.0
 11
34.64101615137755
 21
-4.900000000000008
 31
0.0
  0
LINE
  5
111
330
D7
100
AcDbEntity
  8
AM_9
100
AcDbLine
 10
-38.60836019419411
 20
10.45918367346939
 30
0.0
 11
38.60836019419428
 21
10.45918367346939
 31
0.0
  0
LINE
  5
112
330
D7
100
AcDbEntity
  8
AM_9
100
AcDbLine
 10
39.17129050736268
 20
8.099999998912848
 30
0.0
 11
39.87745595820994
 21
3.128658866200016
 31
0.0
  0
ARC
  5
113
330
D7
100
AcDbEntity
  8
AM_9
100
AcDbCircle
 10
0.0000000000144169
 20
0.0000000000004738
 30
0.0
 40
39.99999999998591
100
AcDbArc
 50
352.9635932563808
 51
4.486055812334807
  0
ARC
  5
114
330
D7
100
AcDbEntity
  8
AM_9
100
AcDbCircle
 10
0.0000000001379803
 20
0.0000000000303011
 30
0.0
 40
39.99999999985907
100
AcDbArc
 50
11.67611151354998
 51
15.15787401290874
  0
ARC
  5
115
330
D7
100
AcDbEntity
  8
AM_9
100
AcDbCircle
 10
-0.0000000000084697
 20
0.0000000000006271
 30
0.0
 40
39.99999999999183
100
AcDbArc
 50
164.8421259870988
 51
187.0364067436184
  0
LINE
  5
118
330
D7
100
AcDbEntity
  8
AM_7
100
AcDbLine
 10
-4.3974
 20
-25.09999975999999
 30
0.0
 11
4.3974
 21
-25.09999975999999
 31
0.0
  0
LINE
  5
119
330
D7
100
AcDbEntity
  8
AM_7
100
AcDbLine
 10
25.2525
 20
5.6
 30
0.0
 11
42.7975
 21
5.6
 31
0.0
  0
LINE
  5
11A
330
D7
100
AcDbEntity
  8
AM_4
100
AcDbLine
 10
24.80952380952381
 20
-17.6
 30
0.0
 11
24.80952380952381
 21
-16.6
 31
0.0
  0
LINE
  5
11B
330
D7
100
AcDbEntity
  8
AM_4
100
AcDbLine
 10
-24.80952380952381
 20
-16.6
 30
0.0
 11
-24.80952380952381
 21
-17.6
 31
0.0
  0
LINE
  5
11C
330
D7
100
AcDbEntity
  8
AM_4
100
AcDbLine
 10
-26.05
 20
-16.6
 30
0.0
 11
26.05
 21
-16.6
 31
0.0
  0
LINE
  5
11D
330
D7
100
AcDbEntity
  8
AM_4
100
AcDbLine
 10
26.05
 20
-16.6
 30
0.0
 11
26.05
 21
-15.50856976714024
 31
0.0
  0
LINE
  5
11E
330
D7
100
AcDbEntity
  8
AM_4
100
AcDbLine
 10
-26.05
 20
-15.50856976714024
 30
0.0
 11
-26.05
 21
-16.6
 31
0.0
  0
LINE
  5
11F
330
D7
100
AcDbEntity
  8
AM_4
100
AcDbLine
 10
-28.65
 20
-17.6
 30
0.0
 11
28.6499999998617
 21
-17.6
 31
0.0
  0
ARC
  5
120
330
D7
100
AcDbEntity
  8
AM_4
100
AcDbCircle
 10
28.65
 20
-19.2
 30
0.0
 40
1.600000000000001
100
AcDbArc
 50
0.0
 51
90.0
  0
ARC
  5
121
330
D7
100
AcDbEntity
  8
AM_4
100
AcDbCircle
 10
-28.65
 20
-19.2
 30
0.0
 40
1.600000000000001
100
AcDbArc
 50
90.0
 51
180.0
  0
LINE
  5
122
330
D7
100
AcDbEntity
  8
AM_4
100
AcDbLine
 10
-28.65
 20
-32.6
 30
0.0
 11
28.64997051699716
 21
-32.6
 31
0.0
  0
ARC
  5
123
330
D7
100
AcDbEntity
  8
AM_4
100
AcDbCircle
 10
28.64999999999999
 20
-30.99999999999999
 30
0.0
 40
1.600000000000009
100
AcDbArc
 50
270.0
 51
0.0
  0
ARC
  5
124
330
D7
100
AcDbEntity
  8
AM_4
100
AcDbCircle
 10
-28.64999999999999
 20
-30.99999999999999
 30
0.0
 40
1.600000000000009
100
AcDbArc
 50
180.0
 51
270.0
  0
LINE
  5
125
330
D7
100
AcDbEntity
  8
AM_4
100
AcDbLine
 10
-30.25
 20
-31.0
 30
0.0
 11
30.25
 21
-31.0
 31
0.0
  0
LINE
  5
126
330
D7
100
AcDbEntity
  8
AM_4
100
AcDbLine
 10
-30.25
 20
-19.2
 30
0.0
 11
30.25
 21
-19.2
 31
0.0
  0
LINE
  5
127
330
D7
100
AcDbEntity
  8
AM_4
100
AcDbLine
 10
30.25
 20
-31.0
 30
0.0
 11
30.25
 21
-19.2
 31
0.0
  0
LINE
  5
128
330
D7
100
AcDbEntity
  8
AM_4
100
AcDbLine
 10
-30.25
 20
-19.2
 30
0.0
 11
-30.25
 21
-31.0
 31
0.0
  0
LWPOLYLINE
  5
129
330
D7
100
AcDbEntity
  8
AM_4
100
AcDbPolyline
 90
       39
 70
     0
 43
0.0
 10
-3.096461368822067
 20
-21.91070309770399
 10
-2.627242093499986
 20
-21.45915934210437
 10
-2.083004157278058
 20
-21.07474519137769
 10
-1.429220397171238
 20
-20.75891740932772
 10
-0.7057840573757377
 20
-20.55866664339104
 10
-0.0278675403368015
 20
-20.49601219984489
 10
0.6717861424385039
 20
-20.5527303646378
 10
1.310503565856471
 20
-20.71599847762694
 10
1.930413346491016
 20
-20.98816966789285
 10
2.497626028565675
 20
-21.35579712600511
 10
3.01249288475425
 20
-21.81969316930453
 10
3.464351384152595
 20
-22.37919610293003
 10
3.831844840641018
 20
-23.0191039679044
 10
4.103793522655655
 20
-23.73634940025778
 10
4.261557768275983
 20
-24.50858058744165
 10
4.292949786937451
 20
-25.30657042288831
 10
4.189859487335378
 20
-26.1212088152018
 10
3.956903310521412
 20
-26.89297450735566
 10
3.58533709619051
 20
-27.63475969533597
 10
3.114372415674997
 20
-28.26921738491402
 10
2.519719299089685
 20
-28.82715111465778
 10
1.890330327006493
 20
-29.23319986038559
 10
1.173955639397568
 20
-29.52832961895005
 10
0.4934797566276301
 20
-29.67351299946393
 10
-0.2245164569576395
 20
-29.69777281895076
 10
-0.8802635946897565
 20
-29.6060996474609
 10
-1.52955617892177
 20
-29.40153931658486
 10
-2.124226186093465
 20
-29.10040027672013
 10
-2.677319794678062
 20
-28.69868267009
 10
-3.173814235068825
 20
-28.20080529818939
 10
-3.596521981653226
 20
-27.61653280644429
 10
-3.935844714516711
 20
-26.94527788354859
 10
-4.170262724533966
 20
-26.20918377684854
 10
-4.28639992739994
 20
-25.42700332891364
 10
-4.273210703775717
 20
-24.61416430765895
 10
-4.127592194988988
 20
-23.82117627190386
 10
-3.84275542238162
 20
-23.04227610506172
 10
-3.515184355788871
 20
-22.45500365737617
 10
-3.096461368980143
 20
-21.91070309759946
  0
CIRCLE
  5
12A
330
D7
100
AcDbEntity
  8
AM_4
100
AcDbCircle
 10
0.0
 20
-25.09999975999999
 30
0.0
 40
4.188
  0
ARC
  5
12C
330
D7
100
AcDbEntity
  8
AM_5
100
AcDbCircle
 10
0.0000000000000011
 20
-25.1
 30
0.0
 40
4.999999999999998
100
AcDbArc
 50
75.00000000000001
 51
15.0
  0
ENDBLK
  5
DA
330
D7
100
AcDbEntity
  8
0
100
AcDbBlockEnd
  0
BLOCK
  5
12F
330
12D
100
AcDbEntity
  8
0
100
AcDbBlockBegin
  2
4_125716H_0_in_125716_4
 70
     2
 10
0.0
 20
0.0
 30
0.0
  3
4_125716H_0_in_125716_4
  1

  0
ATTDEF
  5
131
330
12D
100
AcDbEntity
  8
AM_6
100
AcDbText
 10
97.10000000000001
 20
26.95
 30
0.0
 40
0.5
  1
P2B-SXVB -M-Housing
100
AcDbAttributeDefinition
  3

  2
NN
 70
     8
280
     0
  0
ATTDEF
  5
132
330
12D
100
AcDbEntity
  8
AM_6
100
AcDbText
 10
97.10000000000001
 20
26.45
 30
0.0
 40
0.5
  1
Eccentric Collar Pillow Block Bearings -(Intermediate Duty) -Low Backing Height
100
AcDbAttributeDefinition
  3

  2
NT
 70
     8
280
     0
  0
ATTDEF
  5
133
330
12D
100
AcDbEntity
  8
AM_6
100
AcDbText
 10
97.10000000000001
 20
25.95
 30
0.0
 40
0.5
  1
125716H
100
AcDbAttributeDefinition
  3

  2
NB
 70
     8
280
     0
  0
ATTDEF
  5
134
330
12D
100
AcDbEntity
  8
AM_6
100
AcDbText
 10
97.10000000000001
 20
25.45
 30
0.0
 40
0.5
  1
$PN.H
100
AcDbAttributeDefinition
  3

  2
NBSYN
 70
     8
280
     0
  0
ATTDEF
  5
135
330
12D
100
AcDbEntity
  8
AM_6
100
AcDbText
 10
97.10000000000001
 20
24.95
 30
0.0
 40
0.5
  1
125716
100
AcDbAttributeDefinition
  3

  2
LINA
 70
     8
280
     0
  0
ATTDEF
  5
136
330
12D
100
AcDbEntity
  8
AM_6
100
AcDbText
 10
97.10000000000001
 20
24.45
 30
0.0
 40
0.5
  1
208
100
AcDbAttributeDefinition
  3

  2
SERIES
 70
     8
280
     0
  0
ATTDEF
  5
137
330
12D
100
AcDbEntity
  8
AM_6
100
AcDbText
 10
97.10000000000001
 20
23.95
 30
0.0
 40
0.5
  1
40
100
AcDbAttributeDefinition
  3

  2
SS
 70
     8
280
     0
  0
ATTDEF
  5
138
330
12D
100
AcDbEntity
  8
AM_6
100
AcDbText
 10
97.10000000000001
 20
23.45
 30
0.0
 40
0.5
  1
125716
100
AcDbAttributeDefinition
  3

  2
PN
 70
     8
280
     0
  0
ATTDEF
  5
139
330
12D
100
AcDbEntity
  8
AM_6
100
AcDbText
 10
97.10000000000001
 20
22.95
 30
0.0
 40
0.5
  1
P2B-SXVB-40M
100
AcDbAttributeDefinition
  3

  2
DESCRIPTION
 70
     8
280
     0
  0
ATTDEF
  5
13A
330
12D
100
AcDbEntity
  8
AM_6
100
AcDbText
 10
97.10000000000001
 20
22.45
 30
0.0
 40
0.5
  1
2.2
100
AcDbAttributeDefinition
  3

  2
WEIGHT
 70
     8
280
     0
  0
ATTDEF
  5
13B
330
12D
100
AcDbEntity
  8
AM_6
100
AcDbText
 10
97.10000000000001
 20
21.95
 30
0.0
 40
0.5
  1
43.6
100
AcDbAttributeDefinition
  3

  2
A
 70
     8
280
     0
  0
ATTDEF
  5
13C
330
12D
100
AcDbEntity
  8
AM_6
100
AcDbText
 10
97.10000000000001
 20
21.45
 30
0.0
 40
0.5
  1
184.2
100
AcDbAttributeDefinition
  3

  2
B
 70
     8
280
     0
  0
ATTDEF
  5
13D
330
12D
100
AcDbEntity
  8
AM_6
100
AcDbText
 10
97.10000000000001
 20
20.95
 30
0.0
 40
0.5
  1
49.0
100
AcDbAttributeDefinition
  3

  2
C
 70
     8
280
     0
  0
ATTDEF
  5
13E
330
12D
100
AcDbEntity
  8
AM_6
100
AcDbText
 10
97.10000000000001
 20
20.45
 30
0.0
 40
0.5
  1
131.6
100
AcDbAttributeDefinition
  3

  2
DMIN
 70
     8
280
     0
  0
ATTDEF
  5
13F
330
12D
100
AcDbEntity
  8
AM_6
100
AcDbText
 10
97.10000000000001
 20
19.95
 30
0.0
 40
0.5
  1
149.4
100
AcDbAttributeDefinition
  3

  2
DMAX
 70
     8
280
     0
  0
ATTDEF
  5
140
330
12D
100
AcDbEntity
  8
AM_6
100
AcDbText
 10
97.10000000000001
 20
19.45
 30
0.0
 40
0.5
  1
M12
100
AcDbAttributeDefinition
  3

  2
F
 70
     8
280
     0
  0
ATTDEF
  5
141
330
12D
100
AcDbEntity
  8
AM_6
100
AcDbText
 10
97.10000000000001
 20
18.95
 30
0.0
 40
0.5
  1
23.1
100
AcDbAttributeDefinition
  3

  2
G
 70
     8
280
     0
  0
ATTDEF
  5
142
330
12D
100
AcDbEntity
  8
AM_6
100
AcDbText
 10
97.10000000000001
 20
18.45
 30
0.0
 40
0.5
  1
19.1
100
AcDbAttributeDefinition
  3

  2
H
 70
     8
280
     0
  0
ATTDEF
  5
143
330
12D
100
AcDbEntity
  8
AM_6
100
AcDbText
 10
97.10000000000001
 20
17.95
 30
0.0
 40
0.5
  1
101.6
100
AcDbAttributeDefinition
  3

  2
J
 70
     8
280
     0
  0
ATTDEF
  5
144
330
12D
100
AcDbEntity
  8
AM_6
100
AcDbText
 10
97.10000000000001
 20
17.45
 30
0.0
 40
0.5
  1
60.5
100
AcDbAttributeDefinition
  3

  2
L
 70
     8
280
     0
  0
ATTDEF
  5
145
330
12D
100
AcDbEntity
  8
AM_6
100
AcDbText
 10
97.10000000000001
 20
16.95
 30
0.0
 40
0.5
  1
49.3
100
AcDbAttributeDefinition
  3

  2
M
 70
     8
280
     0
  0
ATTDEF
  5
146
330
12D
100
AcDbEntity
  8
AM_6
100
AcDbText
 10
97.10000000000001
 20
16.45
 30
0.0
 40
0.5
  1
11.0
100
AcDbAttributeDefinition
  3

  2
R
 70
     8
280
     0
  0
ATTDEF
  5
147
330
12D
100
AcDbEntity
  8
AM_6
100
AcDbText
 10
97.10000000000001
 20
15.95
 30
0.0
 40
0.5
  1
32.6
100
AcDbAttributeDefinition
  3

  2
S
 70
     8
280
     0
  0
ATTDEF
  5
148
330
12D
100
AcDbEntity
  8
AM_6
100
AcDbText
 10
97.10000000000001
 20
15.45
 30
0.0
 40
0.5
  1
82.8
100
AcDbAttributeDefinition
  3

  2
U
 70
     8
280
     0
  0
ATTDEF
  5
149
330
12D
100
AcDbEntity
  8
AM_6
100
AcDbText
 10
97.10000000000001
 20
14.95
 30
0.0
 40
0.5
  1
165.6
100
AcDbAttributeDefinition
  3

  2
V
 70
     8
280
     0
  0
ATTDEF
  5
14A
330
12D
100
AcDbEntity
  8
AM_6
100
AcDbText
 10
97.10000000000001
 20
14.45
 30
0.0
 40
0.5
  1
17.5
100
AcDbAttributeDefinition
  3

  2
W
 70
     8
280
     0
  0
ATTDEF
  5
14B
330
12D
100
AcDbEntity
  8
AM_6
100
AcDbText
 10
97.10000000000001
 20
13.95
 30
0.0
 40
0.5
  1
3.0
100
AcDbAttributeDefinition
  3

  2
X
 70
     8
280
     0
  0
ATTDEF
  5
14C
330
12D
100
AcDbEntity
  8
AM_6
100
AcDbText
 10
97.10000000000001
 20
13.45
 30
0.0
 40
0.5
  1
4005
100
AcDbAttributeDefinition
  3

  2
CAPS
 70
     8
280
     0
  0
ATTDEF
  5
14D
330
12D
100
AcDbEntity
  8
AM_6
100
AcDbText
 10
97.10000000000001
 20
12.95
 30
0.0
 40
0.5
  1
7332
100
AcDbAttributeDefinition
  3

  2
CAPD
 70
     8
280
     0
  0
ATTDEF
  5
14E
330
12D
100
AcDbEntity
  8
AM_6
100
AcDbText
 10
97.10000000000001
 20
12.45
 30
0.0
 40
0.5
  1
baldor
100
AcDbAttributeDefinition
  3

  2
COMPANY
 70
     8
280
     0
  0
LINE
  5
14F
330
12D
100
AcDbEntity
  8
AM_9
100
AcDbLine
 10
-42.0
 20
-21.93333344999999
 30
0.0
 11
-41.99999999999999
 21
-12.25
 31
0.0
  0
LINE
  5
150
330
12D
100
AcDbEntity
  8
AM_9
100
AcDbLine
 10
-40.09000000000001
 20
-19.638723727411
 30
0.0
 11
-40.09000000000001
 21
-12.25
 31
0.0
  0
LINE
  5
151
330
12D
100
AcDbEntity
  8
AM_9
100
AcDbLine
 10
-42.0
 20
-4.899999999999998
 30
0.0
 11
-42.0
 21
21.93333345
 31
0.0
  0
LINE
  5
152
330
12D
100
AcDbEntity
  8
AM_9
100
AcDbLine
 10
-40.09000000000001
 20
12.25
 30
0.0
 11
-40.09000000000001
 21
19.63872372741099
 31
0.0
  0
LINE
  5
153
330
12D
100
AcDbEntity
  8
AM_9
100
AcDbLine
 10
42.0
 20
-4.899999999999998
 30
0.0
 11
42.0
 21
21.93333344999997
 31
0.0
  0
LINE
  5
154
330
12D
100
AcDbEntity
  8
AM_9
100
AcDbLine
 10
40.09
 20
12.25
 30
0.0
 11
40.09
 21
19.63872372741099
 31
0.0
  0
LINE
  5
155
330
12D
100
AcDbEntity
  8
AM_9
100
AcDbLine
 10
42.0
 20
-21.93333345000002
 30
0.0
 11
42.0
 21
-12.25
 31
0.0
  0
LINE
  5
156
330
12D
100
AcDbEntity
  8
AM_9
100
AcDbLine
 10
40.09
 20
-19.638723727411
 30
0.0
 11
40.09
 21
-12.25
 31
0.0
  0
LINE
  5
157
330
12D
100
AcDbEntity
  8
AM_9
100
AcDbLine
 10
77.98
 20
-12.25
 30
0.0
 11
77.98
 21
-6.296951643454154
 31
0.0
  0
LINE
  5
158
330
12D
100
AcDbEntity
  8
AM_9
100
AcDbLine
 10
81.8
 20
-12.25
 30
0.0
 11
81.8
 21
12.25
 31
0.0
  0
LINE
  5
159
330
12D
100
AcDbEntity
  8
AM_9
100
AcDbLine
 10
77.98
 20
6.296951643454147
 30
0.0
 11
77.98
 21
12.25
 31
0.0
  0
LINE
  5
15A
330
12D
100
AcDbEntity
  8
AM_9
100
AcDbLine
 10
-56.59456270391929
 20
-12.25
 30
0.0
 11
-56.59456270391929
 21
12.25
 31
0.0
  0
LINE
  5
15B
330
12D
100
AcDbEntity
  8
AM_9
100
AcDbLine
 10
56.59456270391925
 20
-12.25
 30
0.0
 11
56.59456270391925
 21
12.25
 31
0.0
  0
LINE
  5
15C
330
12D
100
AcDbEntity
  8
AM_9
100
AcDbLine
 10
-77.97999999999999
 20
-12.25
 30
0.0
 11
-77.97999999999999
 21
-6.29695164345415
 31
0.0
  0
LINE
  5
15D
330
12D
100
AcDbEntity
  8
AM_9
100
AcDbLine
 10
-81.8
 20
-12.25
 30
0.0
 11
-81.8
 21
12.25
 31
0.0
  0
LINE
  5
15E
330
12D
100
AcDbEntity
  8
AM_9
100
AcDbLine
 10
-77.97999999999999
 20
6.296951643454165
 30
0.0
 11
-77.97999999999999
 21
12.25
 31
0.0
  0
LINE
  5
15F
330
12D
100
AcDbEntity
  8
AM_9
100
AcDbLine
 10
-51.65111894246112
 20
-12.25
 30
0.0
 11
-51.65111894246112
 21
12.25
 31
0.0
  0
LINE
  5
160
330
12D
100
AcDbEntity
  8
AM_9
100
AcDbLine
 10
51.65111894246111
 20
-12.25
 30
0.0
 11
51.65111894246111
 21
12.25
 31
0.0
  0
LINE
  5
161
330
12D
100
AcDbEntity
  8
AM_9
100
AcDbLine
 10
-26.22129479201708
 20
-12.25
 30
0.0
 11
-26.22129479201708
 21
12.25
 31
0.0
  0
LINE
  5
162
330
12D
100
AcDbEntity
  8
AM_9
100
AcDbLine
 10
26.2212947920171
 20
-12.25
 30
0.0
 11
26.2212947920171
 21
12.25
 31
0.0
  0
LINE
  5
163
330
12D
100
AcDbEntity
  8
AM_9
100
AcDbLine
 10
-34.03378983346123
 20
-12.25
 30
0.0
 11
-34.03378983346123
 21
12.25
 31
0.0
  0
LINE
  5
164
330
12D
100
AcDbEntity
  8
AM_9
100
AcDbLine
 10
34.03378983346123
 20
-12.25
 30
0.0
 11
34.03378983346123
 21
12.25
 31
0.0
  0
LINE
  5
165
330
12D
100
AcDbEntity
  8
AM_9
100
AcDbLine
 10
81.8
 20
12.25
 30
0.0
 11
-81.8
 21
12.25
 31
0.0
  0
LINE
  5
166
330
12D
100
AcDbEntity
  8
AM_9
100
AcDbLine
 10
81.8
 20
-12.25
 30
0.0
 11
-81.8
 21
-12.25
 31
0.0
  0
LINE
  5
167
330
12D
100
AcDbEntity
  8
AM_9
100
AcDbLine
 10
-34.64101615137755
 20
-4.899999999999997
 30
0.0
 11
-42.0
 21
-4.899999999999998
 31
0.0
  0
LINE
  5
168
330
12D
100
AcDbEntity
  8
AM_9
100
AcDbLine
 10
-36.93237062523879
 20
-4.899999999999997
 30
0.0
 11
-36.93237062523879
 21
17.04606060606061
 31
0.0
  0
LINE
  5
169
330
12D
100
AcDbEntity
  8
AM_9
100
AcDbLine
 10
36.93237062523878
 20
-4.899999999999997
 30
0.0
 11
36.93237062523878
 21
17.04606060606061
 31
0.0
  0
LINE
  5
16A
330
12D
100
AcDbEntity
  8
AM_9
100
AcDbLine
 10
42.0
 20
-4.899999999999998
 30
0.0
 11
34.64101615137755
 21
-4.899999999999997
 31
0.0
  0
LINE
  5
16B
330
12D
100
AcDbEntity
  8
AM_9
100
AcDbLine
 10
30.25
 20
-19.6
 30
0.0
 11
-30.25
 21
-19.6
 31
0.0
  0
LWPOLYLINE
  5
16C
330
12D
100
AcDbEntity
  8
AM_9
100
AcDbPolyline
 90
        3
 70
     0
 43
0.0
 10
39.92520385775357
 20
-19.61436741976402
 10
39.99699568947734
 20
-19.62350063169885
 10
39.99999999996483
 20
-19.62393227220011
  0
LINE
  5
16D
330
12D
100
AcDbEntity
  8
AM_9
100
AcDbLine
 10
-34.64101615137755
 20
-4.899999999999997
 30
0.0
 11
-34.64101615137755
 21
17.04606060606061
 31
0.0
  0
LINE
  5
16E
330
12D
100
AcDbEntity
  8
AM_9
100
AcDbLine
 10
34.64101615137755
 20
17.04606060606061
 30
0.0
 11
34.64101615137755
 21
-4.899999999999997
 31
0.0
  0
LINE
  5
16F
330
12D
100
AcDbEntity
  8
AM_9
100
AcDbLine
 10
40.0
 20
-19.62296577704413
 30
0.0
 11
40.0
 21
-4.899999999999998
 31
0.0
  0
LINE
  5
170
330
12D
100
AcDbEntity
  8
AM_9
100
AcDbLine
 10
-40.0
 20
-4.899999999999998
 30
0.0
 11
-40.0
 21
-19.62312863163693
 31
0.0
  0
LINE
  5
171
330
12D
100
AcDbEntity
  8
AM_9
100
AcDbLine
 10
-39.91769832359381
 20
-19.6135429341268
 30
0.0
 11
-39.91529966173758
 21
-19.61328462192836
 31
0.0
  0
LWPOLYLINE
  5
172
330
12D
100
AcDbEntity
  8
AM_9
100
AcDbPolyline
 90
        4
 70
     0
 43
0.0
 10
-39.99999999998855
 20
-19.62393227220353
 10
-39.98942563856495
 20
-19.6224306914146
 10
-39.93206651266814
 20
-19.61514280885233
 10
-39.91769832359381
 20
-19.6135429341268
  0
LINE
  5
173
330
12D
100
AcDbEntity
  8
AM_7
100
AcDbLine
 10
-84.375
 20
-17.5
 30
0.0
 11
-81.225
 21
-17.5
 31
0.0
  0
LINE
  5
174
330
12D
100
AcDbEntity
  8
AM_7
100
AcDbLine
 10
-82.8
 20
-19.075
 30
0.0
 11
-82.8
 21
-15.925
 31
0.0
  0
LINE
  5
175
330
12D
100
AcDbEntity
  8
AM_7
100
AcDbLine
 10
81.225
 20
-17.5
 30
0.0
 11
84.375
 21
-17.5
 31
0.0
  0
LINE
  5
176
330
12D
100
AcDbEntity
  8
AM_7
100
AcDbLine
 10
82.8
 20
-19.075
 30
0.0
 11
82.8
 21
-15.925
 31
0.0
  0
LINE
  5
177
330
12D
100
AcDbEntity
  8
AM_7
100
AcDbLine
 10
0.0
 20
26.95
 30
0.0
 11
0.0
 21
-34.7825
 31
0.0
  0
LINE
  5
178
330
12D
100
AcDbEntity
  8
AM_7
100
AcDbLine
 10
58.345
 20
-0.0000000000000022
 30
0.0
 11
82.155
 21
0.0000000000000009
 31
0.0
  0
LINE
  5
179
330
12D
100
AcDbEntity
  8
AM_7
100
AcDbLine
 10
74.69999999999997
 20
-7.455000000000023
 30
0.0
 11
74.69999999999997
 21
7.455000000000025
 31
0.0
  0
LINE
  5
17A
330
12D
100
AcDbEntity
  8
AM_7
100
AcDbLine
 10
-82.155
 20
0.0000000000000053
 30
0.0
 11
-58.345
 21
0.0000000000000098
 31
0.0
  0
LINE
  5
17B
330
12D
100
AcDbEntity
  8
AM_7
100
AcDbLine
 10
-74.69999999999997
 20
-7.455000000000019
 30
0.0
 11
-74.69999999999997
 21
7.455000000000029
 31
0.0
  0
LINE
  5
17C
330
12D
100
AcDbEntity
  8
AM_7
100
AcDbLine
 10
65.8
 20
-7.454999999999997
 30
0.0
 11
65.8
 21
7.454999999999993
 31
0.0
  0
LINE
  5
17D
330
12D
100
AcDbEntity
  8
AM_7
100
AcDbLine
 10
-65.8
 20
-7.454999999999985
 30
0.0
 11
-65.8
 21
7.455000000000005
 31
0.0
  0
LINE
  5
17E
330
12D
100
AcDbEntity
  8
AM_4
100
AcDbLine
 10
-92.1
 20
-19.6
 30
0.0
 11
-87.19999999999999
 21
-24.49999999999999
 31
0.0
  0
LINE
  5
17F
330
12D
100
AcDbEntity
  8
AM_4
100
AcDbLine
 10
87.19999999999997
 20
-24.5
 30
0.0
 11
92.1
 21
-19.60000000000001
 31
0.0
  0
LINE
  5
180
330
12D
100
AcDbEntity
  8
AM_4
100
AcDbLine
 10
88.28000000000002
 20
-23.41999999999999
 30
0.0
 11
88.28000000000002
 21
-16.57995444179523
 31
0.0
  0
LINE
  5
181
330
12D
100
AcDbEntity
  8
AM_4
100
AcDbLine
 10
92.1
 20
-19.60000000000001
 30
0.0
 11
92.1
 21
19.6
 31
0.0
  0
LINE
  5
182
330
12D
100
AcDbEntity
  8
AM_4
100
AcDbLine
 10
92.1
 20
19.59999999999999
 30
0.0
 11
87.19999999999999
 21
24.5
 31
0.0
  0
LINE
  5
183
330
12D
100
AcDbEntity
  8
AM_4
100
AcDbLine
 10
-87.19999999999999
 20
24.5
 30
0.0
 11
-92.1
 21
19.60000000000002
 31
0.0
  0
LINE
  5
184
330
12D
100
AcDbEntity
  8
AM_4
100
AcDbLine
 10
-88.28000000000003
 20
16.57995444179522
 30
0.0
 11
-88.28000000000003
 21
23.41999999999997
 31
0.0
  0
LINE
  5
185
330
12D
100
AcDbEntity
  8
AM_4
100
AcDbLine
 10
-92.1
 20
-19.59999999999999
 30
0.0
 11
-92.1
 21
19.6
 31
0.0
  0
LINE
  5
186
330
12D
100
AcDbEntity
  8
AM_4
100
AcDbLine
 10
-88.28000000000003
 20
-23.41999999999996
 30
0.0
 11
-88.28000000000003
 21
-16.57995444179521
 31
0.0
  0
LINE
  5
187
330
12D
100
AcDbEntity
  8
AM_4
100
AcDbLine
 10
88.28000000000002
 20
16.57995444179522
 30
0.0
 11
88.28000000000002
 21
23.41999999999997
 31
0.0
  0
LINE
  5
188
330
12D
100
AcDbEntity
  8
AM_4
100
AcDbLine
 10
70.50363649198265
 20
-24.5
 30
0.0
 11
70.50363649198265
 21
-19.8
 31
0.0
  0
LINE
  5
189
330
12D
100
AcDbEntity
  8
AM_4
100
AcDbLine
 10
-70.5036364919826
 20
-24.5
 30
0.0
 11
-70.5036364919826
 21
-19.8
 31
0.0
  0
LINE
  5
18A
330
12D
100
AcDbEntity
  8
AM_4
100
AcDbLine
 10
70.50363649198265
 20
19.79999999999999
 30
0.0
 11
70.50363649198265
 21
24.5
 31
0.0
  0
LINE
  5
18B
330
12D
100
AcDbEntity
  8
AM_4
100
AcDbLine
 10
-70.5036364919826
 20
19.79999999999999
 30
0.0
 11
-70.5036364919826
 21
24.5
 31
0.0
  0
CIRCLE
  5
18C
330
12D
100
AcDbEntity
  8
AM_4
100
AcDbCircle
 10
-82.8
 20
-17.5
 30
0.0
 40
1.5
  0
ARC
  5
18D
330
12D
100
AcDbEntity
  8
AM_4
100
AcDbCircle
 10
-74.7
 20
0.0000000000000062
 30
0.0
 40
7.099999999999998
100
AcDbArc
 50
90.0
 51
270.0
  0
LINE
  5
18E
330
12D
100
AcDbEntity
  8
AM_4
100
AcDbLine
 10
-74.7
 20
7.100000000000004
 30
0.0
 11
-65.8
 21
7.100000000000006
 31
0.0
  0
ARC
  5
18F
330
12D
100
AcDbEntity
  8
AM_4
100
AcDbCircle
 10
-65.8
 20
0.0000000000000075
 30
0.0
 40
7.1
100
AcDbArc
 50
270.0
 51
90.0
  0
LINE
  5
190
330
12D
100
AcDbEntity
  8
AM_4
100
AcDbLine
 10
-65.8
 20
-7.099999999999992
 30
0.0
 11
-74.7
 21
-7.09999999999999
 31
0.0
  0
LINE
  5
191
330
12D
100
AcDbEntity
  8
AM_4
100
AcDbLine
 10
-65.79999999999995
 20
19.79999999999999
 30
0.0
 11
-80.1
 21
19.79999999999999
 31
0.0
  0
ARC
  5
192
330
12D
100
AcDbEntity
  8
AM_4
100
AcDbCircle
 10
-80.09999999999998
 20
7.799999999999974
 30
0.0
 40
12.00000000000002
100
AcDbArc
 50
90.0
 51
180.0
  0
ARC
  5
193
330
12D
100
AcDbEntity
  8
AM_4
100
AcDbCircle
 10
-80.09999999999997
 20
-7.799999999999979
 30
0.0
 40
12.00000000000003
100
AcDbArc
 50
179.9999987925817
 51
270.0
  0
LINE
  5
194
330
12D
100
AcDbEntity
  8
AM_4
100
AcDbLine
 10
-80.09999999999998
 20
-19.8
 30
0.0
 11
-65.79999999999995
 21
-19.8
 31
0.0
  0
CIRCLE
  5
195
330
12D
100
AcDbEntity
  8
AM_4
100
AcDbCircle
 10
82.8
 20
-17.5
 30
0.0
 40
1.5
  0
ARC
  5
196
330
12D
100
AcDbEntity
  8
AM_4
100
AcDbCircle
 10
65.8
 20
-0.0000000000000022
 30
0.0
 40
7.099999999999998
100
AcDbArc
 50
90.0
 51
270.0
  0
LINE
  5
197
330
12D
100
AcDbEntity
  8
AM_4
100
AcDbLine
 10
65.8
 20
7.099999999999996
 30
0.0
 11
74.7
 21
7.099999999999995
 31
0.0
  0
ARC
  5
198
330
12D
100
AcDbEntity
  8
AM_4
100
AcDbCircle
 10
74.7
 20
-0.0000000000000009
 30
0.0
 40
7.099999999999998
100
AcDbArc
 50
270.0
 51
90.0
  0
LINE
  5
199
330
12D
100
AcDbEntity
  8
AM_4
100
AcDbLine
 10
74.7
 20
-7.099999999999999
 30
0.0
 11
65.8
 21
-7.1
 31
0.0
  0
ARC
  5
19A
330
12D
100
AcDbEntity
  8
AM_4
100
AcDbCircle
 10
80.10000000000001
 20
7.800000000000006
 30
0.0
 40
11.99999999999999
100
AcDbArc
 50
0.0000008537736463
 51
90.0
  0
LINE
  5
19B
330
12D
100
AcDbEntity
  8
AM_4
100
AcDbLine
 10
80.09999999999998
 20
19.79999999999999
 30
0.0
 11
65.8
 21
19.79999999999999
 31
0.0
  0
LINE
  5
19C
330
12D
100
AcDbEntity
  8
AM_4
100
AcDbLine
 10
65.79999999999998
 20
-19.8
 30
0.0
 11
80.1
 21
-19.8
 31
0.0
  0
ARC
  5
19D
330
12D
100
AcDbEntity
  8
AM_4
100
AcDbCircle
 10
80.09999999999998
 20
-7.799999999999978
 30
0.0
 40
12.00000000000002
100
AcDbArc
 50
270.0
 51
0.0
  0
LINE
  5
19E
330
12D
100
AcDbEntity
  8
AM_4
100
AcDbLine
 10
-66.89382325365901
 20
19.79999999999999
 30
0.0
 11
-66.89382325365901
 21
24.5
 31
0.0
  0
LINE
  5
19F
330
12D
100
AcDbEntity
  8
AM_4
100
AcDbLine
 10
-65.79999999999995
 20
19.79999999999999
 30
0.0
 11
-65.79999999999995
 21
15.59999928000001
 31
0.0
  0
LWPOLYLINE
  5
1A0
330
12D
100
AcDbEntity
  8
AM_4
100
AcDbPolyline
 90
       37
 70
     0
 43
0.0
 10
-65.79999999999997
 20
-15.59999928
 10
-64.44037047588863
 20
-15.54063657297104
 10
-63.09108855342254
 20
-15.36300023792886
 10
-61.76242308275036
 20
-15.06844219464286
 10
-60.46448601037405
 20
-14.65920420768147
 10
-59.20715542113021
 20
-14.13840082523012
 10
-58.00000035999998
 20
-13.50999567549894
 10
-56.8522080058987
 20
-12.77877130111878
 10
-55.77251375169704
 20
-11.95029276110404
 10
-54.76913472260672
 20
-11.03086527739324
 10
-53.84970723889592
 20
-10.02748624830292
 10
-53.02122869888119
 20
-8.947791994101266
 10
-52.29000432450103
 20
-7.79999963999998
 10
-51.66159917476985
 20
-6.592844578869743
 10
-51.14079579231851
 20
-5.33551398962591
 10
-50.73155780535712
 20
-4.037576917249592
 10
-50.43699976207112
 20
-2.708911446577408
 10
-50.25936342702894
 20
-1.359629524111316
 10
-50.20000071999999
 20
0.0000000000000155
 10
-50.25936342702894
 20
1.359629524111347
 10
-50.43699976207112
 20
2.708911446577439
 10
-50.73155780535713
 20
4.037576917249623
 10
-51.14079579231851
 20
5.33551398962594
 10
-51.66159917476986
 20
6.592844578869773
 10
-52.29000432450104
 20
7.799999640000009
 10
-53.0212286988812
 20
8.947791994101292
 10
-53.84970723889593
 20
10.02748624830294
 10
-54.76913472260673
 20
11.03086527739327
 10
-55.77251375169705
 20
11.95029276110407
 10
-56.8522080058987
 20
12.77877130111881
 10
-58.00000035999999
 20
13.50999567549896
 10
-59.20715542113022
 20
14.13840082523014
 10
-60.46448601037406
 20
14.6592042076815
 10
-61.76242308275037
 20
15.06844219464288
 10
-63.09108855342256
 20
15.36300023792888
 10
-64.44037047588864
 20
15.54063657297106
 10
-65.79999999999995
 20
15.59999928000001
  0
LINE
  5
1A1
330
12D
100
AcDbEntity
  8
AM_4
100
AcDbLine
 10
-65.8
 20
-15.59999928
 30
0.0
 11
-65.79999999999995
 21
-19.8
 31
0.0
  0
LINE
  5
1A2
330
12D
100
AcDbEntity
  8
AM_4
100
AcDbLine
 10
-66.89382325365901
 20
-24.5
 30
0.0
 11
-66.89382325365901
 21
-19.8
 31
0.0
  0
LINE
  5
1A3
330
12D
100
AcDbEntity
  8
AM_4
100
AcDbLine
 10
66.89382325365904
 20
-24.5
 30
0.0
 11
66.89382325365904
 21
-19.8
 31
0.0
  0
LINE
  5
1A4
330
12D
100
AcDbEntity
  8
AM_4
100
AcDbLine
 10
65.79999999999998
 20
-19.8
 30
0.0
 11
65.8
 21
-15.59999928000001
 31
0.0
  0
LWPOLYLINE
  5
1A5
330
12D
100
AcDbEntity
  8
AM_4
100
AcDbPolyline
 90
       37
 70
     0
 43
0.0
 10
65.8
 20
15.59999928000001
 10
64.44037047588867
 20
15.54063657297106
 10
63.09108855342257
 20
15.36300023792887
 10
61.7624230827504
 20
15.06844219464288
 10
60.46448601037407
 20
14.6592042076815
 10
59.20715542113024
 20
14.13840082523014
 10
58.00000036000001
 20
13.50999567549897
 10
56.85220800589872
 20
12.77877130111881
 10
55.77251375169707
 20
11.95029276110407
 10
54.76913472260675
 20
11.03086527739327
 10
53.84970723889595
 20
10.02748624830295
 10
53.0212286988812
 20
8.947791994101305
 10
52.29000432450106
 20
7.799999640000022
 10
51.66159917476987
 20
6.592844578869787
 10
51.14079579231852
 20
5.335513989625954
 10
50.73155780535713
 20
4.037576917249638
 10
50.43699976207113
 20
2.708911446577453
 10
50.25936342702895
 20
1.359629524111362
 10
50.20000071999999
 20
0.0000000000000297
 10
50.25936342702894
 20
-1.359629524111302
 10
50.43699976207112
 20
-2.708911446577394
 10
50.73155780535711
 20
-4.03757691724958
 10
51.1407957923185
 20
-5.335513989625897
 10
51.66159917476984
 20
-6.592844578869733
 10
52.29000432450103
 20
-7.799999639999971
 10
53.02122869888117
 20
-8.947791994101257
 10
53.84970723889591
 20
-10.02748624830291
 10
54.76913472260671
 20
-11.03086527739323
 10
55.77251375169703
 20
-11.95029276110404
 10
56.85220800589867
 20
-12.77877130111878
 10
58.00000035999996
 20
-13.50999567549894
 10
59.20715542113018
 20
-14.13840082523012
 10
60.46448601037402
 20
-14.65920420768148
 10
61.76242308275033
 20
-15.06844219464287
 10
63.09108855342252
 20
-15.36300023792887
 10
64.4403704758886
 20
-15.54063657297105
 10
65.79999999999994
 20
-15.59999928000001
  0
LINE
  5
1A6
330
12D
100
AcDbEntity
  8
AM_4
100
AcDbLine
 10
65.8
 20
15.59999928
 30
0.0
 11
65.8
 21
19.79999999999999
 31
0.0
  0
LINE
  5
1A7
330
12D
100
AcDbEntity
  8
AM_4
100
AcDbLine
 10
66.89382325365904
 20
19.79999999999999
 30
0.0
 11
66.89382325365904
 21
24.5
 31
0.0
  0
LINE
  5
1A8
330
12D
100
AcDbEntity
  8
AM_4
100
AcDbLine
 10
39.66666655
 20
19.6
 30
0.0
 11
-39.66666654999998
 21
19.6
 31
0.0
  0
LWPOLYLINE
  5
1A9
330
12D
100
AcDbEntity
  8
AM_4
100
AcDbPolyline
 90
        7
 70
     0
 43
0.0
 10
-41.69029516758348
 20
20.77170863665186
 10
-41.37806909939528
 20
20.34728606646688
 10
-40.95484870563826
 20
19.98781765135326
 10
-40.68228582270545
 20
19.83257767449595
 10
-40.37766153203646
 20
19.71096284085132
 10
-40.03821121117434
 20
19.6296447073606
 10
-39.66666654999998
 20
19.6
  0
LINE
  5
1AA
330
12D
100
AcDbEntity
  8
AM_4
100
AcDbLine
 10
-36.9323706252388
 20
17.04606060606061
 30
0.0
 11
-36.9323706252388
 21
19.6
 31
0.0
  0
LWPOLYLINE
  5
1AB
330
12D
100
AcDbEntity
  8
AM_4
100
AcDbPolyline
 90
        7
 70
     0
 43
0.0
 10
-42.0
 20
20.01575757575758
 10
-41.84017731985332
 20
19.47222267098581
 10
-41.36192562651274
 20
18.93282439503472
 10
-40.56888470414088
 20
18.40166789448186
 10
-39.46709007300817
 20
17.8827955910175
 10
-38.06492705553931
 20
17.38015641617467
 10
-36.9323706252388
 20
17.04606060606061
  0
LINE
  5
1AC
330
12D
100
AcDbEntity
  8
AM_4
100
AcDbLine
 10
36.93237062523878
 20
17.04606060606061
 30
0.0
 11
36.93237062523878
 21
19.6
 31
0.0
  0
LWPOLYLINE
  5
1AD
330
12D
100
AcDbEntity
  8
AM_4
100
AcDbPolyline
 90
        7
 70
     0
 43
0.0
 10
39.66666655
 20
19.6
 10
40.03480974142469
 20
19.6292250368613
 10
40.37230453434226
 20
19.70925610783263
 10
40.67964458956068
 20
19.83135331682635
 10
40.95484870563827
 20
19.98781765135327
 10
41.37678738414361
 20
20.34590416920767
 10
41.69029516758347
 20
20.77170863665186
  0
LWPOLYLINE
  5
1AE
330
12D
100
AcDbEntity
  8
AM_4
100
AcDbPolyline
 90
        3
 70
     0
 43
0.0
 10
42.0
 20
20.01575757575758
 10
41.84017731985332
 20
20.55929248052933
 10
41.69029516758348
 20
20.77170863665186
  0
LINE
  5
1AF
330
12D
100
AcDbEntity
  8
AM_4
100
AcDbLine
 10
-30.25
 20
-19.6
 30
0.0
 11
-39.66666655
 21
-19.6
 31
0.0
  0
LINE
  5
1B0
330
12D
100
AcDbEntity
  8
AM_4
100
AcDbLine
 10
39.66666654999997
 20
-19.6
 30
0.0
 11
30.25
 21
-19.6
 31
0.0
  0
LWPOLYLINE
  5
1B1
330
12D
100
AcDbEntity
  8
AM_4
100
AcDbPolyline
 90
        3
 70
     0
 43
0.0
 10
39.66666654999999
 20
-19.6
 10
39.89972449122232
 20
-19.61166831804791
 10
39.92520385775357
 20
-19.61436741976402
  0
LINE
  5
1B2
330
12D
100
AcDbEntity
  8
AM_4
100
AcDbLine
 10
34.64101615137755
 20
17.04606060606061
 30
0.0
 11
34.64101615137755
 21
19.6
 31
0.0
  0
LINE
  5
1B3
330
12D
100
AcDbEntity
  8
AM_4
100
AcDbLine
 10
-34.64101615137755
 20
19.6
 30
0.0
 11
-34.64101615137755
 21
17.04606060606061
 31
0.0
  0
LWPOLYLINE
  5
1B4
330
12D
100
AcDbEntity
  8
AM_4
100
AcDbPolyline
 90
        3
 70
     0
 43
0.0
 10
-39.91529966173758
 20
-19.61328462192836
 10
-39.82447245232808
 20
-19.60534240919264
 10
-39.66666655000001
 20
-19.6
  0
LINE
  5
1B5
330
12D
100
AcDbEntity
  8
AM_4
100
AcDbLine
 10
-49.42231213725781
 20
-17.47529913777377
 30
0.0
 11
-49.42231213725782
 21
17.47529913777377
 31
0.0
  0
LINE
  5
1B6
330
12D
100
AcDbEntity
  8
AM_4
100
AcDbLine
 10
49.4223121372578
 20
-17.47529913777377
 30
0.0
 11
49.4223121372578
 21
17.47529913777376
 31
0.0
  0
LINE
  5
1B7
330
12D
100
AcDbEntity
  8
AM_4
100
AcDbLine
 10
-36.93237062523879
 20
17.04606060606061
 30
0.0
 11
-34.64101615137755
 21
17.04606060606061
 31
0.0
  0
LWPOLYLINE
  5
1B8
330
12D
100
AcDbEntity
  8
AM_4
100
AcDbPolyline
 90
        3
 70
     0
 43
0.0
 10
-41.69029516758348
 20
20.77170863665186
 10
-41.97536952096393
 20
20.22930509526065
 10
-42.0
 20
20.01575757575758
  0
LWPOLYLINE
  5
1B9
330
12D
100
AcDbEntity
  8
AM_4
100
AcDbPolyline
 90
        7
 70
     0
 43
0.0
 10
-42.00000000000001
 20
21.93333345
 10
-41.99112096177013
 20
21.7299700400873
 10
-41.96455142192273
 20
21.52815434851821
 10
-41.92049359069918
 20
21.32942231456523
 10
-41.85928277479793
 20
21.13528640900443
 10
-41.7813848254881
 20
20.94722412329957
 10
-41.69029516758348
 20
20.77170863665186
  0
LINE
  5
1BA
330
12D
100
AcDbEntity
  8
AM_4
100
AcDbLine
 10
-42.00000000000001
 20
21.93333345
 30
0.0
 11
-41.99999999999998
 21
22.16666654999992
 31
0.0
  0
LWPOLYLINE
  5
1BB
330
12D
100
AcDbEntity
  8
AM_4
100
AcDbPolyline
 90
       19
 70
     0
 43
0.0
 10
-42.0
 20
22.16666654999985
 10
-42.00887903822987
 20
22.37002995991255
 10
-42.03544857807725
 20
22.57184565148164
 10
-42.07950640930079
 20
22.77057768543462
 10
-42.14071722520202
 20
22.96471359099543
 10
-42.21861517451185
 20
23.15277587670029
 10
-42.31260740679993
 20
23.33333327499987
 10
-42.42197858442452
 20
23.50501163506956
 10
-42.54589632668376
 20
23.66650438092703
 10
-42.68341754473548
 20
23.8165824552643
 10
-42.83349561907273
 20
23.95410367331604
 10
-42.99498836493017
 20
24.0780214155753
 10
-43.16666672499986
 20
24.18739259319991
 10
-43.34722412329943
 20
24.28138482548803
 10
-43.53528640900426
 20
24.35928277479788
 10
-43.72942231456507
 20
24.42049359069913
 10
-43.92815434851804
 20
24.4645514219227
 10
-44.12997004008713
 20
24.49112096177011
 10
-44.33333344999983
 20
24.5
  0
LINE
  5
1BC
330
12D
100
AcDbEntity
  8
AM_4
100
AcDbLine
 10
-87.19999999999999
 20
24.5
 30
0.0
 11
-44.33333345
 21
24.5
 31
0.0
  0
LINE
  5
1BD
330
12D
100
AcDbEntity
  8
AM_4
100
AcDbLine
 10
-49.42231213725782
 20
17.47529913777377
 30
0.0
 11
-65.79999999999997
 21
24.5
 31
0.0
  0
LWPOLYLINE
  5
1BE
330
12D
100
AcDbEntity
  8
AM_4
100
AcDbPolyline
 90
       30
 70
     0
 43
0.0
 10
49.4223121372578
 20
17.47529913777377
 10
47.74307942291703
 20
16.84537702242223
 10
45.70049304610831
 20
16.23958341740969
 10
43.31009832250655
 20
15.66252877785847
 10
40.59008759931814
 20
15.11860483801069
 10
37.56116180053392
 20
14.61195118747882
 10
34.24637288039806
 20
14.14642376646927
 10
30.67094838411706
 20
13.72556551974905
 10
26.86209945100794
 20
13.35257943269686
 10
22.84881372129754
 20
13.03030415465033
 10
18.66163472267712
 20
12.76119239507052
 10
14.33242941561401
 20
12.54729225694196
 10
9.894145666540586
 20
12.39023164947225
 10
5.380561494696289
 20
12.29120589872001
 10
0.826028001005495
 20
12.25096865044185
 10
-3.734792064542294
 20
12.26982613439309
 10
-8.267188107349812
 20
12.34763483373439
 10
-12.73666585679574
 20
12.48380257728159
 10
-17.10920988846233
 20
12.67729304628597
 10
-21.35154250205434
 20
12.92663366144566
 10
-25.43137698479186
 20
13.22992679012331
 10
-29.31766333278985
 20
13.5848641884763
 10
-32.9808245603362
 20
13.9887445685861
 10
-36.39298179861201
 20
14.43849415689042
 10
-39.52816647071719
 20
14.93069008745604
 10
-42.36251792822074
 20
15.46158645205535
 10
-44.87446504510282
 20
16.02714280878973
 10
-47.04489038704887
 20
16.62305493229218
 10
-48.85727570666797
 20
17.24478757148127
 10
-49.42231213725782
 20
17.47529913777378
  0
LINE
  5
1BF
330
12D
100
AcDbEntity
  8
AM_4
100
AcDbLine
 10
65.8
 20
24.5
 30
0.0
 11
49.4223121372578
 21
17.47529913777376
 31
0.0
  0
LINE
  5
1C0
330
12D
100
AcDbEntity
  8
AM_4
100
AcDbLine
 10
44.33333345
 20
24.49999999999999
 30
0.0
 11
87.19999999999999
 21
24.5
 31
0.0
  0
LWPOLYLINE
  5
1C1
330
12D
100
AcDbEntity
  8
AM_4
100
AcDbPolyline
 90
       19
 70
     0
 43
0.0
 10
44.33333360549338
 20
24.49999999999999
 10
44.12997019498897
 20
24.49112097532225
 10
43.9281545016493
 20
24.46455144892385
 10
43.7294224647603
 20
24.42049363094381
 10
43.53528655512041
 20
24.35928282797979
 10
43.34722426422444
 20
24.28138489120243
 10
43.16666685966123
 20
24.18739267094667
 10
42.99498849230304
 20
24.07802150476272
 10
42.83349573818771
 20
23.95410377326535
 10
42.68341765468603
 20
23.81658256521483
 10
42.5458964266331
 20
23.66650450004198
 10
42.42197867361197
 20
23.50501176244241
 10
42.31260748454671
 20
23.33333340966122
 10
42.21861524022626
 20
23.1527760176253
 10
42.14071727838395
 20
22.96471373711157
 10
42.07950644954548
 20
22.77057783562985
 10
42.03544860507843
 20
22.57184580461289
 10
42.00887905178203
 20
22.3700301148144
 10
42.00000000000001
 20
22.16666670549339
  0
LINE
  5
1C2
330
12D
100
AcDbEntity
  8
AM_4
100
AcDbLine
 10
42.0
 20
22.16666655000001
 30
0.0
 11
42.0
 21
21.93333344999993
 31
0.0
  0
LWPOLYLINE
  5
1C3
330
12D
100
AcDbEntity
  8
AM_4
100
AcDbPolyline
 90
        7
 70
     0
 43
0.0
 10
41.69029516758347
 20
20.77170863665186
 10
41.78383692314485
 20
20.95249982498167
 10
41.86126573378417
 20
21.14075574944141
 10
41.92199231949968
 20
21.3350436687739
 10
41.96555451430636
 20
21.53388493459877
 10
41.99162078359817
 20
21.73576624481944
 10
42.0
 20
21.93333344999986
  0
LWPOLYLINE
  5
1C4
330
12D
100
AcDbEntity
  8
AM_4
100
AcDbPolyline
 90
        7
 70
     0
 43
0.0
 10
36.93237062523878
 20
17.04606060606061
 10
38.53494665977535
 20
17.53531435557739
 10
39.84424848219408
 20
18.04344577573231
 10
40.85031151504829
 20
18.56658767959985
 10
41.5454790111805
 20
19.10075864140985
 10
41.92446032619152
 20
19.64189329760171
 10
42.0
 20
20.01575757575758
  0
LINE
  5
1C5
330
12D
100
AcDbEntity
  8
AM_4
100
AcDbLine
 10
34.64101615137755
 20
17.04606060606061
 30
0.0
 11
36.93237062523878
 21
17.04606060606061
 31
0.0
  0
LWPOLYLINE
  5
1C6
330
12D
100
AcDbEntity
  8
AM_4
100
AcDbPolyline
 90
       25
 70
     0
 43
0.0
 10
-34.64101615137755
 20
17.04606060606061
 10
-32.76608177155967
 20
16.609061165915
 10
-30.64177772475912
 20
16.19798874246783
 10
-28.28427124746191
 20
15.81597184507384
 10
-25.71150438746158
 20
15.46591785299032
 10
-22.94305745404186
 20
15.15049088846539
 10
-20.00000000000001
 20
14.8720915411591
 10
-16.904730469628
 20
14.63283859820657
 10
-13.68080573302677
 20
14.43455291896855
 10
-10.35276180410086
 20
14.2787435771922
 10
-6.945927106677245
 20
14.16659637604871
 10
-3.486229709906363
 20
14.09896482345509
 10
-0.0000000000000404
 20
14.07636363636364
 10
3.486229709906283
 20
14.09896482345509
 10
6.945927106677167
 20
14.16659637604871
 10
10.35276180410078
 20
14.2787435771922
 10
13.68080573302669
 20
14.43455291896854
 10
16.90473046962792
 20
14.63283859820656
 10
19.99999999999994
 20
14.87209154115909
 10
22.94305745404179
 20
15.15049088846538
 10
25.71150438746152
 20
15.46591785299031
 10
28.28427124746185
 20
15.81597184507383
 10
30.64177772475907
 20
16.19798874246782
 10
32.76608177155963
 20
16.60906116591499
 10
34.6410161513775
 20
17.0460606060606
  0
LINE
  5
1C7
330
12D
100
AcDbEntity
  8
AM_4
100
AcDbLine
 10
42.00000000000001
 20
-21.93333345000002
 30
0.0
 11
42.0
 21
-22.16666655000001
 31
0.0
  0
LWPOLYLINE
  5
1C8
330
12D
100
AcDbEntity
  8
AM_4
100
AcDbPolyline
 90
       19
 70
     0
 43
0.0
 10
42.0
 20
-22.16666655000001
 10
42.00887903822989
 20
-22.37002995991271
 10
42.03544857807728
 20
-22.5718456514818
 10
42.07950640930083
 20
-22.77057768543478
 10
42.14071722520207
 20
-22.96471359099558
 10
42.2186151745119
 20
-23.15277587670044
 10
42.31260740680001
 20
-23.33333327500001
 10
42.42197858442461
 20
-23.5050116350697
 10
42.54589632668386
 20
-23.66650438092715
 10
42.68341754473559
 20
-23.81658245526441
 10
42.83349561907285
 20
-23.95410367331614
 10
42.9949883649303
 20
-24.07802141557539
 10
43.16666672499999
 20
-24.18739259319999
 10
43.34722412329956
 20
-24.2813848254881
 10
43.53528640900441
 20
-24.35928277479793
 10
43.72942231456522
 20
-24.42049359069918
 10
43.9281543485182
 20
-24.46455142192274
 10
44.12997004008728
 20
-24.49112096177013
 10
44.33333344999998
 20
-24.50000000000001
  0
LINE
  5
1C9
330
12D
100
AcDbEntity
  8
AM_4
100
AcDbLine
 10
44.33333345
 20
-24.50000000000001
 30
0.0
 11
87.19999999999997
 21
-24.5
 31
0.0
  0
LINE
  5
1CA
330
12D
100
AcDbEntity
  8
AM_4
100
AcDbLine
 10
49.4223121372578
 20
-17.47529913777377
 30
0.0
 11
65.8
 21
-24.5
 31
0.0
  0
LWPOLYLINE
  5
1CB
330
12D
100
AcDbEntity
  8
AM_4
100
AcDbPolyline
 90
       30
 70
     0
 43
0.0
 10
-49.42231213725783
 20
-17.47529913777377
 10
-47.74307942291706
 20
-16.84537702242223
 10
-45.70049304610836
 20
-16.23958341740969
 10
-43.31009832250659
 20
-15.66252877785847
 10
-40.59008759931819
 20
-15.11860483801068
 10
-37.56116180053398
 20
-14.61195118747882
 10
-34.24637288039812
 20
-14.14642376646926
 10
-30.67094838411712
 20
-13.72556551974904
 10
-26.862099451008
 20
-13.35257943269685
 10
-22.8488137212976
 20
-13.03030415465032
 10
-18.6616347226772
 20
-12.76119239507051
 10
-14.33242941561409
 20
-12.54729225694195
 10
-9.89414566654066
 20
-12.39023164947224
 10
-5.380561494696364
 20
-12.29120589872
 10
-0.8260280010055712
 20
-12.25096865044184
 10
3.734792064542218
 20
-12.26982613439307
 10
8.267188107349735
 20
-12.34763483373438
 10
12.73666585679566
 20
-12.48380257728158
 10
17.10920988846226
 20
-12.67729304628595
 10
21.35154250205427
 20
-12.92663366144564
 10
25.4313769847918
 20
-13.2299267901233
 10
29.31766333278979
 20
-13.58486418847628
 10
32.98082456033613
 20
-13.98874456858608
 10
36.39298179861196
 20
-14.4384941568904
 10
39.52816647071715
 20
-14.93069008745603
 10
42.36251792822068
 20
-15.46158645205533
 10
44.87446504510278
 20
-16.02714280878971
 10
47.04489038704882
 20
-16.62305493229216
 10
48.85727570666794
 20
-17.24478757148125
 10
49.4223121372578
 20
-17.47529913777376
  0
LINE
  5
1CC
330
12D
100
AcDbEntity
  8
AM_4
100
AcDbLine
 10
-65.79999999999997
 20
-24.5
 30
0.0
 11
-49.42231213725781
 21
-17.47529913777377
 31
0.0
  0
LINE
  5
1CD
330
12D
100
AcDbEntity
  8
AM_4
100
AcDbLine
 10
-87.19999999999999
 20
-24.49999999999999
 30
0.0
 11
-44.33333345
 21
-24.49999999999999
 31
0.0
  0
LWPOLYLINE
  5
1CE
330
12D
100
AcDbEntity
  8
AM_4
100
AcDbPolyline
 90
       19
 70
     0
 43
0.0
 10
-44.33333344999999
 20
-24.49999999999999
 10
-44.12997004008729
 20
-24.49112096177011
 10
-43.92815434851821
 20
-24.46455142192271
 10
-43.72942231456523
 20
-24.42049359069916
 10
-43.53528640900442
 20
-24.35928277479792
 10
-43.34722412329957
 20
-24.28138482548808
 10
-43.166666725
 20
-24.18739259319998
 10
-42.99498836493031
 20
-24.07802141557538
 10
-42.83349561907286
 20
-23.95410367331613
 10
-42.6834175447356
 20
-23.8165824552644
 10
-42.54589632668387
 20
-23.66650438092714
 10
-42.42197858442462
 20
-23.50501163506969
 10
-42.31260740680001
 20
-23.333333275
 10
-42.21861517451191
 20
-23.15277587670043
 10
-42.14071722520208
 20
-22.96471359099558
 10
-42.07950640930083
 20
-22.77057768543477
 10
-42.03544857807729
 20
-22.57184565148179
 10
-42.00887903822989
 20
-22.37002995991271
 10
-42.0
 20
-22.16666655
  0
LINE
  5
1CF
330
12D
100
AcDbEntity
  8
AM_4
100
AcDbLine
 10
-42.0
 20
-22.16666655
 30
0.0
 11
-41.99999999999999
 21
-21.93333344999998
 31
0.0
  0
LWPOLYLINE
  5
1D0
330
12D
100
AcDbEntity
  8
AM_4
100
AcDbPolyline
 90
       18
 70
     0
 43
0.0
 10
-39.90768937341781
 20
-19.61248166940723
 10
-40.10904776955271
 20
-19.64231973431082
 10
-40.30703937748973
 20
-19.6895937969427
 10
-40.50015736154187
 20
-19.75394407314138
 10
-40.68693197724267
 20
-19.83488081844926
 10
-40.86594175698904
 20
-19.93178805536357
 10
-41.03582432826806
 20
-20.04392826129721
 10
-41.19528678213438
 20
-20.17044798157094
 10
-41.34311551302803
 20
-20.31038432471876
 10
-41.47818545504548
 20
-20.46267229067344
 10
-41.59946864437051
 20
-20.62615287606008
 10
-41.70604204269956
 20
-20.79958189491162
 10
-41.79709456212058
 20
-20.98163944767528
 10
-41.87193323798176
 20
-21.17093996644519
 10
-41.92998850277098
 20
-21.36604275997072
 10
-41.97081852086843
 20
-21.56546297818686
 10
-41.99411255118259
 20
-21.76768291281976
 10
-42.0
 20
-21.93333344999997
  0
LWPOLYLINE
  5
1D1
330
12D
100
AcDbEntity
  8
AM_4
100
AcDbPolyline
 90
       36
 70
     0
 43
0.0
 10
39.90768937341779
 20
-19.61248166940724
 10
39.51911881832853
 20
-19.09755858590605
 10
38.82978390673544
 20
-18.58962355114133
 10
37.84493089354753
 20
-18.09254225742722
 10
36.57205510486566
 20
-17.61009779355475
 10
35.02084389402514
 20
-17.14596185320195
 10
33.20310291498738
 20
-16.70366679112783
 10
31.13266627418488
 20
-16.28657873981983
 10
28.82529124461798
 20
-15.89787199119306
 10
26.2985383434928
 20
-15.54050483831213
 10
23.57163768608203
 20
-15.21719706099464
 10
20.66534263293619
 20
-14.93040922664456
 10
17.60177184427868
 20
-14.68232396384851
 10
14.40424094364577
 20
-14.47482935125436
 10
11.09708507191324
 20
-14.30950454815261
 10
7.705473682180279
 20
-14.18760777612071
 10
4.255218985033711
 20
-14.11006674319712
 10
0.7725795020395635
 20
-14.07747158346294
 10
-2.715939777461363
 20
-14.09007036576523
 10
-6.183789115326533
 20
-14.14776720576333
 10
-9.604576084150114
 20
-14.25012299566655
 10
-12.95226642957171
 20
-14.3963587461096
 10
-16.20138220667197
 20
-14.58536151473206
 10
-19.32719568251741
 20
-14.81569287634171
 10
-22.30591752913907
 20
-15.08559987019883
 10
-25.11487787468273
 20
-15.39302834110587
 10
-27.73269883482217
 20
-15.73563857276883
 10
-30.13945721136723
 20
-16.11082309445106
 10
-32.31683611983195
 20
-16.51572652539993
 10
-34.24826439198558
 20
-16.94726730601855
 10
-35.91904269244876
 20
-17.40216115039497
 10
-37.31645538951143
 20
-17.87694604170107
 10
-38.42986732876812
 20
-18.36800858023105
 10
-39.25080477306454
 20
-18.87161148355504
 10
-39.77301989275403
 20
-19.38392202949498
 10
-39.90768937341778
 20
-19.61248166940723
  0
LWPOLYLINE
  5
1D2
330
12D
100
AcDbEntity
  8
AM_4
100
AcDbPolyline
 90
       18
 70
     0
 43
0.0
 10
42.00000000000001
 20
-21.93333345000002
 10
41.99112096177013
 20
-21.72997004008731
 10
41.96455142192274
 20
-21.52815434851822
 10
41.92049359069918
 20
-21.32942231456524
 10
41.85928277479793
 20
-21.13528640900444
 10
41.7813848254881
 20
-20.94722412329958
 10
41.6873925932
 20
-20.76666672500001
 10
41.57802141557539
 20
-20.59498836493032
 10
41.45410367331615
 20
-20.43349561907286
 10
41.31658245526442
 20
-20.28341754473561
 10
41.16650438092716
 20
-20.14589632668388
 10
41.0050116350697
 20
-20.02197858442462
 10
40.83333327500001
 20
-19.91260740680002
 10
40.65277587670044
 20
-19.81861517451192
 10
40.46471359099559
 20
-19.74071722520208
 10
40.27057768543477
 20
-19.67950640930083
 10
40.07184565148179
 20
-19.63544857807728
 10
39.9076893734178
 20
-19.61248166940724
  0
ENDBLK
  5
130
330
12D
100
AcDbEntity
  8
0
100
AcDbBlockEnd
  0
ENDSEC
  0
SECTION
  2
ENTITIES
  0
INSERT
  5
6F
330
1F
100
AcDbEntity
  8
0
100
AcDbBlockReference
  2
1_125716_4
 10
0.0
 20
0.0
 30
0.0
  0
POINT
  5
1D4
330
1F
100
AcDbEntity
  8
ConnectionPoints
100
AcDbPoint
 10
0.0
 20
-32.6
 30
0.000000000000002
  0
POINT
  5
1D5
330
1F
100
AcDbEntity
  8
ConnectionPoints
100
AcDbPoint
 10
36.98168465605642
 20
0.0000000000000023
 30
36.98168465605644
  0
POINT
  5
1D6
330
1F
100
AcDbEntity
  8
ConnectionPoints
100
AcDbPoint
 10
36.98168465605642
 20
0.0000000000000023
 30
36.98168465605644
  0
POINT
  5
1D7
330
1F
100
AcDbEntity
  8
ConnectionPoints
100
AcDbPoint
 10
0.0
 20
-32.6
 30
0.000000000000002
  0
ENDSEC
  0
SECTION
  2
OBJECTS
  0
DICTIONARY
  5
C
330
0
100
AcDbDictionary
281
     1
  3
ACAD_DETAILVIEWSTYLE
350
1DF
  3
ACAD_GROUP
350
D
  3
ACAD_LAYOUT
350
1A
  3
ACAD_MATERIAL
350
43
  3
ACAD_MLEADERSTYLE
350
6B
  3
ACAD_MLINESTYLE
350
17
  3
ACAD_PLOTSETTINGS
350
19
  3
ACAD_PLOTSTYLENAME
350
E
  3
ACAD_SCALELIST
350
47
  3
ACAD_SECTIONVIEWSTYLE
350
1E0
  3
ACAD_TABLESTYLE
350
69
  3
ACAD_VISUALSTYLE
350
2A
  3
ACDB_RECOMPOSE_DATA
350
1DC
  3
AcDbVariableDictionary
350
1D8
  0
SUN
  5
6D
330
29
100
AcDbSun
 90
        1
290
     0
 63
     7
421
 16777215
 40
1.0
291
     1
 91
  2455826
 92
 54000000
292
     0
 70
     2
 71
   256
280
     1
  0
DICTIONARY
  5
1DF
102
{ACAD_REACTORS
330
C
102
}
330
C
100
AcDbDictionary
281
     1
  0
DICTIONARY
  5
D
102
{ACAD_REACTORS
330
C
102
}
330
C
100
AcDbDictionary
281
     1
  0
DICTIONARY
  5
1A
102
{ACAD_REACTORS
330
C
102
}
330
C
100
AcDbDictionary
281
     1
  3
Layout1
350
1E
  3
Layout2
350
26
  3
Model
350
22
  0
DICTIONARY
  5
43
102
{ACAD_REACTORS
330
C
102
}
330
C
100
AcDbDictionary
281
     1
  3
ByBlock
350
45
  3
ByLayer
350
44
  3
Global
350
46
  0
DICTIONARY
  5
6B
102
{ACAD_REACTORS
330
C
102
}
330
C
100
AcDbDictionary
281
     1
  3
Standard
350
6C
  0
DICTIONARY
  5
17
102
{ACAD_REACTORS
330
C
102
}
330
C
100
AcDbDictionary
281
     1
  3
Standard
350
18
  0
DICTIONARY
  5
19
102
{ACAD_REACTORS
330
C
102
}
330
C
100
AcDbDictionary
281
     1
  0
ACDBDICTIONARYWDFLT
  5
E
102
{ACAD_REACTORS
330
C
102
}
330
C
100
AcDbDictionary
281
     1
  3
Normal
350
F
100
AcDbDictionaryWithDefault
340
F
  0
DICTIONARY
  5
47
102
{ACAD_REACTORS
330
C
102
}
330
C
100
AcDbDictionary
281
     1
  3
A0
350
48
  3
A1
350
49
  3
A2
350
4A
  3
A3
350
4B
  3
A4
350
4C
  3
A5
350
4D
  3
A6
350
4E
  3
A7
350
4F
  3
A8
350
50
  3
A9
350
51
  3
B0
350
52
  3
B1
350
53
  3
B2
350
54
  3
B3
350
55
  3
B4
350
56
  3
B5
350
57
  3
B6
350
58
  3
B7
350
59
  3
B8
350
5A
  3
B9
350
5B
  3
C0
350
5C
  3
C1
350
5D
  3
C2
350
5E
  3
C3
350
5F
  3
C4
350
60
  3
C5
350
61
  3
C6
350
62
  3
C7
350
63
  3
C8
350
64
  3
C9
350
65
  3
D0
350
66
  3
D1
350
67
  3
D2
350
68
  0
DICTIONARY
  5
1E0
102
{ACAD_REACTORS
330
C
102
}
330
C
100
AcDbDictionary
281
     1
  0
DICTIONARY
  5
69
102
{ACAD_REACTORS
330
C
102
}
330
C
100
AcDbDictionary
281
     1
  3
Standard
350
6A
  0
DICTIONARY
  5
2A
102
{ACAD_REACTORS
330
C
102
}
330
C
100
AcDbDictionary
281
     1
  3
2dWireframe
350
2F
  3
Basic
350
32
  3
Brighten
350
36
  3
ColorChange
350
3A
  3
Conceptual
350
34
  3
Dim
350
35
  3
EdgeColorOff
350
3D
  3
Facepattern
350
39
  3
Flat
350
2B
  3
FlatWithEdges
350
2C
  3
Gouraud
350
2D
  3
GouraudWithEdges
350
2E
  3
Hidden
350
31
  3
JitterOff
350
3B
  3
Linepattern
350
38
  3
OverhangOff
350
3C
  3
Realistic
350
33
  3
Shaded
350
42
  3
Shaded with edges
350
41
  3
Shades of Gray
350
3E
  3
Sketchy
350
3F
  3
Thicken
350
37
  3
Wireframe
350
30
  3
X-Ray
350
40
  0
XRECORD
  5
1DC
102
{ACAD_REACTORS
330
C
102
}
330
C
100
AcDbXrecord
280
     1
 90
        1
330
6A
  0
DICTIONARY
  5
1D8
102
{ACAD_REACTORS
330
C
102
}
330
C
100
AcDbDictionary
281
     1
  3
CANNOSCALE
350
1D9
  3
CMLEADERSTYLE
350
1DE
  3
CTABLESTYLE
350
1DD
  0
LAYOUT
  5
1E
102
{ACAD_REACTORS
330
1A
102
}
330
1A
100
AcDbPlotSettings
  1

  2
none_device
  4

  6

 40
0.0
 41
0.0
 42
0.0
 43
0.0
 44
0.0
 45
0.0
 46
0.0
 47
0.0
 48
0.0
 49
0.0
140
0.0
141
0.0
142
1.0
143
1.0
 70
   688
 72
     1
 73
     0
 74
     5
  7

 75
    16
 76
     0
 77
     2
 78
   300
147
1.0
148
0.0
149
0.0
100
AcDbLayout
  1
Layout1
 70
     1
 71
     1
 10
0.0
 20
0.0
 11
420.0
 21
297.0
 12
0.0
 22
0.0
 32
0.0
 14
1.000000000000000E+20
 24
1.000000000000000E+20
 34
1.000000000000000E+20
 15
-1.000000000000000E+20
 25
-1.000000000000000E+20
 35
-1.000000000000000E+20
146
0.0
 13
0.0
 23
0.0
 33
0.0
 16
1.0
 26
0.0
 36
0.0
 17
0.0
 27
1.0
 37
0.0
 76
     0
330
1B
  0
LAYOUT
  5
26
102
{ACAD_REACTORS
330
1A
102
}
330
1A
100
AcDbPlotSettings
  1

  2
none_device
  4

  6

 40
0.0
 41
0.0
 42
0.0
 43
0.0
 44
0.0
 45
0.0
 46
0.0
 47
0.0
 48
0.0
 49
0.0
140
0.0
141
0.0
142
1.0
143
1.0
 70
   688
 72
     1
 73
     0
 74
     5
  7

 75
    16
 76
     0
 77
     2
 78
   300
147
1.0
148
0.0
149
0.0
100
AcDbLayout
  1
Layout2
 70
     1
 71
     2
 10
0.0
 20
0.0
 11
0.0
 21
0.0
 12
0.0
 22
0.0
 32
0.0
 14
0.0
 24
0.0
 34
0.0
 15
0.0
 25
0.0
 35
0.0
146
0.0
 13
0.0
 23
0.0
 33
0.0
 16
1.0
 26
0.0
 36
0.0
 17
0.0
 27
1.0
 37
0.0
 76
     0
330
23
  0
LAYOUT
  5
22
102
{ACAD_REACTORS
330
1A
102
}
330
1A
100
AcDbPlotSettings
  1

  2
none_device
  4
Letter_(8.50_x_11.00_Inches)
  6

 40
6.35
 41
6.35
 42
6.35000508
 43
6.35000508
 44
215.9
 45
279.4
 46
0.0
 47
0.0
 48
0.0
 49
0.0
140
0.0
141
0.0
142
1.0
143
1.0
 70
  1712
 72
     1
 73
     0
 74
     0
  7

 75
     0
 76
     0
 77
     2
 78
   300
147
1.0
148
0.0
149
0.0
100
AcDbLayout
  1
Model
 70
     1
 71
     0
 10
0.0
 20
0.0
 11
420.0
 21
297.0
 12
0.0
 22
0.0
 32
0.0
 14
1.000000000000000E+20
 24
1.000000000000000E+20
 34
1.000000000000000E+20
 15
-1.000000000000000E+20
 25
-1.000000000000000E+20
 35
-1.000000000000000E+20
146
0.0
 13
0.0
 23
0.0
 33
0.0
 16
1.0
 26
0.0
 36
0.0
 17
0.0
 27
1.0
 37
0.0
 76
     0
330
1F
331
29
  0
MATERIAL
  5
45
102
{ACAD_REACTORS
330
43
102
}
330
43
100
AcDbMaterial
  1
ByBlock
 72
     1
 94
      127
  0
MATERIAL
  5
44
102
{ACAD_REACTORS
330
43
102
}
330
43
100
AcDbMaterial
  1
ByLayer
 72
     1
 94
      127
  0
MATERIAL
  5
46
102
{ACAD_REACTORS
330
43
102
}
330
43
100
AcDbMaterial
  1
Global
 72
     1
 94
      127
  0
MLEADERSTYLE
  5
6C
102
{ACAD_REACTORS
330
6B
102
}
330
6B
100
AcDbMLeaderStyle
179
     2
170
     2
171
     1
172
     0
 90
        2
 40
0.0
 41
0.0
173
     1
 91
-1056964608
340
14
 92
       -2
290
     1
 42
2.0
291
     1
 43
8.0
  3
Standard
341
0
 44
4.0
300

342
11
174
     1
178
     6
175
     1
176
     0
 93
-1056964608
 45
4.0
292
     0
297
     0
 46
4.0
343
0
 94
-1056964608
 47
1.0
 49
1.0
140
1.0
293
     1
141
0.0
294
     1
177
     0
142
1.0
295
     0
296
     0
143
3.75
271
     0
272
     9
273
     9
298
     0
  0
MLINESTYLE
  5
18
102
{ACAD_REACTORS
330
17
102
}
330
17
100
AcDbMlineStyle
  2
Standard
 70
     0
  3

 62
   256
 51
90.0
 52
90.0
 71
     2
 49
0.5
 62
   256
  6
BYLAYER
 49
-0.5
 62
   256
  6
BYLAYER
  0
ACDBPLACEHOLDER
  5
F
102
{ACAD_REACTORS
330
E
102
}
330
E
  0
SCALE
  5
48
102
{ACAD_REACTORS
330
47
102
}
330
47
100
AcDbScale
 70
     0
300
1:1
140
1.0
141
1.0
290
     1
  0
SCALE
  5
49
102
{ACAD_REACTORS
330
47
102
}
330
47
100
AcDbScale
 70
     0
300
1:2
140
1.0
141
2.0
290
     0
  0
SCALE
  5
4A
102
{ACAD_REACTORS
330
47
102
}
330
47
100
AcDbScale
 70
     0
300
1:4
140
1.0
141
4.0
290
     0
  0
SCALE
  5
4B
102
{ACAD_REACTORS
330
47
102
}
330
47
100
AcDbScale
 70
     0
300
1:5
140
1.0
141
5.0
290
     0
  0
SCALE
  5
4C
102
{ACAD_REACTORS
330
47
102
}
330
47
100
AcDbScale
 70
     0
300
1:8
140
1.0
141
8.0
290
     0
  0
SCALE
  5
4D
102
{ACAD_REACTORS
330
47
102
}
330
47
100
AcDbScale
 70
     0
300
1:10
140
1.0
141
10.0
290
     0
  0
SCALE
  5
4E
102
{ACAD_REACTORS
330
47
102
}
330
47
100
AcDbScale
 70
     0
300
1:16
140
1.0
141
16.0
290
     0
  0
SCALE
  5
4F
102
{ACAD_REACTORS
330
47
102
}
330
47
100
AcDbScale
 70
     0
300
1:20
140
1.0
141
20.0
290
     0
  0
SCALE
  5
50
102
{ACAD_REACTORS
330
47
102
}
330
47
100
AcDbScale
 70
     0
300
1:30
140
1.0
141
30.0
290
     0
  0
SCALE
  5
51
102
{ACAD_REACTORS
330
47
102
}
330
47
100
AcDbScale
 70
     0
300
1:40
140
1.0
141
40.0
290
     0
  0
SCALE
  5
52
102
{ACAD_REACTORS
330
47
102
}
330
47
100
AcDbScale
 70
     0
300
1:50
140
1.0
141
50.0
290
     0
  0
SCALE
  5
53
102
{ACAD_REACTORS
330
47
102
}
330
47
100
AcDbScale
 70
     0
300
1:100
140
1.0
141
100.0
290
     0
  0
SCALE
  5
54
102
{ACAD_REACTORS
330
47
102
}
330
47
100
AcDbScale
 70
     0
300
2:1
140
2.0
141
1.0
290
     0
  0
SCALE
  5
55
102
{ACAD_REACTORS
330
47
102
}
330
47
100
AcDbScale
 70
     0
300
4:1
140
4.0
141
1.0
290
     0
  0
SCALE
  5
56
102
{ACAD_REACTORS
330
47
102
}
330
47
100
AcDbScale
 70
     0
300
8:1
140
8.0
141
1.0
290
     0
  0
SCALE
  5
57
102
{ACAD_REACTORS
330
47
102
}
330
47
100
AcDbScale
 70
     0
300
10:1
140
10.0
141
1.0
290
     0
  0
SCALE
  5
58
102
{ACAD_REACTORS
330
47
102
}
330
47
100
AcDbScale
 70
     0
300
100:1
140
100.0
141
1.0
290
     0
  0
SCALE
  5
59
102
{ACAD_REACTORS
330
47
102
}
330
47
100
AcDbScale
 70
     0
300
1/128" = 1'-0"
140
0.0078125
141
12.0
290
     0
  0
SCALE
  5
5A
102
{ACAD_REACTORS
330
47
102
}
330
47
100
AcDbScale
 70
     0
300
1/64" = 1'-0"
140
0.015625
141
12.0
290
     0
  0
SCALE
  5
5B
102
{ACAD_REACTORS
330
47
102
}
330
47
100
AcDbScale
 70
     0
300
1/32" = 1'-0"
140
0.03125
141
12.0
290
     0
  0
SCALE
  5
5C
102
{ACAD_REACTORS
330
47
102
}
330
47
100
AcDbScale
 70
     0
300
1/16" = 1'-0"
140
0.0625
141
12.0
290
     0
  0
SCALE
  5
5D
102
{ACAD_REACTORS
330
47
102
}
330
47
100
AcDbScale
 70
     0
300
3/32" = 1'-0"
140
0.09375
141
12.0
290
     0
  0
SCALE
  5
5E
102
{ACAD_REACTORS
330
47
102
}
330
47
100
AcDbScale
 70
     0
300
1/8" = 1'-0"
140
0.125
141
12.0
290
     0
  0
SCALE
  5
5F
102
{ACAD_REACTORS
330
47
102
}
330
47
100
AcDbScale
 70
     0
300
3/16" = 1'-0"
140
0.1875
141
12.0
290
     0
  0
SCALE
  5
60
102
{ACAD_REACTORS
330
47
102
}
330
47
100
AcDbScale
 70
     0
300
1/4" = 1'-0"
140
0.25
141
12.0
290
     0
  0
SCALE
  5
61
102
{ACAD_REACTORS
330
47
102
}
330
47
100
AcDbScale
 70
     0
300
3/8" = 1'-0"
140
0.375
141
12.0
290
     0
  0
SCALE
  5
62
102
{ACAD_REACTORS
330
47
102
}
330
47
100
AcDbScale
 70
     0
300
1/2" = 1'-0"
140
0.5
141
12.0
290
     0
  0
SCALE
  5
63
102
{ACAD_REACTORS
330
47
102
}
330
47
100
AcDbScale
 70
     0
300
3/4" = 1'-0"
140
0.75
141
12.0
290
     0
  0
SCALE
  5
64
102
{ACAD_REACTORS
330
47
102
}
330
47
100
AcDbScale
 70
     0
300
1" = 1'-0"
140
1.0
141
12.0
290
     0
  0
SCALE
  5
65
102
{ACAD_REACTORS
330
47
102
}
330
47
100
AcDbScale
 70
     0
300
1-1/2" = 1'-0"
140
1.5
141
12.0
290
     0
  0
SCALE
  5
66
102
{ACAD_REACTORS
330
47
102
}
330
47
100
AcDbScale
 70
     0
300
3" = 1'-0"
140
3.0
141
12.0
290
     0
  0
SCALE
  5
67
102
{ACAD_REACTORS
330
47
102
}
330
47
100
AcDbScale
 70
     0
300
6" = 1'-0"
140
6.0
141
12.0
290
     0
  0
SCALE
  5
68
102
{ACAD_REACTORS
330
47
102
}
330
47
100
AcDbScale
 70
     0
300
1'-0" = 1'-0"
140
12.0
141
12.0
290
     0
  0
TABLESTYLE
  5
6A
102
{ACAD_REACTORS
330
69
102
}
102
{ACAD_XDICTIONARY
360
1DA
102
}
330
69
100
AcDbTableStyle
  3
Standard
 70
     0
 71
     0
 40
0.06
 41
0.06
280
     0
281
     0
  7
Standard
140
4.5
170
     2
 62
     0
 63
   257
283
     0
 90
        4
 91
        0
  1

274
    -2
284
     1
 64
     0
275
    -2
285
     1
 65
     0
276
    -2
286
     1
 66
     0
277
    -2
287
     1
 67
     0
278
    -2
288
     1
 68
     0
279
    -2
289
     1
 69
     0
  7
Standard
140
6.0
170
     5
 62
     0
 63
   257
283
     0
 90
        4
 91
        0
  1

274
    -2
284
     1
 64
     0
275
    -2
285
     1
 65
     0
276
    -2
286
     1
 66
     0
277
    -2
287
     1
 67
     0
278
    -2
288
     1
 68
     0
279
    -2
289
     1
 69
     0
  7
Standard
140
4.5
170
     5
 62
     0
 63
   257
283
     0
 90
        4
 91
        0
  1

274
    -2
284
     1
 64
     0
275
    -2
285
     1
 65
     0
276
    -2
286
     1
 66
     0
277
    -2
287
     1
 67
     0
278
    -2
288
     1
 68
     0
279
    -2
289
     1
 69
     0
  0
VISUALSTYLE
  5
2F
102
{ACAD_REACTORS
330
2A
102
}
330
2A
100
AcDbVisualStyle
  2
2dWireframe
 70
     4
177
     3
291
     0
 70
    58
 90
        0
176
     1
 90
        2
176
     1
 90
        0
176
     1
 90
        0
176
     1
 40
0.6
176
     1
 40
30.0
176
     1
 62
     7
420
 16777215
176
     1
 90
        1
176
     1
 90
        4
176
     1
 62
     7
176
     1
 62
   257
176
     1
 90
        1
176
     1
 90
        1
176
     1
 40
1.0
176
     1
 90
        0
176
     1
 62
   257
176
     1
 40
1.0
176
     1
 90
        1
176
     1
 90
        6
176
     1
 90
        2
176
     1
 62
     7
176
     1
 90
        5
176
     1
 90
        0
176
     1
 90
        0
176
     1
290
     0
176
     1
 90
        1
176
     1
 40
0.0
176
     1
 90
        0
176
     1
290
     1
176
     1
290
     1
176
     1
290
     0
176
     1
290
     0
176
     1
290
     0
176
     1
290
     0
176
     1
290
     0
176
     1
290
     0
176
     1
290
     0
176
     1
 90
       50
176
     1
 40
0.0
176
     1
 40
1.0
176
     1
 90
        0
176
     1
 62
    18
420
        0
176
     1
 90
       50
176
     1
 90
        3
176
     1
 62
     5
420
      255
176
     1
290
     0
176
     1
 90
       50
176
     1
 90
       50
176
     1
 90
       50
176
     1
290
     0
176
     1
 90
       50
176
     1
 62
   256
176
     0
 40
1.0
176
     0
 90
        2
176
     1
  1
strokes_ogs.tif
176
     1
290
     0
176
     1
 40
1.0
176
     1
 40
1.0
176
     1
  0
VISUALSTYLE
  5
32
102
{ACAD_REACTORS
330
2A
102
}
330
2A
100
AcDbVisualStyle
  2
Basic
 70
     7
177
     3
291
     1
 70
    58
 90
        1
176
     1
 90
        0
176
     1
 90
        1
176
     1
 90
        0
176
     1
 40
0.6
176
     1
 40
30.0
176
     1
 62
     7
420
 16777215
176
     1
 90
        0
176
     1
 90
        4
176
     1
 62
     7
176
     1
 62
   257
176
     1
 90
        1
176
     1
 90
        1
176
     1
 40
1.0
176
     1
 90
        8
176
     1
 62
     7
176
     1
 40
1.0
176
     1
 90
        1
176
     1
 90
        6
176
     1
 90
        2
176
     1
 62
     7
176
     1
 90
        5
176
     1
 90
        0
176
     1
 90
        0
176
     1
290
     0
176
     1
 90
        1
176
     1
 40
0.0
176
     1
 90
        0
176
     1
290
     0
176
     1
290
     1
176
     1
290
     1
176
     1
290
     0
176
     1
290
     0
176
     1
290
     0
176
     1
290
     0
176
     1
290
     0
176
     1
290
     0
176
     1
 90
       50
176
     1
 40
0.0
176
     1
 40
1.0
176
     1
 90
        0
176
     1
 62
    18
420
        0
176
     1
 90
       50
176
     1
 90
        3
176
     1
 62
     5
420
      255
176
     1
290
     0
176
     1
 90
       50
176
     1
 90
       50
176
     1
 90
       50
176
     1
290
     0
176
     1
 90
       50
176
     1
 62
   256
176
     0
 40
1.0
176
     0
 90
        2
176
     1
  1
strokes_ogs.tif
176
     1
290
     0
176
     1
 40
1.0
176
     1
 40
1.0
176
     1
  0
VISUALSTYLE
  5
36
102
{ACAD_REACTORS
330
2A
102
}
330
2A
100
AcDbVisualStyle
  2
Brighten
 70
    12
177
     3
291
     1
 70
    58
 90
        2
176
     1
 90
        2
176
     1
 90
        0
176
     1
 90
        0
176
     1
 40
0.6
176
     1
 40
30.0
176
     1
 62
     7
420
 16777215
176
     1
 90
        1
176
     1
 90
        4
176
     1
 62
     7
176
     1
 62
   257
176
     1
 90
        1
176
     1
 90
        1
176
     1
 40
1.0
176
     1
 90
        8
176
     1
 62
     7
176
     1
 40
1.0
176
     1
 90
        1
176
     1
 90
        6
176
     1
 90
        2
176
     1
 62
     7
176
     1
 90
        5
176
     1
 90
        0
176
     1
 90
        0
176
     1
290
     0
176
     1
 90
        1
176
     1
 40
50.0
176
     1
 90
        0
176
     1
290
     0
176
     1
290
     1
176
     1
290
     1
176
     1
290
     0
176
     1
290
     0
176
     1
290
     0
176
     1
290
     0
176
     1
290
     0
176
     1
290
     0
176
     1
 90
       50
176
     1
 40
0.0
176
     1
 40
1.0
176
     1
 90
        0
176
     1
 62
    18
420
        0
176
     1
 90
       50
176
     1
 90
        3
176
     1
 62
     5
420
      255
176
     1
290
     0
176
     1
 90
       50
176
     1
 90
       50
176
     1
 90
       50
176
     1
290
     0
176
     1
 90
       50
176
     1
 62
   256
176
     0
 40
1.0
176
     0
 90
        2
176
     1
  1
strokes_ogs.tif
176
     1
290
     0
176
     1
 40
1.0
176
     1
 40
1.0
176
     1
  0
VISUALSTYLE
  5
3A
102
{ACAD_REACTORS
330
2A
102
}
330
2A
100
AcDbVisualStyle
  2
ColorChange
 70
    16
177
     3
291
     1
 70
    58
 90
        2
176
     1
 90
        2
176
     1
 90
        3
176
     1
 90
        0
176
     1
 40
0.6
176
     1
 40
30.0
176
     1
 62
     8
420
  8421504
176
     1
 90
        1
176
     1
 90
        4
176
     1
 62
     7
176
     1
 62
   257
176
     1
 90
        1
176
     1
 90
        1
176
     1
 40
1.0
176
     1
 90
        8
176
     1
 62
     8
420
  8421504
176
     1
 40
1.0
176
     1
 90
        1
176
     1
 90
        6
176
     1
 90
        2
176
     1
 62
     7
176
     1
 90
        5
176
     1
 90
        0
176
     1
 90
        0
176
     1
290
     0
176
     1
 90
        1
176
     1
 40
0.0
176
     1
 90
        0
176
     1
290
     0
176
     1
290
     1
176
     1
290
     1
176
     1
290
     0
176
     1
290
     0
176
     1
290
     0
176
     1
290
     0
176
     1
290
     0
176
     1
290
     0
176
     1
 90
       50
176
     1
 40
0.0
176
     1
 40
1.0
176
     1
 90
        0
176
     1
 62
    18
420
        0
176
     1
 90
       50
176
     1
 90
        3
176
     1
 62
     5
420
      255
176
     1
290
     0
176
     1
 90
       50
176
     1
 90
       50
176
     1
 90
       50
176
     1
290
     0
176
     1
 90
       50
176
     1
 62
   256
176
     0
 40
1.0
176
     0
 90
        2
176
     1
  1
strokes_ogs.tif
176
     1
290
     0
176
     1
 40
1.0
176
     1
 40
1.0
176
     1
  0
VISUALSTYLE
  5
34
102
{ACAD_REACTORS
330
2A
102
}
330
2A
100
AcDbVisualStyle
  2
Conceptual
 70
     9
177
     3
291
     0
 70
    58
 90
        3
176
     1
 90
        2
176
     1
 90
        0
176
     1
 90
        0
176
     1
 40
0.6
176
     1
 40
30.0
176
     1
 62
     7
420
 16777215
176
     1
 90
        2
176
     1
 90
        2
176
     1
 62
     7
176
     1
 62
   257
176
     1
 90
        1
176
     1
 90
        1
176
     1
 40
179.0
176
     1
 90
        8
176
     1
 62
     7
176
     1
 40
1.0
176
     1
 90
        1
176
     1
 90
        6
176
     1
 90
        2
176
     1
 62
     7
176
     1
 90
        3
176
     1
 90
        0
176
     1
 90
        0
176
     1
290
     0
176
     1
 90
        1
176
     1
 40
0.0
176
     1
 90
        0
176
     1
290
     0
176
     1
290
     1
176
     1
290
     1
176
     1
290
     0
176
     1
290
     0
176
     1
290
     0
176
     1
290
     0
176
     1
290
     0
176
     1
290
     0
176
     1
 90
       50
176
     1
 40
0.0
176
     1
 40
1.0
176
     1
 90
        0
176
     1
 62
    18
420
        0
176
     1
 90
       50
176
     1
 90
        3
176
     1
 62
     5
420
      255
176
     1
290
     0
176
     1
 90
       50
176
     1
 90
       50
176
     1
 90
       50
176
     1
290
     0
176
     1
 90
       50
176
     1
 62
   256
176
     0
 40
1.0
176
     0
 90
        2
176
     1
  1
strokes_ogs.tif
176
     1
290
     0
176
     1
 40
1.0
176
     1
 40
1.0
176
     1
  0
VISUALSTYLE
  5
35
102
{ACAD_REACTORS
330
2A
102
}
330
2A
100
AcDbVisualStyle
  2
Dim
 70
    11
177
     3
291
     1
 70
    58
 90
        2
176
     1
 90
        2
176
     1
 90
        0
176
     1
 90
        0
176
     1
 40
0.6
176
     1
 40
30.0
176
     1
 62
     7
420
 16777215
176
     1
 90
        1
176
     1
 90
        4
176
     1
 62
     7
176
     1
 62
   257
176
     1
 90
        1
176
     1
 90
        1
176
     1
 40
1.0
176
     1
 90
        8
176
     1
 62
     7
176
     1
 40
1.0
176
     1
 90
        1
176
     1
 90
        6
176
     1
 90
        2
176
     1
 62
     7
176
     1
 90
        5
176
     1
 90
        0
176
     1
 90
        0
176
     1
290
     0
176
     1
 90
        1
176
     1
 40
-50.0
176
     1
 90
        0
176
     1
290
     0
176
     1
290
     1
176
     1
290
     1
176
     1
290
     0
176
     1
290
     0
176
     1
290
     0
176
     1
290
     0
176
     1
290
     0
176
     1
290
     0
176
     1
 90
       50
176
     1
 40
0.0
176
     1
 40
1.0
176
     1
 90
        0
176
     1
 62
    18
420
        0
176
     1
 90
       50
176
     1
 90
        3
176
     1
 62
     5
420
      255
176
     1
290
     0
176
     1
 90
       50
176
     1
 90
       50
176
     1
 90
       50
176
     1
290
     0
176
     1
 90
       50
176
     1
 62
   256
176
     0
 40
1.0
176
     0
 90
        2
176
     1
  1
strokes_ogs.tif
176
     1
290
     0
176
     1
 40
1.0
176
     1
 40
1.0
176
     1
  0
VISUALSTYLE
  5
3D
102
{ACAD_REACTORS
330
2A
102
}
330
2A
100
AcDbVisualStyle
  2
EdgeColorOff
 70
    22
177
     3
291
     1
 70
    58
 90
        2
176
     0
 90
        2
176
     0
 90
        0
176
     0
 90
        0
176
     0
 40
0.6
176
     0
 40
30.0
176
     0
 62
     7
420
 16777215
176
     0
 90
        1
176
     0
 90
        4
176
     0
 62
     7
176
     0
 62
   257
176
     0
 90
        1
176
     0
 90
        1
176
     0
 40
1.0
176
     0
 90
        8
176
     2
 62
     7
176
     0
 40
1.0
176
     0
 90
        1
176
     0
 90
        6
176
     0
 90
        2
176
     0
 62
     7
176
     0
 90
        5
176
     0
 90
        0
176
     0
 90
        0
176
     0
290
     0
176
     0
 90
        1
176
     0
 40
0.0
176
     0
 90
        0
176
     0
290
     0
176
     0
290
     1
176
     0
290
     1
176
     0
290
     0
176
     0
290
     0
176
     0
290
     0
176
     0
290
     0
176
     0
290
     0
176
     0
290
     0
176
     0
 90
       50
176
     0
 40
0.0
176
     0
 40
1.0
176
     0
 90
        0
176
     0
 62
    18
420
        0
176
     0
 90
       50
176
     0
 90
        3
176
     0
 62
     5
420
      255
176
     0
290
     0
176
     0
 90
       50
176
     0
 90
       50
176
     0
 90
       50
176
     0
290
     0
176
     0
 90
       50
176
     0
 62
   256
176
     0
 40
1.0
176
     0
 90
        2
176
     0
  1
strokes_ogs.tif
176
     0
290
     0
176
     0
 40
1.0
176
     0
 40
1.0
176
     0
  0
VISUALSTYLE
  5
39
102
{ACAD_REACTORS
330
2A
102
}
330
2A
100
AcDbVisualStyle
  2
Facepattern
 70
    15
177
     3
291
     1
 70
    58
 90
        2
176
     1
 90
        2
176
     1
 90
        0
176
     1
 90
        0
176
     1
 40
0.6
176
     1
 40
30.0
176
     1
 62
     7
420
 16777215
176
     1
 90
        1
176
     1
 90
        4
176
     1
 62
     7
176
     1
 62
   257
176
     1
 90
        1
176
     1
 90
        1
176
     1
 40
1.0
176
     1
 90
        8
176
     1
 62
     7
176
     1
 40
1.0
176
     1
 90
        1
176
     1
 90
        6
176
     1
 90
        2
176
     1
 62
     7
176
     1
 90
        5
176
     1
 90
        0
176
     1
 90
        0
176
     1
290
     0
176
     1
 90
        1
176
     1
 40
0.0
176
     1
 90
        0
176
     1
290
     0
176
     1
290
     1
176
     1
290
     1
176
     1
290
     0
176
     1
290
     0
176
     1
290
     0
176
     1
290
     0
176
     1
290
     0
176
     1
290
     0
176
     1
 90
       50
176
     1
 40
0.0
176
     1
 40
1.0
176
     1
 90
        0
176
     1
 62
    18
420
        0
176
     1
 90
       50
176
     1
 90
        3
176
     1
 62
     5
420
      255
176
     1
290
     0
176
     1
 90
       50
176
     1
 90
       50
176
     1
 90
       50
176
     1
290
     0
176
     1
 90
       50
176
     1
 62
   256
176
     0
 40
1.0
176
     0
 90
        2
176
     1
  1
strokes_ogs.tif
176
     1
290
     0
176
     1
 40
1.0
176
     1
 40
1.0
176
     1
  0
VISUALSTYLE
  5
2B
102
{ACAD_REACTORS
330
2A
102
}
330
2A
100
AcDbVisualStyle
  2
Flat
 70
     0
177
     3
291
     1
 70
    58
 90
        2
176
     1
 90
        1
176
     1
 90
        1
176
     1
 90
        2
176
     1
 40
0.6
176
     1
 40
30.0
176
     1
 62
     7
420
 16777215
176
     1
 90
        0
176
     1
 90
        0
176
     1
 62
     7
176
     1
 62
   257
176
     1
 90
        1
176
     1
 90
        1
176
     1
 40
1.0
176
     1
 90
        8
176
     1
 62
     7
176
     1
 40
1.0
176
     1
 90
        1
176
     1
 90
        6
176
     1
 90
        2
176
     1
 62
     7
176
     1
 90
        5
176
     1
 90
        0
176
     1
 90
        0
176
     1
290
     0
176
     1
 90
       13
176
     1
 40
0.0
176
     1
 90
        0
176
     1
290
     0
176
     1
290
     1
176
     1
290
     1
176
     1
290
     0
176
     1
290
     0
176
     1
290
     0
176
     1
290
     0
176
     1
290
     0
176
     1
290
     0
176
     1
 90
       50
176
     1
 40
0.0
176
     1
 40
1.0
176
     1
 90
        0
176
     1
 62
    18
420
        0
176
     1
 90
       50
176
     1
 90
        3
176
     1
 62
     5
420
      255
176
     1
290
     0
176
     1
 90
       50
176
     1
 90
       50
176
     1
 90
       50
176
     1
290
     0
176
     1
 90
       50
176
     1
 62
   256
176
     0
 40
1.0
176
     0
 90
        2
176
     1
  1
strokes_ogs.tif
176
     1
290
     0
176
     1
 40
1.0
176
     1
 40
1.0
176
     1
  0
VISUALSTYLE
  5
2C
102
{ACAD_REACTORS
330
2A
102
}
330
2A
100
AcDbVisualStyle
  2
FlatWithEdges
 70
     1
177
     3
291
     1
 70
    58
 90
        2
176
     1
 90
        1
176
     1
 90
        1
176
     1
 90
        2
176
     1
 40
0.6
176
     1
 40
30.0
176
     1
 62
     7
420
 16777215
176
     1
 90
        1
176
     1
 90
        0
176
     1
 62
     7
176
     1
 62
   257
176
     1
 90
        1
176
     1
 90
        1
176
     1
 40
1.0
176
     1
 90
        0
176
     1
 62
   257
176
     1
 40
1.0
176
     1
 90
        1
176
     1
 90
        6
176
     1
 90
        2
176
     1
 62
     7
176
     1
 90
        5
176
     1
 90
        0
176
     1
 90
        0
176
     1
290
     0
176
     1
 90
       13
176
     1
 40
0.0
176
     1
 90
        0
176
     1
290
     0
176
     1
290
     1
176
     1
290
     1
176
     1
290
     0
176
     1
290
     0
176
     1
290
     0
176
     1
290
     0
176
     1
290
     0
176
     1
290
     0
176
     1
 90
       50
176
     1
 40
0.0
176
     1
 40
1.0
176
     1
 90
        0
176
     1
 62
    18
420
        0
176
     1
 90
       50
176
     1
 90
        3
176
     1
 62
     5
420
      255
176
     1
290
     0
176
     1
 90
       50
176
     1
 90
       50
176
     1
 90
       50
176
     1
290
     0
176
     1
 90
       50
176
     1
 62
   256
176
     0
 40
1.0
176
     0
 90
        2
176
     1
  1
strokes_ogs.tif
176
     1
290
     0
176
     1
 40
1.0
176
     1
 40
1.0
176
     1
  0
VISUALSTYLE
  5
2D
102
{ACAD_REACTORS
330
2A
102
}
330
2A
100
AcDbVisualStyle
  2
Gouraud
 70
     2
177
     3
291
     1
 70
    58
 90
        2
176
     1
 90
        2
176
     1
 90
        1
176
     1
 90
        2
176
     1
 40
0.6
176
     1
 40
30.0
176
     1
 62
     7
420
 16777215
176
     1
 90
        0
176
     1
 90
        0
176
     1
 62
     7
176
     1
 62
   257
176
     1
 90
        1
176
     1
 90
        1
176
     1
 40
1.0
176
     1
 90
        0
176
     1
 62
     7
176
     1
 40
1.0
176
     1
 90
        1
176
     1
 90
        6
176
     1
 90
        2
176
     1
 62
     7
176
     1
 90
        5
176
     1
 90
        0
176
     1
 90
        0
176
     1
290
     0
176
     1
 90
       13
176
     1
 40
0.0
176
     1
 90
        0
176
     1
290
     0
176
     1
290
     1
176
     1
290
     1
176
     1
290
     0
176
     1
290
     0
176
     1
290
     0
176
     1
290
     0
176
     1
290
     0
176
     1
290
     0
176
     1
 90
       50
176
     1
 40
0.0
176
     1
 40
1.0
176
     1
 90
        0
176
     1
 62
    18
420
        0
176
     1
 90
       50
176
     1
 90
        3
176
     1
 62
     5
420
      255
176
     1
290
     0
176
     1
 90
       50
176
     1
 90
       50
176
     1
 90
       50
176
     1
290
     0
176
     1
 90
       50
176
     1
 62
   256
176
     0
 40
1.0
176
     0
 90
        2
176
     1
  1
strokes_ogs.tif
176
     1
290
     0
176
     1
 40
1.0
176
     1
 40
1.0
176
     1
  0
VISUALSTYLE
  5
2E
102
{ACAD_REACTORS
330
2A
102
}
330
2A
100
AcDbVisualStyle
  2
GouraudWithEdges
 70
     3
177
     3
291
     1
 70
    58
 90
        2
176
     1
 90
        2
176
     1
 90
        1
176
     1
 90
        2
176
     1
 40
0.6
176
     1
 40
30.0
176
     1
 62
     7
420
 16777215
176
     1
 90
        1
176
     1
 90
        0
176
     1
 62
     7
176
     1
 62
   257
176
     1
 90
        1
176
     1
 90
        1
176
     1
 40
1.0
176
     1
 90
        0
176
     1
 62
   257
176
     1
 40
1.0
176
     1
 90
        1
176
     1
 90
        6
176
     1
 90
        2
176
     1
 62
     7
176
     1
 90
        5
176
     1
 90
        0
176
     1
 90
        0
176
     1
290
     0
176
     1
 90
       13
176
     1
 40
0.0
176
     1
 90
        0
176
     1
290
     0
176
     1
290
     1
176
     1
290
     1
176
     1
290
     0
176
     1
290
     0
176
     1
290
     0
176
     1
290
     0
176
     1
290
     0
176
     1
290
     0
176
     1
 90
       50
176
     1
 40
0.0
176
     1
 40
1.0
176
     1
 90
        0
176
     1
 62
    18
420
        0
176
     1
 90
       50
176
     1
 90
        3
176
     1
 62
     5
420
      255
176
     1
290
     0
176
     1
 90
       50
176
     1
 90
       50
176
     1
 90
       50
176
     1
290
     0
176
     1
 90
       50
176
     1
 62
   256
176
     0
 40
1.0
176
     0
 90
        2
176
     1
  1
strokes_ogs.tif
176
     1
290
     0
176
     1
 40
1.0
176
     1
 40
1.0
176
     1
  0
VISUALSTYLE
  5
31
102
{ACAD_REACTORS
330
2A
102
}
330
2A
100
AcDbVisualStyle
  2
Hidden
 70
     6
177
     3
291
     0
 70
    58
 90
        1
176
     1
 90
        2
176
     1
 90
        2
176
     1
 90
        0
176
     1
 40
0.6
176
     1
 40
30.0
176
     1
 62
     7
420
 16777215
176
     1
 90
        2
176
     1
 90
        2
176
     1
 62
     7
176
     1
 62
   257
176
     1
 90
        2
176
     1
 90
        1
176
     1
 40
40.0
176
     1
 90
        0
176
     1
 62
   257
176
     1
 40
1.0
176
     1
 90
        1
176
     1
 90
        6
176
     1
 90
        2
176
     1
 62
     7
176
     1
 90
        3
176
     1
 90
        0
176
     1
 90
        0
176
     1
290
     0
176
     1
 90
        1
176
     1
 40
0.0
176
     1
 90
        0
176
     1
290
     0
176
     1
290
     1
176
     1
290
     1
176
     1
290
     0
176
     1
290
     0
176
     1
290
     0
176
     1
290
     0
176
     1
290
     0
176
     1
290
     0
176
     1
 90
       50
176
     1
 40
0.0
176
     1
 40
1.0
176
     1
 90
        0
176
     1
 62
    18
420
        0
176
     1
 90
       50
176
     1
 90
        3
176
     1
 62
     5
420
      255
176
     1
290
     0
176
     1
 90
       50
176
     1
 90
       50
176
     1
 90
       50
176
     1
290
     0
176
     1
 90
       50
176
     1
 62
   256
176
     0
 40
1.0
176
     0
 90
        2
176
     1
  1
strokes_ogs.tif
176
     1
290
     0
176
     1
 40
1.0
176
     1
 40
1.0
176
     1
  0
VISUALSTYLE
  5
3B
102
{ACAD_REACTORS
330
2A
102
}
330
2A
100
AcDbVisualStyle
  2
JitterOff
 70
    20
177
     3
291
     1
 70
    58
 90
        2
176
     0
 90
        2
176
     0
 90
        0
176
     0
 90
        0
176
     0
 40
0.6
176
     0
 40
30.0
176
     0
 62
     7
420
 16777215
176
     0
 90
        1
176
     0
 90
        4
176
     0
 62
     7
176
     0
 62
   257
176
     0
 90
        1
176
     0
 90
        1
176
     0
 40
1.0
176
     0
 90
       10
176
     2
 62
     7
176
     0
 40
1.0
176
     0
 90
        1
176
     0
 90
        6
176
     0
 90
        2
176
     0
 62
     7
176
     0
 90
        5
176
     0
 90
        0
176
     0
 90
        0
176
     0
290
     0
176
     0
 90
        1
176
     0
 40
0.0
176
     0
 90
        0
176
     0
290
     0
176
     0
290
     1
176
     0
290
     1
176
     0
290
     0
176
     0
290
     0
176
     0
290
     0
176
     0
290
     0
176
     0
290
     0
176
     0
290
     0
176
     0
 90
       50
176
     0
 40
0.0
176
     0
 40
1.0
176
     0
 90
        0
176
     0
 62
    18
420
        0
176
     0
 90
       50
176
     0
 90
        3
176
     0
 62
     5
420
      255
176
     0
290
     0
176
     0
 90
       50
176
     0
 90
       50
176
     0
 90
       50
176
     0
290
     0
176
     0
 90
       50
176
     0
 62
   256
176
     0
 40
1.0
176
     0
 90
        2
176
     0
  1
strokes_ogs.tif
176
     0
290
     0
176
     0
 40
1.0
176
     0
 40
1.0
176
     0
  0
VISUALSTYLE
  5
38
102
{ACAD_REACTORS
330
2A
102
}
330
2A
100
AcDbVisualStyle
  2
Linepattern
 70
    14
177
     3
291
     1
 70
    58
 90
        2
176
     1
 90
        2
176
     1
 90
        0
176
     1
 90
        0
176
     1
 40
0.6
176
     1
 40
30.0
176
     1
 62
     7
420
 16777215
176
     1
 90
        1
176
     1
 90
        4
176
     1
 62
     7
176
     1
 62
   257
176
     1
 90
        7
176
     1
 90
        7
176
     1
 40
1.0
176
     1
 90
        8
176
     1
 62
     7
176
     1
 40
1.0
176
     1
 90
        1
176
     1
 90
        6
176
     1
 90
        2
176
     1
 62
     7
176
     1
 90
        5
176
     1
 90
        0
176
     1
 90
        0
176
     1
290
     0
176
     1
 90
        1
176
     1
 40
0.0
176
     1
 90
        0
176
     1
290
     0
176
     1
290
     1
176
     1
290
     1
176
     1
290
     0
176
     1
290
     0
176
     1
290
     0
176
     1
290
     0
176
     1
290
     0
176
     1
290
     0
176
     1
 90
       50
176
     1
 40
0.0
176
     1
 40
1.0
176
     1
 90
        0
176
     1
 62
    18
420
        0
176
     1
 90
       50
176
     1
 90
        3
176
     1
 62
     5
420
      255
176
     1
290
     0
176
     1
 90
       50
176
     1
 90
       50
176
     1
 90
       50
176
     1
290
     0
176
     1
 90
       50
176
     1
 62
   256
176
     0
 40
1.0
176
     0
 90
        2
176
     1
  1
strokes_ogs.tif
176
     1
290
     0
176
     1
 40
1.0
176
     1
 40
1.0
176
     1
  0
VISUALSTYLE
  5
3C
102
{ACAD_REACTORS
330
2A
102
}
330
2A
100
AcDbVisualStyle
  2
OverhangOff
 70
    21
177
     3
291
     1
 70
    58
 90
        2
176
     0
 90
        2
176
     0
 90
        0
176
     0
 90
        0
176
     0
 40
0.6
176
     0
 40
30.0
176
     0
 62
     7
420
 16777215
176
     0
 90
        1
176
     0
 90
        4
176
     0
 62
     7
176
     0
 62
   257
176
     0
 90
        1
176
     0
 90
        1
176
     0
 40
1.0
176
     0
 90
        9
176
     2
 62
     7
176
     0
 40
1.0
176
     0
 90
        1
176
     0
 90
        6
176
     0
 90
        2
176
     0
 62
     7
176
     0
 90
        5
176
     0
 90
        0
176
     0
 90
        0
176
     0
290
     0
176
     0
 90
        1
176
     0
 40
0.0
176
     0
 90
        0
176
     0
290
     0
176
     0
290
     1
176
     0
290
     1
176
     0
290
     0
176
     0
290
     0
176
     0
290
     0
176
     0
290
     0
176
     0
290
     0
176
     0
290
     0
176
     0
 90
       50
176
     0
 40
0.0
176
     0
 40
1.0
176
     0
 90
        0
176
     0
 62
    18
420
        0
176
     0
 90
       50
176
     0
 90
        3
176
     0
 62
     5
420
      255
176
     0
290
     0
176
     0
 90
       50
176
     0
 90
       50
176
     0
 90
       50
176
     0
290
     0
176
     0
 90
       50
176
     0
 62
   256
176
     0
 40
1.0
176
     0
 90
        2
176
     0
  1
strokes_ogs.tif
176
     0
290
     0
176
     0
 40
1.0
176
     0
 40
1.0
176
     0
  0
VISUALSTYLE
  5
33
102
{ACAD_REACTORS
330
2A
102
}
330
2A
100
AcDbVisualStyle
  2
Realistic
 70
     8
177
     3
291
     0
 70
    58
 90
        2
176
     1
 90
        3
176
     1
 90
        0
176
     1
 90
        2
176
     1
 40
0.6
176
     1
 40
30.0
176
     1
 62
     7
420
 16777215
176
     1
 90
        0
176
     1
 90
        0
176
     1
 62
     7
176
     1
 62
   257
176
     1
 90
        1
176
     1
 90
        1
176
     1
 40
1.0
176
     1
 90
        8
176
     1
 62
   257
176
     1
 40
1.0
176
     1
 90
        1
176
     1
 90
        6
176
     1
 90
        2
176
     1
 62
     7
176
     1
 90
        3
176
     1
 90
        0
176
     1
 90
        0
176
     1
290
     0
176
     1
 90
       13
176
     1
 40
0.0
176
     1
 90
        0
176
     1
290
     0
176
     1
290
     1
176
     1
290
     1
176
     1
290
     0
176
     1
290
     0
176
     1
290
     0
176
     1
290
     0
176
     1
290
     0
176
     1
290
     0
176
     1
 90
       50
176
     1
 40
0.0
176
     1
 40
1.0
176
     1
 90
        0
176
     1
 62
    18
420
        0
176
     1
 90
       50
176
     1
 90
        3
176
     1
 62
     5
420
      255
176
     1
290
     0
176
     1
 90
       50
176
     1
 90
       50
176
     1
 90
       50
176
     1
290
     0
176
     1
 90
       50
176
     1
 62
   256
176
     0
 40
1.0
176
     0
 90
        2
176
     1
  1
strokes_ogs.tif
176
     1
290
     0
176
     1
 40
1.0
176
     1
 40
1.0
176
     1
  0
VISUALSTYLE
  5
42
102
{ACAD_REACTORS
330
2A
102
}
330
2A
100
AcDbVisualStyle
  2
Shaded
 70
    27
177
     3
291
     0
 70
    58
 90
        2
176
     1
 90
        2
176
     1
 90
        1
176
     1
 90
        2
176
     1
 40
0.6
176
     1
 40
30.0
176
     1
 62
     7
420
 16777215
176
     1
 90
        0
176
     1
 90
        4
176
     1
 62
     7
176
     1
 62
   257
176
     1
 90
        1
176
     1
 90
        1
176
     1
 40
1.0
176
     1
 90
        8
176
     1
 62
   257
176
     1
 40
1.0
176
     1
 90
        1
176
     1
 90
        6
176
     1
 90
        2
176
     1
 62
     8
420
  7895160
176
     1
 90
        3
176
     1
 90
        0
176
     1
 90
        0
176
     1
290
     0
176
     1
 90
        5
176
     1
 40
0.0
176
     1
 90
        0
176
     1
290
     0
176
     1
290
     1
176
     1
290
     1
176
     1
290
     0
176
     1
290
     0
176
     1
290
     0
176
     1
290
     0
176
     1
290
     0
176
     1
290
     0
176
     1
 90
       50
176
     1
 40
0.0
176
     1
 40
1.0
176
     1
 90
        0
176
     1
 62
    18
420
        0
176
     1
 90
       50
176
     1
 90
        3
176
     1
 62
     5
420
      255
176
     1
290
     0
176
     1
 90
       50
176
     1
 90
       50
176
     1
 90
       50
176
     1
290
     0
176
     1
 90
       50
176
     1
 62
   256
176
     0
 40
1.0
176
     0
 90
        2
176
     1
  1
strokes_ogs.tif
176
     1
290
     0
176
     1
 40
1.0
176
     1
 40
1.0
176
     1
  0
VISUALSTYLE
  5
41
102
{ACAD_REACTORS
330
2A
102
}
330
2A
100
AcDbVisualStyle
  2
Shaded with edges
 70
    26
177
     3
291
     0
 70
    58
 90
        2
176
     1
 90
        2
176
     1
 90
        1
176
     1
 90
        2
176
     1
 40
0.6
176
     1
 40
30.0
176
     1
 62
     7
420
 16777215
176
     1
 90
        1
176
     1
 90
       10
176
     1
 62
     7
176
     1
 62
   257
176
     1
 90
        2
176
     1
 90
        1
176
     1
 40
1.0
176
     1
 90
        8
176
     1
 62
   257
176
     1
 40
1.0
176
     1
 90
        1
176
     1
 90
        6
176
     1
 90
        2
176
     1
 62
     7
176
     1
 90
        3
176
     1
 90
        0
176
     1
 90
        0
176
     1
290
     0
176
     1
 90
        5
176
     1
 40
0.0
176
     1
 90
        0
176
     1
290
     0
176
     1
290
     1
176
     1
290
     1
176
     1
290
     0
176
     1
290
     0
176
     1
290
     0
176
     1
290
     0
176
     1
290
     0
176
     1
290
     0
176
     1
 90
       50
176
     1
 40
0.0
176
     1
 40
1.0
176
     1
 90
        0
176
     1
 62
    18
420
        0
176
     1
 90
       50
176
     1
 90
        3
176
     1
 62
     5
420
      255
176
     1
290
     0
176
     1
 90
       50
176
     1
 90
       50
176
     1
 90
       50
176
     1
290
     0
176
     1
 90
       50
176
     1
 62
   256
176
     0
 40
1.0
176
     0
 90
        2
176
     1
  1
strokes_ogs.tif
176
     1
290
     0
176
     1
 40
1.0
176
     1
 40
1.0
176
     1
  0
VISUALSTYLE
  5
3E
102
{ACAD_REACTORS
330
2A
102
}
330
2A
100
AcDbVisualStyle
  2
Shades of Gray
 70
    23
177
     3
291
     0
 70
    58
 90
        2
176
     1
 90
        2
176
     1
 90
        3
176
     1
 90
        0
176
     1
 40
0.6
176
     1
 40
30.0
176
     1
 62
     7
420
 16777215
176
     1
 90
        2
176
     1
 90
        2
176
     1
 62
     7
176
     1
 62
     7
176
     1
 90
        1
176
     1
 90
        1
176
     1
 40
40.0
176
     1
 90
        8
176
     1
 62
     7
176
     1
 40
1.0
176
     1
 90
        1
176
     1
 90
        6
176
     1
 90
        2
176
     1
 62
     7
176
     1
 90
        3
176
     1
 90
        0
176
     1
 90
        0
176
     1
290
     0
176
     1
 90
        1
176
     1
 40
0.0
176
     1
 90
        0
176
     1
290
     0
176
     1
290
     1
176
     1
290
     1
176
     1
290
     0
176
     1
290
     0
176
     1
290
     0
176
     1
290
     0
176
     1
290
     0
176
     1
290
     0
176
     1
 90
       50
176
     1
 40
0.0
176
     1
 40
1.0
176
     1
 90
        0
176
     1
 62
    18
420
        0
176
     1
 90
       50
176
     1
 90
        3
176
     1
 62
     5
420
      255
176
     1
290
     0
176
     1
 90
       50
176
     1
 90
       50
176
     1
 90
       50
176
     1
290
     0
176
     1
 90
       50
176
     1
 62
   256
176
     0
 40
1.0
176
     0
 90
        2
176
     1
  1
strokes_ogs.tif
176
     1
290
     0
176
     1
 40
1.0
176
     1
 40
1.0
176
     1
  0
VISUALSTYLE
  5
3F
102
{ACAD_REACTORS
330
2A
102
}
330
2A
100
AcDbVisualStyle
  2
Sketchy
 70
    24
177
     3
291
     0
 70
    58
 90
        1
176
     1
 90
        2
176
     1
 90
        2
176
     1
 90
        0
176
     1
 40
0.6
176
     1
 40
30.0
176
     1
 62
     7
420
 16777215
176
     1
 90
        2
176
     1
 90
        2
176
     1
 62
     7
176
     1
 62
     7
176
     1
 90
        1
176
     1
 90
        1
176
     1
 40
40.0
176
     1
 90
       11
176
     1
 62
     7
176
     1
 40
1.0
176
     1
 90
        1
176
     1
 90
        6
176
     1
 90
        2
176
     1
 62
     7
176
     1
 90
        6
176
     1
 90
        0
176
     1
 90
        0
176
     1
290
     0
176
     1
 90
        1
176
     1
 40
0.0
176
     1
 90
        0
176
     1
290
     0
176
     1
290
     1
176
     1
290
     1
176
     1
290
     0
176
     1
290
     0
176
     1
290
     0
176
     1
290
     0
176
     1
290
     0
176
     1
290
     0
176
     1
 90
       50
176
     1
 40
0.0
176
     1
 40
1.0
176
     1
 90
        0
176
     1
 62
    18
420
        0
176
     1
 90
       50
176
     1
 90
        3
176
     1
 62
     5
420
      255
176
     1
290
     0
176
     1
 90
       50
176
     1
 90
       50
176
     1
 90
       50
176
     1
290
     0
176
     1
 90
       50
176
     1
 62
   256
176
     0
 40
1.0
176
     0
 90
        2
176
     1
  1
strokes_ogs.tif
176
     1
290
     0
176
     1
 40
1.0
176
     1
 40
1.0
176
     1
  0
VISUALSTYLE
  5
37
102
{ACAD_REACTORS
330
2A
102
}
330
2A
100
AcDbVisualStyle
  2
Thicken
 70
    13
177
     3
291
     1
 70
    58
 90
        2
176
     1
 90
        2
176
     1
 90
        0
176
     1
 90
        0
176
     1
 40
0.6
176
     1
 40
30.0
176
     1
 62
     7
420
 16777215
176
     1
 90
        1
176
     1
 90
        4
176
     1
 62
     7
176
     1
 62
   257
176
     1
 90
        1
176
     1
 90
        1
176
     1
 40
1.0
176
     1
 90
       12
176
     1
 62
     7
176
     1
 40
1.0
176
     1
 90
        1
176
     1
 90
        6
176
     1
 90
        2
176
     1
 62
     7
176
     1
 90
        5
176
     1
 90
        0
176
     1
 90
        0
176
     1
290
     0
176
     1
 90
        1
176
     1
 40
0.0
176
     1
 90
        0
176
     1
290
     0
176
     1
290
     1
176
     1
290
     1
176
     1
290
     0
176
     1
290
     0
176
     1
290
     0
176
     1
290
     0
176
     1
290
     0
176
     1
290
     0
176
     1
 90
       50
176
     1
 40
0.0
176
     1
 40
1.0
176
     1
 90
        0
176
     1
 62
    18
420
        0
176
     1
 90
       50
176
     1
 90
        3
176
     1
 62
     5
420
      255
176
     1
290
     0
176
     1
 90
       50
176
     1
 90
       50
176
     1
 90
       50
176
     1
290
     0
176
     1
 90
       50
176
     1
 62
   256
176
     0
 40
1.0
176
     0
 90
        2
176
     1
  1
strokes_ogs.tif
176
     1
290
     0
176
     1
 40
1.0
176
     1
 40
1.0
176
     1
  0
VISUALSTYLE
  5
30
102
{ACAD_REACTORS
330
2A
102
}
330
2A
100
AcDbVisualStyle
  2
Wireframe
 70
     5
177
     3
291
     0
 70
    58
 90
        0
176
     1
 90
        2
176
     1
 90
        0
176
     1
 90
        0
176
     1
 40
0.6
176
     1
 40
30.0
176
     1
 62
     7
420
 16777215
176
     1
 90
        1
176
     1
 90
        4
176
     1
 62
     7
176
     1
 62
   257
176
     1
 90
        1
176
     1
 90
        1
176
     1
 40
1.0
176
     1
 90
        0
176
     1
 62
   257
176
     1
 40
1.0
176
     1
 90
        1
176
     1
 90
        6
176
     1
 90
        2
176
     1
 62
     7
176
     1
 90
        3
176
     1
 90
        0
176
     1
 90
        0
176
     1
290
     0
176
     1
 90
        1
176
     1
 40
0.0
176
     1
 90
        0
176
     1
290
     0
176
     1
290
     1
176
     1
290
     1
176
     1
290
     0
176
     1
290
     0
176
     1
290
     0
176
     1
290
     0
176
     1
290
     0
176
     1
290
     0
176
     1
 90
       50
176
     1
 40
0.0
176
     1
 40
1.0
176
     1
 90
        0
176
     1
 62
    18
420
        0
176
     1
 90
       50
176
     1
 90
        3
176
     1
 62
     5
420
      255
176
     1
290
     0
176
     1
 90
       50
176
     1
 90
       50
176
     1
 90
       50
176
     1
290
     0
176
     1
 90
       50
176
     1
 62
   256
176
     0
 40
1.0
176
     0
 90
        2
176
     1
  1
strokes_ogs.tif
176
     1
290
     0
176
     1
 40
1.0
176
     1
 40
1.0
176
     1
  0
VISUALSTYLE
  5
40
102
{ACAD_REACTORS
330
2A
102
}
330
2A
100
AcDbVisualStyle
  2
X-Ray
 70
    25
177
     3
291
     0
 70
    58
 90
        2
176
     1
 90
        2
176
     1
 90
        1
176
     1
 90
        1
176
     1
 40
0.5
176
     1
 40
30.0
176
     1
 62
     7
420
 16777215
176
     1
 90
        1
176
     1
 90
        0
176
     1
 62
     7
176
     1
 62
   257
176
     1
 90
        1
176
     1
 90
        1
176
     1
 40
1.0
176
     1
 90
        8
176
     1
 62
     7
176
     1
 40
1.0
176
     1
 90
        1
176
     1
 90
        6
176
     1
 90
        2
176
     1
 62
     7
176
     1
 90
        3
176
     1
 90
        0
176
     1
 90
        0
176
     1
290
     0
176
     1
 90
       13
176
     1
 40
0.0
176
     1
 90
        0
176
     1
290
     0
176
     1
290
     1
176
     1
290
     1
176
     1
290
     0
176
     1
290
     0
176
     1
290
     0
176
     1
290
     0
176
     1
290
     0
176
     1
290
     0
176
     1
 90
       50
176
     1
 40
0.0
176
     1
 40
1.0
176
     1
 90
        0
176
     1
 62
    18
420
        0
176
     1
 90
       50
176
     1
 90
        3
176
     1
 62
     5
420
      255
176
     1
290
     0
176
     1
 90
       50
176
     1
 90
       50
176
     1
 90
       50
176
     1
290
     0
176
     1
 90
       50
176
     1
 62
   256
176
     0
 40
1.0
176
     0
 90
        2
176
     1
  1
strokes_ogs.tif
176
     1
290
     0
176
     1
 40
1.0
176
     1
 40
1.0
176
     1
  0
DICTIONARYVAR
  5
1D9
102
{ACAD_REACTORS
330
1D8
102
}
330
1D8
100
DictionaryVariables
280
     0
  1
1:1
  0
DICTIONARYVAR
  5
1DE
102
{ACAD_REACTORS
330
1D8
102
}
330
1D8
100
DictionaryVariables
280
     0
  1
Standard
  0
DICTIONARYVAR
  5
1DD
102
{ACAD_REACTORS
330
1D8
102
}
330
1D8
100
DictionaryVariables
280
     0
  1
Standard
  0
DICTIONARY
  5
1DA
330
6A
100
AcDbDictionary
280
     1
281
     1
  3
ACAD_ROUNDTRIP_2008_TABLESTYLE_CELLSTYLEMAP
360
1DB
  0
CELLSTYLEMAP
  5
1DB
102
{ACAD_REACTORS
330
1DA
102
}
330
1DA
100
AcDbCellStyleMap
 90
        3
300
CELLSTYLE
  1
TABLEFORMAT_BEGIN
 90
        5
170
     1
 91
        0
 92
    32768
 62
   257
 93
        1
300
CONTENTFORMAT
  1
CONTENTFORMAT_BEGIN
 90
        0
 91
        0
 92
        4
 93
        0
300

 40
0.0
140
1.0
 94
        5
 62
     0
340
11
144
6.0
309
CONTENTFORMAT_END
171
     1
301
MARGIN
  1
CELLMARGIN_BEGIN
 40
1.5
 40
1.5
 40
1.5
 40
1.5
 40
1.5
 40
1.5
309
CELLMARGIN_END
 94
        6
 95
        1
302
GRIDFORMAT
  1
GRIDFORMAT_BEGIN
 90
        0
 91
        1
 62
     0
 92
       -2
340
14
 93
        0
 40
0.045
309
GRIDFORMAT_END
 95
        2
302
GRIDFORMAT
  1
GRIDFORMAT_BEGIN
 90
        0
 91
        1
 62
     0
 92
       -2
340
14
 93
        0
 40
0.045
309
GRIDFORMAT_END
 95
        4
302
GRIDFORMAT
  1
GRIDFORMAT_BEGIN
 90
        0
 91
        1
 62
     0
 92
       -2
340
14
 93
        0
 40
0.045
309
GRIDFORMAT_END
 95
        8
302
GRIDFORMAT
  1
GRIDFORMAT_BEGIN
 90
        0
 91
        1
 62
     0
 92
       -2
340
14
 93
        0
 40
0.045
309
GRIDFORMAT_END
 95
       16
302
GRIDFORMAT
  1
GRIDFORMAT_BEGIN
 90
        0
 91
        1
 62
     0
 92
       -2
340
14
 93
        0
 40
0.045
309
GRIDFORMAT_END
 95
       32
302
GRIDFORMAT
  1
GRIDFORMAT_BEGIN
 90
        0
 91
        1
 62
     0
 92
       -2
340
14
 93
        0
 40
0.045
309
GRIDFORMAT_END
309
TABLEFORMAT_END
  1
CELLSTYLE_BEGIN
 90
        1
 91
        1
300
_TITLE
309
CELLSTYLE_END
300
CELLSTYLE
  1
TABLEFORMAT_BEGIN
 90
        5
170
     1
 91
        0
 92
        0
 62
   257
 93
        1
300
CONTENTFORMAT
  1
CONTENTFORMAT_BEGIN
 90
        0
 91
        0
 92
        4
 93
        0
300

 40
0.0
140
1.0
 94
        5
 62
     0
340
11
144
4.5
309
CONTENTFORMAT_END
171
     1
301
MARGIN
  1
CELLMARGIN_BEGIN
 40
1.5
 40
1.5
 40
1.5
 40
1.5
 40
1.5
 40
1.5
309
CELLMARGIN_END
 94
        6
 95
        1
302
GRIDFORMAT
  1
GRIDFORMAT_BEGIN
 90
        0
 91
        1
 62
     0
 92
       -2
340
14
 93
        0
 40
0.045
309
GRIDFORMAT_END
 95
        2
302
GRIDFORMAT
  1
GRIDFORMAT_BEGIN
 90
        0
 91
        1
 62
     0
 92
       -2
340
14
 93
        0
 40
0.045
309
GRIDFORMAT_END
 95
        4
302
GRIDFORMAT
  1
GRIDFORMAT_BEGIN
 90
        0
 91
        1
 62
     0
 92
       -2
340
14
 93
        0
 40
0.045
309
GRIDFORMAT_END
 95
        8
302
GRIDFORMAT
  1
GRIDFORMAT_BEGIN
 90
        0
 91
        1
 62
     0
 92
       -2
340
14
 93
        0
 40
0.045
309
GRIDFORMAT_END
 95
       16
302
GRIDFORMAT
  1
GRIDFORMAT_BEGIN
 90
        0
 91
        1
 62
     0
 92
       -2
340
14
 93
        0
 40
0.045
309
GRIDFORMAT_END
 95
       32
302
GRIDFORMAT
  1
GRIDFORMAT_BEGIN
 90
        0
 91
        1
 62
     0
 92
       -2
340
14
 93
        0
 40
0.045
309
GRIDFORMAT_END
309
TABLEFORMAT_END
  1
CELLSTYLE_BEGIN
 90
        2
 91
        1
300
_HEADER
309
CELLSTYLE_END
300
CELLSTYLE
  1
TABLEFORMAT_BEGIN
 90
        5
170
     1
 91
        0
 92
        0
 62
   257
 93
        1
300
CONTENTFORMAT
  1
CONTENTFORMAT_BEGIN
 90
        0
 91
        0
 92
        4
 93
        0
300

 40
0.0
140
1.0
 94
        2
 62
     0
340
11
144
4.5
309
CONTENTFORMAT_END
171
     1
301
MARGIN
  1
CELLMARGIN_BEGIN
 40
1.5
 40
1.5
 40
1.5
 40
1.5
 40
1.5
 40
1.5
309
CELLMARGIN_END
 94
        6
 95
        1
302
GRIDFORMAT
  1
GRIDFORMAT_BEGIN
 90
        0
 91
        1
 62
     0
 92
       -2
340
14
 93
        0
 40
0.045
309
GRIDFORMAT_END
 95
        2
302
GRIDFORMAT
  1
GRIDFORMAT_BEGIN
 90
        0
 91
        1
 62
     0
 92
       -2
340
14
 93
        0
 40
0.045
309
GRIDFORMAT_END
 95
        4
302
GRIDFORMAT
  1
GRIDFORMAT_BEGIN
 90
        0
 91
        1
 62
     0
 92
       -2
340
14
 93
        0
 40
0.045
309
GRIDFORMAT_END
 95
        8
302
GRIDFORMAT
  1
GRIDFORMAT_BEGIN
 90
        0
 91
        1
 62
     0
 92
       -2
340
14
 93
        0
 40
0.045
309
GRIDFORMAT_END
 95
       16
302
GRIDFORMAT
  1
GRIDFORMAT_BEGIN
 90
        0
 91
        1
 62
     0
 92
       -2
340
14
 93
        0
 40
0.045
309
GRIDFORMAT_END
 95
       32
302
GRIDFORMAT
  1
GRIDFORMAT_BEGIN
 90
        0
 91
        1
 62
     0
 92
       -2
340
14
 93
        0
 40
0.045
309
GRIDFORMAT_END
309
TABLEFORMAT_END
  1
CELLSTYLE_BEGIN
 90
        3
 91
        2
300
_DATA
309
CELLSTYLE_END
  0
ENDSEC
  0
EOF