0
SECTION
  2
HEADER
  9
$ACADVER
  1
AC1027
  9
$ACADMAINTVER
 70
     8
  9
$DWGCODEPAGE
  3
ANSI_1252
  9
$REQUIREDVERSIONS
160
                 0
  9
$COMMENTS
  1
File was created by Cadenas
  9
$CUSTOMPROPERTYTAG
  1
NN
  9
$CUSTOMPROPERTY
  1
Set Screw Intermediate Duty Two-Bolt Flange Metric Bore
  9
$CUSTOMPROPERTYTAG
  1
NT
  9
$CUSTOMPROPERTY
  1
VSC Intermediate Duty 2-Bolt Flange Bearings
  9
$CUSTOMPROPERTYTAG
  1
NB
  9
$CUSTOMPROPERTY
  1
125710
  9
$CUSTOMPROPERTYTAG
  1
NBSYN
  9
$CUSTOMPROPERTY
  1
$PN.
  9
$CUSTOMPROPERTYTAG
  1
LINA
  9
$CUSTOMPROPERTY
  1
125710
  9
$CUSTOMPROPERTYTAG
  1
PN
  9
$CUSTOMPROPERTY
  1
125710
  9
$CUSTOMPROPERTYTAG
  1
SERIES
  9
$CUSTOMPROPERTY
  1
211
  9
$CUSTOMPROPERTYTAG
  1
SS
  9
$CUSTOMPROPERTY
  1
55
  9
$CUSTOMPROPERTYTAG
  1
DESCRIPTION
  9
$CUSTOMPROPERTY
  1
F2B-VSC-55M
  9
$CUSTOMPROPERTYTAG
  1
WEIGHT
  9
$CUSTOMPROPERTY
  1
2.99
  9
$CUSTOMPROPERTYTAG
  1
A
  9
$CUSTOMPROPERTY
  1
56.400
  9
$CUSTOMPROPERTYTAG
  1
B
  9
$CUSTOMPROPERTY
  1
219.200
  9
$CUSTOMPROPERTYTAG
  1
C
  9
$CUSTOMPROPERTY
  1
57.900
  9
$CUSTOMPROPERTYTAG
  1
D
  9
$CUSTOMPROPERTY
  1
184.200
  9
$CUSTOMPROPERTYTAG
  1
F
  9
$CUSTOMPROPERTY
  1
M16
  9
$CUSTOMPROPERTYTAG
  1
H
  9
$CUSTOMPROPERTY
  1
17.000
  9
$CUSTOMPROPERTYTAG
  1
J
  9
$CUSTOMPROPERTY
  1
17.300
  9
$CUSTOMPROPERTYTAG
  1
L
  9
$CUSTOMPROPERTY
  1
68.800
  9
$CUSTOMPROPERTYTAG
  1
M
  9
$CUSTOMPROPERTY
  1
133.400
  9
$CUSTOMPROPERTYTAG
  1
N
  9
$CUSTOMPROPERTY
  1
57.700
  9
$CUSTOMPROPERTYTAG
  1
COMPANY
  9
$CUSTOMPROPERTY
  1
baldor
  9
$INSBASE
 10
0.0
 20
0.0
 30
0.0
  9
$EXTMIN
 10
1.000000000000000E+20
 20
1.000000000000000E+20
 30
1.000000000000000E+20
  9
$EXTMAX
 10
-1.000000000000000E+20
 20
-1.000000000000000E+20
 30
-1.000000000000000E+20
  9
$LIMMIN
 10
0.0
 20
0.0
  9
$LIMMAX
 10
420.0
 20
297.0
  9
$ORTHOMODE
 70
     0
  9
$REGENMODE
 70
     1
  9
$FILLMODE
 70
     1
  9
$QTEXTMODE
 70
     0
  9
$MIRRTEXT
 70
     1
  9
$LTSCALE
 40
1.0
  9
$ATTMODE
 70
     1
  9
$TEXTSIZE
 40
2.5
  9
$TRACEWID
 40
1.0
  9
$TEXTSTYLE
  7
Standard
  9
$CLAYER
  8
0
  9
$CELTYPE
  6
ByLayer
  9
$CECOLOR
 62
   256
  9
$CELTSCALE
 40
1.0
  9
$DISPSILH
 70
     0
  9
$DIMSCALE
 40
1.0
  9
$DIMASZ
 40
2.5
  9
$DIMEXO
 40
0.625
  9
$DIMDLI
 40
3.75
  9
$DIMRND
 40
0.0
  9
$DIMDLE
 40
0.0
  9
$DIMEXE
 40
1.25
  9
$DIMTP
 40
0.0
  9
$DIMTM
 40
0.0
  9
$DIMTXT
 40
2.5
  9
$DIMCEN
 40
2.5
  9
$DIMTSZ
 40
0.0
  9
$DIMTOL
 70
     0
  9
$DIMLIM
 70
     0
  9
$DIMTIH
 70
     0
  9
$DIMTOH
 70
     0
  9
$DIMSE1
 70
     0
  9
$DIMSE2
 70
     0
  9
$DIMTAD
 70
     1
  9
$DIMZIN
 70
     8
  9
$DIMBLK
  1

  9
$DIMASO
 70
     1
  9
$DIMSHO
 70
     1
  9
$DIMPOST
  1

  9
$DIMAPOST
  1

  9
$DIMALT
 70
     0
  9
$DIMALTD
 70
     3
  9
$DIMALTF
 40
0.03937007874016
  9
$DIMLFAC
 40
1.0
  9
$DIMTOFL
 70
     1
  9
$DIMTVP
 40
0.0
  9
$DIMTIX
 70
     0
  9
$DIMSOXD
 70
     0
  9
$DIMSAH
 70
     0
  9
$DIMBLK1
  1

  9
$DIMBLK2
  1

  9
$DIMSTYLE
  2
ISO-25
  9
$DIMCLRD
 70
     0
  9
$DIMCLRE
 70
     0
  9
$DIMCLRT
 70
     0
  9
$DIMTFAC
 40
1.0
  9
$DIMGAP
 40
0.625
  9
$DIMJUST
 70
     0
  9
$DIMSD1
 70
     0
  9
$DIMSD2
 70
     0
  9
$DIMTOLJ
 70
     0
  9
$DIMTZIN
 70
     8
  9
$DIMALTZ
 70
     0
  9
$DIMALTTZ
 70
     0
  9
$DIMUPT
 70
     0
  9
$DIMDEC
 70
     2
  9
$DIMTDEC
 70
     2
  9
$DIMALTU
 70
     2
  9
$DIMALTTD
 70
     3
  9
$DIMTXSTY
  7
Standard
  9
$DIMAUNIT
 70
     0
  9
$DIMADEC
 70
     0
  9
$DIMALTRND
 40
0.0
  9
$DIMAZIN
 70
     0
  9
$DIMDSEP
 70
    44
  9
$DIMATFIT
 70
     3
  9
$DIMFRAC
 70
     0
  9
$DIMLDRBLK
  1

  9
$DIMLUNIT
 70
     2
  9
$DIMLWD
 70
    -2
  9
$DIMLWE
 70
    -2
  9
$DIMTMOVE
 70
     0
  9
$DIMFXL
 40
1.0
  9
$DIMFXLON
 70
     0
  9
$DIMJOGANG
 40
0.7853981633974483
  9
$DIMTFILL
 70
     0
  9
$DIMTFILLCLR
 70
     0
  9
$DIMARCSYM
 70
     0
  9
$DIMLTYPE
  6

  9
$DIMLTEX1
  6

  9
$DIMLTEX2
  6

  9
$DIMTXTDIRECTION
 70
     0
  9
$LUNITS
 70
     2
  9
$LUPREC
 70
     4
  9
$SKETCHINC
 40
1.0
  9
$FILLETRAD
 40
10.0
  9
$AUNITS
 70
     0
  9
$AUPREC
 70
     0
  9
$MENU
  1
.
  9
$ELEVATION
 40
0.0
  9
$PELEVATION
 40
0.0
  9
$THICKNESS
 40
0.0
  9
$LIMCHECK
 70
     0
  9
$CHAMFERA
 40
0.0
  9
$CHAMFERB
 40
0.0
  9
$CHAMFERC
 40
0.0
  9
$CHAMFERD
 40
0.0
  9
$SKPOLY
 70
     0
  9
$TDCREATE
 40
2458168.987594977
  9
$TDUCREATE
 40
2458168.94592831
  9
$TDUPDATE
 40
2458168.98759515
  9
$TDUUPDATE
 40
2458168.945928484
  9
$TDINDWG
 40
0.0000000116
  9
$TDUSRTIMER
 40
0.0000000116
  9
$USRTIMER
 70
     1
  9
$ANGBASE
 50
0.0
  9
$ANGDIR
 70
     0
  9
$PDMODE
 70
     0
  9
$PDSIZE
 40
0.0
  9
$PLINEWID
 40
0.0
  9
$SPLFRAME
 70
     0
  9
$SPLINETYPE
 70
     6
  9
$SPLINESEGS
 70
     8
  9
$HANDSEED
  5
1A7
  9
$SURFTAB1
 70
     6
  9
$SURFTAB2
 70
     6
  9
$SURFTYPE
 70
     6
  9
$SURFU
 70
     6
  9
$SURFV
 70
     6
  9
$UCSBASE
  2

  9
$UCSNAME
  2

  9
$UCSORG
 10
0.0
 20
0.0
 30
0.0
  9
$UCSXDIR
 10
1.0
 20
0.0
 30
0.0
  9
$UCSYDIR
 10
0.0
 20
1.0
 30
0.0
  9
$UCSORTHOREF
  2

  9
$UCSORTHOVIEW
 70
     0
  9
$UCSORGTOP
 10
0.0
 20
0.0
 30
0.0
  9
$UCSORGBOTTOM
 10
0.0
 20
0.0
 30
0.0
  9
$UCSORGLEFT
 10
0.0
 20
0.0
 30
0.0
  9
$UCSORGRIGHT
 10
0.0
 20
0.0
 30
0.0
  9
$UCSORGFRONT
 10
0.0
 20
0.0
 30
0.0
  9
$UCSORGBACK
 10
0.0
 20
0.0
 30
0.0
  9
$PUCSBASE
  2

  9
$PUCSNAME
  2

  9
$PUCSORG
 10
0.0
 20
0.0
 30
0.0
  9
$PUCSXDIR
 10
1.0
 20
0.0
 30
0.0
  9
$PUCSYDIR
 10
0.0
 20
1.0
 30
0.0
  9
$PUCSORTHOREF
  2

  9
$PUCSORTHOVIEW
 70
     0
  9
$PUCSORGTOP
 10
0.0
 20
0.0
 30
0.0
  9
$PUCSORGBOTTOM
 10
0.0
 20
0.0
 30
0.0
  9
$PUCSORGLEFT
 10
0.0
 20
0.0
 30
0.0
  9
$PUCSORGRIGHT
 10
0.0
 20
0.0
 30
0.0
  9
$PUCSORGFRONT
 10
0.0
 20
0.0
 30
0.0
  9
$PUCSORGBACK
 10
0.0
 20
0.0
 30
0.0
  9
$USERI1
 70
     0
  9
$USERI2
 70
     0
  9
$USERI3
 70
     0
  9
$USERI4
 70
     0
  9
$USERI5
 70
     0
  9
$USERR1
 40
0.0
  9
$USERR2
 40
0.0
  9
$USERR3
 40
0.0
  9
$USERR4
 40
0.0
  9
$USERR5
 40
0.0
  9
$WORLDVIEW
 70
     1
  9
$SHADEDGE
 70
     3
  9
$SHADEDIF
 70
    70
  9
$TILEMODE
 70
     1
  9
$MAXACTVP
 70
    64
  9
$PINSBASE
 10
0.0
 20
0.0
 30
0.0
  9
$PLIMCHECK
 70
     0
  9
$PEXTMIN
 10
1.000000000000000E+20
 20
1.000000000000000E+20
 30
1.000000000000000E+20
  9
$PEXTMAX
 10
-1.000000000000000E+20
 20
-1.000000000000000E+20
 30
-1.000000000000000E+20
  9
$PLIMMIN
 10
0.0
 20
0.0
  9
$PLIMMAX
 10
420.0
 20
297.0
  9
$UNITMODE
 70
     0
  9
$VISRETAIN
 70
     1
  9
$PLINEGEN
 70
     0
  9
$PSLTSCALE
 70
     1
  9
$TREEDEPTH
 70
  3020
  9
$CMLSTYLE
  2
Standard
  9
$CMLJUST
 70
     0
  9
$CMLSCALE
 40
20.0
  9
$PROXYGRAPHICS
 70
     1
  9
$MEASUREMENT
 70
     1
  9
$CELWEIGHT
370
    -1
  9
$ENDCAPS
280
     0
  9
$JOINSTYLE
280
     0
  9
$LWDISPLAY
290
     0
  9
$INSUNITS
 70
     4
  9
$HYPERLINKBASE
  1

  9
$STYLESHEET
  1

  9
$XEDIT
290
     1
  9
$CEPSNTYPE
380
     0
  9
$PSTYLEMODE
290
     1
  9
$FINGERPRINTGUID
  2
{2D23071C-2A2F-49C9-87FC-B8072A014F05}
  9
$VERSIONGUID
  2
{FAEB1C32-E019-11D5-929B-00C0DF256EC4}
  9
$EXTNAMES
290
     1
  9
$PSVPSCALE
 40
0.0
  9
$OLESTARTUP
290
     0
  9
$SORTENTS
280
   127
  9
$INDEXCTL
280
     0
  9
$HIDETEXT
280
     1
  9
$XCLIPFRAME
280
     2
  9
$HALOGAP
280
     0
  9
$OBSCOLOR
 70
   257
  9
$OBSLTYPE
280
     0
  9
$INTERSECTIONDISPLAY
280
     0
  9
$INTERSECTIONCOLOR
 70
   257
  9
$DIMASSOC
280
     2
  9
$PROJECTNAME
  1

  9
$CAMERADISPLAY
290
     0
  9
$LENSLENGTH
 40
50.0
  9
$CAMERAHEIGHT
 40
0.0
  9
$STEPSPERSEC
 40
2.0
  9
$STEPSIZE
 40
6.0
  9
$3DDWFPREC
 40
2.0
  9
$PSOLWIDTH
 40
5.0
  9
$PSOLHEIGHT
 40
80.0
  9
$LOFTANG1
 40
1.570796326794897
  9
$LOFTANG2
 40
1.570796326794897
  9
$LOFTMAG1
 40
0.0
  9
$LOFTMAG2
 40
0.0
  9
$LOFTPARAM
 70
     7
  9
$LOFTNORMALS
280
     1
  9
$LATITUDE
 40
37.795
  9
$LONGITUDE
 40
-122.394
  9
$NORTHDIRECTION
 40
0.0
  9
$TIMEZONE
 70
 -8000
  9
$LIGHTGLYPHDISPLAY
280
     1
  9
$TILEMODELIGHTSYNCH
280
     1
  9
$CMATERIAL
347
44
  9
$SOLIDHIST
280
     0
  9
$SHOWHIST
280
     1
  9
$DWFFRAME
280
     2
  9
$DGNFRAME
280
     2
  9
$REALWORLDSCALE
290
     1
  9
$INTERFERECOLOR
 62
   256
  9
$CSHADOW
280
     0
  9
$SHADOWPLANELOCATION
 40
0.0
  0
ENDSEC
  0
SECTION
  2
CLASSES
  0
CLASS
  1
ACDBDICTIONARYWDFLT
  2
AcDbDictionaryWithDefault
  3
ObjectDBX Classes
 90
        0
 91
        4
280
     0
281
     0
  0
CLASS
  1
VISUALSTYLE
  2
AcDbVisualStyle
  3
ObjectDBX Classes
 90
     4095
 91
        4
280
     0
281
     0
  0
CLASS
  1
MATERIAL
  2
AcDbMaterial
  3
ObjectDBX Classes
 90
     1153
 91
        4
280
     0
281
     0
  0
CLASS
  1
SCALE
  2
AcDbScale
  3
ObjectDBX Classes
 90
     1153
 91
        4
280
     0
281
     0
  0
CLASS
  1
TABLESTYLE
  2
AcDbTableStyle
  3
ObjectDBX Classes
 90
     4095
 91
        4
280
     0
281
     0
  0
CLASS
  1
MLEADERSTYLE
  2
AcDbMLeaderStyle
  3
ACDB_MLEADERSTYLE_CLASS
 90
     4095
 91
        4
280
     0
281
     0
  0
CLASS
  1
SUN
  2
AcDbSun
  3
SCENEOE
 90
     1153
 91
        4
280
     0
281
     0
  0
CLASS
  1
DICTIONARYVAR
  2
AcDbDictionaryVar
  3
ObjectDBX Classes
 90
        0
 91
        4
280
     0
281
     0
  0
CLASS
  1
CELLSTYLEMAP
  2
AcDbCellStyleMap
  3
ObjectDBX Classes
 90
     1152
 91
        4
280
     0
281
     0
  0
ENDSEC
  0
SECTION
  2
TABLES
  0
TABLE
  2
VPORT
  5
8
330
0
100
AcDbSymbolTable
 70
     1
  0
VPORT
  5
29
330
8
100
AcDbSymbolTableRecord
100
AcDbViewportTableRecord
  2
*Active
 70
     0
 10
0.0
 20
0.0
 11
1.0
 21
1.0
 12
0.0000000000000568
 22
-28.94999999999999
 13
0.0
 23
0.0
 14
10.0
 24
10.0
 15
10.0
 25
10.0
 16
0.0
 26
0.0
 36
1.0
 17
0.0
 27
0.0
 37
0.0
 40
64.96380000000006
 41
2.094520332862298
 42
50.0
 43
0.0
 44
0.0
 50
0.0
 51
0.0
 71
     0
 72
   100
 73
     1
 74
     3
 75
     0
 76
     0
 77
     0
 78
     0
281
     0
 65
     1
110
0.0
120
0.0
130
0.0
111
1.0
121
0.0
131
0.0
112
0.0
122
1.0
132
0.0
 79
     0
146
0.0
348
2F
 60
     3
 61
     5
292
     1
282
     1
141
0.0
142
0.0
 63
   250
361
6D
  0
ENDTAB
  0
TABLE
  2
LTYPE
  5
5
330
0
100
AcDbSymbolTable
 70
     3
  0
LTYPE
  5
14
330
5
100
AcDbSymbolTableRecord
100
AcDbLinetypeTableRecord
  2
ByBlock
 70
     0
  3

 72
    65
 73
     0
 40
0.0
  0
LTYPE
  5
15
330
5
100
AcDbSymbolTableRecord
100
AcDbLinetypeTableRecord
  2
ByLayer
 70
     0
  3

 72
    65
 73
     0
 40
0.0
  0
LTYPE
  5
16
330
5
100
AcDbSymbolTableRecord
100
AcDbLinetypeTableRecord
  2
Continuous
 70
     0
  3
Solid line
 72
    65
 73
     0
 40
0.0
  0
LTYPE
  5
9F
330
5
100
AcDbSymbolTableRecord
100
AcDbLinetypeTableRecord
  2
Dashed
 70
     0
  3

 72
    65
 73
     2
 40
2.0
 49
1.0
 74
     0
 49
-1.0
 74
     0
  0
LTYPE
  5
D1
330
5
100
AcDbSymbolTableRecord
100
AcDbLinetypeTableRecord
  2
Center
 70
     0
  3

 72
    65
 73
     4
 40
1.5
 49
0.45
 74
     0
 49
-0.5
 74
     0
 49
0.05
 74
     0
 49
-0.5
 74
     0
  0
ENDTAB
  0
TABLE
  2
LAYER
  5
2
330
0
100
AcDbSymbolTable
 70
     7
  0
LAYER
  5
10
330
2
100
AcDbSymbolTableRecord
100
AcDbLayerTableRecord
  2
0
 70
     0
 62
     7
  6
Continuous
370
    -3
390
F
347
46
348
0
  0
LAYER
  5
72
330
2
100
AcDbSymbolTableRecord
100
AcDbLayerTableRecord
  2
AM_6
 70
     0
 62
    -2
  6
Continuous
370
    35
390
F
347
46
348
0
  0
LAYER
  5
A0
330
2
100
AcDbSymbolTableRecord
100
AcDbLayerTableRecord
  2
AM_9
 70
     0
 62
     6
  6
Dashed
370
    25
390
F
347
46
348
0
  0
LAYER
  5
D2
330
2
100
AcDbSymbolTableRecord
100
AcDbLayerTableRecord
  2
AM_7
 70
     0
 62
     7
  6
Center
370
    25
390
F
347
46
348
0
  0
LAYER
  5
D5
330
2
100
AcDbSymbolTableRecord
100
AcDbLayerTableRecord
  2
AM_4
 70
     0
 62
     7
  6
Continuous
370
    50
390
F
347
46
348
0
  0
LAYER
  5
E2
330
2
100
AcDbSymbolTableRecord
100
AcDbLayerTableRecord
  2
AM_5
 70
     0
 62
     3
  6
Continuous
370
    25
390
F
347
46
348
0
  0
LAYER
  5
19A
330
2
100
AcDbSymbolTableRecord
100
AcDbLayerTableRecord
  2
ConnectionPoints
 70
     0
 62
     7
  6
Continuous
370
    50
390
F
347
46
348
0
  0
ENDTAB
  0
TABLE
  2
STYLE
  5
3
330
0
100
AcDbSymbolTable
 70
     1
  0
STYLE
  5
11
330
3
100
AcDbSymbolTableRecord
100
AcDbTextStyleTableRecord
  2
Standard
 70
     0
 40
0.0
 41
1.0
 50
0.0
 71
     0
 42
2.5
  3
txt
  4

  0
ENDTAB
  0
TABLE
  2
VIEW
  5
6
330
0
100
AcDbSymbolTable
 70
     0
  0
ENDTAB
  0
TABLE
  2
UCS
  5
7
330
0
100
AcDbSymbolTable
 70
     0
  0
ENDTAB
  0
TABLE
  2
APPID
  5
9
330
0
100
AcDbSymbolTable
 70
     1
  0
APPID
  5
12
330
9
100
AcDbSymbolTableRecord
100
AcDbRegAppTableRecord
  2
ACAD
 70
     0
  0
ENDTAB
  0
TABLE
  2
DIMSTYLE
  5
A
330
0
100
AcDbSymbolTable
 70
     1
100
AcDbDimStyleTable
  0
DIMSTYLE
105
27
330
A
100
AcDbSymbolTableRecord
100
AcDbDimStyleTableRecord
  2
ISO-25
 70
     0
 41
2.5
 42
0.625
 43
3.75
 44
1.25
 73
     0
 74
     0
 77
     1
 78
     8
140
2.5
141
2.5
143
0.03937007874016
147
0.625
171
     3
172
     1
178
     0
271
     2
272
     2
274
     3
278
    44
283
     0
284
     8
340
11
  0
ENDTAB
  0
TABLE
  2
BLOCK_RECORD
  5
1
330
0
100
AcDbSymbolTable
 70
     5
  0
BLOCK_RECORD
  5
1F
330
1
100
AcDbSymbolTableRecord
100
AcDbBlockTableRecord
  2
*Model_Space
340
22
 70
     0
280
     1
281
     0
  0
BLOCK_RECORD
  5
1B
330
1
100
AcDbSymbolTableRecord
100
AcDbBlockTableRecord
  2
*Paper_Space
340
1E
 70
     0
280
     1
281
     0
  0
BLOCK_RECORD
  5
23
330
1
100
AcDbSymbolTableRecord
100
AcDbBlockTableRecord
  2
*Paper_Space0
340
26
 70
     0
280
     1
281
     0
  0
BLOCK_RECORD
  5
6E
330
1
100
AcDbSymbolTableRecord
100
AcDbBlockTableRecord
  2
1_125710_4
340
0
102
{BLKREFS
331
6F
102
}
 70
     0
280
     1
281
     0
  0
BLOCK_RECORD
  5
88
330
1
100
AcDbSymbolTableRecord
100
AcDbBlockTableRecord
  2
2_125643_0_in_125710_4
340
0
102
{BLKREFS
331
89
102
}
 70
     0
280
     1
281
     0
  0
BLOCK_RECORD
  5
E4
330
1
100
AcDbSymbolTableRecord
100
AcDbBlockTableRecord
  2
3_405015E_Metric_0_in_125710_4
340
0
102
{BLKREFS
331
E5
102
}
 70
     0
280
     1
281
     0
  0
BLOCK_RECORD
  5
143
330
1
100
AcDbSymbolTableRecord
100
AcDbBlockTableRecord
  2
4_123619vscM_0_in_125710_4
340
0
102
{BLKREFS
331
144
102
}
 70
     0
280
     1
281
     0
  0
ENDTAB
  0
ENDSEC
  0
SECTION
  2
BLOCKS
  0
BLOCK
  5
20
330
1F
100
AcDbEntity
  8
0
100
AcDbBlockBegin
  2
*Model_Space
 70
     0
 10
0.0
 20
0.0
 30
0.0
  3
*Model_Space
  1

  0
ENDBLK
  5
21
330
1F
100
AcDbEntity
  8
0
100
AcDbBlockEnd
  0
BLOCK
  5
1C
330
1B
100
AcDbEntity
 67
     1
  8
0
100
AcDbBlockBegin
  2
*Paper_Space
 70
     0
 10
0.0
 20
0.0
 30
0.0
  3
*Paper_Space
  1

  0
ENDBLK
  5
1D
330
1B
100
AcDbEntity
 67
     1
  8
0
100
AcDbBlockEnd
  0
BLOCK
  5
24
330
23
100
AcDbEntity
  8
0
100
AcDbBlockBegin
  2
*Paper_Space0
 70
     0
 10
0.0
 20
0.0
 30
0.0
  3
*Paper_Space0
  1

  0
ENDBLK
  5
25
330
23
100
AcDbEntity
  8
0
100
AcDbBlockEnd
  0
BLOCK
  5
70
330
6E
100
AcDbEntity
  8
0
100
AcDbBlockBegin
  2
1_125710_4
 70
     2
 10
0.0
 20
0.0
 30
0.0
  3
1_125710_4
  1

  0
ATTDEF
  5
73
330
6E
100
AcDbEntity
  8
AM_6
100
AcDbText
 10
71.7
 20
2.895
 30
0.0
 40
0.5
  1
Set Screw Intermediate Duty Two-Bolt Flange Metric Bore
100
AcDbAttributeDefinition
  3

  2
NN
 70
     8
280
     0
  0
ATTDEF
  5
74
330
6E
100
AcDbEntity
  8
AM_6
100
AcDbText
 10
71.7
 20
2.395
 30
0.0
 40
0.5
  1
VSC Intermediate Duty 2-Bolt Flange Bearings
100
AcDbAttributeDefinition
  3

  2
NT
 70
     8
280
     0
  0
ATTDEF
  5
75
330
6E
100
AcDbEntity
  8
AM_6
100
AcDbText
 10
71.7
 20
1.895
 30
0.0
 40
0.5
  1
125710
100
AcDbAttributeDefinition
  3

  2
NB
 70
     8
280
     0
  0
ATTDEF
  5
76
330
6E
100
AcDbEntity
  8
AM_6
100
AcDbText
 10
71.7
 20
1.395
 30
0.0
 40
0.5
  1
$PN.
100
AcDbAttributeDefinition
  3

  2
NBSYN
 70
     8
280
     0
  0
ATTDEF
  5
77
330
6E
100
AcDbEntity
  8
AM_6
100
AcDbText
 10
71.7
 20
0.895
 30
0.0
 40
0.5
  1
125710
100
AcDbAttributeDefinition
  3

  2
LINA
 70
     8
280
     0
  0
ATTDEF
  5
78
330
6E
100
AcDbEntity
  8
AM_6
100
AcDbText
 10
71.7
 20
0.395
 30
0.0
 40
0.5
  1
125710
100
AcDbAttributeDefinition
  3

  2
PN
 70
     8
280
     0
  0
ATTDEF
  5
79
330
6E
100
AcDbEntity
  8
AM_6
100
AcDbText
 10
71.7
 20
-0.105
 30
0.0
 40
0.5
  1
211
100
AcDbAttributeDefinition
  3

  2
SERIES
 70
     8
280
     0
  0
ATTDEF
  5
7A
330
6E
100
AcDbEntity
  8
AM_6
100
AcDbText
 10
71.7
 20
-0.605
 30
0.0
 40
0.5
  1
55
100
AcDbAttributeDefinition
  3

  2
SS
 70
     8
280
     0
  0
ATTDEF
  5
7B
330
6E
100
AcDbEntity
  8
AM_6
100
AcDbText
 10
71.7
 20
-1.105
 30
0.0
 40
0.5
  1
F2B-VSC-55M
100
AcDbAttributeDefinition
  3

  2
DESCRIPTION
 70
     8
280
     0
  0
ATTDEF
  5
7C
330
6E
100
AcDbEntity
  8
AM_6
100
AcDbText
 10
71.7
 20
-1.605
 30
0.0
 40
0.5
  1
2.99
100
AcDbAttributeDefinition
  3

  2
WEIGHT
 70
     8
280
     0
  0
ATTDEF
  5
7D
330
6E
100
AcDbEntity
  8
AM_6
100
AcDbText
 10
71.7
 20
-2.105
 30
0.0
 40
0.5
  1
56.400
100
AcDbAttributeDefinition
  3

  2
A
 70
     8
280
     0
  0
ATTDEF
  5
7E
330
6E
100
AcDbEntity
  8
AM_6
100
AcDbText
 10
71.7
 20
-2.605
 30
0.0
 40
0.5
  1
219.200
100
AcDbAttributeDefinition
  3

  2
B
 70
     8
280
     0
  0
ATTDEF
  5
7F
330
6E
100
AcDbEntity
  8
AM_6
100
AcDbText
 10
71.7
 20
-3.105
 30
0.0
 40
0.5
  1
57.900
100
AcDbAttributeDefinition
  3

  2
C
 70
     8
280
     0
  0
ATTDEF
  5
80
330
6E
100
AcDbEntity
  8
AM_6
100
AcDbText
 10
71.7
 20
-3.605
 30
0.0
 40
0.5
  1
184.200
100
AcDbAttributeDefinition
  3

  2
D
 70
     8
280
     0
  0
ATTDEF
  5
81
330
6E
100
AcDbEntity
  8
AM_6
100
AcDbText
 10
71.7
 20
-4.105
 30
0.0
 40
0.5
  1
M16
100
AcDbAttributeDefinition
  3

  2
F
 70
     8
280
     0
  0
ATTDEF
  5
82
330
6E
100
AcDbEntity
  8
AM_6
100
AcDbText
 10
71.7
 20
-4.605
 30
0.0
 40
0.5
  1
17.000
100
AcDbAttributeDefinition
  3

  2
H
 70
     8
280
     0
  0
ATTDEF
  5
83
330
6E
100
AcDbEntity
  8
AM_6
100
AcDbText
 10
71.7
 20
-5.105
 30
0.0
 40
0.5
  1
17.300
100
AcDbAttributeDefinition
  3

  2
J
 70
     8
280
     0
  0
ATTDEF
  5
84
330
6E
100
AcDbEntity
  8
AM_6
100
AcDbText
 10
71.7
 20
-5.605
 30
0.0
 40
0.5
  1
68.800
100
AcDbAttributeDefinition
  3

  2
L
 70
     8
280
     0
  0
ATTDEF
  5
85
330
6E
100
AcDbEntity
  8
AM_6
100
AcDbText
 10
71.7
 20
-6.105
 30
0.0
 40
0.5
  1
133.400
100
AcDbAttributeDefinition
  3

  2
M
 70
     8
280
     0
  0
ATTDEF
  5
86
330
6E
100
AcDbEntity
  8
AM_6
100
AcDbText
 10
71.7
 20
-6.605
 30
0.0
 40
0.5
  1
57.700
100
AcDbAttributeDefinition
  3

  2
N
 70
     8
280
     0
  0
ATTDEF
  5
87
330
6E
100
AcDbEntity
  8
AM_6
100
AcDbText
 10
71.7
 20
-7.105
 30
0.0
 40
0.5
  1
baldor
100
AcDbAttributeDefinition
  3

  2
COMPANY
 70
     8
280
     0
  0
INSERT
  5
89
330
6E
100
AcDbEntity
  8
0
100
AcDbBlockReference
  2
2_125643_0_in_125710_4
 10
0.0
 20
0.0
 30
0.0
  0
INSERT
  5
E5
330
6E
100
AcDbEntity
  8
0
100
AcDbBlockReference
  2
3_405015E_Metric_0_in_125710_4
 10
0.0
 20
0.0
 30
0.0
  0
INSERT
  5
144
330
6E
100
AcDbEntity
  8
0
100
AcDbBlockReference
  2
4_123619vscM_0_in_125710_4
 10
0.0
 20
0.0
 30
0.0
  0
ENDBLK
  5
71
330
6E
100
AcDbEntity
  8
0
100
AcDbBlockEnd
  0
BLOCK
  5
8A
330
88
100
AcDbEntity
  8
0
100
AcDbBlockBegin
  2
2_125643_0_in_125710_4
 70
     2
 10
0.0
 20
0.0
 30
0.0
  3
2_125643_0_in_125710_4
  1

  0
ATTDEF
  5
8C
330
88
100
AcDbEntity
  8
AM_6
100
AcDbText
 10
54.99894987665274
 20
-1.500000000000019
 30
0.0
 40
0.5
  1
Set Screw Intermediate Duty Insert Metric Bore
100
AcDbAttributeDefinition
  3

  2
NN
 70
     8
280
     0
  0
ATTDEF
  5
8D
330
88
100
AcDbEntity
  8
AM_6
100
AcDbText
 10
54.99894987665274
 20
-2.000000000000019
 30
0.0
 40
0.5
  1
VSC Intermediate Duty Bearing Inserts
100
AcDbAttributeDefinition
  3

  2
NT
 70
     8
280
     0
  0
ATTDEF
  5
8E
330
88
100
AcDbEntity
  8
AM_6
100
AcDbText
 10
54.99894987665274
 20
-2.500000000000019
 30
0.0
 40
0.5
  1
125643
100
AcDbAttributeDefinition
  3

  2
NB
 70
     8
280
     0
  0
ATTDEF
  5
8F
330
88
100
AcDbEntity
  8
AM_6
100
AcDbText
 10
54.99894987665274
 20
-3.000000000000019
 30
0.0
 40
0.5
  1
$PN.
100
AcDbAttributeDefinition
  3

  2
NBSYN
 70
     8
280
     0
  0
ATTDEF
  5
90
330
88
100
AcDbEntity
  8
AM_6
100
AcDbText
 10
54.99894987665274
 20
-3.500000000000019
 30
0.0
 40
0.5
  1
125643
100
AcDbAttributeDefinition
  3

  2
LINA
 70
     8
280
     0
  0
ATTDEF
  5
91
330
88
100
AcDbEntity
  8
AM_6
100
AcDbText
 10
54.99894987665274
 20
-4.000000000000019
 30
0.0
 40
0.5
  1
211
100
AcDbAttributeDefinition
  3

  2
SERIES
 70
     8
280
     0
  0
ATTDEF
  5
92
330
88
100
AcDbEntity
  8
AM_6
100
AcDbText
 10
54.99894987665274
 20
-4.500000000000019
 30
0.0
 40
0.5
  1
55
100
AcDbAttributeDefinition
  3

  2
SS
 70
     8
280
     0
  0
ATTDEF
  5
93
330
88
100
AcDbEntity
  8
AM_6
100
AcDbText
 10
54.99894987665274
 20
-5.000000000000019
 30
0.0
 40
0.5
  1
125643
100
AcDbAttributeDefinition
  3

  2
PN
 70
     8
280
     0
  0
ATTDEF
  5
94
330
88
100
AcDbEntity
  8
AM_6
100
AcDbText
 10
54.99894987665274
 20
-5.500000000000019
 30
0.0
 40
0.5
  1
INS-VSC-55M
100
AcDbAttributeDefinition
  3

  2
DESCRIPTION
 70
     8
280
     0
  0
ATTDEF
  5
95
330
88
100
AcDbEntity
  8
AM_6
100
AcDbText
 10
54.99894987665274
 20
-6.000000000000019
 30
0.0
 40
0.5
  1
0.97
100
AcDbAttributeDefinition
  3

  2
WEIGHT
 70
     8
280
     0
  0
ATTDEF
  5
96
330
88
100
AcDbEntity
  8
AM_6
100
AcDbText
 10
54.99894987665274
 20
-6.500000000000019
 30
0.0
 40
0.5
  1
56.4
100
AcDbAttributeDefinition
  3

  2
A
 70
     8
280
     0
  0
ATTDEF
  5
97
330
88
100
AcDbEntity
  8
AM_6
100
AcDbText
 10
54.99894987665274
 20
-7.000000000000019
 30
0.0
 40
0.5
  1
23.9
100
AcDbAttributeDefinition
  3

  2
C
 70
     8
280
     0
  0
ATTDEF
  5
98
330
88
100
AcDbEntity
  8
AM_6
100
AcDbText
 10
54.99894987665274
 20
-7.500000000000019
 30
0.0
 40
0.5
  1
100
100
AcDbAttributeDefinition
  3

  2
D
 70
     8
280
     0
  0
ATTDEF
  5
99
330
88
100
AcDbEntity
  8
AM_6
100
AcDbText
 10
54.99894987665274
 20
-8.000000000000018
 30
0.0
 40
0.5
  1
6.4
100
AcDbAttributeDefinition
  3

  2
J
 70
     8
280
     0
  0
ATTDEF
  5
9A
330
88
100
AcDbEntity
  8
AM_6
100
AcDbText
 10
54.99894987665274
 20
-8.500000000000018
 30
0.0
 40
0.5
  1
68.8
100
AcDbAttributeDefinition
  3

  2
L
 70
     8
280
     0
  0
ATTDEF
  5
9B
330
88
100
AcDbEntity
  8
AM_6
100
AcDbText
 10
54.99894987665274
 20
-9.000000000000018
 30
0.0
 40
0.5
  1
M10x1.5
100
AcDbAttributeDefinition
  3

  2
N
 70
     8
280
     0
  0
ATTDEF
  5
9C
330
88
100
AcDbEntity
  8
AM_6
100
AcDbText
 10
54.99894987665274
 20
-9.500000000000018
 30
0.0
 40
0.5
  1
22.1
100
AcDbAttributeDefinition
  3

  2
W
 70
     8
280
     0
  0
ATTDEF
  5
9D
330
88
100
AcDbEntity
  8
AM_6
100
AcDbText
 10
54.99894987665274
 20
-10.00000000000002
 30
0.0
 40
0.5
  1
34.3
100
AcDbAttributeDefinition
  3

  2
Y
 70
     8
280
     0
  0
ATTDEF
  5
9E
330
88
100
AcDbEntity
  8
AM_6
100
AcDbText
 10
54.99894987665274
 20
-10.50000000000002
 30
0.0
 40
0.5
  1
baldor
100
AcDbAttributeDefinition
  3

  2
COMPANY
 70
     8
280
     0
  0
LINE
  5
A1
330
88
100
AcDbEntity
  8
AM_9
100
AcDbLine
 10
-52.75
 20
-16.98272727272727
 30
0.0
 11
-52.75
 21
-17.41727272727273
 31
0.0
  0
ARC
  5
A2
330
88
100
AcDbEntity
  8
AM_9
100
AcDbCircle
 10
-50.57727272727273
 20
-17.41727272727272
 30
0.0
 40
2.172727272727272
100
AcDbArc
 50
180.0
 51
270.0
  0
ARC
  5
A3
330
88
100
AcDbEntity
  8
AM_9
100
AcDbCircle
 10
-50.57727272727274
 20
-16.98272727272728
 30
0.0
 40
2.172727272727267
100
AcDbArc
 50
90.0
 51
180.0
  0
LINE
  5
A4
330
88
100
AcDbEntity
  8
AM_9
100
AcDbLine
 10
-50.57727272727274
 20
-19.59
 30
0.0
 11
-49.73865656465158
 21
-19.59
 31
0.0
  0
LINE
  5
A5
330
88
100
AcDbEntity
  8
AM_9
100
AcDbLine
 10
-48.73206865675088
 20
-14.81000000000001
 30
0.0
 11
-50.57727272727274
 21
-14.81000000000001
 31
0.0
  0
LINE
  5
A6
330
88
100
AcDbEntity
  8
AM_9
100
AcDbLine
 10
-50.57727272727274
 20
-14.81000000000001
 30
0.0
 11
-50.57727272727274
 21
-19.59
 31
0.0
  0
LINE
  5
A7
330
88
100
AcDbEntity
  8
AM_9
100
AcDbLine
 10
24.92154625024347
 20
-52.088
 30
0.0
 11
30.441065950987
 21
-52.088
 31
0.0
  0
LINE
  5
A8
330
88
100
AcDbEntity
  8
AM_9
100
AcDbLine
 10
30.441065950987
 20
-43.712
 30
0.0
 11
24.9231288651351
 21
-43.712
 31
0.0
  0
LWPOLYLINE
  5
A9
330
88
100
AcDbEntity
  8
AM_9
100
AcDbPolyline
 90
       21
 70
     0
 43
0.0
 10
24.92331588742095
 20
-52.08799998530803
 10
25.11506519917817
 20
-52.06247490281287
 10
25.38261086714229
 20
-51.93074685149483
 10
25.6302861027031
 20
-51.68202880781055
 10
25.84091941705301
 20
-51.33562728977601
 10
26.02310136589237
 20
-50.88263129921576
 10
26.16705023290329
 20
-50.35463587134007
 10
26.27902989182513
 20
-49.74037366741305
 10
26.35325929767705
 20
-49.0907079633123
 10
26.39462634179601
 20
-48.38685769349357
 10
26.4012675896881
 20
-47.69598623365242
 10
26.37425039401077
 20
-46.99094538929851
 10
26.31519870593224
 20
-46.33452944557112
 10
26.2201211622004
 20
-45.70404535214871
 10
26.0926192164644
 20
-45.14716422739404
 10
25.92572372381117
 20
-44.65291555060663
 10
25.72740002218973
 20
-44.25905276153581
 10
25.48916428379081
 20
-43.95896379068213
 10
25.22911330741699
 20
-43.7787719467383
 10
24.93662376392377
 20
-43.71211604222496
 10
24.9235417221192
 20
-43.71200000402307
  0
LWPOLYLINE
  5
AA
330
88
100
AcDbEntity
  8
AM_9
100
AcDbPolyline
 90
       11
 70
     0
 43
0.0
 10
24.9235417221192
 20
-43.71200000402307
 10
24.63903543040125
 20
-43.76373165243515
 10
24.32543823422859
 20
-43.93369132956798
 10
24.02406441951439
 20
-44.20734181449701
 10
23.728903997648
 20
-44.59228563179886
 10
23.46524481666653
 20
-45.06169509187433
 10
23.23259488568457
 20
-45.62580984290786
 10
23.05338893657965
 20
-46.24130370258525
 10
22.9274966159913
 20
-46.92354226825986
 10
22.87932745706674
 20
-47.40482456129345
 10
22.86282439196578
 20
-47.9
  0
ELLIPSE
  5
AB
330
88
100
AcDbEntity
  8
AM_9
100
AcDbEllipse
 10
30.44106595098702
 20
-47.89999999999999
 30
0.0
 11
-7.693231192243716E-16
 21
-4.188000000000024
 31
0.0
210
0.0
220
0.0
230
1.0
 40
0.4226182617406988
 41
3.469056560068168
 42
5.956078585737214
  0
LINE
  5
AC
330
88
100
AcDbEntity
  8
AM_9
100
AcDbLine
 10
29.61573623848157
 20
-51.60479950446319
 30
0.0
 11
30.13187961694117
 21
-52.24857821671232
 31
0.0
  0
LINE
  5
AD
330
88
100
AcDbEntity
  8
AM_9
100
AcDbLine
 10
30.13583666847408
 20
-43.54648620599178
 30
0.0
 11
29.61573623848157
 21
-44.19520049553681
 31
0.0
  0
LWPOLYLINE
  5
AE
330
88
100
AcDbEntity
  8
AM_9
100
AcDbPolyline
 90
       11
 70
     0
 43
0.0
 10
22.86282439196578
 20
-47.9
 10
22.89481350871085
 20
-48.58855792531521
 10
22.99284674641189
 20
-49.27711585063039
 10
23.14657052622979
 20
-49.90767684268023
 10
23.35717735725341
 20
-50.49884223392554
 10
23.60551540453295
 20
-51.00547045148928
 10
23.89322975669765
 20
-51.43765106352416
 10
24.19410958508051
 20
-51.76072618014409
 10
24.5122336342296
 20
-51.9814469271238
 10
24.81581238140828
 20
-52.08039669791705
 10
24.92331588742095
 20
-52.08799998530803
  0
LINE
  5
AF
330
88
100
AcDbEntity
  8
AM_9
100
AcDbLine
 10
27.5
 20
-56.52400000000001
 30
0.0
 11
27.5
 21
-1.844000000000026
 31
0.0
  0
LINE
  5
B0
330
88
100
AcDbEntity
  8
AM_9
100
AcDbLine
 10
-27.5
 20
-1.844000000000026
 30
0.0
 11
-27.5
 21
-56.52400000000001
 31
0.0
  0
LINE
  5
B1
330
88
100
AcDbEntity
  8
AM_9
100
AcDbLine
 10
27.5
 20
-1.844000000000026
 30
0.0
 11
27.84399999999999
 21
-1.500000000000019
 31
0.0
  0
LINE
  5
B2
330
88
100
AcDbEntity
  8
AM_9
100
AcDbLine
 10
-27.84399999999999
 20
-1.500000000000019
 30
0.0
 11
-27.5
 21
-1.844000000000026
 31
0.0
  0
LINE
  5
B3
330
88
100
AcDbEntity
  8
AM_9
100
AcDbLine
 10
-27.5
 20
-56.52400000000001
 30
0.0
 11
-28.87600000000001
 21
-57.9
 31
0.0
  0
LINE
  5
B4
330
88
100
AcDbEntity
  8
AM_9
100
AcDbLine
 10
28.87600000000001
 20
-57.9
 30
0.0
 11
27.5
 21
-56.52400000000001
 31
0.0
  0
LINE
  5
B5
330
88
100
AcDbEntity
  8
AM_9
100
AcDbLine
 10
34.40000000000001
 20
-11.65
 30
0.0
 11
34.40000000000001
 21
-1.844000000000023
 31
0.0
  0
LINE
  5
B6
330
88
100
AcDbEntity
  8
AM_9
100
AcDbLine
 10
-34.40000000000001
 20
-1.844000000000023
 30
0.0
 11
-34.40000000000001
 21
-11.65
 31
0.0
  0
LINE
  5
B7
330
88
100
AcDbEntity
  8
AM_9
100
AcDbLine
 10
-34.40000000000001
 20
-1.844000000000023
 30
0.0
 11
34.40000000000001
 21
-1.844000000000023
 31
0.0
  0
LINE
  5
B8
330
88
100
AcDbEntity
  8
AM_9
100
AcDbLine
 10
-34.05599999999997
 20
-1.500000000000022
 30
0.0
 11
34.05599999999997
 21
-1.500000000000022
 31
0.0
  0
LINE
  5
B9
330
88
100
AcDbEntity
  8
AM_9
100
AcDbLine
 10
-34.05599999999997
 20
-1.500000000000022
 30
0.0
 11
-34.40000000000001
 21
-1.844000000000023
 31
0.0
  0
LINE
  5
BA
330
88
100
AcDbEntity
  8
AM_9
100
AcDbLine
 10
34.40000000000001
 20
-1.844000000000023
 30
0.0
 11
34.05599999999997
 21
-1.500000000000022
 31
0.0
  0
LINE
  5
BB
330
88
100
AcDbEntity
  8
AM_9
100
AcDbLine
 10
34.40000000000001
 20
-40.59999999999999
 30
0.0
 11
34.40000000000001
 21
-35.55
 31
0.0
  0
LINE
  5
BC
330
88
100
AcDbEntity
  8
AM_9
100
AcDbLine
 10
-34.40000000000001
 20
-35.55
 30
0.0
 11
-34.40000000000001
 21
-40.59999999999999
 31
0.0
  0
LINE
  5
BD
330
88
100
AcDbEntity
  8
AM_9
100
AcDbLine
 10
47.61000000000003
 20
-30.95333333333334
 30
0.0
 11
47.61000000000003
 21
-27.76666666666667
 31
0.0
  0
LINE
  5
BE
330
88
100
AcDbEntity
  8
AM_9
100
AcDbLine
 10
-47.61000000000003
 20
-27.76666666666667
 30
0.0
 11
-47.61000000000003
 21
-30.95333333333334
 31
0.0
  0
LINE
  5
BF
330
88
100
AcDbEntity
  8
AM_9
100
AcDbLine
 10
-46.96542332119775
 20
-35.55
 30
0.0
 11
46.9654233211955
 21
-35.55
 31
0.0
  0
ARC
  5
C0
330
88
100
AcDbEntity
  8
AM_9
100
AcDbCircle
 10
46.96542330695224
 20
-34.59400000000001
 30
0.0
 40
0.955999999999996
100
AcDbArc
 50
270.0
 51
338.587532953116
  0
ARC
  5
C1
330
88
100
AcDbEntity
  8
AM_9
100
AcDbCircle
 10
-46.96542330695224
 20
-34.59400000000001
 30
0.0
 40
0.9559999999999962
100
AcDbArc
 50
201.4124670468841
 51
270.0
  0
LINE
  5
C2
330
88
100
AcDbEntity
  8
AM_9
100
AcDbLine
 10
-46.96542330695223
 20
-11.65
 30
0.0
 11
46.96540046530649
 21
-11.65
 31
0.0
  0
ARC
  5
C3
330
88
100
AcDbEntity
  8
AM_9
100
AcDbCircle
 10
46.96542330695224
 20
-12.60600000000001
 30
0.0
 40
0.9560000000000006
100
AcDbArc
 50
21.41246704688482
 51
90.0
  0
ARC
  5
C4
330
88
100
AcDbEntity
  8
AM_9
100
AcDbCircle
 10
-46.96542330695224
 20
-12.60600000000001
 30
0.0
 40
0.9560000000000066
100
AcDbArc
 50
90.0
 51
158.5875329531152
  0
LINE
  5
C5
330
88
100
AcDbEntity
  8
AM_9
100
AcDbLine
 10
-49.11730509483896
 20
-30.95333333333334
 30
0.0
 11
49.11730509483897
 21
-30.95333333333334
 31
0.0
  0
LINE
  5
C6
330
88
100
AcDbEntity
  8
AM_9
100
AcDbLine
 10
-47.85543674526818
 20
-34.94301587301588
 30
0.0
 11
47.85543674526818
 21
-34.94301587301588
 31
0.0
  0
ARC
  5
C7
330
88
100
AcDbEntity
  8
AM_9
100
AcDbCircle
 10
18.93000000000818
 20
-23.60000000000245
 30
0.0
 40
31.0699999999915
100
AcDbArc
 50
338.5875329531147
 51
346.309922744508
  0
ARC
  5
C8
330
88
100
AcDbEntity
  8
AM_9
100
AcDbCircle
 10
-18.93000000000265
 20
-23.60000000000071
 30
0.0
 40
31.06999999999729
100
AcDbArc
 50
193.6900772554927
 51
201.4124670468846
  0
LINE
  5
C9
330
88
100
AcDbEntity
  8
AM_9
100
AcDbLine
 10
-49.71934537934983
 20
-27.76666666666668
 30
0.0
 11
49.71934537934983
 21
-27.76666666666668
 31
0.0
  0
LINE
  5
CA
330
88
100
AcDbEntity
  8
AM_9
100
AcDbLine
 10
-47.85543674526818
 20
-12.25698412698413
 30
0.0
 11
47.85543674526818
 21
-12.25698412698413
 31
0.0
  0
ARC
  5
CB
330
88
100
AcDbEntity
  8
AM_9
100
AcDbCircle
 10
18.93
 20
-23.60000000000005
 30
0.0
 40
31.07000000000003
100
AcDbArc
 50
359.5289268145278
 51
21.41246704688415
  0
ARC
  5
CC
330
88
100
AcDbEntity
  8
AM_9
100
AcDbCircle
 10
18.92999999999962
 20
-23.59999999999996
 30
0.0
 40
31.07000000000041
100
AcDbArc
 50
352.2930851783879
 51
359.4639686994086
  0
ARC
  5
CD
330
88
100
AcDbEntity
  8
AM_9
100
AcDbCircle
 10
-18.93000000000202
 20
-23.59999999999939
 30
0.0
 40
31.06999999999791
100
AcDbArc
 50
158.5875329531156
 51
163.5769006057924
  0
ARC
  5
CE
330
88
100
AcDbEntity
  8
AM_9
100
AcDbCircle
 10
-18.92999999999706
 20
-23.60000000000002
 30
0.0
 40
31.07000000000294
100
AcDbArc
 50
172.5690889844172
 51
187.7069148216113
  0
LWPOLYLINE
  5
CF
330
88
100
AcDbEntity
  8
AM_9
100
AcDbPolyline
 90
       17
 70
     0
 43
0.0
 10
-48.84816002651949
 20
-15.29502990059852
 10
-48.86430198494507
 20
-15.36285226414662
 10
-48.92967538635213
 20
-15.64055442557233
 10
-49.0032407031199
 20
-15.95906183783494
 10
-49.08487110440119
 20
-16.32030863611847
 10
-49.16960334503258
 20
-16.7044847246976
 10
-49.25756572433851
 20
-17.11385818468922
 10
-49.34233561154807
 20
-17.51923978483989
 10
-49.42540643635409
 20
-17.92758405006886
 10
-49.49961604360647
 20
-18.30231547193966
 10
-49.56791031258505
 20
-18.65605140459088
 10
-49.62399509218046
 20
-18.95332048182925
 10
-49.67114797468114
 20
-19.20824978319574
 10
-49.70517969312491
 20
-19.39521669030314
 10
-49.72843550216079
 20
-19.52447126273787
 10
-49.73909854691143
 20
-19.58415036450141
 10
-49.74014118759834
 20
-19.58999999997651
  0
LINE
  5
D0
330
88
100
AcDbEntity
  8
AM_9
100
AcDbLine
 10
-48.73068455604408
 20
-14.81000000060333
 30
0.0
 11
-48.84816002651949
 21
-15.29502990059852
 31
0.0
  0
LINE
  5
D3
330
88
100
AcDbEntity
  8
AM_7
100
AcDbLine
 10
-4.3974
 20
-47.9
 30
0.0
 11
4.3974
 21
-47.9
 31
0.0
  0
LINE
  5
D4
330
88
100
AcDbEntity
  8
AM_7
100
AcDbLine
 10
-53.6675
 20
-17.2
 30
0.0
 11
-33.4825
 21
-17.2
 31
0.0
  0
ELLIPSE
  5
D6
330
88
100
AcDbEntity
  8
AM_4
100
AcDbEllipse
 10
30.441065950987
 20
-47.9
 30
0.0
 11
-7.693231192243677E-16
 21
-4.188000000000002
 31
0.0
210
0.0
220
0.0
230
1.0
 40
0.4226182617406993
 41
5.956078585737221
 42
9.752241867247742
  0
LWPOLYLINE
  5
D7
330
88
100
AcDbEntity
  8
AM_4
100
AcDbPolyline
 90
       14
 70
     0
 43
0.0
 10
30.13684281074769
 20
-52.25476863437206
 10
30.01816354582358
 20
-52.09702244979156
 10
29.72528688695574
 20
-51.61471069379812
 10
29.46622048920325
 20
-51.04609405840561
 10
29.23728698616432
 20
-50.36200200396095
 10
29.06430592624846
 20
-49.61711563601006
 10
28.94994923115166
 20
-48.78478419569995
 10
28.90922875614431
 20
-47.9289117255071
 10
28.94707873683754
 20
-47.04738834929706
 10
29.06301276548183
 20
-46.18988480473617
 10
29.2537785680987
 20
-45.38063786130651
 10
29.51013036395365
 20
-44.64532155672494
 10
29.81282342305399
 20
-44.02626025630401
 10
30.13720821378387
 20
-43.54477549676897
  0
LWPOLYLINE
  5
D8
330
88
100
AcDbEntity
  8
AM_4
100
AcDbPolyline
 90
       10
 70
     0
 43
0.0
 10
30.13720821378387
 20
-43.54477549676897
 10
30.15480429360833
 20
-43.52303342753568
 10
30.49949042651071
 20
-43.17624884154751
 10
30.85266499418944
 20
-42.96482030885957
 10
31.17746578763034
 20
-42.90056502544093
 10
31.48760041178323
 20
-42.96529917804856
 10
31.76554996781861
 20
-43.15052479396156
 10
32.01599269834161
 20
-43.44743657408461
 10
32.18211111791648
 20
-43.73588017704613
 10
32.33009015565595
 20
-44.07562139462047
  0
LINE
  5
D9
330
88
100
AcDbEntity
  8
AM_4
100
AcDbLine
 10
-33.02400000000001
 20
-57.9
 30
0.0
 11
33.02400000000001
 21
-57.9
 31
0.0
  0
LINE
  5
DA
330
88
100
AcDbEntity
  8
AM_4
100
AcDbLine
 10
33.02400000000001
 20
-57.9
 30
0.0
 11
34.40000000000001
 21
-56.52400000000001
 31
0.0
  0
LINE
  5
DB
330
88
100
AcDbEntity
  8
AM_4
100
AcDbLine
 10
-34.40000000000001
 20
-56.52400000000001
 30
0.0
 11
-33.02400000000001
 21
-57.9
 31
0.0
  0
CIRCLE
  5
DC
330
88
100
AcDbEntity
  8
AM_4
100
AcDbCircle
 10
0.0
 20
-47.9
 30
0.0
 40
4.188
  0
LINE
  5
DD
330
88
100
AcDbEntity
  8
AM_4
100
AcDbLine
 10
-34.40000000000001
 20
-56.52400000000001
 30
0.0
 11
34.40000000000001
 21
-56.52400000000001
 31
0.0
  0
LWPOLYLINE
  5
DE
330
88
100
AcDbEntity
  8
AM_4
100
AcDbPolyline
 90
       39
 70
     0
 43
0.0
 10
-3.404110915028087
 20
-44.47186706433951
 10
-2.89824142175422
 20
-43.9767258742146
 10
-2.31051742812549
 20
-43.55365404277801
 10
-1.601038241587099
 20
-43.20262965915783
 10
-0.8147201796593729
 20
-42.9766035550556
 10
-0.0744241924619049
 20
-42.90063444388599
 10
0.6909543893621102
 20
-42.95497916613606
 10
1.390925799328482
 20
-43.12665745118199
 10
2.071490342532425
 20
-43.41797411044689
 10
2.693489737866174
 20
-43.81341754448983
 10
3.259175411022476
 20
-44.31470892849054
 10
3.755017875456502
 20
-44.91897473502274
 10
4.159623100412349
 20
-45.61152989404564
 10
4.460063140364271
 20
-46.38719248968992
 10
4.636943285400487
 20
-47.22337970631531
 10
4.676824270111879
 20
-48.08797242265176
 10
4.571022753880598
 20
-48.97159933839259
 10
4.324055223000554
 20
-49.8101095224244
 10
3.926695942412065
 20
-50.61719374577221
 10
3.420404175617868
 20
-51.30957636569357
 10
2.779682884594726
 20
-51.92008955911786
 10
2.098374998875652
 20
-52.36769882134161
 10
1.321833189125698
 20
-52.69576364137499
 10
0.5802106658055314
 20
-52.86129470743201
 10
-0.2035487110009302
 20
-52.89525235877796
 10
-0.9215543135860637
 20
-52.80177810838071
 10
-1.633694099540069
 20
-52.58448518949778
 10
-2.285650406865705
 20
-52.26135412815339
 10
-2.893061432050882
 20
-51.82763895248052
 10
-3.437409296970237
 20
-51.29000613755368
 10
-3.901966620600698
 20
-50.657498295338
 10
-4.275133862787422
 20
-49.93162657833746
 10
-4.534747933775415
 20
-49.13456066128928
 10
-4.666011042461457
 20
-48.28760364263557
 10
-4.657215161113779
 20
-47.40653314968437
 10
-4.504667249462274
 20
-46.54591665759177
 10
-4.201137133614031
 20
-45.69959718340843
 10
-3.851648145183407
 20
-45.06300919807903
 10
-3.404110917131354
 20
-44.47186706299265
  0
LWPOLYLINE
  5
DF
330
88
100
AcDbEntity
  8
AM_4
100
AcDbPolyline
 90
       19
 70
     0
 43
0.0
 10
32.33009015565595
 20
-44.07562139462047
 10
32.49771830509226
 20
-44.5965906442131
 10
32.63305897675561
 20
-45.18466169307303
 10
32.74943155034332
 20
-45.92746971844465
 10
32.8252580246083
 20
-46.7204564897705
 10
32.86210972979386
 20
-47.58170256926364
 10
32.8564563814508
 20
-48.45159909494927
 10
32.80651905141839
 20
-49.32294525388546
 10
32.71135802524399
 20
-50.15360634495783
 10
32.57032985511995
 20
-50.91225474867878
 10
32.38190372632301
 20
-51.58160371296535
 10
32.15486387884435
 20
-52.11668707886885
 10
31.88467572075399
 20
-52.52636553601568
 10
31.59623261565231
 20
-52.77753671749276
 10
31.27963102643076
 20
-52.89313489783874
 10
30.96372400353281
 20
-52.87113974204281
 10
30.64002609036607
 20
-52.72543994235887
 10
30.32277789390599
 20
-52.46404665719672
 10
30.13684281074769
 20
-52.25476863437206
  0
LINE
  5
E0
330
88
100
AcDbEntity
  8
AM_4
100
AcDbLine
 10
34.40000000000001
 20
-56.52400000000001
 30
0.0
 11
34.40000000000001
 21
-40.59999999999999
 31
0.0
  0
LINE
  5
E1
330
88
100
AcDbEntity
  8
AM_4
100
AcDbLine
 10
-34.40000000000001
 20
-40.59999999999999
 30
0.0
 11
-34.40000000000001
 21
-56.52400000000001
 31
0.0
  0
CIRCLE
  5
E3
330
88
100
AcDbEntity
  8
AM_5
100
AcDbCircle
 10
0.0000000000000011
 20
-47.9
 30
0.0
 40
4.999999999999996
  0
ENDBLK
  5
8B
330
88
100
AcDbEntity
  8
0
100
AcDbBlockEnd
  0
BLOCK
  5
E6
330
E4
100
AcDbEntity
  8
0
100
AcDbBlockBegin
  2
3_405015E_Metric_0_in_125710_4
 70
     2
 10
0.0
 20
0.0
 30
0.0
  3
3_405015E_Metric_0_in_125710_4
  1

  0
ATTDEF
  5
E8
330
E4
100
AcDbEntity
  8
AM_6
100
AcDbText
 10
64.37368466213681
 20
-23.02649730810374
 30
0.0
 40
0.5
  1
405015E -Metric
100
AcDbAttributeDefinition
  3

  2
NN
 70
     8
280
     0
  0
ATTDEF
  5
E9
330
E4
100
AcDbEntity
  8
AM_6
100
AcDbText
 10
64.37368466213681
 20
-23.52649730810374
 30
0.0
 40
0.5
  1
Grease Fitting
100
AcDbAttributeDefinition
  3

  2
NT
 70
     8
280
     0
  0
ATTDEF
  5
EA
330
E4
100
AcDbEntity
  8
AM_6
100
AcDbText
 10
64.37368466213681
 20
-24.02649730810374
 30
0.0
 40
0.5
  1
405015E-Metric
100
AcDbAttributeDefinition
  3

  2
NB
 70
     8
280
     0
  0
ATTDEF
  5
EB
330
E4
100
AcDbEntity
  8
AM_6
100
AcDbText
 10
64.37368466213681
 20
-24.52649730810374
 30
0.0
 40
0.5
  1
$MN.-Metric
100
AcDbAttributeDefinition
  3

  2
NBSYN
 70
     8
280
     0
  0
ATTDEF
  5
EC
330
E4
100
AcDbEntity
  8
AM_6
100
AcDbText
 10
64.37368466213681
 20
-25.02649730810374
 30
0.0
 40
0.5
  1
405015E
100
AcDbAttributeDefinition
  3

  2
LINA
 70
     8
280
     0
  0
ATTDEF
  5
ED
330
E4
100
AcDbEntity
  8
AM_6
100
AcDbText
 10
64.37368466213681
 20
-25.52649730810374
 30
0.0
 40
0.5
  1
405015E
100
AcDbAttributeDefinition
  3

  2
MN
 70
     8
280
     0
  0
ATTDEF
  5
EE
330
E4
100
AcDbEntity
  8
AM_6
100
AcDbText
 10
64.37368466213681
 20
-26.02649730810374
 30
0.0
 40
0.5
  1
1/8 x 27PTF
100
AcDbAttributeDefinition
  3

  2
T
 70
     8
280
     0
  0
ATTDEF
  5
EF
330
E4
100
AcDbEntity
  8
AM_6
100
AcDbText
 10
64.37368466213681
 20
-26.52649730810374
 30
0.0
 40
0.5
  1
baldor
100
AcDbAttributeDefinition
  3

  2
COMPANY
 70
     8
280
     0
  0
ELLIPSE
  5
F0
330
E4
100
AcDbEntity
  8
AM_9
100
AcDbEllipse
 10
46.20527216503149
 20
-28.8
 30
0.0
 11
2.546036870355443E-16
 21
4.157993753183518
 31
0.0
210
0.0
220
0.0
230
1.0
 40
0.7071067811865479
 41
0.0
 42
6.283185307179586
  0
LWPOLYLINE
  5
F1
330
E4
100
AcDbEntity
  8
AM_9
100
AcDbPolyline
 90
        3
 70
     0
 43
0.0
 10
53.17981441004709
 20
-24.82718223953405
 10
53.65514121368905
 20
-25.19156081756483
 10
54.64689635763513
 20
-25.91324865405187
  0
LINE
  5
F2
330
E4
100
AcDbEntity
  8
AM_9
100
AcDbLine
 10
52.73257486216451
 20
-24.4698729810778
 30
0.0
 11
53.17981441004709
 21
-24.82718223953405
 31
0.0
  0
LINE
  5
F3
330
E4
100
AcDbEntity
  8
AM_9
100
AcDbLine
 10
54.50871798838561
 20
-28.13363532934487
 30
0.0
 11
54.50034181513087
 21
-28.8
 31
0.0
  0
LWPOLYLINE
  5
F4
330
E4
100
AcDbEntity
  8
AM_9
100
AcDbPolyline
 90
        3
 70
     0
 43
0.0
 10
54.64689635763513
 20
-25.91324865405187
 10
54.53936643147877
 20
-27.35013452133859
 10
54.50871798838561
 20
-28.13363532934487
  0
LINE
  5
F5
330
E4
100
AcDbEntity
  8
AM_9
100
AcDbLine
 10
53.14934362132861
 20
-32.79668642862823
 30
0.0
 11
52.73257486216451
 21
-33.1301270189222
 31
0.0
  0
LWPOLYLINE
  5
F6
330
E4
100
AcDbEntity
  8
AM_9
100
AcDbPolyline
 90
        3
 70
     0
 43
0.0
 10
54.64689635763513
 20
-31.68675134594812
 10
53.65945713311154
 20
-32.40519427959148
 10
53.14934362132861
 20
-32.79668642862823
  0
LWPOLYLINE
  5
F7
330
E4
100
AcDbEntity
  8
AM_9
100
AcDbPolyline
 90
        4
 70
     0
 43
0.0
 10
54.50860973441512
 20
-29.46202577620506
 10
54.52363928545225
 20
-29.91567952239156
 10
54.59039720264053
 20
-31.03135904478312
 10
54.64689635763513
 20
-31.68675134594812
  0
LINE
  5
F8
330
E4
100
AcDbEntity
  8
AM_9
100
AcDbLine
 10
54.50034181513087
 20
-28.8
 30
0.0
 11
54.50860973441512
 21
-29.46202577620506
 31
0.0
  0
LINE
  5
F9
330
E4
100
AcDbEntity
  8
AM_9
100
AcDbLine
 10
56.47510761618626
 20
-25.91324865405187
 30
0.0
 11
54.64689635763513
 21
-25.91324865405187
 31
0.0
  0
LINE
  5
FA
330
E4
100
AcDbEntity
  8
AM_9
100
AcDbLine
 10
56.47510761618626
 20
-31.68675134594812
 30
0.0
 11
54.64689635763513
 21
-31.68675134594812
 31
0.0
  0
LINE
  5
FB
330
E4
100
AcDbEntity
  8
AM_9
100
AcDbLine
 10
56.19176769834026
 20
-31.95680543383085
 30
0.0
 11
56.47510761618626
 21
-31.68675134594812
 31
0.0
  0
LWPOLYLINE
  5
FC
330
E4
100
AcDbEntity
  8
AM_9
100
AcDbPolyline
 90
        4
 70
     0
 43
0.0
 10
56.47510761618626
 20
-31.68675134594812
 10
56.53160677118087
 20
-31.03135904478312
 10
56.59822690279598
 20
-29.91901401901461
 10
56.62166215869052
 20
-28.8
  0
LINE
  5
FD
330
E4
100
AcDbEntity
  8
AM_9
100
AcDbLine
 10
56.47510761618626
 20
-25.91324865405187
 30
0.0
 11
56.19159945165332
 21
-25.64303640348946
 31
0.0
  0
LWPOLYLINE
  5
FE
330
E4
100
AcDbEntity
  8
AM_9
100
AcDbPolyline
 90
        3
 70
     0
 43
0.0
 10
56.62166215869052
 20
-28.8
 10
56.58297928364916
 20
-27.35662432702593
 10
56.47510761618626
 20
-25.91324865405187
  0
LINE
  5
FF
330
E4
100
AcDbEntity
  8
AM_9
100
AcDbLine
 10
52.31508676395073
 20
-24.12152242801088
 30
0.0
 11
52.73257486216451
 21
-24.4698729810778
 31
0.0
  0
LWPOLYLINE
  5
100
330
E4
100
AcDbEntity
  8
AM_9
100
AcDbPolyline
 90
        3
 70
     0
 43
0.0
 10
51.1113624517024
 20
-23.02649730810374
 10
51.88374182391327
 20
-23.7449402417471
 10
52.31508676395073
 20
-24.12152242801088
  0
LWPOLYLINE
  5
101
330
E4
100
AcDbEntity
  8
AM_9
100
AcDbPolyline
 90
        3
 70
     0
 43
0.0
 10
52.29382390654324
 20
-33.4966336773182
 10
51.88737426072269
 20
-33.85181485540922
 10
51.1113624517024
 20
-34.57350269189625
  0
LINE
  5
102
330
E4
100
AcDbEntity
  8
AM_9
100
AcDbLine
 10
52.73257486216451
 20
-33.1301270189222
 30
0.0
 11
52.29382390654324
 21
-33.4966336773182
 31
0.0
  0
LINE
  5
103
330
E4
100
AcDbEntity
  8
AM_9
100
AcDbLine
 10
46.52441763512632
 20
-33.55570540013618
 30
0.0
 11
50.85543000226549
 21
-33.74721402118571
 31
0.0
  0
LINE
  5
104
330
E4
100
AcDbEntity
  8
AM_9
100
AcDbLine
 10
50.85543000226549
 20
-23.85278597881429
 30
0.0
 11
46.52441763512632
 21
-24.04429459986381
 31
0.0
  0
ELLIPSE
  5
105
330
E4
100
AcDbEntity
  8
AM_9
100
AcDbEllipse
 10
53.08612825275769
 20
-28.79999999999996
 30
0.0
 11
-9.184850993605351E-16
 21
-5.00000000000011
 31
0.0
210
0.0
220
0.0
230
1.0
 40
0.7071067811865532
 41
0.8982051386275209
 42
2.243387514962342
  0
LINE
  5
106
330
E4
100
AcDbEntity
  8
AM_9
100
AcDbLine
 10
55.86581728316772
 20
-26.81007116726748
 30
0.0
 11
55.60199781128085
 21
-26.39341358254604
 31
0.0
  0
LINE
  5
107
330
E4
100
AcDbEntity
  8
AM_9
100
AcDbLine
 10
55.60199781128085
 20
-31.20658641745395
 30
0.0
 11
55.86581728316772
 21
-30.78992883273252
 31
0.0
  0
ELLIPSE
  5
108
330
E4
100
AcDbEntity
  8
AM_9
100
AcDbEllipse
 10
54.29444172228916
 20
-28.8
 30
0.0
 11
-5.479672885901700E-16
 21
-2.982994982562516
 31
0.0
210
0.0
220
0.0
230
1.0
 40
0.7071067811865431
 41
0.3869422381883858
 42
2.754650415401408
  0
LINE
  5
109
330
E4
100
AcDbEntity
  8
AM_9
100
AcDbLine
 10
55.58535047513081
 20
-26.32277008014442
 30
0.0
 11
55.11378882426582
 21
-26.05102288328506
 31
0.0
  0
LINE
  5
10A
330
E4
100
AcDbEntity
  8
AM_9
100
AcDbLine
 10
55.11378882426582
 20
-31.54897711671493
 30
0.0
 11
55.58535047513081
 21
-31.27722991985558
 31
0.0
  0
ELLIPSE
  5
10B
330
E4
100
AcDbEntity
  8
AM_9
100
AcDbEllipse
 10
54.87157287525383
 20
-28.8
 30
0.0
 11
-4.913895281578736E-16
 21
-2.67499999999999
 31
0.0
210
0.0
220
0.0
230
1.0
 40
0.7071067811865485
 41
0.0
 42
3.141592653589793
  0
ELLIPSE
  5
10C
330
E4
100
AcDbEntity
  8
AM_9
100
AcDbEllipse
 10
53.70160267185392
 20
-28.7999999999992
 30
0.0
 11
-6.627024103770079E-16
 21
-3.60758389460214
 31
0.0
210
0.0
220
0.0
230
1.0
 40
0.7071067811865476
 41
0.6633833151889341
 42
2.478209338400588
  0
ELLIPSE
  5
10D
330
E4
100
AcDbEntity
  8
AM_9
100
AcDbEllipse
 10
53.08612825275777
 20
-28.80000000000001
 30
0.0
 11
-8.725608443924897E-16
 21
-4.750000000000004
 31
0.0
210
0.0
220
0.0
230
1.0
 40
0.7071067811865467
 41
0.8736482899473419
 42
2.26794436364203
  0
LINE
  5
10E
330
E4
100
AcDbEntity
  8
AM_9
100
AcDbLine
 10
54.9882454941496
 20
-31.47499999999999
 30
0.0
 11
55.3665476220844
 21
-31.47499999999999
 31
0.0
  0
LINE
  5
10F
330
E4
100
AcDbEntity
  8
AM_9
100
AcDbLine
 10
55.3665476220844
 20
-26.125
 30
0.0
 11
54.9882454941496
 21
-26.125
 31
0.0
  0
ELLIPSE
  5
110
330
E4
100
AcDbEntity
  8
AM_9
100
AcDbEllipse
 10
55.3665476220844
 20
-28.8
 30
0.0
 11
-4.913895281578750E-16
 21
-2.674999999999997
 31
0.0
210
0.0
220
0.0
230
1.0
 40
0.7071067811865492
 41
5.888394187479829
 42
9.819569080469137
  0
ELLIPSE
  5
111
330
E4
100
AcDbEntity
  8
AM_9
100
AcDbEllipse
 10
56.28578643762691
 20
-28.79999999999999
 30
0.0
 11
-5.832380380939284E-16
 21
-3.175000000000008
 31
0.0
210
0.0
220
0.0
230
1.0
 40
0.7071067811865475
 41
0.4159140521025471
 42
2.725678601487243
  0
ELLIPSE
  5
112
330
E4
100
AcDbEntity
  8
AM_9
100
AcDbEllipse
 10
50.96480790919819
 20
-28.8
 30
0.0
 11
-9.184850993605162E-16
 21
-5.000000000000007
 31
0.0
210
0.0
220
0.0
230
1.0
 40
0.7071067811865537
 41
0.0
 42
6.283185307179586
  0
ELLIPSE
  5
113
330
E4
100
AcDbEntity
  8
AM_9
100
AcDbEllipse
 10
50.96480790918384
 20
-28.80000000001376
 30
0.0
 11
-9.092325864258956E-16
 21
-4.949631665548733
 31
0.0
210
0.0
220
0.0
230
1.0
 40
0.7071067811865256
 41
0.0
 42
6.283185307179586
  0
ELLIPSE
  5
114
330
E4
100
AcDbEntity
  8
AM_9
100
AcDbEllipse
 10
46.62956147979457
 20
-28.80000000001639
 30
0.0
 11
-8.740358316279066E-16
 21
-4.75802945652817
 31
0.0
210
0.0
220
0.0
230
1.0
 40
0.7071067811864746
 41
0.0
 42
6.283185307179586
  0
LWPOLYLINE
  5
115
330
E4
100
AcDbEntity
  8
AM_4
100
AcDbPolyline
 90
        3
 70
     0
 43
0.0
 10
54.85389520572415
 20
-33.1301270189222
 10
55.69909580716597
 20
-32.40843918243515
 10
56.19176769834026
 20
-31.95680543383085
  0
LWPOLYLINE
  5
116
330
E4
100
AcDbEntity
  8
AM_4
100
AcDbPolyline
 90
        3
 70
     0
 43
0.0
 10
56.19159945165332
 20
-25.64303640348946
 10
55.70272824397539
 20
-25.19480572040851
 10
54.85389520572415
 20
-24.4698729810778
  0
LWPOLYLINE
  5
117
330
E4
100
AcDbEntity
  8
AM_4
100
AcDbPolyline
 90
        3
 70
     0
 43
0.0
 10
54.85389520572415
 20
-24.4698729810778
 10
53.93132885419961
 20
-23.74818514459077
 10
52.93957371025353
 20
-23.02649730810374
  0
LWPOLYLINE
  5
118
330
E4
100
AcDbEntity
  8
AM_4
100
AcDbPolyline
 90
        3
 70
     0
 43
0.0
 10
52.93957371025353
 20
-34.57350269189625
 10
53.92701293477712
 20
-33.8550597582529
 10
54.85389520572415
 20
-33.1301270189222
  0
LWPOLYLINE
  5
119
330
E4
100
AcDbEntity
  8
AM_4
100
AcDbPolyline
 90
        3
 70
     0
 43
0.0
 10
47.45389048895429
 20
-27.65277821015816
 10
47.46795687830677
 20
-27.35662432702593
 10
47.57582854576966
 20
-25.91324865405187
  0
LINE
  5
11A
330
E4
100
AcDbEntity
  8
AM_4
100
AcDbLine
 10
47.44443548052985
 20
-27.90188334332186
 30
0.0
 11
47.45389048895429
 21
-27.65277821015816
 31
0.0
  0
LINE
  5
11B
330
E4
100
AcDbEntity
  8
AM_4
100
AcDbLine
 10
47.42927400326541
 20
-28.8
 30
0.0
 11
47.44443548052985
 21
-27.90188334332186
 31
0.0
  0
LINE
  5
11C
330
E4
100
AcDbEntity
  8
AM_4
100
AcDbLine
 10
47.44443455755053
 20
-29.69808910210241
 30
0.0
 11
47.42927400326541
 21
-28.8
 31
0.0
  0
LINE
  5
11D
330
E4
100
AcDbEntity
  8
AM_4
100
AcDbLine
 10
47.45067396330638
 20
-29.86875122125351
 30
0.0
 11
47.44443455755053
 21
-29.69808910210241
 31
0.0
  0
LWPOLYLINE
  5
11E
330
E4
100
AcDbEntity
  8
AM_4
100
AcDbPolyline
 90
        4
 70
     0
 43
0.0
 10
47.57582854576966
 20
-31.68675134594812
 10
47.51932939077506
 20
-31.03135904478312
 10
47.45270925915995
 20
-29.91901401901461
 10
47.45067396330638
 20
-29.86875122125351
  0
LWPOLYLINE
  5
11F
330
E4
100
AcDbEntity
  8
AM_4
100
AcDbPolyline
 90
        4
 70
     0
 43
0.0
 10
49.55059434682505
 20
-28.8
 10
49.52729687650368
 20
-29.91567952239156
 10
49.46053895931539
 20
-31.03135904478312
 10
49.4040398043208
 20
-31.68675134594812
  0
ELLIPSE
  5
120
330
E4
100
AcDbEntity
  8
AM_4
100
AcDbEllipse
 10
53.08612825275777
 20
-28.79999999999998
 30
0.0
 11
-9.184850993605193E-16
 21
-5.000000000000025
 31
0.0
210
0.0
220
0.0
230
1.0
 40
0.707106781186544
 41
2.243387514962355
 42
7.181390445807103
  0
LWPOLYLINE
  5
121
330
E4
100
AcDbEntity
  8
AM_4
100
AcDbPolyline
 90
        3
 70
     0
 43
0.0
 10
49.4040398043208
 20
-25.91324865405187
 10
49.51156973047716
 20
-27.35013452133859
 10
49.55059434682505
 20
-28.8
  0
LINE
  5
122
330
E4
100
AcDbEntity
  8
AM_4
100
AcDbLine
 10
49.4040398043208
 20
-25.91324865405187
 30
0.0
 11
47.57582854576966
 21
-25.91324865405187
 31
0.0
  0
LWPOLYLINE
  5
123
330
E4
100
AcDbEntity
  8
AM_4
100
AcDbPolyline
 90
        3
 70
     0
 43
0.0
 10
51.31836129979142
 20
-24.4698729810778
 10
50.39579494826688
 20
-25.19156081756483
 10
49.4040398043208
 20
-25.91324865405187
  0
LWPOLYLINE
  5
124
330
E4
100
AcDbEntity
  8
AM_4
100
AcDbPolyline
 90
        3
 70
     0
 43
0.0
 10
52.93957371025353
 20
-23.02649730810374
 10
52.16719433804266
 20
-23.7449402417471
 10
51.31836129979142
 20
-24.4698729810778
  0
LINE
  5
125
330
E4
100
AcDbEntity
  8
AM_4
100
AcDbLine
 10
52.93957371025353
 20
-23.02649730810374
 30
0.0
 11
51.1113624517024
 21
-23.02649730810374
 31
0.0
  0
LWPOLYLINE
  5
126
330
E4
100
AcDbEntity
  8
AM_4
100
AcDbPolyline
 90
        3
 70
     0
 43
0.0
 10
49.80487727568079
 20
-23.98782462498681
 10
50.11960730775632
 20
-23.74818514459077
 10
51.1113624517024
 20
-23.02649730810374
  0
LINE
  5
127
330
E4
100
AcDbEntity
  8
AM_4
100
AcDbLine
 10
49.19704095623177
 20
-24.4698729810778
 30
0.0
 11
49.80487727568079
 21
-23.98782462498681
 31
0.0
  0
LINE
  5
128
330
E4
100
AcDbEntity
  8
AM_4
100
AcDbLine
 10
48.65501202120883
 20
-24.92516004917251
 30
0.0
 11
49.19704095623177
 21
-24.4698729810778
 31
0.0
  0
LINE
  5
129
330
E4
100
AcDbEntity
  8
AM_4
100
AcDbLine
 10
48.54232919901904
 20
-25.02315959266116
 30
0.0
 11
48.65501202120883
 21
-24.92516004917251
 31
0.0
  0
LWPOLYLINE
  5
12A
330
E4
100
AcDbEntity
  8
AM_4
100
AcDbPolyline
 90
        3
 70
     0
 43
0.0
 10
47.57582854576966
 20
-25.91324865405187
 10
48.34820791798053
 20
-25.19480572040851
 10
48.54232919901904
 20
-25.02315959266116
  0
LINE
  5
12B
330
E4
100
AcDbEntity
  8
AM_4
100
AcDbLine
 10
52.93957371025353
 20
-34.57350269189625
 30
0.0
 11
51.1113624517024
 21
-34.57350269189625
 31
0.0
  0
LWPOLYLINE
  5
12C
330
E4
100
AcDbEntity
  8
AM_4
100
AcDbPolyline
 90
        3
 70
     0
 43
0.0
 10
51.31836129979142
 20
-33.13012701892219
 10
52.16356190123324
 20
-33.85181485540922
 10
52.93957371025353
 20
-34.57350269189625
  0
LWPOLYLINE
  5
12D
330
E4
100
AcDbEntity
  8
AM_4
100
AcDbPolyline
 90
        3
 70
     0
 43
0.0
 10
49.4040398043208
 20
-31.68675134594812
 10
50.39147902884439
 20
-32.40519427959148
 10
51.31836129979142
 20
-33.13012701892219
  0
LINE
  5
12E
330
E4
100
AcDbEntity
  8
AM_4
100
AcDbLine
 10
49.4040398043208
 20
-31.68675134594812
 30
0.0
 11
47.57582854576966
 21
-31.68675134594812
 31
0.0
  0
LWPOLYLINE
  5
12F
330
E4
100
AcDbEntity
  8
AM_4
100
AcDbPolyline
 90
        3
 70
     0
 43
0.0
 10
48.56197433800501
 20
-32.59401160795602
 10
48.35184035478996
 20
-32.40843918243515
 10
47.57582854576966
 20
-31.68675134594812
  0
LINE
  5
130
330
E4
100
AcDbEntity
  8
AM_4
100
AcDbLine
 10
48.66446922027541
 20
-32.68301073051962
 30
0.0
 11
48.56197433800501
 21
-32.59401160795602
 31
0.0
  0
LINE
  5
131
330
E4
100
AcDbEntity
  8
AM_4
100
AcDbLine
 10
49.19704095623177
 20
-33.1301270189222
 30
0.0
 11
48.66446922027541
 21
-32.68301073051962
 31
0.0
  0
LINE
  5
132
330
E4
100
AcDbEntity
  8
AM_4
100
AcDbLine
 10
49.82658779145129
 20
-33.62890551723089
 30
0.0
 11
49.19704095623177
 21
-33.1301270189222
 31
0.0
  0
LWPOLYLINE
  5
133
330
E4
100
AcDbEntity
  8
AM_4
100
AcDbPolyline
 90
        3
 70
     0
 43
0.0
 10
51.1113624517024
 20
-34.57350269189625
 10
50.12392322717881
 20
-33.8550597582529
 10
49.82658779145129
 20
-33.62890551723089
  0
ELLIPSE
  5
134
330
E4
100
AcDbEntity
  8
AM_4
100
AcDbEllipse
 10
53.70160267185442
 20
-28.79999999999997
 30
0.0
 11
-6.627024103768148E-16
 21
-3.607583894601088
 31
0.0
210
0.0
220
0.0
230
1.0
 40
0.7071067811865429
 41
2.478209338400874
 42
6.946568622368501
  0
ELLIPSE
  5
135
330
E4
100
AcDbEntity
  8
AM_4
100
AcDbEllipse
 10
54.29444172228915
 20
-28.8
 30
0.0
 11
-5.479672885901687E-16
 21
-2.982994982562509
 31
0.0
210
0.0
220
0.0
230
1.0
 40
0.7071067811865471
 41
2.754650415401406
 42
6.670127545367974
  0
LINE
  5
136
330
E4
100
AcDbEntity
  8
AM_4
100
AcDbLine
 10
55.11378882426582
 20
-26.05102288328506
 30
0.0
 11
55.09040246961572
 21
-26.0375460106232
 31
0.0
  0
LINE
  5
137
330
E4
100
AcDbEntity
  8
AM_4
100
AcDbLine
 10
55.09040246961572
 20
-31.56245398937679
 30
0.0
 11
55.11378882426582
 21
-31.54897711671493
 31
0.0
  0
ELLIPSE
  5
138
330
E4
100
AcDbEntity
  8
AM_4
100
AcDbEllipse
 10
53.0861282527578
 20
-28.79999999999996
 30
0.0
 11
-8.725608443924812E-16
 21
-4.749999999999957
 31
0.0
210
0.0
220
0.0
230
1.0
 40
0.7071067811865476
 41
2.267944363642027
 42
7.156833597126916
  0
ELLIPSE
  5
139
330
E4
100
AcDbEntity
  8
AM_4
100
AcDbEllipse
 10
54.87157287525382
 20
-28.8
 30
0.0
 11
-4.913895281578750E-16
 21
-2.674999999999997
 31
0.0
210
0.0
220
0.0
230
1.0
 40
0.7071067811865466
 41
3.141592653589793
 42
6.283185307179586
  0
LINE
  5
13A
330
E4
100
AcDbEntity
  8
AM_4
100
AcDbLine
 10
54.87157287525382
 20
-31.47499999999999
 30
0.0
 11
54.9882454941496
 21
-31.47499999999999
 31
0.0
  0
LINE
  5
13B
330
E4
100
AcDbEntity
  8
AM_4
100
AcDbLine
 10
54.9882454941496
 20
-26.125
 30
0.0
 11
54.87157287525382
 21
-26.125
 31
0.0
  0
LINE
  5
13C
330
E4
100
AcDbEntity
  8
AM_4
100
AcDbLine
 10
54.63904352990209
 20
-31.26923076923076
 30
0.0
 11
55.4223002721395
 21
-31.73076923076923
 31
0.0
  0
LINE
  5
13D
330
E4
100
AcDbEntity
  8
AM_4
100
AcDbLine
 10
55.4223002721395
 20
-25.86923076923076
 30
0.0
 11
54.63904352990209
 21
-26.33076923076923
 31
0.0
  0
ELLIPSE
  5
13E
330
E4
100
AcDbEntity
  8
AM_4
100
AcDbEllipse
 10
55.3665476220844
 20
-28.79999999999999
 30
0.0
 11
-4.913895281578750E-16
 21
-2.674999999999997
 31
0.0
210
0.0
220
0.0
230
1.0
 40
0.7071067811865439
 41
3.536383773289554
 42
5.888394187479824
  0
LINE
  5
13F
330
E4
100
AcDbEntity
  8
AM_4
100
AcDbLine
 10
58.37621249728133
 20
-26.63484088030809
 30
0.0
 11
57.19285118453407
 21
-25.89567699974047
 31
0.0
  0
LINE
  5
140
330
E4
100
AcDbEntity
  8
AM_4
100
AcDbLine
 10
57.19285118453407
 20
-31.70432300025952
 30
0.0
 11
58.37621249728133
 21
-30.9651591196919
 31
0.0
  0
ELLIPSE
  5
141
330
E4
100
AcDbEntity
  8
AM_4
100
AcDbEllipse
 10
56.28578643762691
 20
-28.80000000000004
 30
0.0
 11
-5.832380380939349E-16
 21
-3.175000000000043
 31
0.0
210
0.0
220
0.0
230
1.0
 40
0.7071067811865485
 41
2.725678601487252
 42
6.699099359282142
  0
ELLIPSE
  5
142
330
E4
100
AcDbEntity
  8
AM_4
100
AcDbEllipse
 10
57.70000000000002
 20
-28.8
 30
0.0
 11
-4.348012108217426E-16
 21
-2.36694754832968
 31
0.0
210
0.0
220
0.0
230
1.0
 40
0.7071067811865488
 41
0.0
 42
6.283185307179586
  0
ENDBLK
  5
E7
330
E4
100
AcDbEntity
  8
0
100
AcDbBlockEnd
  0
BLOCK
  5
145
330
143
100
AcDbEntity
  8
0
100
AcDbBlockBegin
  2
4_123619vscM_0_in_125710_4
 70
     2
 10
0.0
 20
0.0
 30
0.0
  3
4_123619vscM_0_in_125710_4
  1

  0
ATTDEF
  5
147
330
143
100
AcDbEntity
  8
AM_6
100
AcDbText
 10
71.7
 20
2.895
 30
0.0
 40
0.5
  1
F2B-VSMetric - housing
100
AcDbAttributeDefinition
  3

  2
NN
 70
     8
280
     0
  0
ATTDEF
  5
148
330
143
100
AcDbEntity
  8
AM_6
100
AcDbText
 10
71.7
 20
2.395
 30
0.0
 40
0.5
  1
VSC Intermediate Duty 2-Bolt Flange Bearings
100
AcDbAttributeDefinition
  3

  2
NT
 70
     8
280
     0
  0
ATTDEF
  5
149
330
143
100
AcDbEntity
  8
AM_6
100
AcDbText
 10
71.7
 20
1.895
 30
0.0
 40
0.5
  1
123619vscM
100
AcDbAttributeDefinition
  3

  2
NB
 70
     8
280
     0
  0
ATTDEF
  5
14A
330
143
100
AcDbEntity
  8
AM_6
100
AcDbText
 10
71.7
 20
1.395
 30
0.0
 40
0.5
  1
$PN.M
100
AcDbAttributeDefinition
  3

  2
NBSYN
 70
     8
280
     0
  0
ATTDEF
  5
14B
330
143
100
AcDbEntity
  8
AM_6
100
AcDbText
 10
71.7
 20
0.895
 30
0.0
 40
0.5
  1
123619vscM
100
AcDbAttributeDefinition
  3

  2
LINA
 70
     8
280
     0
  0
ATTDEF
  5
14C
330
143
100
AcDbEntity
  8
AM_6
100
AcDbText
 10
71.7
 20
0.395
 30
0.0
 40
0.5
  1
211
100
AcDbAttributeDefinition
  3

  2
RS
 70
     8
280
     0
  0
ATTDEF
  5
14D
330
143
100
AcDbEntity
  8
AM_6
100
AcDbText
 10
71.7
 20
-0.105
 30
0.0
 40
0.5
  1
55
100
AcDbAttributeDefinition
  3

  2
SS
 70
     8
280
     0
  0
ATTDEF
  5
14E
330
143
100
AcDbEntity
  8
AM_6
100
AcDbText
 10
71.7
 20
-0.605
 30
0.0
 40
0.5
  1
55.000000
100
AcDbAttributeDefinition
  3

  2
SS1
 70
     8
280
     0
  0
ATTDEF
  5
14F
330
143
100
AcDbEntity
  8
AM_6
100
AcDbText
 10
71.7
 20
-1.105
 30
0.0
 40
0.5
  1
123619vsc
100
AcDbAttributeDefinition
  3

  2
PN
 70
     8
280
     0
  0
ATTDEF
  5
150
330
143
100
AcDbEntity
  8
AM_6
100
AcDbText
 10
71.7
 20
-1.605
 30
0.0
 40
0.5
  1
100.000
100
AcDbAttributeDefinition
  3

  2
BOD
 70
     8
280
     0
  0
ATTDEF
  5
151
330
143
100
AcDbEntity
  8
AM_6
100
AcDbText
 10
71.7
 20
-2.105
 30
0.0
 40
0.5
  1
F2B-VSC-55M
100
AcDbAttributeDefinition
  3

  2
DESCRIPTION
 70
     8
280
     0
  0
ATTDEF
  5
152
330
143
100
AcDbEntity
  8
AM_6
100
AcDbText
 10
71.7
 20
-2.605
 30
0.0
 40
0.5
  1
2.99
100
AcDbAttributeDefinition
  3

  2
WEIGHT
 70
     8
280
     0
  0
ATTDEF
  5
153
330
143
100
AcDbEntity
  8
AM_6
100
AcDbText
 10
71.7
 20
-3.105
 30
0.0
 40
0.5
  1
56.400
100
AcDbAttributeDefinition
  3

  2
A
 70
     8
280
     0
  0
ATTDEF
  5
154
330
143
100
AcDbEntity
  8
AM_6
100
AcDbText
 10
71.7
 20
-3.605
 30
0.0
 40
0.5
  1
219.200
100
AcDbAttributeDefinition
  3

  2
B
 70
     8
280
     0
  0
ATTDEF
  5
155
330
143
100
AcDbEntity
  8
AM_6
100
AcDbText
 10
71.7
 20
-4.105
 30
0.0
 40
0.5
  1
57.900
100
AcDbAttributeDefinition
  3

  2
C
 70
     8
280
     0
  0
ATTDEF
  5
156
330
143
100
AcDbEntity
  8
AM_6
100
AcDbText
 10
71.7
 20
-4.605
 30
0.0
 40
0.5
  1
184.200
100
AcDbAttributeDefinition
  3

  2
D
 70
     8
280
     0
  0
ATTDEF
  5
157
330
143
100
AcDbEntity
  8
AM_6
100
AcDbText
 10
71.7
 20
-5.105
 30
0.0
 40
0.5
  1
M16
100
AcDbAttributeDefinition
  3

  2
F
 70
     8
280
     0
  0
ATTDEF
  5
158
330
143
100
AcDbEntity
  8
AM_6
100
AcDbText
 10
71.7
 20
-5.605
 30
0.0
 40
0.5
  1
16.000
100
AcDbAttributeDefinition
  3

  2
F1
 70
     8
280
     0
  0
ATTDEF
  5
159
330
143
100
AcDbEntity
  8
AM_6
100
AcDbText
 10
71.7
 20
-6.105
 30
0.0
 40
0.5
  1
17.000
100
AcDbAttributeDefinition
  3

  2
H
 70
     8
280
     0
  0
ATTDEF
  5
15A
330
143
100
AcDbEntity
  8
AM_6
100
AcDbText
 10
71.7
 20
-6.605
 30
0.0
 40
0.5
  1
17.300
100
AcDbAttributeDefinition
  3

  2
J
 70
     8
280
     0
  0
ATTDEF
  5
15B
330
143
100
AcDbEntity
  8
AM_6
100
AcDbText
 10
71.7
 20
-7.105
 30
0.0
 40
0.5
  1
68.800
100
AcDbAttributeDefinition
  3

  2
L
 70
     8
280
     0
  0
ATTDEF
  5
15C
330
143
100
AcDbEntity
  8
AM_6
100
AcDbText
 10
71.7
 20
-7.605
 30
0.0
 40
0.5
  1
133.400
100
AcDbAttributeDefinition
  3

  2
M
 70
     8
280
     0
  0
ATTDEF
  5
15D
330
143
100
AcDbEntity
  8
AM_6
100
AcDbText
 10
71.7
 20
-8.105
 30
0.0
 40
0.5
  1
57.700
100
AcDbAttributeDefinition
  3

  2
N
 70
     8
280
     0
  0
ATTDEF
  5
15E
330
143
100
AcDbEntity
  8
AM_6
100
AcDbText
 10
71.7
 20
-8.605
 30
0.0
 40
0.5
  1
baldor
100
AcDbAttributeDefinition
  3

  2
COMPANY
 70
     8
280
     0
  0
LINE
  5
15F
330
143
100
AcDbEntity
  8
AM_9
100
AcDbLine
 10
56.38530458065551
 20
-15.3
 30
0.0
 11
42.92236084184393
 21
-15.3
 31
0.0
  0
LINE
  5
160
330
143
100
AcDbEntity
  8
AM_9
100
AcDbLine
 10
55.31365326269471
 20
-40.59999999999999
 30
0.0
 11
55.31365326269473
 21
-3.399999999999998
 31
0.0
  0
LINE
  5
161
330
143
100
AcDbEntity
  8
AM_9
100
AcDbLine
 10
54.73989749710255
 20
-3.399999999999998
 30
0.0
 11
54.73989749710255
 21
-15.3
 31
0.0
  0
LINE
  5
162
330
143
100
AcDbEntity
  8
AM_9
100
AcDbLine
 10
54.56970448690854
 20
-3.399999999999998
 30
0.0
 11
54.56970448690854
 21
-40.59999999999999
 31
0.0
  0
LINE
  5
163
330
143
100
AcDbEntity
  8
AM_9
100
AcDbLine
 10
57.07894984538367
 20
-31.77025396509984
 30
0.0
 11
57.07894984538367
 21
-25.82974603490014
 31
0.0
  0
LINE
  5
164
330
143
100
AcDbEntity
  8
AM_9
100
AcDbLine
 10
50.0
 20
-40.59999999999999
 30
0.0
 11
50.0
 21
-3.4
 31
0.0
  0
LINE
  5
165
330
143
100
AcDbEntity
  8
AM_9
100
AcDbLine
 10
-50.0
 20
-3.4
 30
0.0
 11
-50.0
 21
-40.59999999999999
 31
0.0
  0
LINE
  5
166
330
143
100
AcDbEntity
  8
AM_9
100
AcDbLine
 10
50.94684739695601
 20
-33.88000000000001
 30
0.0
 11
50.96480790919815
 21
-33.88000000000001
 31
0.0
  0
LINE
  5
167
330
143
100
AcDbEntity
  8
AM_9
100
AcDbLine
 10
50.96480790919815
 20
-23.71999999999998
 30
0.0
 11
50.94684739695601
 21
-23.71999999999998
 31
0.0
  0
ELLIPSE
  5
168
330
143
100
AcDbEntity
  8
AM_9
100
AcDbEllipse
 10
50.96480790919836
 20
-28.80000000000024
 30
0.0
 11
-9.331808609502411E-16
 21
-5.079999999999771
 31
0.0
210
0.0
220
0.0
230
1.0
 40
0.7071067811865399
 41
5.931033391886841
 42
9.778792925603934
  0
ELLIPSE
  5
169
330
143
100
AcDbEntity
  8
AM_9
100
AcDbEllipse
 10
50.96480790919824
 20
-28.80000000000005
 30
0.0
 11
-9.331808609503024E-16
 21
-5.080000000000105
 31
0.0
210
0.0
220
0.0
230
1.0
 40
0.7071067811865522
 41
3.840085701734495
 42
4.508155680938669
  0
ELLIPSE
  5
16A
330
143
100
AcDbEntity
  8
AM_9
100
AcDbEllipse
 10
50.94684739695602
 20
-28.80000000000004
 30
0.0
 11
-9.331808609502677E-16
 21
-5.079999999999917
 31
0.0
210
0.0
220
0.0
230
1.0
 40
0.7071067811865602
 41
4.925279955053821
 42
5.558014430288168
  0
ELLIPSE
  5
16B
330
143
100
AcDbEntity
  8
AM_9
100
AcDbEllipse
 10
50.94684739695613
 20
-28.80000000000004
 30
0.0
 11
-9.331808609503010E-16
 21
-5.080000000000098
 31
0.0
210
0.0
220
0.0
230
1.0
 40
0.7071067811865602
 41
3.873129316860402
 42
4.48401578130757
  0
ELLIPSE
  5
16C
330
143
100
AcDbEntity
  8
AM_9
100
AcDbEllipse
 10
50.94684739695582
 20
-28.79999999999957
 30
0.0
 11
-9.331808609503768E-16
 21
-5.08000000000051
 31
0.0
210
0.0
220
0.0
230
1.0
 40
0.7071067811865476
 41
5.968228926797443
 42
9.746393843876348
  0
ELLIPSE
  5
16D
330
143
100
AcDbEntity
  8
AM_9
100
AcDbEllipse
 10
50.96480790919818
 20
-28.80000000000003
 30
0.0
 11
-9.331808609502770E-16
 21
-5.079999999999966
 31
0.0
210
0.0
220
0.0
230
1.0
 40
0.7071067811865589
 41
4.915955177366838
 42
5.587800042060856
  0
LINE
  5
16E
330
143
100
AcDbEntity
  8
AM_9
100
AcDbLine
 10
56.33500106959751
 20
-31.97423704848897
 30
0.0
 11
56.33500106959751
 21
-25.62576295151102
 31
0.0
  0
LINE
  5
16F
330
143
100
AcDbEntity
  8
AM_9
100
AcDbLine
 10
37.11691403216898
 20
-3.399999999999996
 30
0.0
 11
37.11691403216898
 21
0.0000000000000035
 31
0.0
  0
LINE
  5
170
330
143
100
AcDbEntity
  8
AM_9
100
AcDbLine
 10
-37.11691510760149
 20
-3.399999999999996
 30
0.0
 11
-37.11691510760149
 21
0.0000000000000035
 31
0.0
  0
LINE
  5
171
330
143
100
AcDbEntity
  8
AM_9
100
AcDbLine
 10
-40.59128246671065
 20
-3.399999999999996
 30
0.0
 11
40.59128246671064
 21
-3.399999999999996
 31
0.0
  0
LINE
  5
172
330
143
100
AcDbEntity
  8
AM_9
100
AcDbLine
 10
56.38530458065551
 20
-15.3
 30
0.0
 11
56.38530458065551
 21
-3.399999999999998
 31
0.0
  0
LINE
  5
173
330
143
100
AcDbEntity
  8
AM_9
100
AcDbLine
 10
55.01469221948009
 20
-40.59999999999999
 30
0.0
 11
55.01469221948009
 21
-15.3
 31
0.0
  0
LINE
  5
174
330
143
100
AcDbEntity
  8
AM_9
100
AcDbLine
 10
8.0
 20
-16.99999999999999
 30
0.0
 11
8.0
 21
0.0000000000000056
 31
0.0
  0
LINE
  5
175
330
143
100
AcDbEntity
  8
AM_9
100
AcDbLine
 10
-8.0
 20
0.0000000000000056
 30
0.0
 11
-8.0
 21
-16.99999999999999
 31
0.0
  0
LINE
  5
176
330
143
100
AcDbEntity
  8
AM_7
100
AcDbLine
 10
0.0
 20
2.895
 30
0.0
 11
0.0
 21
-60.795
 31
0.0
  0
LINE
  5
177
330
143
100
AcDbEntity
  8
AM_4
100
AcDbLine
 10
57.07894984538367
 20
-25.82974603490014
 30
0.0
 11
57.07894984538367
 21
-3.399999999999998
 31
0.0
  0
LINE
  5
178
330
143
100
AcDbEntity
  8
AM_4
100
AcDbLine
 10
57.07894984538367
 20
-40.59999999999999
 30
0.0
 11
57.07894984538367
 21
-31.77025396509984
 31
0.0
  0
ELLIPSE
  5
179
330
143
100
AcDbEntity
  8
AM_4
100
AcDbEllipse
 10
50.96480790919878
 20
-28.80000000000011
 30
0.0
 11
-9.331808609505387E-16
 21
-5.080000000001391
 31
0.0
210
0.0
220
0.0
230
1.0
 40
0.7071067811864808
 41
4.508155680938707
 42
4.915955177366768
  0
ELLIPSE
  5
17A
330
143
100
AcDbEntity
  8
AM_4
100
AcDbEllipse
 10
50.96480790919826
 20
-28.80000000000004
 30
0.0
 11
-9.331808609502932E-16
 21
-5.080000000000055
 31
0.0
210
0.0
220
0.0
230
1.0
 40
0.7071067811865606
 41
3.495607618424323
 42
3.840085701734494
  0
ELLIPSE
  5
17B
330
143
100
AcDbEntity
  8
AM_4
100
AcDbEllipse
 10
50.94684739695614
 20
-28.79999999999988
 30
0.0
 11
-9.331808609503089E-16
 21
-5.08000000000014
 31
0.0
210
0.0
220
0.0
230
1.0
 40
0.7071067811865542
 41
5.558014430288154
 42
5.968228926797345
  0
ELLIPSE
  5
17C
330
143
100
AcDbEntity
  8
AM_4
100
AcDbEllipse
 10
50.94684739695619
 20
-28.79999999999999
 30
0.0
 11
-9.331808609503135E-16
 21
-5.080000000000165
 31
0.0
210
0.0
220
0.0
230
1.0
 40
0.707106781186562
 41
4.484015781307583
 42
4.925279955053822
  0
ELLIPSE
  5
17D
330
143
100
AcDbEntity
  8
AM_4
100
AcDbEllipse
 10
50.9468473969561
 20
-28.80000000000022
 30
0.0
 11
-9.331808609503324E-16
 21
-5.080000000000268
 31
0.0
210
0.0
220
0.0
230
1.0
 40
0.7071067811865477
 41
3.463208536696794
 42
3.873129316860381
  0
ELLIPSE
  5
17E
330
143
100
AcDbEntity
  8
AM_4
100
AcDbEllipse
 10
50.96480790919824
 20
-28.79999999999978
 30
0.0
 11
-9.331808609503324E-16
 21
-5.080000000000268
 31
0.0
210
0.0
220
0.0
230
1.0
 40
0.7071067811865477
 41
5.587800042060866
 42
5.931033391886908
  0
LINE
  5
17F
330
143
100
AcDbEntity
  8
AM_4
100
AcDbLine
 10
40.94524346898407
 20
-40.59999999999999
 30
0.0
 11
40.94524346898407
 21
-15.3
 31
0.0
  0
LINE
  5
180
330
143
100
AcDbEntity
  8
AM_4
100
AcDbLine
 10
66.7
 20
-40.59999999999999
 30
0.0
 11
-66.6999999999999
 21
-40.59999999999999
 31
0.0
  0
LINE
  5
181
330
143
100
AcDbEntity
  8
AM_4
100
AcDbLine
 10
56.33500106959751
 20
-25.62576295151102
 30
0.0
 11
56.33500106959751
 21
-3.399999999999998
 31
0.0
  0
LINE
  5
182
330
143
100
AcDbEntity
  8
AM_4
100
AcDbLine
 10
56.33500106959751
 20
-40.59999999999999
 30
0.0
 11
56.33500106959751
 21
-31.97423704848897
 31
0.0
  0
LINE
  5
183
330
143
100
AcDbEntity
  8
AM_4
100
AcDbLine
 10
45.55869372431452
 20
-40.59999999999999
 30
0.0
 11
45.55869372431452
 21
-3.399999999999997
 31
0.0
  0
LINE
  5
184
330
143
100
AcDbEntity
  8
AM_4
100
AcDbLine
 10
41.96659127588686
 20
-40.59999999999999
 30
0.0
 11
41.96659127588686
 21
-15.3
 31
0.0
  0
LINE
  5
185
330
143
100
AcDbEntity
  8
AM_4
100
AcDbLine
 10
40.97789024104938
 20
-3.399999999999996
 30
0.0
 11
40.97789024104938
 21
0.0000000000000036
 31
0.0
  0
LINE
  5
186
330
143
100
AcDbEntity
  8
AM_4
100
AcDbLine
 10
40.97789024104938
 20
0.0000000000000036
 30
0.0
 11
-40.97789024104891
 21
0.0000000000000036
 31
0.0
  0
LINE
  5
187
330
143
100
AcDbEntity
  8
AM_4
100
AcDbLine
 10
-40.97789024104891
 20
0.0000000000000036
 30
0.0
 11
-40.97789024104891
 21
-3.399999999999996
 31
0.0
  0
LINE
  5
188
330
143
100
AcDbEntity
  8
AM_4
100
AcDbLine
 10
-40.59128246671065
 20
-3.399999999999996
 30
0.0
 11
-66.6999999999999
 21
-3.4
 31
0.0
  0
LINE
  5
189
330
143
100
AcDbEntity
  8
AM_4
100
AcDbLine
 10
37.71304336692916
 20
-40.59999999999999
 30
0.0
 11
37.71304336692916
 21
-15.3
 31
0.0
  0
LINE
  5
18A
330
143
100
AcDbEntity
  8
AM_4
100
AcDbLine
 10
66.7
 20
-40.59999999999999
 30
0.0
 11
66.7
 21
-3.4
 31
0.0
  0
LINE
  5
18B
330
143
100
AcDbEntity
  8
AM_4
100
AcDbLine
 10
-66.6999999999999
 20
-3.4
 30
0.0
 11
-66.6999999999999
 21
-40.59999999999999
 31
0.0
  0
LINE
  5
18C
330
143
100
AcDbEntity
  8
AM_4
100
AcDbLine
 10
-27.96138060086722
 20
-17.0
 30
0.0
 11
-27.96138060086724
 21
-15.3
 31
0.0
  0
LINE
  5
18D
330
143
100
AcDbEntity
  8
AM_4
100
AcDbLine
 10
-27.96138060086722
 20
-17.0
 30
0.0
 11
27.96138060086723
 21
-17.0
 31
0.0
  0
LINE
  5
18E
330
143
100
AcDbEntity
  8
AM_4
100
AcDbLine
 10
27.96138060086723
 20
-15.3
 30
0.0
 11
27.96138060086723
 21
-17.0
 31
0.0
  0
LINE
  5
18F
330
143
100
AcDbEntity
  8
AM_4
100
AcDbLine
 10
42.92236084184393
 20
-3.399999999999997
 30
0.0
 11
42.92236084184393
 21
-15.3
 31
0.0
  0
LINE
  5
190
330
143
100
AcDbEntity
  8
AM_4
100
AcDbLine
 10
66.7
 20
-3.4
 30
0.0
 11
40.59128246671064
 21
-3.399999999999996
 31
0.0
  0
LINE
  5
191
330
143
100
AcDbEntity
  8
AM_4
100
AcDbLine
 10
40.59128246671064
 20
-3.399999999999996
 30
0.0
 11
40.59128246671064
 21
0.0000000000000037
 31
0.0
  0
LINE
  5
192
330
143
100
AcDbEntity
  8
AM_4
100
AcDbLine
 10
42.92236084184393
 20
-15.3
 30
0.0
 11
14.79374557963225
 21
-15.29999999999999
 31
0.0
  0
LINE
  5
193
330
143
100
AcDbEntity
  8
AM_4
100
AcDbLine
 10
-14.79374557963226
 20
-15.29999999999999
 30
0.0
 11
-56.38530458065551
 21
-15.3
 31
0.0
  0
LINE
  5
194
330
143
100
AcDbEntity
  8
AM_4
100
AcDbLine
 10
-40.59128246671065
 20
-3.399999999999996
 30
0.0
 11
-40.59128246671065
 21
0.0000000000000037
 31
0.0
  0
LINE
  5
195
330
143
100
AcDbEntity
  8
AM_4
100
AcDbLine
 10
-56.38530458065551
 20
-15.3
 30
0.0
 11
-56.38530458065541
 21
-3.399999999999998
 31
0.0
  0
LINE
  5
196
330
143
100
AcDbEntity
  8
AM_4
100
AcDbLine
 10
14.79374557963225
 20
-15.29999999999999
 30
0.0
 11
14.79374557963226
 21
0.0000000000000062
 31
0.0
  0
LINE
  5
197
330
143
100
AcDbEntity
  8
AM_4
100
AcDbLine
 10
-14.79374557963226
 20
-15.29999999999999
 30
0.0
 11
-14.79374557963225
 21
0.0000000000000062
 31
0.0
  0
LINE
  5
198
330
143
100
AcDbEntity
  8
AM_4
100
AcDbLine
 10
-16.73305230397893
 20
-16.99999999999999
 30
0.0
 11
-16.73305230397893
 21
-15.3
 31
0.0
  0
LINE
  5
199
330
143
100
AcDbEntity
  8
AM_4
100
AcDbLine
 10
16.73305230397893
 20
-16.99999999999999
 30
0.0
 11
16.73305230397893
 21
-15.3
 31
0.0
  0
ENDBLK
  5
146
330
143
100
AcDbEntity
  8
0
100
AcDbBlockEnd
  0
ENDSEC
  0
SECTION
  2
ENTITIES
  0
INSERT
  5
6F
330
1F
100
AcDbEntity
  8
0
100
AcDbBlockReference
  2
1_125710_4
 10
0.0
 20
0.0
 30
0.0
  0
POINT
  5
19B
330
1F
100
AcDbEntity
  8
ConnectionPoints
100
AcDbPoint
 10
50.96480790919814
 20
-28.79999999999999
 30
50.96480790919814
  0
POINT
  5
19C
330
1F
100
AcDbEntity
  8
ConnectionPoints
100
AcDbPoint
 10
50.96480790919814
 20
-28.79999999999999
 30
50.96480790919814
  0
POINT
  5
19D
330
1F
100
AcDbEntity
  8
ConnectionPoints
100
AcDbPoint
 10
0.0
 20
-57.9
 30
0.0000000000000035
  0
ENDSEC
  0
SECTION
  2
OBJECTS
  0
DICTIONARY
  5
C
330
0
100
AcDbDictionary
281
     1
  3
ACAD_DETAILVIEWSTYLE
350
1A5
  3
ACAD_GROUP
350
D
  3
ACAD_LAYOUT
350
1A
  3
ACAD_MATERIAL
350
43
  3
ACAD_MLEADERSTYLE
350
6B
  3
ACAD_MLINESTYLE
350
17
  3
ACAD_PLOTSETTINGS
350
19
  3
ACAD_PLOTSTYLENAME
350
E
  3
ACAD_SCALELIST
350
47
  3
ACAD_SECTIONVIEWSTYLE
350
1A6
  3
ACAD_TABLESTYLE
350
69
  3
ACAD_VISUALSTYLE
350
2A
  3
ACDB_RECOMPOSE_DATA
350
1A2
  3
AcDbVariableDictionary
350
19E
  0
SUN
  5
6D
330
29
100
AcDbSun
 90
        1
290
     0
 63
     7
421
 16777215
 40
1.0
291
     1
 91
  2455826
 92
 54000000
292
     0
 70
     2
 71
   256
280
     1
  0
DICTIONARY
  5
1A5
102
{ACAD_REACTORS
330
C
102
}
330
C
100
AcDbDictionary
281
     1
  0
DICTIONARY
  5
D
102
{ACAD_REACTORS
330
C
102
}
330
C
100
AcDbDictionary
281
     1
  0
DICTIONARY
  5
1A
102
{ACAD_REACTORS
330
C
102
}
330
C
100
AcDbDictionary
281
     1
  3
Layout1
350
1E
  3
Layout2
350
26
  3
Model
350
22
  0
DICTIONARY
  5
43
102
{ACAD_REACTORS
330
C
102
}
330
C
100
AcDbDictionary
281
     1
  3
ByBlock
350
45
  3
ByLayer
350
44
  3
Global
350
46
  0
DICTIONARY
  5
6B
102
{ACAD_REACTORS
330
C
102
}
330
C
100
AcDbDictionary
281
     1
  3
Standard
350
6C
  0
DICTIONARY
  5
17
102
{ACAD_REACTORS
330
C
102
}
330
C
100
AcDbDictionary
281
     1
  3
Standard
350
18
  0
DICTIONARY
  5
19
102
{ACAD_REACTORS
330
C
102
}
330
C
100
AcDbDictionary
281
     1
  0
ACDBDICTIONARYWDFLT
  5
E
102
{ACAD_REACTORS
330
C
102
}
330
C
100
AcDbDictionary
281
     1
  3
Normal
350
F
100
AcDbDictionaryWithDefault
340
F
  0
DICTIONARY
  5
47
102
{ACAD_REACTORS
330
C
102
}
330
C
100
AcDbDictionary
281
     1
  3
A0
350
48
  3
A1
350
49
  3
A2
350
4A
  3
A3
350
4B
  3
A4
350
4C
  3
A5
350
4D
  3
A6
350
4E
  3
A7
350
4F
  3
A8
350
50
  3
A9
350
51
  3
B0
350
52
  3
B1
350
53
  3
B2
350
54
  3
B3
350
55
  3
B4
350
56
  3
B5
350
57
  3
B6
350
58
  3
B7
350
59
  3
B8
350
5A
  3
B9
350
5B
  3
C0
350
5C
  3
C1
350
5D
  3
C2
350
5E
  3
C3
350
5F
  3
C4
350
60
  3
C5
350
61
  3
C6
350
62
  3
C7
350
63
  3
C8
350
64
  3
C9
350
65
  3
D0
350
66
  3
D1
350
67
  3
D2
350
68
  0
DICTIONARY
  5
1A6
102
{ACAD_REACTORS
330
C
102
}
330
C
100
AcDbDictionary
281
     1
  0
DICTIONARY
  5
69
102
{ACAD_REACTORS
330
C
102
}
330
C
100
AcDbDictionary
281
     1
  3
Standard
350
6A
  0
DICTIONARY
  5
2A
102
{ACAD_REACTORS
330
C
102
}
330
C
100
AcDbDictionary
281
     1
  3
2dWireframe
350
2F
  3
Basic
350
32
  3
Brighten
350
36
  3
ColorChange
350
3A
  3
Conceptual
350
34
  3
Dim
350
35
  3
EdgeColorOff
350
3D
  3
Facepattern
350
39
  3
Flat
350
2B
  3
FlatWithEdges
350
2C
  3
Gouraud
350
2D
  3
GouraudWithEdges
350
2E
  3
Hidden
350
31
  3
JitterOff
350
3B
  3
Linepattern
350
38
  3
OverhangOff
350
3C
  3
Realistic
350
33
  3
Shaded
350
42
  3
Shaded with edges
350
41
  3
Shades of Gray
350
3E
  3
Sketchy
350
3F
  3
Thicken
350
37
  3
Wireframe
350
30
  3
X-Ray
350
40
  0
XRECORD
  5
1A2
102
{ACAD_REACTORS
330
C
102
}
330
C
100
AcDbXrecord
280
     1
 90
        1
330
6A
  0
DICTIONARY
  5
19E
102
{ACAD_REACTORS
330
C
102
}
330
C
100
AcDbDictionary
281
     1
  3
CANNOSCALE
350
19F
  3
CMLEADERSTYLE
350
1A4
  3
CTABLESTYLE
350
1A3
  0
LAYOUT
  5
1E
102
{ACAD_REACTORS
330
1A
102
}
330
1A
100
AcDbPlotSettings
  1

  2
none_device
  4

  6

 40
0.0
 41
0.0
 42
0.0
 43
0.0
 44
0.0
 45
0.0
 46
0.0
 47
0.0
 48
0.0
 49
0.0
140
0.0
141
0.0
142
1.0
143
1.0
 70
   688
 72
     1
 73
     0
 74
     5
  7

 75
    16
 76
     0
 77
     2
 78
   300
147
1.0
148
0.0
149
0.0
100
AcDbLayout
  1
Layout1
 70
     1
 71
     1
 10
0.0
 20
0.0
 11
420.0
 21
297.0
 12
0.0
 22
0.0
 32
0.0
 14
1.000000000000000E+20
 24
1.000000000000000E+20
 34
1.000000000000000E+20
 15
-1.000000000000000E+20
 25
-1.000000000000000E+20
 35
-1.000000000000000E+20
146
0.0
 13
0.0
 23
0.0
 33
0.0
 16
1.0
 26
0.0
 36
0.0
 17
0.0
 27
1.0
 37
0.0
 76
     0
330
1B
  0
LAYOUT
  5
26
102
{ACAD_REACTORS
330
1A
102
}
330
1A
100
AcDbPlotSettings
  1

  2
none_device
  4

  6

 40
0.0
 41
0.0
 42
0.0
 43
0.0
 44
0.0
 45
0.0
 46
0.0
 47
0.0
 48
0.0
 49
0.0
140
0.0
141
0.0
142
1.0
143
1.0
 70
   688
 72
     1
 73
     0
 74
     5
  7

 75
    16
 76
     0
 77
     2
 78
   300
147
1.0
148
0.0
149
0.0
100
AcDbLayout
  1
Layout2
 70
     1
 71
     2
 10
0.0
 20
0.0
 11
0.0
 21
0.0
 12
0.0
 22
0.0
 32
0.0
 14
0.0
 24
0.0
 34
0.0
 15
0.0
 25
0.0
 35
0.0
146
0.0
 13
0.0
 23
0.0
 33
0.0
 16
1.0
 26
0.0
 36
0.0
 17
0.0
 27
1.0
 37
0.0
 76
     0
330
23
  0
LAYOUT
  5
22
102
{ACAD_REACTORS
330
1A
102
}
330
1A
100
AcDbPlotSettings
  1

  2
none_device
  4
Letter_(8.50_x_11.00_Inches)
  6

 40
6.35
 41
6.35
 42
6.35000508
 43
6.35000508
 44
215.9
 45
279.4
 46
0.0
 47
0.0
 48
0.0
 49
0.0
140
0.0
141
0.0
142
1.0
143
1.0
 70
  1712
 72
     1
 73
     0
 74
     0
  7

 75
     0
 76
     0
 77
     2
 78
   300
147
1.0
148
0.0
149
0.0
100
AcDbLayout
  1
Model
 70
     1
 71
     0
 10
0.0
 20
0.0
 11
420.0
 21
297.0
 12
0.0
 22
0.0
 32
0.0
 14
1.000000000000000E+20
 24
1.000000000000000E+20
 34
1.000000000000000E+20
 15
-1.000000000000000E+20
 25
-1.000000000000000E+20
 35
-1.000000000000000E+20
146
0.0
 13
0.0
 23
0.0
 33
0.0
 16
1.0
 26
0.0
 36
0.0
 17
0.0
 27
1.0
 37
0.0
 76
     0
330
1F
331
29
  0
MATERIAL
  5
45
102
{ACAD_REACTORS
330
43
102
}
330
43
100
AcDbMaterial
  1
ByBlock
 72
     1
 94
      127
  0
MATERIAL
  5
44
102
{ACAD_REACTORS
330
43
102
}
330
43
100
AcDbMaterial
  1
ByLayer
 72
     1
 94
      127
  0
MATERIAL
  5
46
102
{ACAD_REACTORS
330
43
102
}
330
43
100
AcDbMaterial
  1
Global
 72
     1
 94
      127
  0
MLEADERSTYLE
  5
6C
102
{ACAD_REACTORS
330
6B
102
}
330
6B
100
AcDbMLeaderStyle
179
     2
170
     2
171
     1
172
     0
 90
        2
 40
0.0
 41
0.0
173
     1
 91
-1056964608
340
14
 92
       -2
290
     1
 42
2.0
291
     1
 43
8.0
  3
Standard
341
0
 44
4.0
300

342
11
174
     1
178
     6
175
     1
176
     0
 93
-1056964608
 45
4.0
292
     0
297
     0
 46
4.0
343
0
 94
-1056964608
 47
1.0
 49
1.0
140
1.0
293
     1
141
0.0
294
     1
177
     0
142
1.0
295
     0
296
     0
143
3.75
271
     0
272
     9
273
     9
298
     0
  0
MLINESTYLE
  5
18
102
{ACAD_REACTORS
330
17
102
}
330
17
100
AcDbMlineStyle
  2
Standard
 70
     0
  3

 62
   256
 51
90.0
 52
90.0
 71
     2
 49
0.5
 62
   256
  6
BYLAYER
 49
-0.5
 62
   256
  6
BYLAYER
  0
ACDBPLACEHOLDER
  5
F
102
{ACAD_REACTORS
330
E
102
}
330
E
  0
SCALE
  5
48
102
{ACAD_REACTORS
330
47
102
}
330
47
100
AcDbScale
 70
     0
300
1:1
140
1.0
141
1.0
290
     1
  0
SCALE
  5
49
102
{ACAD_REACTORS
330
47
102
}
330
47
100
AcDbScale
 70
     0
300
1:2
140
1.0
141
2.0
290
     0
  0
SCALE
  5
4A
102
{ACAD_REACTORS
330
47
102
}
330
47
100
AcDbScale
 70
     0
300
1:4
140
1.0
141
4.0
290
     0
  0
SCALE
  5
4B
102
{ACAD_REACTORS
330
47
102
}
330
47
100
AcDbScale
 70
     0
300
1:5
140
1.0
141
5.0
290
     0
  0
SCALE
  5
4C
102
{ACAD_REACTORS
330
47
102
}
330
47
100
AcDbScale
 70
     0
300
1:8
140
1.0
141
8.0
290
     0
  0
SCALE
  5
4D
102
{ACAD_REACTORS
330
47
102
}
330
47
100
AcDbScale
 70
     0
300
1:10
140
1.0
141
10.0
290
     0
  0
SCALE
  5
4E
102
{ACAD_REACTORS
330
47
102
}
330
47
100
AcDbScale
 70
     0
300
1:16
140
1.0
141
16.0
290
     0
  0
SCALE
  5
4F
102
{ACAD_REACTORS
330
47
102
}
330
47
100
AcDbScale
 70
     0
300
1:20
140
1.0
141
20.0
290
     0
  0
SCALE
  5
50
102
{ACAD_REACTORS
330
47
102
}
330
47
100
AcDbScale
 70
     0
300
1:30
140
1.0
141
30.0
290
     0
  0
SCALE
  5
51
102
{ACAD_REACTORS
330
47
102
}
330
47
100
AcDbScale
 70
     0
300
1:40
140
1.0
141
40.0
290
     0
  0
SCALE
  5
52
102
{ACAD_REACTORS
330
47
102
}
330
47
100
AcDbScale
 70
     0
300
1:50
140
1.0
141
50.0
290
     0
  0
SCALE
  5
53
102
{ACAD_REACTORS
330
47
102
}
330
47
100
AcDbScale
 70
     0
300
1:100
140
1.0
141
100.0
290
     0
  0
SCALE
  5
54
102
{ACAD_REACTORS
330
47
102
}
330
47
100
AcDbScale
 70
     0
300
2:1
140
2.0
141
1.0
290
     0
  0
SCALE
  5
55
102
{ACAD_REACTORS
330
47
102
}
330
47
100
AcDbScale
 70
     0
300
4:1
140
4.0
141
1.0
290
     0
  0
SCALE
  5
56
102
{ACAD_REACTORS
330
47
102
}
330
47
100
AcDbScale
 70
     0
300
8:1
140
8.0
141
1.0
290
     0
  0
SCALE
  5
57
102
{ACAD_REACTORS
330
47
102
}
330
47
100
AcDbScale
 70
     0
300
10:1
140
10.0
141
1.0
290
     0
  0
SCALE
  5
58
102
{ACAD_REACTORS
330
47
102
}
330
47
100
AcDbScale
 70
     0
300
100:1
140
100.0
141
1.0
290
     0
  0
SCALE
  5
59
102
{ACAD_REACTORS
330
47
102
}
330
47
100
AcDbScale
 70
     0
300
1/128" = 1'-0"
140
0.0078125
141
12.0
290
     0
  0
SCALE
  5
5A
102
{ACAD_REACTORS
330
47
102
}
330
47
100
AcDbScale
 70
     0
300
1/64" = 1'-0"
140
0.015625
141
12.0
290
     0
  0
SCALE
  5
5B
102
{ACAD_REACTORS
330
47
102
}
330
47
100
AcDbScale
 70
     0
300
1/32" = 1'-0"
140
0.03125
141
12.0
290
     0
  0
SCALE
  5
5C
102
{ACAD_REACTORS
330
47
102
}
330
47
100
AcDbScale
 70
     0
300
1/16" = 1'-0"
140
0.0625
141
12.0
290
     0
  0
SCALE
  5
5D
102
{ACAD_REACTORS
330
47
102
}
330
47
100
AcDbScale
 70
     0
300
3/32" = 1'-0"
140
0.09375
141
12.0
290
     0
  0
SCALE
  5
5E
102
{ACAD_REACTORS
330
47
102
}
330
47
100
AcDbScale
 70
     0
300
1/8" = 1'-0"
140
0.125
141
12.0
290
     0
  0
SCALE
  5
5F
102
{ACAD_REACTORS
330
47
102
}
330
47
100
AcDbScale
 70
     0
300
3/16" = 1'-0"
140
0.1875
141
12.0
290
     0
  0
SCALE
  5
60
102
{ACAD_REACTORS
330
47
102
}
330
47
100
AcDbScale
 70
     0
300
1/4" = 1'-0"
140
0.25
141
12.0
290
     0
  0
SCALE
  5
61
102
{ACAD_REACTORS
330
47
102
}
330
47
100
AcDbScale
 70
     0
300
3/8" = 1'-0"
140
0.375
141
12.0
290
     0
  0
SCALE
  5
62
102
{ACAD_REACTORS
330
47
102
}
330
47
100
AcDbScale
 70
     0
300
1/2" = 1'-0"
140
0.5
141
12.0
290
     0
  0
SCALE
  5
63
102
{ACAD_REACTORS
330
47
102
}
330
47
100
AcDbScale
 70
     0
300
3/4" = 1'-0"
140
0.75
141
12.0
290
     0
  0
SCALE
  5
64
102
{ACAD_REACTORS
330
47
102
}
330
47
100
AcDbScale
 70
     0
300
1" = 1'-0"
140
1.0
141
12.0
290
     0
  0
SCALE
  5
65
102
{ACAD_REACTORS
330
47
102
}
330
47
100
AcDbScale
 70
     0
300
1-1/2" = 1'-0"
140
1.5
141
12.0
290
     0
  0
SCALE
  5
66
102
{ACAD_REACTORS
330
47
102
}
330
47
100
AcDbScale
 70
     0
300
3" = 1'-0"
140
3.0
141
12.0
290
     0
  0
SCALE
  5
67
102
{ACAD_REACTORS
330
47
102
}
330
47
100
AcDbScale
 70
     0
300
6" = 1'-0"
140
6.0
141
12.0
290
     0
  0
SCALE
  5
68
102
{ACAD_REACTORS
330
47
102
}
330
47
100
AcDbScale
 70
     0
300
1'-0" = 1'-0"
140
12.0
141
12.0
290
     0
  0
TABLESTYLE
  5
6A
102
{ACAD_REACTORS
330
69
102
}
102
{ACAD_XDICTIONARY
360
1A0
102
}
330
69
100
AcDbTableStyle
  3
Standard
 70
     0
 71
     0
 40
0.06
 41
0.06
280
     0
281
     0
  7
Standard
140
4.5
170
     2
 62
     0
 63
   257
283
     0
 90
        4
 91
        0
  1

274
    -2
284
     1
 64
     0
275
    -2
285
     1
 65
     0
276
    -2
286
     1
 66
     0
277
    -2
287
     1
 67
     0
278
    -2
288
     1
 68
     0
279
    -2
289
     1
 69
     0
  7
Standard
140
6.0
170
     5
 62
     0
 63
   257
283
     0
 90
        4
 91
        0
  1

274
    -2
284
     1
 64
     0
275
    -2
285
     1
 65
     0
276
    -2
286
     1
 66
     0
277
    -2
287
     1
 67
     0
278
    -2
288
     1
 68
     0
279
    -2
289
     1
 69
     0
  7
Standard
140
4.5
170
     5
 62
     0
 63
   257
283
     0
 90
        4
 91
        0
  1

274
    -2
284
     1
 64
     0
275
    -2
285
     1
 65
     0
276
    -2
286
     1
 66
     0
277
    -2
287
     1
 67
     0
278
    -2
288
     1
 68
     0
279
    -2
289
     1
 69
     0
  0
VISUALSTYLE
  5
2F
102
{ACAD_REACTORS
330
2A
102
}
330
2A
100
AcDbVisualStyle
  2
2dWireframe
 70
     4
177
     3
291
     0
 70
    58
 90
        0
176
     1
 90
        2
176
     1
 90
        0
176
     1
 90
        0
176
     1
 40
0.6
176
     1
 40
30.0
176
     1
 62
     7
420
 16777215
176
     1
 90
        1
176
     1
 90
        4
176
     1
 62
     7
176
     1
 62
   257
176
     1
 90
        1
176
     1
 90
        1
176
     1
 40
1.0
176
     1
 90
        0
176
     1
 62
   257
176
     1
 40
1.0
176
     1
 90
        1
176
     1
 90
        6
176
     1
 90
        2
176
     1
 62
     7
176
     1
 90
        5
176
     1
 90
        0
176
     1
 90
        0
176
     1
290
     0
176
     1
 90
        1
176
     1
 40
0.0
176
     1
 90
        0
176
     1
290
     1
176
     1
290
     1
176
     1
290
     0
176
     1
290
     0
176
     1
290
     0
176
     1
290
     0
176
     1
290
     0
176
     1
290
     0
176
     1
290
     0
176
     1
 90
       50
176
     1
 40
0.0
176
     1
 40
1.0
176
     1
 90
        0
176
     1
 62
    18
420
        0
176
     1
 90
       50
176
     1
 90
        3
176
     1
 62
     5
420
      255
176
     1
290
     0
176
     1
 90
       50
176
     1
 90
       50
176
     1
 90
       50
176
     1
290
     0
176
     1
 90
       50
176
     1
 62
   256
176
     0
 40
1.0
176
     0
 90
        2
176
     1
  1
strokes_ogs.tif
176
     1
290
     0
176
     1
 40
1.0
176
     1
 40
1.0
176
     1
  0
VISUALSTYLE
  5
32
102
{ACAD_REACTORS
330
2A
102
}
330
2A
100
AcDbVisualStyle
  2
Basic
 70
     7
177
     3
291
     1
 70
    58
 90
        1
176
     1
 90
        0
176
     1
 90
        1
176
     1
 90
        0
176
     1
 40
0.6
176
     1
 40
30.0
176
     1
 62
     7
420
 16777215
176
     1
 90
        0
176
     1
 90
        4
176
     1
 62
     7
176
     1
 62
   257
176
     1
 90
        1
176
     1
 90
        1
176
     1
 40
1.0
176
     1
 90
        8
176
     1
 62
     7
176
     1
 40
1.0
176
     1
 90
        1
176
     1
 90
        6
176
     1
 90
        2
176
     1
 62
     7
176
     1
 90
        5
176
     1
 90
        0
176
     1
 90
        0
176
     1
290
     0
176
     1
 90
        1
176
     1
 40
0.0
176
     1
 90
        0
176
     1
290
     0
176
     1
290
     1
176
     1
290
     1
176
     1
290
     0
176
     1
290
     0
176
     1
290
     0
176
     1
290
     0
176
     1
290
     0
176
     1
290
     0
176
     1
 90
       50
176
     1
 40
0.0
176
     1
 40
1.0
176
     1
 90
        0
176
     1
 62
    18
420
        0
176
     1
 90
       50
176
     1
 90
        3
176
     1
 62
     5
420
      255
176
     1
290
     0
176
     1
 90
       50
176
     1
 90
       50
176
     1
 90
       50
176
     1
290
     0
176
     1
 90
       50
176
     1
 62
   256
176
     0
 40
1.0
176
     0
 90
        2
176
     1
  1
strokes_ogs.tif
176
     1
290
     0
176
     1
 40
1.0
176
     1
 40
1.0
176
     1
  0
VISUALSTYLE
  5
36
102
{ACAD_REACTORS
330
2A
102
}
330
2A
100
AcDbVisualStyle
  2
Brighten
 70
    12
177
     3
291
     1
 70
    58
 90
        2
176
     1
 90
        2
176
     1
 90
        0
176
     1
 90
        0
176
     1
 40
0.6
176
     1
 40
30.0
176
     1
 62
     7
420
 16777215
176
     1
 90
        1
176
     1
 90
        4
176
     1
 62
     7
176
     1
 62
   257
176
     1
 90
        1
176
     1
 90
        1
176
     1
 40
1.0
176
     1
 90
        8
176
     1
 62
     7
176
     1
 40
1.0
176
     1
 90
        1
176
     1
 90
        6
176
     1
 90
        2
176
     1
 62
     7
176
     1
 90
        5
176
     1
 90
        0
176
     1
 90
        0
176
     1
290
     0
176
     1
 90
        1
176
     1
 40
50.0
176
     1
 90
        0
176
     1
290
     0
176
     1
290
     1
176
     1
290
     1
176
     1
290
     0
176
     1
290
     0
176
     1
290
     0
176
     1
290
     0
176
     1
290
     0
176
     1
290
     0
176
     1
 90
       50
176
     1
 40
0.0
176
     1
 40
1.0
176
     1
 90
        0
176
     1
 62
    18
420
        0
176
     1
 90
       50
176
     1
 90
        3
176
     1
 62
     5
420
      255
176
     1
290
     0
176
     1
 90
       50
176
     1
 90
       50
176
     1
 90
       50
176
     1
290
     0
176
     1
 90
       50
176
     1
 62
   256
176
     0
 40
1.0
176
     0
 90
        2
176
     1
  1
strokes_ogs.tif
176
     1
290
     0
176
     1
 40
1.0
176
     1
 40
1.0
176
     1
  0
VISUALSTYLE
  5
3A
102
{ACAD_REACTORS
330
2A
102
}
330
2A
100
AcDbVisualStyle
  2
ColorChange
 70
    16
177
     3
291
     1
 70
    58
 90
        2
176
     1
 90
        2
176
     1
 90
        3
176
     1
 90
        0
176
     1
 40
0.6
176
     1
 40
30.0
176
     1
 62
     8
420
  8421504
176
     1
 90
        1
176
     1
 90
        4
176
     1
 62
     7
176
     1
 62
   257
176
     1
 90
        1
176
     1
 90
        1
176
     1
 40
1.0
176
     1
 90
        8
176
     1
 62
     8
420
  8421504
176
     1
 40
1.0
176
     1
 90
        1
176
     1
 90
        6
176
     1
 90
        2
176
     1
 62
     7
176
     1
 90
        5
176
     1
 90
        0
176
     1
 90
        0
176
     1
290
     0
176
     1
 90
        1
176
     1
 40
0.0
176
     1
 90
        0
176
     1
290
     0
176
     1
290
     1
176
     1
290
     1
176
     1
290
     0
176
     1
290
     0
176
     1
290
     0
176
     1
290
     0
176
     1
290
     0
176
     1
290
     0
176
     1
 90
       50
176
     1
 40
0.0
176
     1
 40
1.0
176
     1
 90
        0
176
     1
 62
    18
420
        0
176
     1
 90
       50
176
     1
 90
        3
176
     1
 62
     5
420
      255
176
     1
290
     0
176
     1
 90
       50
176
     1
 90
       50
176
     1
 90
       50
176
     1
290
     0
176
     1
 90
       50
176
     1
 62
   256
176
     0
 40
1.0
176
     0
 90
        2
176
     1
  1
strokes_ogs.tif
176
     1
290
     0
176
     1
 40
1.0
176
     1
 40
1.0
176
     1
  0
VISUALSTYLE
  5
34
102
{ACAD_REACTORS
330
2A
102
}
330
2A
100
AcDbVisualStyle
  2
Conceptual
 70
     9
177
     3
291
     0
 70
    58
 90
        3
176
     1
 90
        2
176
     1
 90
        0
176
     1
 90
        0
176
     1
 40
0.6
176
     1
 40
30.0
176
     1
 62
     7
420
 16777215
176
     1
 90
        2
176
     1
 90
        2
176
     1
 62
     7
176
     1
 62
   257
176
     1
 90
        1
176
     1
 90
        1
176
     1
 40
179.0
176
     1
 90
        8
176
     1
 62
     7
176
     1
 40
1.0
176
     1
 90
        1
176
     1
 90
        6
176
     1
 90
        2
176
     1
 62
     7
176
     1
 90
        3
176
     1
 90
        0
176
     1
 90
        0
176
     1
290
     0
176
     1
 90
        1
176
     1
 40
0.0
176
     1
 90
        0
176
     1
290
     0
176
     1
290
     1
176
     1
290
     1
176
     1
290
     0
176
     1
290
     0
176
     1
290
     0
176
     1
290
     0
176
     1
290
     0
176
     1
290
     0
176
     1
 90
       50
176
     1
 40
0.0
176
     1
 40
1.0
176
     1
 90
        0
176
     1
 62
    18
420
        0
176
     1
 90
       50
176
     1
 90
        3
176
     1
 62
     5
420
      255
176
     1
290
     0
176
     1
 90
       50
176
     1
 90
       50
176
     1
 90
       50
176
     1
290
     0
176
     1
 90
       50
176
     1
 62
   256
176
     0
 40
1.0
176
     0
 90
        2
176
     1
  1
strokes_ogs.tif
176
     1
290
     0
176
     1
 40
1.0
176
     1
 40
1.0
176
     1
  0
VISUALSTYLE
  5
35
102
{ACAD_REACTORS
330
2A
102
}
330
2A
100
AcDbVisualStyle
  2
Dim
 70
    11
177
     3
291
     1
 70
    58
 90
        2
176
     1
 90
        2
176
     1
 90
        0
176
     1
 90
        0
176
     1
 40
0.6
176
     1
 40
30.0
176
     1
 62
     7
420
 16777215
176
     1
 90
        1
176
     1
 90
        4
176
     1
 62
     7
176
     1
 62
   257
176
     1
 90
        1
176
     1
 90
        1
176
     1
 40
1.0
176
     1
 90
        8
176
     1
 62
     7
176
     1
 40
1.0
176
     1
 90
        1
176
     1
 90
        6
176
     1
 90
        2
176
     1
 62
     7
176
     1
 90
        5
176
     1
 90
        0
176
     1
 90
        0
176
     1
290
     0
176
     1
 90
        1
176
     1
 40
-50.0
176
     1
 90
        0
176
     1
290
     0
176
     1
290
     1
176
     1
290
     1
176
     1
290
     0
176
     1
290
     0
176
     1
290
     0
176
     1
290
     0
176
     1
290
     0
176
     1
290
     0
176
     1
 90
       50
176
     1
 40
0.0
176
     1
 40
1.0
176
     1
 90
        0
176
     1
 62
    18
420
        0
176
     1
 90
       50
176
     1
 90
        3
176
     1
 62
     5
420
      255
176
     1
290
     0
176
     1
 90
       50
176
     1
 90
       50
176
     1
 90
       50
176
     1
290
     0
176
     1
 90
       50
176
     1
 62
   256
176
     0
 40
1.0
176
     0
 90
        2
176
     1
  1
strokes_ogs.tif
176
     1
290
     0
176
     1
 40
1.0
176
     1
 40
1.0
176
     1
  0
VISUALSTYLE
  5
3D
102
{ACAD_REACTORS
330
2A
102
}
330
2A
100
AcDbVisualStyle
  2
EdgeColorOff
 70
    22
177
     3
291
     1
 70
    58
 90
        2
176
     0
 90
        2
176
     0
 90
        0
176
     0
 90
        0
176
     0
 40
0.6
176
     0
 40
30.0
176
     0
 62
     7
420
 16777215
176
     0
 90
        1
176
     0
 90
        4
176
     0
 62
     7
176
     0
 62
   257
176
     0
 90
        1
176
     0
 90
        1
176
     0
 40
1.0
176
     0
 90
        8
176
     2
 62
     7
176
     0
 40
1.0
176
     0
 90
        1
176
     0
 90
        6
176
     0
 90
        2
176
     0
 62
     7
176
     0
 90
        5
176
     0
 90
        0
176
     0
 90
        0
176
     0
290
     0
176
     0
 90
        1
176
     0
 40
0.0
176
     0
 90
        0
176
     0
290
     0
176
     0
290
     1
176
     0
290
     1
176
     0
290
     0
176
     0
290
     0
176
     0
290
     0
176
     0
290
     0
176
     0
290
     0
176
     0
290
     0
176
     0
 90
       50
176
     0
 40
0.0
176
     0
 40
1.0
176
     0
 90
        0
176
     0
 62
    18
420
        0
176
     0
 90
       50
176
     0
 90
        3
176
     0
 62
     5
420
      255
176
     0
290
     0
176
     0
 90
       50
176
     0
 90
       50
176
     0
 90
       50
176
     0
290
     0
176
     0
 90
       50
176
     0
 62
   256
176
     0
 40
1.0
176
     0
 90
        2
176
     0
  1
strokes_ogs.tif
176
     0
290
     0
176
     0
 40
1.0
176
     0
 40
1.0
176
     0
  0
VISUALSTYLE
  5
39
102
{ACAD_REACTORS
330
2A
102
}
330
2A
100
AcDbVisualStyle
  2
Facepattern
 70
    15
177
     3
291
     1
 70
    58
 90
        2
176
     1
 90
        2
176
     1
 90
        0
176
     1
 90
        0
176
     1
 40
0.6
176
     1
 40
30.0
176
     1
 62
     7
420
 16777215
176
     1
 90
        1
176
     1
 90
        4
176
     1
 62
     7
176
     1
 62
   257
176
     1
 90
        1
176
     1
 90
        1
176
     1
 40
1.0
176
     1
 90
        8
176
     1
 62
     7
176
     1
 40
1.0
176
     1
 90
        1
176
     1
 90
        6
176
     1
 90
        2
176
     1
 62
     7
176
     1
 90
        5
176
     1
 90
        0
176
     1
 90
        0
176
     1
290
     0
176
     1
 90
        1
176
     1
 40
0.0
176
     1
 90
        0
176
     1
290
     0
176
     1
290
     1
176
     1
290
     1
176
     1
290
     0
176
     1
290
     0
176
     1
290
     0
176
     1
290
     0
176
     1
290
     0
176
     1
290
     0
176
     1
 90
       50
176
     1
 40
0.0
176
     1
 40
1.0
176
     1
 90
        0
176
     1
 62
    18
420
        0
176
     1
 90
       50
176
     1
 90
        3
176
     1
 62
     5
420
      255
176
     1
290
     0
176
     1
 90
       50
176
     1
 90
       50
176
     1
 90
       50
176
     1
290
     0
176
     1
 90
       50
176
     1
 62
   256
176
     0
 40
1.0
176
     0
 90
        2
176
     1
  1
strokes_ogs.tif
176
     1
290
     0
176
     1
 40
1.0
176
     1
 40
1.0
176
     1
  0
VISUALSTYLE
  5
2B
102
{ACAD_REACTORS
330
2A
102
}
330
2A
100
AcDbVisualStyle
  2
Flat
 70
     0
177
     3
291
     1
 70
    58
 90
        2
176
     1
 90
        1
176
     1
 90
        1
176
     1
 90
        2
176
     1
 40
0.6
176
     1
 40
30.0
176
     1
 62
     7
420
 16777215
176
     1
 90
        0
176
     1
 90
        0
176
     1
 62
     7
176
     1
 62
   257
176
     1
 90
        1
176
     1
 90
        1
176
     1
 40
1.0
176
     1
 90
        8
176
     1
 62
     7
176
     1
 40
1.0
176
     1
 90
        1
176
     1
 90
        6
176
     1
 90
        2
176
     1
 62
     7
176
     1
 90
        5
176
     1
 90
        0
176
     1
 90
        0
176
     1
290
     0
176
     1
 90
       13
176
     1
 40
0.0
176
     1
 90
        0
176
     1
290
     0
176
     1
290
     1
176
     1
290
     1
176
     1
290
     0
176
     1
290
     0
176
     1
290
     0
176
     1
290
     0
176
     1
290
     0
176
     1
290
     0
176
     1
 90
       50
176
     1
 40
0.0
176
     1
 40
1.0
176
     1
 90
        0
176
     1
 62
    18
420
        0
176
     1
 90
       50
176
     1
 90
        3
176
     1
 62
     5
420
      255
176
     1
290
     0
176
     1
 90
       50
176
     1
 90
       50
176
     1
 90
       50
176
     1
290
     0
176
     1
 90
       50
176
     1
 62
   256
176
     0
 40
1.0
176
     0
 90
        2
176
     1
  1
strokes_ogs.tif
176
     1
290
     0
176
     1
 40
1.0
176
     1
 40
1.0
176
     1
  0
VISUALSTYLE
  5
2C
102
{ACAD_REACTORS
330
2A
102
}
330
2A
100
AcDbVisualStyle
  2
FlatWithEdges
 70
     1
177
     3
291
     1
 70
    58
 90
        2
176
     1
 90
        1
176
     1
 90
        1
176
     1
 90
        2
176
     1
 40
0.6
176
     1
 40
30.0
176
     1
 62
     7
420
 16777215
176
     1
 90
        1
176
     1
 90
        0
176
     1
 62
     7
176
     1
 62
   257
176
     1
 90
        1
176
     1
 90
        1
176
     1
 40
1.0
176
     1
 90
        0
176
     1
 62
   257
176
     1
 40
1.0
176
     1
 90
        1
176
     1
 90
        6
176
     1
 90
        2
176
     1
 62
     7
176
     1
 90
        5
176
     1
 90
        0
176
     1
 90
        0
176
     1
290
     0
176
     1
 90
       13
176
     1
 40
0.0
176
     1
 90
        0
176
     1
290
     0
176
     1
290
     1
176
     1
290
     1
176
     1
290
     0
176
     1
290
     0
176
     1
290
     0
176
     1
290
     0
176
     1
290
     0
176
     1
290
     0
176
     1
 90
       50
176
     1
 40
0.0
176
     1
 40
1.0
176
     1
 90
        0
176
     1
 62
    18
420
        0
176
     1
 90
       50
176
     1
 90
        3
176
     1
 62
     5
420
      255
176
     1
290
     0
176
     1
 90
       50
176
     1
 90
       50
176
     1
 90
       50
176
     1
290
     0
176
     1
 90
       50
176
     1
 62
   256
176
     0
 40
1.0
176
     0
 90
        2
176
     1
  1
strokes_ogs.tif
176
     1
290
     0
176
     1
 40
1.0
176
     1
 40
1.0
176
     1
  0
VISUALSTYLE
  5
2D
102
{ACAD_REACTORS
330
2A
102
}
330
2A
100
AcDbVisualStyle
  2
Gouraud
 70
     2
177
     3
291
     1
 70
    58
 90
        2
176
     1
 90
        2
176
     1
 90
        1
176
     1
 90
        2
176
     1
 40
0.6
176
     1
 40
30.0
176
     1
 62
     7
420
 16777215
176
     1
 90
        0
176
     1
 90
        0
176
     1
 62
     7
176
     1
 62
   257
176
     1
 90
        1
176
     1
 90
        1
176
     1
 40
1.0
176
     1
 90
        0
176
     1
 62
     7
176
     1
 40
1.0
176
     1
 90
        1
176
     1
 90
        6
176
     1
 90
        2
176
     1
 62
     7
176
     1
 90
        5
176
     1
 90
        0
176
     1
 90
        0
176
     1
290
     0
176
     1
 90
       13
176
     1
 40
0.0
176
     1
 90
        0
176
     1
290
     0
176
     1
290
     1
176
     1
290
     1
176
     1
290
     0
176
     1
290
     0
176
     1
290
     0
176
     1
290
     0
176
     1
290
     0
176
     1
290
     0
176
     1
 90
       50
176
     1
 40
0.0
176
     1
 40
1.0
176
     1
 90
        0
176
     1
 62
    18
420
        0
176
     1
 90
       50
176
     1
 90
        3
176
     1
 62
     5
420
      255
176
     1
290
     0
176
     1
 90
       50
176
     1
 90
       50
176
     1
 90
       50
176
     1
290
     0
176
     1
 90
       50
176
     1
 62
   256
176
     0
 40
1.0
176
     0
 90
        2
176
     1
  1
strokes_ogs.tif
176
     1
290
     0
176
     1
 40
1.0
176
     1
 40
1.0
176
     1
  0
VISUALSTYLE
  5
2E
102
{ACAD_REACTORS
330
2A
102
}
330
2A
100
AcDbVisualStyle
  2
GouraudWithEdges
 70
     3
177
     3
291
     1
 70
    58
 90
        2
176
     1
 90
        2
176
     1
 90
        1
176
     1
 90
        2
176
     1
 40
0.6
176
     1
 40
30.0
176
     1
 62
     7
420
 16777215
176
     1
 90
        1
176
     1
 90
        0
176
     1
 62
     7
176
     1
 62
   257
176
     1
 90
        1
176
     1
 90
        1
176
     1
 40
1.0
176
     1
 90
        0
176
     1
 62
   257
176
     1
 40
1.0
176
     1
 90
        1
176
     1
 90
        6
176
     1
 90
        2
176
     1
 62
     7
176
     1
 90
        5
176
     1
 90
        0
176
     1
 90
        0
176
     1
290
     0
176
     1
 90
       13
176
     1
 40
0.0
176
     1
 90
        0
176
     1
290
     0
176
     1
290
     1
176
     1
290
     1
176
     1
290
     0
176
     1
290
     0
176
     1
290
     0
176
     1
290
     0
176
     1
290
     0
176
     1
290
     0
176
     1
 90
       50
176
     1
 40
0.0
176
     1
 40
1.0
176
     1
 90
        0
176
     1
 62
    18
420
        0
176
     1
 90
       50
176
     1
 90
        3
176
     1
 62
     5
420
      255
176
     1
290
     0
176
     1
 90
       50
176
     1
 90
       50
176
     1
 90
       50
176
     1
290
     0
176
     1
 90
       50
176
     1
 62
   256
176
     0
 40
1.0
176
     0
 90
        2
176
     1
  1
strokes_ogs.tif
176
     1
290
     0
176
     1
 40
1.0
176
     1
 40
1.0
176
     1
  0
VISUALSTYLE
  5
31
102
{ACAD_REACTORS
330
2A
102
}
330
2A
100
AcDbVisualStyle
  2
Hidden
 70
     6
177
     3
291
     0
 70
    58
 90
        1
176
     1
 90
        2
176
     1
 90
        2
176
     1
 90
        0
176
     1
 40
0.6
176
     1
 40
30.0
176
     1
 62
     7
420
 16777215
176
     1
 90
        2
176
     1
 90
        2
176
     1
 62
     7
176
     1
 62
   257
176
     1
 90
        2
176
     1
 90
        1
176
     1
 40
40.0
176
     1
 90
        0
176
     1
 62
   257
176
     1
 40
1.0
176
     1
 90
        1
176
     1
 90
        6
176
     1
 90
        2
176
     1
 62
     7
176
     1
 90
        3
176
     1
 90
        0
176
     1
 90
        0
176
     1
290
     0
176
     1
 90
        1
176
     1
 40
0.0
176
     1
 90
        0
176
     1
290
     0
176
     1
290
     1
176
     1
290
     1
176
     1
290
     0
176
     1
290
     0
176
     1
290
     0
176
     1
290
     0
176
     1
290
     0
176
     1
290
     0
176
     1
 90
       50
176
     1
 40
0.0
176
     1
 40
1.0
176
     1
 90
        0
176
     1
 62
    18
420
        0
176
     1
 90
       50
176
     1
 90
        3
176
     1
 62
     5
420
      255
176
     1
290
     0
176
     1
 90
       50
176
     1
 90
       50
176
     1
 90
       50
176
     1
290
     0
176
     1
 90
       50
176
     1
 62
   256
176
     0
 40
1.0
176
     0
 90
        2
176
     1
  1
strokes_ogs.tif
176
     1
290
     0
176
     1
 40
1.0
176
     1
 40
1.0
176
     1
  0
VISUALSTYLE
  5
3B
102
{ACAD_REACTORS
330
2A
102
}
330
2A
100
AcDbVisualStyle
  2
JitterOff
 70
    20
177
     3
291
     1
 70
    58
 90
        2
176
     0
 90
        2
176
     0
 90
        0
176
     0
 90
        0
176
     0
 40
0.6
176
     0
 40
30.0
176
     0
 62
     7
420
 16777215
176
     0
 90
        1
176
     0
 90
        4
176
     0
 62
     7
176
     0
 62
   257
176
     0
 90
        1
176
     0
 90
        1
176
     0
 40
1.0
176
     0
 90
       10
176
     2
 62
     7
176
     0
 40
1.0
176
     0
 90
        1
176
     0
 90
        6
176
     0
 90
        2
176
     0
 62
     7
176
     0
 90
        5
176
     0
 90
        0
176
     0
 90
        0
176
     0
290
     0
176
     0
 90
        1
176
     0
 40
0.0
176
     0
 90
        0
176
     0
290
     0
176
     0
290
     1
176
     0
290
     1
176
     0
290
     0
176
     0
290
     0
176
     0
290
     0
176
     0
290
     0
176
     0
290
     0
176
     0
290
     0
176
     0
 90
       50
176
     0
 40
0.0
176
     0
 40
1.0
176
     0
 90
        0
176
     0
 62
    18
420
        0
176
     0
 90
       50
176
     0
 90
        3
176
     0
 62
     5
420
      255
176
     0
290
     0
176
     0
 90
       50
176
     0
 90
       50
176
     0
 90
       50
176
     0
290
     0
176
     0
 90
       50
176
     0
 62
   256
176
     0
 40
1.0
176
     0
 90
        2
176
     0
  1
strokes_ogs.tif
176
     0
290
     0
176
     0
 40
1.0
176
     0
 40
1.0
176
     0
  0
VISUALSTYLE
  5
38
102
{ACAD_REACTORS
330
2A
102
}
330
2A
100
AcDbVisualStyle
  2
Linepattern
 70
    14
177
     3
291
     1
 70
    58
 90
        2
176
     1
 90
        2
176
     1
 90
        0
176
     1
 90
        0
176
     1
 40
0.6
176
     1
 40
30.0
176
     1
 62
     7
420
 16777215
176
     1
 90
        1
176
     1
 90
        4
176
     1
 62
     7
176
     1
 62
   257
176
     1
 90
        7
176
     1
 90
        7
176
     1
 40
1.0
176
     1
 90
        8
176
     1
 62
     7
176
     1
 40
1.0
176
     1
 90
        1
176
     1
 90
        6
176
     1
 90
        2
176
     1
 62
     7
176
     1
 90
        5
176
     1
 90
        0
176
     1
 90
        0
176
     1
290
     0
176
     1
 90
        1
176
     1
 40
0.0
176
     1
 90
        0
176
     1
290
     0
176
     1
290
     1
176
     1
290
     1
176
     1
290
     0
176
     1
290
     0
176
     1
290
     0
176
     1
290
     0
176
     1
290
     0
176
     1
290
     0
176
     1
 90
       50
176
     1
 40
0.0
176
     1
 40
1.0
176
     1
 90
        0
176
     1
 62
    18
420
        0
176
     1
 90
       50
176
     1
 90
        3
176
     1
 62
     5
420
      255
176
     1
290
     0
176
     1
 90
       50
176
     1
 90
       50
176
     1
 90
       50
176
     1
290
     0
176
     1
 90
       50
176
     1
 62
   256
176
     0
 40
1.0
176
     0
 90
        2
176
     1
  1
strokes_ogs.tif
176
     1
290
     0
176
     1
 40
1.0
176
     1
 40
1.0
176
     1
  0
VISUALSTYLE
  5
3C
102
{ACAD_REACTORS
330
2A
102
}
330
2A
100
AcDbVisualStyle
  2
OverhangOff
 70
    21
177
     3
291
     1
 70
    58
 90
        2
176
     0
 90
        2
176
     0
 90
        0
176
     0
 90
        0
176
     0
 40
0.6
176
     0
 40
30.0
176
     0
 62
     7
420
 16777215
176
     0
 90
        1
176
     0
 90
        4
176
     0
 62
     7
176
     0
 62
   257
176
     0
 90
        1
176
     0
 90
        1
176
     0
 40
1.0
176
     0
 90
        9
176
     2
 62
     7
176
     0
 40
1.0
176
     0
 90
        1
176
     0
 90
        6
176
     0
 90
        2
176
     0
 62
     7
176
     0
 90
        5
176
     0
 90
        0
176
     0
 90
        0
176
     0
290
     0
176
     0
 90
        1
176
     0
 40
0.0
176
     0
 90
        0
176
     0
290
     0
176
     0
290
     1
176
     0
290
     1
176
     0
290
     0
176
     0
290
     0
176
     0
290
     0
176
     0
290
     0
176
     0
290
     0
176
     0
290
     0
176
     0
 90
       50
176
     0
 40
0.0
176
     0
 40
1.0
176
     0
 90
        0
176
     0
 62
    18
420
        0
176
     0
 90
       50
176
     0
 90
        3
176
     0
 62
     5
420
      255
176
     0
290
     0
176
     0
 90
       50
176
     0
 90
       50
176
     0
 90
       50
176
     0
290
     0
176
     0
 90
       50
176
     0
 62
   256
176
     0
 40
1.0
176
     0
 90
        2
176
     0
  1
strokes_ogs.tif
176
     0
290
     0
176
     0
 40
1.0
176
     0
 40
1.0
176
     0
  0
VISUALSTYLE
  5
33
102
{ACAD_REACTORS
330
2A
102
}
330
2A
100
AcDbVisualStyle
  2
Realistic
 70
     8
177
     3
291
     0
 70
    58
 90
        2
176
     1
 90
        3
176
     1
 90
        0
176
     1
 90
        2
176
     1
 40
0.6
176
     1
 40
30.0
176
     1
 62
     7
420
 16777215
176
     1
 90
        0
176
     1
 90
        0
176
     1
 62
     7
176
     1
 62
   257
176
     1
 90
        1
176
     1
 90
        1
176
     1
 40
1.0
176
     1
 90
        8
176
     1
 62
   257
176
     1
 40
1.0
176
     1
 90
        1
176
     1
 90
        6
176
     1
 90
        2
176
     1
 62
     7
176
     1
 90
        3
176
     1
 90
        0
176
     1
 90
        0
176
     1
290
     0
176
     1
 90
       13
176
     1
 40
0.0
176
     1
 90
        0
176
     1
290
     0
176
     1
290
     1
176
     1
290
     1
176
     1
290
     0
176
     1
290
     0
176
     1
290
     0
176
     1
290
     0
176
     1
290
     0
176
     1
290
     0
176
     1
 90
       50
176
     1
 40
0.0
176
     1
 40
1.0
176
     1
 90
        0
176
     1
 62
    18
420
        0
176
     1
 90
       50
176
     1
 90
        3
176
     1
 62
     5
420
      255
176
     1
290
     0
176
     1
 90
       50
176
     1
 90
       50
176
     1
 90
       50
176
     1
290
     0
176
     1
 90
       50
176
     1
 62
   256
176
     0
 40
1.0
176
     0
 90
        2
176
     1
  1
strokes_ogs.tif
176
     1
290
     0
176
     1
 40
1.0
176
     1
 40
1.0
176
     1
  0
VISUALSTYLE
  5
42
102
{ACAD_REACTORS
330
2A
102
}
330
2A
100
AcDbVisualStyle
  2
Shaded
 70
    27
177
     3
291
     0
 70
    58
 90
        2
176
     1
 90
        2
176
     1
 90
        1
176
     1
 90
        2
176
     1
 40
0.6
176
     1
 40
30.0
176
     1
 62
     7
420
 16777215
176
     1
 90
        0
176
     1
 90
        4
176
     1
 62
     7
176
     1
 62
   257
176
     1
 90
        1
176
     1
 90
        1
176
     1
 40
1.0
176
     1
 90
        8
176
     1
 62
   257
176
     1
 40
1.0
176
     1
 90
        1
176
     1
 90
        6
176
     1
 90
        2
176
     1
 62
     8
420
  7895160
176
     1
 90
        3
176
     1
 90
        0
176
     1
 90
        0
176
     1
290
     0
176
     1
 90
        5
176
     1
 40
0.0
176
     1
 90
        0
176
     1
290
     0
176
     1
290
     1
176
     1
290
     1
176
     1
290
     0
176
     1
290
     0
176
     1
290
     0
176
     1
290
     0
176
     1
290
     0
176
     1
290
     0
176
     1
 90
       50
176
     1
 40
0.0
176
     1
 40
1.0
176
     1
 90
        0
176
     1
 62
    18
420
        0
176
     1
 90
       50
176
     1
 90
        3
176
     1
 62
     5
420
      255
176
     1
290
     0
176
     1
 90
       50
176
     1
 90
       50
176
     1
 90
       50
176
     1
290
     0
176
     1
 90
       50
176
     1
 62
   256
176
     0
 40
1.0
176
     0
 90
        2
176
     1
  1
strokes_ogs.tif
176
     1
290
     0
176
     1
 40
1.0
176
     1
 40
1.0
176
     1
  0
VISUALSTYLE
  5
41
102
{ACAD_REACTORS
330
2A
102
}
330
2A
100
AcDbVisualStyle
  2
Shaded with edges
 70
    26
177
     3
291
     0
 70
    58
 90
        2
176
     1
 90
        2
176
     1
 90
        1
176
     1
 90
        2
176
     1
 40
0.6
176
     1
 40
30.0
176
     1
 62
     7
420
 16777215
176
     1
 90
        1
176
     1
 90
       10
176
     1
 62
     7
176
     1
 62
   257
176
     1
 90
        2
176
     1
 90
        1
176
     1
 40
1.0
176
     1
 90
        8
176
     1
 62
   257
176
     1
 40
1.0
176
     1
 90
        1
176
     1
 90
        6
176
     1
 90
        2
176
     1
 62
     7
176
     1
 90
        3
176
     1
 90
        0
176
     1
 90
        0
176
     1
290
     0
176
     1
 90
        5
176
     1
 40
0.0
176
     1
 90
        0
176
     1
290
     0
176
     1
290
     1
176
     1
290
     1
176
     1
290
     0
176
     1
290
     0
176
     1
290
     0
176
     1
290
     0
176
     1
290
     0
176
     1
290
     0
176
     1
 90
       50
176
     1
 40
0.0
176
     1
 40
1.0
176
     1
 90
        0
176
     1
 62
    18
420
        0
176
     1
 90
       50
176
     1
 90
        3
176
     1
 62
     5
420
      255
176
     1
290
     0
176
     1
 90
       50
176
     1
 90
       50
176
     1
 90
       50
176
     1
290
     0
176
     1
 90
       50
176
     1
 62
   256
176
     0
 40
1.0
176
     0
 90
        2
176
     1
  1
strokes_ogs.tif
176
     1
290
     0
176
     1
 40
1.0
176
     1
 40
1.0
176
     1
  0
VISUALSTYLE
  5
3E
102
{ACAD_REACTORS
330
2A
102
}
330
2A
100
AcDbVisualStyle
  2
Shades of Gray
 70
    23
177
     3
291
     0
 70
    58
 90
        2
176
     1
 90
        2
176
     1
 90
        3
176
     1
 90
        0
176
     1
 40
0.6
176
     1
 40
30.0
176
     1
 62
     7
420
 16777215
176
     1
 90
        2
176
     1
 90
        2
176
     1
 62
     7
176
     1
 62
     7
176
     1
 90
        1
176
     1
 90
        1
176
     1
 40
40.0
176
     1
 90
        8
176
     1
 62
     7
176
     1
 40
1.0
176
     1
 90
        1
176
     1
 90
        6
176
     1
 90
        2
176
     1
 62
     7
176
     1
 90
        3
176
     1
 90
        0
176
     1
 90
        0
176
     1
290
     0
176
     1
 90
        1
176
     1
 40
0.0
176
     1
 90
        0
176
     1
290
     0
176
     1
290
     1
176
     1
290
     1
176
     1
290
     0
176
     1
290
     0
176
     1
290
     0
176
     1
290
     0
176
     1
290
     0
176
     1
290
     0
176
     1
 90
       50
176
     1
 40
0.0
176
     1
 40
1.0
176
     1
 90
        0
176
     1
 62
    18
420
        0
176
     1
 90
       50
176
     1
 90
        3
176
     1
 62
     5
420
      255
176
     1
290
     0
176
     1
 90
       50
176
     1
 90
       50
176
     1
 90
       50
176
     1
290
     0
176
     1
 90
       50
176
     1
 62
   256
176
     0
 40
1.0
176
     0
 90
        2
176
     1
  1
strokes_ogs.tif
176
     1
290
     0
176
     1
 40
1.0
176
     1
 40
1.0
176
     1
  0
VISUALSTYLE
  5
3F
102
{ACAD_REACTORS
330
2A
102
}
330
2A
100
AcDbVisualStyle
  2
Sketchy
 70
    24
177
     3
291
     0
 70
    58
 90
        1
176
     1
 90
        2
176
     1
 90
        2
176
     1
 90
        0
176
     1
 40
0.6
176
     1
 40
30.0
176
     1
 62
     7
420
 16777215
176
     1
 90
        2
176
     1
 90
        2
176
     1
 62
     7
176
     1
 62
     7
176
     1
 90
        1
176
     1
 90
        1
176
     1
 40
40.0
176
     1
 90
       11
176
     1
 62
     7
176
     1
 40
1.0
176
     1
 90
        1
176
     1
 90
        6
176
     1
 90
        2
176
     1
 62
     7
176
     1
 90
        6
176
     1
 90
        0
176
     1
 90
        0
176
     1
290
     0
176
     1
 90
        1
176
     1
 40
0.0
176
     1
 90
        0
176
     1
290
     0
176
     1
290
     1
176
     1
290
     1
176
     1
290
     0
176
     1
290
     0
176
     1
290
     0
176
     1
290
     0
176
     1
290
     0
176
     1
290
     0
176
     1
 90
       50
176
     1
 40
0.0
176
     1
 40
1.0
176
     1
 90
        0
176
     1
 62
    18
420
        0
176
     1
 90
       50
176
     1
 90
        3
176
     1
 62
     5
420
      255
176
     1
290
     0
176
     1
 90
       50
176
     1
 90
       50
176
     1
 90
       50
176
     1
290
     0
176
     1
 90
       50
176
     1
 62
   256
176
     0
 40
1.0
176
     0
 90
        2
176
     1
  1
strokes_ogs.tif
176
     1
290
     0
176
     1
 40
1.0
176
     1
 40
1.0
176
     1
  0
VISUALSTYLE
  5
37
102
{ACAD_REACTORS
330
2A
102
}
330
2A
100
AcDbVisualStyle
  2
Thicken
 70
    13
177
     3
291
     1
 70
    58
 90
        2
176
     1
 90
        2
176
     1
 90
        0
176
     1
 90
        0
176
     1
 40
0.6
176
     1
 40
30.0
176
     1
 62
     7
420
 16777215
176
     1
 90
        1
176
     1
 90
        4
176
     1
 62
     7
176
     1
 62
   257
176
     1
 90
        1
176
     1
 90
        1
176
     1
 40
1.0
176
     1
 90
       12
176
     1
 62
     7
176
     1
 40
1.0
176
     1
 90
        1
176
     1
 90
        6
176
     1
 90
        2
176
     1
 62
     7
176
     1
 90
        5
176
     1
 90
        0
176
     1
 90
        0
176
     1
290
     0
176
     1
 90
        1
176
     1
 40
0.0
176
     1
 90
        0
176
     1
290
     0
176
     1
290
     1
176
     1
290
     1
176
     1
290
     0
176
     1
290
     0
176
     1
290
     0
176
     1
290
     0
176
     1
290
     0
176
     1
290
     0
176
     1
 90
       50
176
     1
 40
0.0
176
     1
 40
1.0
176
     1
 90
        0
176
     1
 62
    18
420
        0
176
     1
 90
       50
176
     1
 90
        3
176
     1
 62
     5
420
      255
176
     1
290
     0
176
     1
 90
       50
176
     1
 90
       50
176
     1
 90
       50
176
     1
290
     0
176
     1
 90
       50
176
     1
 62
   256
176
     0
 40
1.0
176
     0
 90
        2
176
     1
  1
strokes_ogs.tif
176
     1
290
     0
176
     1
 40
1.0
176
     1
 40
1.0
176
     1
  0
VISUALSTYLE
  5
30
102
{ACAD_REACTORS
330
2A
102
}
330
2A
100
AcDbVisualStyle
  2
Wireframe
 70
     5
177
     3
291
     0
 70
    58
 90
        0
176
     1
 90
        2
176
     1
 90
        0
176
     1
 90
        0
176
     1
 40
0.6
176
     1
 40
30.0
176
     1
 62
     7
420
 16777215
176
     1
 90
        1
176
     1
 90
        4
176
     1
 62
     7
176
     1
 62
   257
176
     1
 90
        1
176
     1
 90
        1
176
     1
 40
1.0
176
     1
 90
        0
176
     1
 62
   257
176
     1
 40
1.0
176
     1
 90
        1
176
     1
 90
        6
176
     1
 90
        2
176
     1
 62
     7
176
     1
 90
        3
176
     1
 90
        0
176
     1
 90
        0
176
     1
290
     0
176
     1
 90
        1
176
     1
 40
0.0
176
     1
 90
        0
176
     1
290
     0
176
     1
290
     1
176
     1
290
     1
176
     1
290
     0
176
     1
290
     0
176
     1
290
     0
176
     1
290
     0
176
     1
290
     0
176
     1
290
     0
176
     1
 90
       50
176
     1
 40
0.0
176
     1
 40
1.0
176
     1
 90
        0
176
     1
 62
    18
420
        0
176
     1
 90
       50
176
     1
 90
        3
176
     1
 62
     5
420
      255
176
     1
290
     0
176
     1
 90
       50
176
     1
 90
       50
176
     1
 90
       50
176
     1
290
     0
176
     1
 90
       50
176
     1
 62
   256
176
     0
 40
1.0
176
     0
 90
        2
176
     1
  1
strokes_ogs.tif
176
     1
290
     0
176
     1
 40
1.0
176
     1
 40
1.0
176
     1
  0
VISUALSTYLE
  5
40
102
{ACAD_REACTORS
330
2A
102
}
330
2A
100
AcDbVisualStyle
  2
X-Ray
 70
    25
177
     3
291
     0
 70
    58
 90
        2
176
     1
 90
        2
176
     1
 90
        1
176
     1
 90
        1
176
     1
 40
0.5
176
     1
 40
30.0
176
     1
 62
     7
420
 16777215
176
     1
 90
        1
176
     1
 90
        0
176
     1
 62
     7
176
     1
 62
   257
176
     1
 90
        1
176
     1
 90
        1
176
     1
 40
1.0
176
     1
 90
        8
176
     1
 62
     7
176
     1
 40
1.0
176
     1
 90
        1
176
     1
 90
        6
176
     1
 90
        2
176
     1
 62
     7
176
     1
 90
        3
176
     1
 90
        0
176
     1
 90
        0
176
     1
290
     0
176
     1
 90
       13
176
     1
 40
0.0
176
     1
 90
        0
176
     1
290
     0
176
     1
290
     1
176
     1
290
     1
176
     1
290
     0
176
     1
290
     0
176
     1
290
     0
176
     1
290
     0
176
     1
290
     0
176
     1
290
     0
176
     1
 90
       50
176
     1
 40
0.0
176
     1
 40
1.0
176
     1
 90
        0
176
     1
 62
    18
420
        0
176
     1
 90
       50
176
     1
 90
        3
176
     1
 62
     5
420
      255
176
     1
290
     0
176
     1
 90
       50
176
     1
 90
       50
176
     1
 90
       50
176
     1
290
     0
176
     1
 90
       50
176
     1
 62
   256
176
     0
 40
1.0
176
     0
 90
        2
176
     1
  1
strokes_ogs.tif
176
     1
290
     0
176
     1
 40
1.0
176
     1
 40
1.0
176
     1
  0
DICTIONARYVAR
  5
19F
102
{ACAD_REACTORS
330
19E
102
}
330
19E
100
DictionaryVariables
280
     0
  1
1:1
  0
DICTIONARYVAR
  5
1A4
102
{ACAD_REACTORS
330
19E
102
}
330
19E
100
DictionaryVariables
280
     0
  1
Standard
  0
DICTIONARYVAR
  5
1A3
102
{ACAD_REACTORS
330
19E
102
}
330
19E
100
DictionaryVariables
280
     0
  1
Standard
  0
DICTIONARY
  5
1A0
330
6A
100
AcDbDictionary
280
     1
281
     1
  3
ACAD_ROUNDTRIP_2008_TABLESTYLE_CELLSTYLEMAP
360
1A1
  0
CELLSTYLEMAP
  5
1A1
102
{ACAD_REACTORS
330
1A0
102
}
330
1A0
100
AcDbCellStyleMap
 90
        3
300
CELLSTYLE
  1
TABLEFORMAT_BEGIN
 90
        5
170
     1
 91
        0
 92
    32768
 62
   257
 93
        1
300
CONTENTFORMAT
  1
CONTENTFORMAT_BEGIN
 90
        0
 91
        0
 92
        4
 93
        0
300

 40
0.0
140
1.0
 94
        5
 62
     0
340
11
144
6.0
309
CONTENTFORMAT_END
171
     1
301
MARGIN
  1
CELLMARGIN_BEGIN
 40
1.5
 40
1.5
 40
1.5
 40
1.5
 40
1.5
 40
1.5
309
CELLMARGIN_END
 94
        6
 95
        1
302
GRIDFORMAT
  1
GRIDFORMAT_BEGIN
 90
        0
 91
        1
 62
     0
 92
       -2
340
14
 93
        0
 40
0.045
309
GRIDFORMAT_END
 95
        2
302
GRIDFORMAT
  1
GRIDFORMAT_BEGIN
 90
        0
 91
        1
 62
     0
 92
       -2
340
14
 93
        0
 40
0.045
309
GRIDFORMAT_END
 95
        4
302
GRIDFORMAT
  1
GRIDFORMAT_BEGIN
 90
        0
 91
        1
 62
     0
 92
       -2
340
14
 93
        0
 40
0.045
309
GRIDFORMAT_END
 95
        8
302
GRIDFORMAT
  1
GRIDFORMAT_BEGIN
 90
        0
 91
        1
 62
     0
 92
       -2
340
14
 93
        0
 40
0.045
309
GRIDFORMAT_END
 95
       16
302
GRIDFORMAT
  1
GRIDFORMAT_BEGIN
 90
        0
 91
        1
 62
     0
 92
       -2
340
14
 93
        0
 40
0.045
309
GRIDFORMAT_END
 95
       32
302
GRIDFORMAT
  1
GRIDFORMAT_BEGIN
 90
        0
 91
        1
 62
     0
 92
       -2
340
14
 93
        0
 40
0.045
309
GRIDFORMAT_END
309
TABLEFORMAT_END
  1
CELLSTYLE_BEGIN
 90
        1
 91
        1
300
_TITLE
309
CELLSTYLE_END
300
CELLSTYLE
  1
TABLEFORMAT_BEGIN
 90
        5
170
     1
 91
        0
 92
        0
 62
   257
 93
        1
300
CONTENTFORMAT
  1
CONTENTFORMAT_BEGIN
 90
        0
 91
        0
 92
        4
 93
        0
300

 40
0.0
140
1.0
 94
        5
 62
     0
340
11
144
4.5
309
CONTENTFORMAT_END
171
     1
301
MARGIN
  1
CELLMARGIN_BEGIN
 40
1.5
 40
1.5
 40
1.5
 40
1.5
 40
1.5
 40
1.5
309
CELLMARGIN_END
 94
        6
 95
        1
302
GRIDFORMAT
  1
GRIDFORMAT_BEGIN
 90
        0
 91
        1
 62
     0
 92
       -2
340
14
 93
        0
 40
0.045
309
GRIDFORMAT_END
 95
        2
302
GRIDFORMAT
  1
GRIDFORMAT_BEGIN
 90
        0
 91
        1
 62
     0
 92
       -2
340
14
 93
        0
 40
0.045
309
GRIDFORMAT_END
 95
        4
302
GRIDFORMAT
  1
GRIDFORMAT_BEGIN
 90
        0
 91
        1
 62
     0
 92
       -2
340
14
 93
        0
 40
0.045
309
GRIDFORMAT_END
 95
        8
302
GRIDFORMAT
  1
GRIDFORMAT_BEGIN
 90
        0
 91
        1
 62
     0
 92
       -2
340
14
 93
        0
 40
0.045
309
GRIDFORMAT_END
 95
       16
302
GRIDFORMAT
  1
GRIDFORMAT_BEGIN
 90
        0
 91
        1
 62
     0
 92
       -2
340
14
 93
        0
 40
0.045
309
GRIDFORMAT_END
 95
       32
302
GRIDFORMAT
  1
GRIDFORMAT_BEGIN
 90
        0
 91
        1
 62
     0
 92
       -2
340
14
 93
        0
 40
0.045
309
GRIDFORMAT_END
309
TABLEFORMAT_END
  1
CELLSTYLE_BEGIN
 90
        2
 91
        1
300
_HEADER
309
CELLSTYLE_END
300
CELLSTYLE
  1
TABLEFORMAT_BEGIN
 90
        5
170
     1
 91
        0
 92
        0
 62
   257
 93
        1
300
CONTENTFORMAT
  1
CONTENTFORMAT_BEGIN
 90
        0
 91
        0
 92
        4
 93
        0
300

 40
0.0
140
1.0
 94
        2
 62
     0
340
11
144
4.5
309
CONTENTFORMAT_END
171
     1
301
MARGIN
  1
CELLMARGIN_BEGIN
 40
1.5
 40
1.5
 40
1.5
 40
1.5
 40
1.5
 40
1.5
309
CELLMARGIN_END
 94
        6
 95
        1
302
GRIDFORMAT
  1
GRIDFORMAT_BEGIN
 90
        0
 91
        1
 62
     0
 92
       -2
340
14
 93
        0
 40
0.045
309
GRIDFORMAT_END
 95
        2
302
GRIDFORMAT
  1
GRIDFORMAT_BEGIN
 90
        0
 91
        1
 62
     0
 92
       -2
340
14
 93
        0
 40
0.045
309
GRIDFORMAT_END
 95
        4
302
GRIDFORMAT
  1
GRIDFORMAT_BEGIN
 90
        0
 91
        1
 62
     0
 92
       -2
340
14
 93
        0
 40
0.045
309
GRIDFORMAT_END
 95
        8
302
GRIDFORMAT
  1
GRIDFORMAT_BEGIN
 90
        0
 91
        1
 62
     0
 92
       -2
340
14
 93
        0
 40
0.045
309
GRIDFORMAT_END
 95
       16
302
GRIDFORMAT
  1
GRIDFORMAT_BEGIN
 90
        0
 91
        1
 62
     0
 92
       -2
340
14
 93
        0
 40
0.045
309
GRIDFORMAT_END
 95
       32
302
GRIDFORMAT
  1
GRIDFORMAT_BEGIN
 90
        0
 91
        1
 62
     0
 92
       -2
340
14
 93
        0
 40
0.045
309
GRIDFORMAT_END
309
TABLEFORMAT_END
  1
CELLSTYLE_BEGIN
 90
        3
 91
        2
300
_DATA
309
CELLSTYLE_END
  0
ENDSEC
  0
EOF