0
SECTION
  2
HEADER
  9
$ACADVER
  1
AC1027
  9
$ACADMAINTVER
 70
     8
  9
$DWGCODEPAGE
  3
ANSI_1252
  9
$REQUIREDVERSIONS
160
                 0
  9
$COMMENTS
  1
File was created by Cadenas
  9
$CUSTOMPROPERTYTAG
  1
NN
  9
$CUSTOMPROPERTY
  1
Set Screw Intermediate Duty Two-Bolt Flange Metric Bore
  9
$CUSTOMPROPERTYTAG
  1
NT
  9
$CUSTOMPROPERTY
  1
VSC Intermediate Duty 2-Bolt Flange Bearings
  9
$CUSTOMPROPERTYTAG
  1
NB
  9
$CUSTOMPROPERTY
  1
125710
  9
$CUSTOMPROPERTYTAG
  1
NBSYN
  9
$CUSTOMPROPERTY
  1
$PN.
  9
$CUSTOMPROPERTYTAG
  1
LINA
  9
$CUSTOMPROPERTY
  1
125710
  9
$CUSTOMPROPERTYTAG
  1
PN
  9
$CUSTOMPROPERTY
  1
125710
  9
$CUSTOMPROPERTYTAG
  1
SERIES
  9
$CUSTOMPROPERTY
  1
211
  9
$CUSTOMPROPERTYTAG
  1
SS
  9
$CUSTOMPROPERTY
  1
55
  9
$CUSTOMPROPERTYTAG
  1
DESCRIPTION
  9
$CUSTOMPROPERTY
  1
F2B-VSC-55M
  9
$CUSTOMPROPERTYTAG
  1
WEIGHT
  9
$CUSTOMPROPERTY
  1
2.99
  9
$CUSTOMPROPERTYTAG
  1
A
  9
$CUSTOMPROPERTY
  1
56.400
  9
$CUSTOMPROPERTYTAG
  1
B
  9
$CUSTOMPROPERTY
  1
219.200
  9
$CUSTOMPROPERTYTAG
  1
C
  9
$CUSTOMPROPERTY
  1
57.900
  9
$CUSTOMPROPERTYTAG
  1
D
  9
$CUSTOMPROPERTY
  1
184.200
  9
$CUSTOMPROPERTYTAG
  1
F
  9
$CUSTOMPROPERTY
  1
M16
  9
$CUSTOMPROPERTYTAG
  1
H
  9
$CUSTOMPROPERTY
  1
17.000
  9
$CUSTOMPROPERTYTAG
  1
J
  9
$CUSTOMPROPERTY
  1
17.300
  9
$CUSTOMPROPERTYTAG
  1
L
  9
$CUSTOMPROPERTY
  1
68.800
  9
$CUSTOMPROPERTYTAG
  1
M
  9
$CUSTOMPROPERTY
  1
133.400
  9
$CUSTOMPROPERTYTAG
  1
N
  9
$CUSTOMPROPERTY
  1
57.700
  9
$CUSTOMPROPERTYTAG
  1
COMPANY
  9
$CUSTOMPROPERTY
  1
baldor
  9
$INSBASE
 10
0.0
 20
0.0
 30
0.0
  9
$EXTMIN
 10
1.000000000000000E+20
 20
1.000000000000000E+20
 30
1.000000000000000E+20
  9
$EXTMAX
 10
-1.000000000000000E+20
 20
-1.000000000000000E+20
 30
-1.000000000000000E+20
  9
$LIMMIN
 10
0.0
 20
0.0
  9
$LIMMAX
 10
420.0
 20
297.0
  9
$ORTHOMODE
 70
     0
  9
$REGENMODE
 70
     1
  9
$FILLMODE
 70
     1
  9
$QTEXTMODE
 70
     0
  9
$MIRRTEXT
 70
     1
  9
$LTSCALE
 40
1.0
  9
$ATTMODE
 70
     1
  9
$TEXTSIZE
 40
2.5
  9
$TRACEWID
 40
1.0
  9
$TEXTSTYLE
  7
Standard
  9
$CLAYER
  8
0
  9
$CELTYPE
  6
ByLayer
  9
$CECOLOR
 62
   256
  9
$CELTSCALE
 40
1.0
  9
$DISPSILH
 70
     0
  9
$DIMSCALE
 40
1.0
  9
$DIMASZ
 40
2.5
  9
$DIMEXO
 40
0.625
  9
$DIMDLI
 40
3.75
  9
$DIMRND
 40
0.0
  9
$DIMDLE
 40
0.0
  9
$DIMEXE
 40
1.25
  9
$DIMTP
 40
0.0
  9
$DIMTM
 40
0.0
  9
$DIMTXT
 40
2.5
  9
$DIMCEN
 40
2.5
  9
$DIMTSZ
 40
0.0
  9
$DIMTOL
 70
     0
  9
$DIMLIM
 70
     0
  9
$DIMTIH
 70
     0
  9
$DIMTOH
 70
     0
  9
$DIMSE1
 70
     0
  9
$DIMSE2
 70
     0
  9
$DIMTAD
 70
     1
  9
$DIMZIN
 70
     8
  9
$DIMBLK
  1

  9
$DIMASO
 70
     1
  9
$DIMSHO
 70
     1
  9
$DIMPOST
  1

  9
$DIMAPOST
  1

  9
$DIMALT
 70
     0
  9
$DIMALTD
 70
     3
  9
$DIMALTF
 40
0.03937007874016
  9
$DIMLFAC
 40
1.0
  9
$DIMTOFL
 70
     1
  9
$DIMTVP
 40
0.0
  9
$DIMTIX
 70
     0
  9
$DIMSOXD
 70
     0
  9
$DIMSAH
 70
     0
  9
$DIMBLK1
  1

  9
$DIMBLK2
  1

  9
$DIMSTYLE
  2
ISO-25
  9
$DIMCLRD
 70
     0
  9
$DIMCLRE
 70
     0
  9
$DIMCLRT
 70
     0
  9
$DIMTFAC
 40
1.0
  9
$DIMGAP
 40
0.625
  9
$DIMJUST
 70
     0
  9
$DIMSD1
 70
     0
  9
$DIMSD2
 70
     0
  9
$DIMTOLJ
 70
     0
  9
$DIMTZIN
 70
     8
  9
$DIMALTZ
 70
     0
  9
$DIMALTTZ
 70
     0
  9
$DIMUPT
 70
     0
  9
$DIMDEC
 70
     2
  9
$DIMTDEC
 70
     2
  9
$DIMALTU
 70
     2
  9
$DIMALTTD
 70
     3
  9
$DIMTXSTY
  7
Standard
  9
$DIMAUNIT
 70
     0
  9
$DIMADEC
 70
     0
  9
$DIMALTRND
 40
0.0
  9
$DIMAZIN
 70
     0
  9
$DIMDSEP
 70
    44
  9
$DIMATFIT
 70
     3
  9
$DIMFRAC
 70
     0
  9
$DIMLDRBLK
  1

  9
$DIMLUNIT
 70
     2
  9
$DIMLWD
 70
    -2
  9
$DIMLWE
 70
    -2
  9
$DIMTMOVE
 70
     0
  9
$DIMFXL
 40
1.0
  9
$DIMFXLON
 70
     0
  9
$DIMJOGANG
 40
0.7853981633974483
  9
$DIMTFILL
 70
     0
  9
$DIMTFILLCLR
 70
     0
  9
$DIMARCSYM
 70
     0
  9
$DIMLTYPE
  6

  9
$DIMLTEX1
  6

  9
$DIMLTEX2
  6

  9
$DIMTXTDIRECTION
 70
     0
  9
$LUNITS
 70
     2
  9
$LUPREC
 70
     4
  9
$SKETCHINC
 40
1.0
  9
$FILLETRAD
 40
10.0
  9
$AUNITS
 70
     0
  9
$AUPREC
 70
     0
  9
$MENU
  1
.
  9
$ELEVATION
 40
0.0
  9
$PELEVATION
 40
0.0
  9
$THICKNESS
 40
0.0
  9
$LIMCHECK
 70
     0
  9
$CHAMFERA
 40
0.0
  9
$CHAMFERB
 40
0.0
  9
$CHAMFERC
 40
0.0
  9
$CHAMFERD
 40
0.0
  9
$SKPOLY
 70
     0
  9
$TDCREATE
 40
2458168.987590093
  9
$TDUCREATE
 40
2458168.945923426
  9
$TDUPDATE
 40
2458168.987590093
  9
$TDUUPDATE
 40
2458168.945923426
  9
$TDINDWG
 40
0.0000000116
  9
$TDUSRTIMER
 40
0.0000000116
  9
$USRTIMER
 70
     1
  9
$ANGBASE
 50
0.0
  9
$ANGDIR
 70
     0
  9
$PDMODE
 70
     0
  9
$PDSIZE
 40
0.0
  9
$PLINEWID
 40
0.0
  9
$SPLFRAME
 70
     0
  9
$SPLINETYPE
 70
     6
  9
$SPLINESEGS
 70
     8
  9
$HANDSEED
  5
1D0
  9
$SURFTAB1
 70
     6
  9
$SURFTAB2
 70
     6
  9
$SURFTYPE
 70
     6
  9
$SURFU
 70
     6
  9
$SURFV
 70
     6
  9
$UCSBASE
  2

  9
$UCSNAME
  2

  9
$UCSORG
 10
0.0
 20
0.0
 30
0.0
  9
$UCSXDIR
 10
1.0
 20
0.0
 30
0.0
  9
$UCSYDIR
 10
0.0
 20
1.0
 30
0.0
  9
$UCSORTHOREF
  2

  9
$UCSORTHOVIEW
 70
     0
  9
$UCSORGTOP
 10
0.0
 20
0.0
 30
0.0
  9
$UCSORGBOTTOM
 10
0.0
 20
0.0
 30
0.0
  9
$UCSORGLEFT
 10
0.0
 20
0.0
 30
0.0
  9
$UCSORGRIGHT
 10
0.0
 20
0.0
 30
0.0
  9
$UCSORGFRONT
 10
0.0
 20
0.0
 30
0.0
  9
$UCSORGBACK
 10
0.0
 20
0.0
 30
0.0
  9
$PUCSBASE
  2

  9
$PUCSNAME
  2

  9
$PUCSORG
 10
0.0
 20
0.0
 30
0.0
  9
$PUCSXDIR
 10
1.0
 20
0.0
 30
0.0
  9
$PUCSYDIR
 10
0.0
 20
1.0
 30
0.0
  9
$PUCSORTHOREF
  2

  9
$PUCSORTHOVIEW
 70
     0
  9
$PUCSORGTOP
 10
0.0
 20
0.0
 30
0.0
  9
$PUCSORGBOTTOM
 10
0.0
 20
0.0
 30
0.0
  9
$PUCSORGLEFT
 10
0.0
 20
0.0
 30
0.0
  9
$PUCSORGRIGHT
 10
0.0
 20
0.0
 30
0.0
  9
$PUCSORGFRONT
 10
0.0
 20
0.0
 30
0.0
  9
$PUCSORGBACK
 10
0.0
 20
0.0
 30
0.0
  9
$USERI1
 70
     0
  9
$USERI2
 70
     0
  9
$USERI3
 70
     0
  9
$USERI4
 70
     0
  9
$USERI5
 70
     0
  9
$USERR1
 40
0.0
  9
$USERR2
 40
0.0
  9
$USERR3
 40
0.0
  9
$USERR4
 40
0.0
  9
$USERR5
 40
0.0
  9
$WORLDVIEW
 70
     1
  9
$SHADEDGE
 70
     3
  9
$SHADEDIF
 70
    70
  9
$TILEMODE
 70
     1
  9
$MAXACTVP
 70
    64
  9
$PINSBASE
 10
0.0
 20
0.0
 30
0.0
  9
$PLIMCHECK
 70
     0
  9
$PEXTMIN
 10
1.000000000000000E+20
 20
1.000000000000000E+20
 30
1.000000000000000E+20
  9
$PEXTMAX
 10
-1.000000000000000E+20
 20
-1.000000000000000E+20
 30
-1.000000000000000E+20
  9
$PLIMMIN
 10
0.0
 20
0.0
  9
$PLIMMAX
 10
420.0
 20
297.0
  9
$UNITMODE
 70
     0
  9
$VISRETAIN
 70
     1
  9
$PLINEGEN
 70
     0
  9
$PSLTSCALE
 70
     1
  9
$TREEDEPTH
 70
  3020
  9
$CMLSTYLE
  2
Standard
  9
$CMLJUST
 70
     0
  9
$CMLSCALE
 40
20.0
  9
$PROXYGRAPHICS
 70
     1
  9
$MEASUREMENT
 70
     1
  9
$CELWEIGHT
370
    -1
  9
$ENDCAPS
280
     0
  9
$JOINSTYLE
280
     0
  9
$LWDISPLAY
290
     0
  9
$INSUNITS
 70
     4
  9
$HYPERLINKBASE
  1

  9
$STYLESHEET
  1

  9
$XEDIT
290
     1
  9
$CEPSNTYPE
380
     0
  9
$PSTYLEMODE
290
     1
  9
$FINGERPRINTGUID
  2
{9D288096-A99D-46BC-B448-61CD5DCD9912}
  9
$VERSIONGUID
  2
{FAEB1C32-E019-11D5-929B-00C0DF256EC4}
  9
$EXTNAMES
290
     1
  9
$PSVPSCALE
 40
0.0
  9
$OLESTARTUP
290
     0
  9
$SORTENTS
280
   127
  9
$INDEXCTL
280
     0
  9
$HIDETEXT
280
     1
  9
$XCLIPFRAME
280
     2
  9
$HALOGAP
280
     0
  9
$OBSCOLOR
 70
   257
  9
$OBSLTYPE
280
     0
  9
$INTERSECTIONDISPLAY
280
     0
  9
$INTERSECTIONCOLOR
 70
   257
  9
$DIMASSOC
280
     2
  9
$PROJECTNAME
  1

  9
$CAMERADISPLAY
290
     0
  9
$LENSLENGTH
 40
50.0
  9
$CAMERAHEIGHT
 40
0.0
  9
$STEPSPERSEC
 40
2.0
  9
$STEPSIZE
 40
6.0
  9
$3DDWFPREC
 40
2.0
  9
$PSOLWIDTH
 40
5.0
  9
$PSOLHEIGHT
 40
80.0
  9
$LOFTANG1
 40
1.570796326794897
  9
$LOFTANG2
 40
1.570796326794897
  9
$LOFTMAG1
 40
0.0
  9
$LOFTMAG2
 40
0.0
  9
$LOFTPARAM
 70
     7
  9
$LOFTNORMALS
280
     1
  9
$LATITUDE
 40
37.795
  9
$LONGITUDE
 40
-122.394
  9
$NORTHDIRECTION
 40
0.0
  9
$TIMEZONE
 70
 -8000
  9
$LIGHTGLYPHDISPLAY
280
     1
  9
$TILEMODELIGHTSYNCH
280
     1
  9
$CMATERIAL
347
44
  9
$SOLIDHIST
280
     0
  9
$SHOWHIST
280
     1
  9
$DWFFRAME
280
     2
  9
$DGNFRAME
280
     2
  9
$REALWORLDSCALE
290
     1
  9
$INTERFERECOLOR
 62
   256
  9
$CSHADOW
280
     0
  9
$SHADOWPLANELOCATION
 40
0.0
  0
ENDSEC
  0
SECTION
  2
CLASSES
  0
CLASS
  1
ACDBDICTIONARYWDFLT
  2
AcDbDictionaryWithDefault
  3
ObjectDBX Classes
 90
        0
 91
        4
280
     0
281
     0
  0
CLASS
  1
VISUALSTYLE
  2
AcDbVisualStyle
  3
ObjectDBX Classes
 90
     4095
 91
        4
280
     0
281
     0
  0
CLASS
  1
MATERIAL
  2
AcDbMaterial
  3
ObjectDBX Classes
 90
     1153
 91
        4
280
     0
281
     0
  0
CLASS
  1
SCALE
  2
AcDbScale
  3
ObjectDBX Classes
 90
     1153
 91
        4
280
     0
281
     0
  0
CLASS
  1
TABLESTYLE
  2
AcDbTableStyle
  3
ObjectDBX Classes
 90
     4095
 91
        4
280
     0
281
     0
  0
CLASS
  1
MLEADERSTYLE
  2
AcDbMLeaderStyle
  3
ACDB_MLEADERSTYLE_CLASS
 90
     4095
 91
        4
280
     0
281
     0
  0
CLASS
  1
SUN
  2
AcDbSun
  3
SCENEOE
 90
     1153
 91
        4
280
     0
281
     0
  0
CLASS
  1
DICTIONARYVAR
  2
AcDbDictionaryVar
  3
ObjectDBX Classes
 90
        0
 91
        4
280
     0
281
     0
  0
CLASS
  1
CELLSTYLEMAP
  2
AcDbCellStyleMap
  3
ObjectDBX Classes
 90
     1152
 91
        4
280
     0
281
     0
  0
ENDSEC
  0
SECTION
  2
TABLES
  0
TABLE
  2
VPORT
  5
8
330
0
100
AcDbSymbolTable
 70
     1
  0
VPORT
  5
29
330
8
100
AcDbSymbolTableRecord
100
AcDbViewportTableRecord
  2
*Active
 70
     0
 10
0.0
 20
0.0
 11
1.0
 21
1.0
 12
-28.94999999999999
 22
0.0
 13
0.0
 23
0.0
 14
10.0
 24
10.0
 15
10.0
 25
10.0
 16
0.0
 26
0.0
 36
1.0
 17
0.0
 27
0.0
 37
0.0
 40
223.5840000000001
 41
0.2905565693430659
 42
50.0
 43
0.0
 44
0.0
 50
0.0
 51
0.0
 71
     0
 72
   100
 73
     1
 74
     3
 75
     0
 76
     0
 77
     0
 78
     0
281
     0
 65
     1
110
0.0
120
0.0
130
0.0
111
1.0
121
0.0
131
0.0
112
0.0
122
1.0
132
0.0
 79
     0
146
0.0
348
2F
 60
     3
 61
     5
292
     1
282
     1
141
0.0
142
0.0
 63
   250
361
6D
  0
ENDTAB
  0
TABLE
  2
LTYPE
  5
5
330
0
100
AcDbSymbolTable
 70
     3
  0
LTYPE
  5
14
330
5
100
AcDbSymbolTableRecord
100
AcDbLinetypeTableRecord
  2
ByBlock
 70
     0
  3

 72
    65
 73
     0
 40
0.0
  0
LTYPE
  5
15
330
5
100
AcDbSymbolTableRecord
100
AcDbLinetypeTableRecord
  2
ByLayer
 70
     0
  3

 72
    65
 73
     0
 40
0.0
  0
LTYPE
  5
16
330
5
100
AcDbSymbolTableRecord
100
AcDbLinetypeTableRecord
  2
Continuous
 70
     0
  3
Solid line
 72
    65
 73
     0
 40
0.0
  0
LTYPE
  5
9F
330
5
100
AcDbSymbolTableRecord
100
AcDbLinetypeTableRecord
  2
Dashed
 70
     0
  3

 72
    65
 73
     2
 40
2.0
 49
1.0
 74
     0
 49
-1.0
 74
     0
  0
LTYPE
  5
D0
330
5
100
AcDbSymbolTableRecord
100
AcDbLinetypeTableRecord
  2
Center
 70
     0
  3

 72
    65
 73
     4
 40
1.5
 49
0.45
 74
     0
 49
-0.5
 74
     0
 49
0.05
 74
     0
 49
-0.5
 74
     0
  0
ENDTAB
  0
TABLE
  2
LAYER
  5
2
330
0
100
AcDbSymbolTable
 70
     7
  0
LAYER
  5
10
330
2
100
AcDbSymbolTableRecord
100
AcDbLayerTableRecord
  2
0
 70
     0
 62
     7
  6
Continuous
370
    -3
390
F
347
46
348
0
  0
LAYER
  5
72
330
2
100
AcDbSymbolTableRecord
100
AcDbLayerTableRecord
  2
AM_6
 70
     0
 62
    -2
  6
Continuous
370
    35
390
F
347
46
348
0
  0
LAYER
  5
A0
330
2
100
AcDbSymbolTableRecord
100
AcDbLayerTableRecord
  2
AM_9
 70
     0
 62
     6
  6
Dashed
370
    25
390
F
347
46
348
0
  0
LAYER
  5
CD
330
2
100
AcDbSymbolTableRecord
100
AcDbLayerTableRecord
  2
AM_5
 70
     0
 62
     3
  6
Continuous
370
    25
390
F
347
46
348
0
  0
LAYER
  5
D1
330
2
100
AcDbSymbolTableRecord
100
AcDbLayerTableRecord
  2
AM_7
 70
     0
 62
     7
  6
Center
370
    25
390
F
347
46
348
0
  0
LAYER
  5
D4
330
2
100
AcDbSymbolTableRecord
100
AcDbLayerTableRecord
  2
AM_4
 70
     0
 62
     7
  6
Continuous
370
    50
390
F
347
46
348
0
  0
LAYER
  5
1C3
330
2
100
AcDbSymbolTableRecord
100
AcDbLayerTableRecord
  2
ConnectionPoints
 70
     0
 62
     7
  6
Continuous
370
    50
390
F
347
46
348
0
  0
ENDTAB
  0
TABLE
  2
STYLE
  5
3
330
0
100
AcDbSymbolTable
 70
     1
  0
STYLE
  5
11
330
3
100
AcDbSymbolTableRecord
100
AcDbTextStyleTableRecord
  2
Standard
 70
     0
 40
0.0
 41
1.0
 50
0.0
 71
     0
 42
2.5
  3
txt
  4

  0
ENDTAB
  0
TABLE
  2
VIEW
  5
6
330
0
100
AcDbSymbolTable
 70
     0
  0
ENDTAB
  0
TABLE
  2
UCS
  5
7
330
0
100
AcDbSymbolTable
 70
     0
  0
ENDTAB
  0
TABLE
  2
APPID
  5
9
330
0
100
AcDbSymbolTable
 70
     1
  0
APPID
  5
12
330
9
100
AcDbSymbolTableRecord
100
AcDbRegAppTableRecord
  2
ACAD
 70
     0
  0
ENDTAB
  0
TABLE
  2
DIMSTYLE
  5
A
330
0
100
AcDbSymbolTable
 70
     1
100
AcDbDimStyleTable
  0
DIMSTYLE
105
27
330
A
100
AcDbSymbolTableRecord
100
AcDbDimStyleTableRecord
  2
ISO-25
 70
     0
 41
2.5
 42
0.625
 43
3.75
 44
1.25
 73
     0
 74
     0
 77
     1
 78
     8
140
2.5
141
2.5
143
0.03937007874016
147
0.625
171
     3
172
     1
178
     0
271
     2
272
     2
274
     3
278
    44
283
     0
284
     8
340
11
  0
ENDTAB
  0
TABLE
  2
BLOCK_RECORD
  5
1
330
0
100
AcDbSymbolTable
 70
     5
  0
BLOCK_RECORD
  5
1F
330
1
100
AcDbSymbolTableRecord
100
AcDbBlockTableRecord
  2
*Model_Space
340
22
 70
     0
280
     1
281
     0
  0
BLOCK_RECORD
  5
1B
330
1
100
AcDbSymbolTableRecord
100
AcDbBlockTableRecord
  2
*Paper_Space
340
1E
 70
     0
280
     1
281
     0
  0
BLOCK_RECORD
  5
23
330
1
100
AcDbSymbolTableRecord
100
AcDbBlockTableRecord
  2
*Paper_Space0
340
26
 70
     0
280
     1
281
     0
  0
BLOCK_RECORD
  5
6E
330
1
100
AcDbSymbolTableRecord
100
AcDbBlockTableRecord
  2
1_125710_2
340
0
102
{BLKREFS
331
6F
102
}
 70
     0
280
     1
281
     0
  0
BLOCK_RECORD
  5
88
330
1
100
AcDbSymbolTableRecord
100
AcDbBlockTableRecord
  2
2_125643_0_in_125710_2
340
0
102
{BLKREFS
331
89
102
}
 70
     0
280
     1
281
     0
  0
BLOCK_RECORD
  5
E7
330
1
100
AcDbSymbolTableRecord
100
AcDbBlockTableRecord
  2
3_405015E_Metric_0_in_125710_2
340
0
102
{BLKREFS
331
E8
102
}
 70
     0
280
     1
281
     0
  0
BLOCK_RECORD
  5
15A
330
1
100
AcDbSymbolTableRecord
100
AcDbBlockTableRecord
  2
4_123619vscM_0_in_125710_2
340
0
102
{BLKREFS
331
15B
102
}
 70
     0
280
     1
281
     0
  0
ENDTAB
  0
ENDSEC
  0
SECTION
  2
BLOCKS
  0
BLOCK
  5
20
330
1F
100
AcDbEntity
  8
0
100
AcDbBlockBegin
  2
*Model_Space
 70
     0
 10
0.0
 20
0.0
 30
0.0
  3
*Model_Space
  1

  0
ENDBLK
  5
21
330
1F
100
AcDbEntity
  8
0
100
AcDbBlockEnd
  0
BLOCK
  5
1C
330
1B
100
AcDbEntity
 67
     1
  8
0
100
AcDbBlockBegin
  2
*Paper_Space
 70
     0
 10
0.0
 20
0.0
 30
0.0
  3
*Paper_Space
  1

  0
ENDBLK
  5
1D
330
1B
100
AcDbEntity
 67
     1
  8
0
100
AcDbBlockEnd
  0
BLOCK
  5
24
330
23
100
AcDbEntity
  8
0
100
AcDbBlockBegin
  2
*Paper_Space0
 70
     0
 10
0.0
 20
0.0
 30
0.0
  3
*Paper_Space0
  1

  0
ENDBLK
  5
25
330
23
100
AcDbEntity
  8
0
100
AcDbBlockEnd
  0
BLOCK
  5
70
330
6E
100
AcDbEntity
  8
0
100
AcDbBlockBegin
  2
1_125710_2
 70
     2
 10
0.0
 20
0.0
 30
0.0
  3
1_125710_2
  1

  0
ATTDEF
  5
73
330
6E
100
AcDbEntity
  8
AM_6
100
AcDbText
 10
7.895
 20
109.6
 30
0.0
 40
0.5
  1
Set Screw Intermediate Duty Two-Bolt Flange Metric Bore
100
AcDbAttributeDefinition
  3

  2
NN
 70
     8
280
     0
  0
ATTDEF
  5
74
330
6E
100
AcDbEntity
  8
AM_6
100
AcDbText
 10
7.895
 20
109.1
 30
0.0
 40
0.5
  1
VSC Intermediate Duty 2-Bolt Flange Bearings
100
AcDbAttributeDefinition
  3

  2
NT
 70
     8
280
     0
  0
ATTDEF
  5
75
330
6E
100
AcDbEntity
  8
AM_6
100
AcDbText
 10
7.895
 20
108.6
 30
0.0
 40
0.5
  1
125710
100
AcDbAttributeDefinition
  3

  2
NB
 70
     8
280
     0
  0
ATTDEF
  5
76
330
6E
100
AcDbEntity
  8
AM_6
100
AcDbText
 10
7.895
 20
108.1
 30
0.0
 40
0.5
  1
$PN.
100
AcDbAttributeDefinition
  3

  2
NBSYN
 70
     8
280
     0
  0
ATTDEF
  5
77
330
6E
100
AcDbEntity
  8
AM_6
100
AcDbText
 10
7.895
 20
107.6
 30
0.0
 40
0.5
  1
125710
100
AcDbAttributeDefinition
  3

  2
LINA
 70
     8
280
     0
  0
ATTDEF
  5
78
330
6E
100
AcDbEntity
  8
AM_6
100
AcDbText
 10
7.895
 20
107.1
 30
0.0
 40
0.5
  1
125710
100
AcDbAttributeDefinition
  3

  2
PN
 70
     8
280
     0
  0
ATTDEF
  5
79
330
6E
100
AcDbEntity
  8
AM_6
100
AcDbText
 10
7.895
 20
106.6
 30
0.0
 40
0.5
  1
211
100
AcDbAttributeDefinition
  3

  2
SERIES
 70
     8
280
     0
  0
ATTDEF
  5
7A
330
6E
100
AcDbEntity
  8
AM_6
100
AcDbText
 10
7.895
 20
106.1
 30
0.0
 40
0.5
  1
55
100
AcDbAttributeDefinition
  3

  2
SS
 70
     8
280
     0
  0
ATTDEF
  5
7B
330
6E
100
AcDbEntity
  8
AM_6
100
AcDbText
 10
7.895
 20
105.6
 30
0.0
 40
0.5
  1
F2B-VSC-55M
100
AcDbAttributeDefinition
  3

  2
DESCRIPTION
 70
     8
280
     0
  0
ATTDEF
  5
7C
330
6E
100
AcDbEntity
  8
AM_6
100
AcDbText
 10
7.895
 20
105.1
 30
0.0
 40
0.5
  1
2.99
100
AcDbAttributeDefinition
  3

  2
WEIGHT
 70
     8
280
     0
  0
ATTDEF
  5
7D
330
6E
100
AcDbEntity
  8
AM_6
100
AcDbText
 10
7.895
 20
104.6
 30
0.0
 40
0.5
  1
56.400
100
AcDbAttributeDefinition
  3

  2
A
 70
     8
280
     0
  0
ATTDEF
  5
7E
330
6E
100
AcDbEntity
  8
AM_6
100
AcDbText
 10
7.895
 20
104.1
 30
0.0
 40
0.5
  1
219.200
100
AcDbAttributeDefinition
  3

  2
B
 70
     8
280
     0
  0
ATTDEF
  5
7F
330
6E
100
AcDbEntity
  8
AM_6
100
AcDbText
 10
7.895
 20
103.6
 30
0.0
 40
0.5
  1
57.900
100
AcDbAttributeDefinition
  3

  2
C
 70
     8
280
     0
  0
ATTDEF
  5
80
330
6E
100
AcDbEntity
  8
AM_6
100
AcDbText
 10
7.895
 20
103.1
 30
0.0
 40
0.5
  1
184.200
100
AcDbAttributeDefinition
  3

  2
D
 70
     8
280
     0
  0
ATTDEF
  5
81
330
6E
100
AcDbEntity
  8
AM_6
100
AcDbText
 10
7.895
 20
102.6
 30
0.0
 40
0.5
  1
M16
100
AcDbAttributeDefinition
  3

  2
F
 70
     8
280
     0
  0
ATTDEF
  5
82
330
6E
100
AcDbEntity
  8
AM_6
100
AcDbText
 10
7.895
 20
102.1
 30
0.0
 40
0.5
  1
17.000
100
AcDbAttributeDefinition
  3

  2
H
 70
     8
280
     0
  0
ATTDEF
  5
83
330
6E
100
AcDbEntity
  8
AM_6
100
AcDbText
 10
7.895
 20
101.6
 30
0.0
 40
0.5
  1
17.300
100
AcDbAttributeDefinition
  3

  2
J
 70
     8
280
     0
  0
ATTDEF
  5
84
330
6E
100
AcDbEntity
  8
AM_6
100
AcDbText
 10
7.895
 20
101.1
 30
0.0
 40
0.5
  1
68.800
100
AcDbAttributeDefinition
  3

  2
L
 70
     8
280
     0
  0
ATTDEF
  5
85
330
6E
100
AcDbEntity
  8
AM_6
100
AcDbText
 10
7.895
 20
100.6
 30
0.0
 40
0.5
  1
133.400
100
AcDbAttributeDefinition
  3

  2
M
 70
     8
280
     0
  0
ATTDEF
  5
86
330
6E
100
AcDbEntity
  8
AM_6
100
AcDbText
 10
7.895
 20
100.1
 30
0.0
 40
0.5
  1
57.700
100
AcDbAttributeDefinition
  3

  2
N
 70
     8
280
     0
  0
ATTDEF
  5
87
330
6E
100
AcDbEntity
  8
AM_6
100
AcDbText
 10
7.895
 20
99.60000000000001
 30
0.0
 40
0.5
  1
baldor
100
AcDbAttributeDefinition
  3

  2
COMPANY
 70
     8
280
     0
  0
INSERT
  5
89
330
6E
100
AcDbEntity
  8
0
100
AcDbBlockReference
  2
2_125643_0_in_125710_2
 10
0.0
 20
0.0
 30
0.0
  0
INSERT
  5
E8
330
6E
100
AcDbEntity
  8
0
100
AcDbBlockReference
  2
3_405015E_Metric_0_in_125710_2
 10
0.0
 20
0.0
 30
0.0
  0
INSERT
  5
15B
330
6E
100
AcDbEntity
  8
0
100
AcDbBlockReference
  2
4_123619vscM_0_in_125710_2
 10
0.0
 20
0.0
 30
0.0
  0
ENDBLK
  5
71
330
6E
100
AcDbEntity
  8
0
100
AcDbBlockEnd
  0
BLOCK
  5
8A
330
88
100
AcDbEntity
  8
0
100
AcDbBlockBegin
  2
2_125643_0_in_125710_2
 70
     2
 10
0.0
 20
0.0
 30
0.0
  3
2_125643_0_in_125710_2
  1

  0
ATTDEF
  5
8C
330
88
100
AcDbEntity
  8
AM_6
100
AcDbText
 10
3.499999999999981
 20
49.99890461652211
 30
0.0
 40
0.5
  1
Set Screw Intermediate Duty Insert Metric Bore
100
AcDbAttributeDefinition
  3

  2
NN
 70
     8
280
     0
  0
ATTDEF
  5
8D
330
88
100
AcDbEntity
  8
AM_6
100
AcDbText
 10
3.499999999999981
 20
49.49890461652211
 30
0.0
 40
0.5
  1
VSC Intermediate Duty Bearing Inserts
100
AcDbAttributeDefinition
  3

  2
NT
 70
     8
280
     0
  0
ATTDEF
  5
8E
330
88
100
AcDbEntity
  8
AM_6
100
AcDbText
 10
3.499999999999981
 20
48.99890461652211
 30
0.0
 40
0.5
  1
125643
100
AcDbAttributeDefinition
  3

  2
NB
 70
     8
280
     0
  0
ATTDEF
  5
8F
330
88
100
AcDbEntity
  8
AM_6
100
AcDbText
 10
3.499999999999981
 20
48.49890461652211
 30
0.0
 40
0.5
  1
$PN.
100
AcDbAttributeDefinition
  3

  2
NBSYN
 70
     8
280
     0
  0
ATTDEF
  5
90
330
88
100
AcDbEntity
  8
AM_6
100
AcDbText
 10
3.499999999999981
 20
47.99890461652211
 30
0.0
 40
0.5
  1
125643
100
AcDbAttributeDefinition
  3

  2
LINA
 70
     8
280
     0
  0
ATTDEF
  5
91
330
88
100
AcDbEntity
  8
AM_6
100
AcDbText
 10
3.499999999999981
 20
47.49890461652211
 30
0.0
 40
0.5
  1
211
100
AcDbAttributeDefinition
  3

  2
SERIES
 70
     8
280
     0
  0
ATTDEF
  5
92
330
88
100
AcDbEntity
  8
AM_6
100
AcDbText
 10
3.499999999999981
 20
46.99890461652211
 30
0.0
 40
0.5
  1
55
100
AcDbAttributeDefinition
  3

  2
SS
 70
     8
280
     0
  0
ATTDEF
  5
93
330
88
100
AcDbEntity
  8
AM_6
100
AcDbText
 10
3.499999999999981
 20
46.49890461652211
 30
0.0
 40
0.5
  1
125643
100
AcDbAttributeDefinition
  3

  2
PN
 70
     8
280
     0
  0
ATTDEF
  5
94
330
88
100
AcDbEntity
  8
AM_6
100
AcDbText
 10
3.499999999999981
 20
45.99890461652211
 30
0.0
 40
0.5
  1
INS-VSC-55M
100
AcDbAttributeDefinition
  3

  2
DESCRIPTION
 70
     8
280
     0
  0
ATTDEF
  5
95
330
88
100
AcDbEntity
  8
AM_6
100
AcDbText
 10
3.499999999999981
 20
45.49890461652211
 30
0.0
 40
0.5
  1
0.97
100
AcDbAttributeDefinition
  3

  2
WEIGHT
 70
     8
280
     0
  0
ATTDEF
  5
96
330
88
100
AcDbEntity
  8
AM_6
100
AcDbText
 10
3.499999999999981
 20
44.99890461652211
 30
0.0
 40
0.5
  1
56.4
100
AcDbAttributeDefinition
  3

  2
A
 70
     8
280
     0
  0
ATTDEF
  5
97
330
88
100
AcDbEntity
  8
AM_6
100
AcDbText
 10
3.499999999999981
 20
44.49890461652211
 30
0.0
 40
0.5
  1
23.9
100
AcDbAttributeDefinition
  3

  2
C
 70
     8
280
     0
  0
ATTDEF
  5
98
330
88
100
AcDbEntity
  8
AM_6
100
AcDbText
 10
3.499999999999981
 20
43.99890461652211
 30
0.0
 40
0.5
  1
100
100
AcDbAttributeDefinition
  3

  2
D
 70
     8
280
     0
  0
ATTDEF
  5
99
330
88
100
AcDbEntity
  8
AM_6
100
AcDbText
 10
3.499999999999981
 20
43.49890461652211
 30
0.0
 40
0.5
  1
6.4
100
AcDbAttributeDefinition
  3

  2
J
 70
     8
280
     0
  0
ATTDEF
  5
9A
330
88
100
AcDbEntity
  8
AM_6
100
AcDbText
 10
3.499999999999981
 20
42.99890461652211
 30
0.0
 40
0.5
  1
68.8
100
AcDbAttributeDefinition
  3

  2
L
 70
     8
280
     0
  0
ATTDEF
  5
9B
330
88
100
AcDbEntity
  8
AM_6
100
AcDbText
 10
3.499999999999981
 20
42.49890461652211
 30
0.0
 40
0.5
  1
M10x1.5
100
AcDbAttributeDefinition
  3

  2
N
 70
     8
280
     0
  0
ATTDEF
  5
9C
330
88
100
AcDbEntity
  8
AM_6
100
AcDbText
 10
3.499999999999981
 20
41.99890461652211
 30
0.0
 40
0.5
  1
22.1
100
AcDbAttributeDefinition
  3

  2
W
 70
     8
280
     0
  0
ATTDEF
  5
9D
330
88
100
AcDbEntity
  8
AM_6
100
AcDbText
 10
3.499999999999981
 20
41.49890461652211
 30
0.0
 40
0.5
  1
34.3
100
AcDbAttributeDefinition
  3

  2
Y
 70
     8
280
     0
  0
ATTDEF
  5
9E
330
88
100
AcDbEntity
  8
AM_6
100
AcDbText
 10
3.499999999999981
 20
40.99890461652211
 30
0.0
 40
0.5
  1
baldor
100
AcDbAttributeDefinition
  3

  2
COMPANY
 70
     8
280
     0
  0
ARC
  5
A1
330
88
100
AcDbEntity
  8
AM_9
100
AcDbCircle
 10
-17.19999999999987
 20
-0.000000000000016
 30
0.0
 40
2.389999999999857
100
AcDbArc
 50
347.030302127552
 51
0.0
  0
ARC
  5
A2
330
88
100
AcDbEntity
  8
AM_9
100
AcDbCircle
 10
-17.19999999999996
 20
-0.0000000000000244
 30
0.0
 40
2.389999999999943
100
AcDbArc
 50
313.9710031884664
 51
327.9208036120029
  0
ARC
  5
A3
330
88
100
AcDbEntity
  8
AM_9
100
AcDbCircle
 10
-17.19999999999994
 20
-0.0000000000004317
 30
0.0
 40
2.390000000000426
100
AcDbArc
 50
90.0
 51
91.61209550381457
  0
CIRCLE
  5
A4
330
88
100
AcDbEntity
  8
AM_9
100
AcDbCircle
 10
-17.20000000000001
 20
0.000000000000001
 30
0.0
 40
0.2172727272727301
  0
LINE
  5
A5
330
88
100
AcDbEntity
  8
AM_9
100
AcDbLine
 10
-43.712
 20
27.49819683095502
 30
0.0
 11
-43.712
 21
33.58800000000001
 31
0.0
  0
LINE
  5
A6
330
88
100
AcDbEntity
  8
AM_9
100
AcDbLine
 10
-52.088
 20
33.58800000000001
 30
0.0
 11
-52.088
 21
27.5
 31
0.0
  0
LINE
  5
A7
330
88
100
AcDbEntity
  8
AM_9
100
AcDbLine
 10
-52.088
 20
33.58800000000001
 30
0.0
 11
-43.712
 21
33.58800000000001
 31
0.0
  0
LINE
  5
A8
330
88
100
AcDbEntity
  8
AM_9
100
AcDbLine
 10
-43.712
 20
33.58800000000001
 30
0.0
 11
-42.89999999999998
 21
34.40000000000002
 31
0.0
  0
LINE
  5
A9
330
88
100
AcDbEntity
  8
AM_9
100
AcDbLine
 10
-52.90000000000002
 20
34.40000000000002
 30
0.0
 11
-52.088
 21
33.58800000000001
 31
0.0
  0
LWPOLYLINE
  5
AA
330
88
100
AcDbEntity
  8
AM_9
100
AcDbPolyline
 90
       20
 70
     0
 43
0.0
 10
-52.088
 20
27.5
 10
-52.03099942618604
 20
27.49137705279875
 10
-51.85507181181298
 20
27.46549196786028
 10
-51.57531093768848
 20
27.42660326195522
 10
-51.18394032849202
 20
27.37690486671378
 10
-50.70972135348389
 20
27.32407711312906
 10
-50.14140633545669
 20
27.27149717856769
 10
-49.52288372502998
 20
27.2276405071201
 10
-48.8385528102736
 20
27.19543228885455
 10
-48.15208155792451
 20
27.18040104766385
 10
-47.4381187984712
 20
27.1831563701555
 10
-46.76311427549647
 20
27.20299919403337
 10
-46.10135373907502
 20
27.23868176641336
 10
-45.50521816298263
 20
27.28453107617774
 10
-44.96025532713081
 20
27.33775328628275
 10
-44.50687422393134
 20
27.39021647472363
 10
-44.13808401125033
 20
27.43834302406781
 10
-43.88487812104295
 20
27.47420353172917
 10
-43.74042047867981
 20
27.49568616700057
 10
-43.71200000001038
 20
27.49999999999842
  0
LINE
  5
AB
330
88
100
AcDbEntity
  8
AM_9
100
AcDbLine
 10
-56.52400000000001
 20
-27.5
 30
0.0
 11
-1.844000000000026
 21
-27.5
 31
0.0
  0
LINE
  5
AC
330
88
100
AcDbEntity
  8
AM_9
100
AcDbLine
 10
-1.844000000000026
 20
27.5
 30
0.0
 11
-43.72388342672532
 21
27.5
 31
0.0
  0
LINE
  5
AD
330
88
100
AcDbEntity
  8
AM_9
100
AcDbLine
 10
-52.088
 20
27.5
 30
0.0
 11
-56.52400000000001
 21
27.5
 31
0.0
  0
LINE
  5
AE
330
88
100
AcDbEntity
  8
AM_9
100
AcDbLine
 10
-1.844000000000026
 20
-27.5
 30
0.0
 11
-1.500000000000019
 21
-27.84399999999998
 31
0.0
  0
LINE
  5
AF
330
88
100
AcDbEntity
  8
AM_9
100
AcDbLine
 10
-1.500000000000019
 20
27.84399999999999
 30
0.0
 11
-1.844000000000026
 21
27.5
 31
0.0
  0
LINE
  5
B0
330
88
100
AcDbEntity
  8
AM_9
100
AcDbLine
 10
-56.52400000000001
 20
27.5
 30
0.0
 11
-57.9
 21
28.87600000000001
 31
0.0
  0
LINE
  5
B1
330
88
100
AcDbEntity
  8
AM_9
100
AcDbLine
 10
-57.9
 20
-28.876
 30
0.0
 11
-56.52400000000001
 21
-27.5
 31
0.0
  0
LWPOLYLINE
  5
B2
330
88
100
AcDbEntity
  8
AM_9
100
AcDbPolyline
 90
        4
 70
     0
 43
0.0
 10
-51.83652937838874
 20
12.90173602423427
 10
-51.9814469271238
 20
12.4659697681706
 10
-52.08039669791705
 20
11.85012471878433
 10
-52.08799998530803
 20
11.62232012877939
  0
LINE
  5
B3
330
88
100
AcDbEntity
  8
AM_9
100
AcDbLine
 10
-43.712
 20
11.6218458549964
 30
0.0
 11
-43.712
 21
14.19490217534662
 31
0.0
  0
LINE
  5
B4
330
88
100
AcDbEntity
  8
AM_9
100
AcDbLine
 10
-52.08799999999999
 20
14.19490217534662
 30
0.0
 11
-52.088
 21
11.62110786955252
 31
0.0
  0
LWPOLYLINE
  5
B5
330
88
100
AcDbEntity
  8
AM_9
100
AcDbPolyline
 90
       21
 70
     0
 43
0.0
 10
-52.08799998530803
 20
11.62232012877939
 10
-52.06247490281287
 20
11.20194179778798
 10
-51.93074685149483
 20
10.58173263540666
 10
-51.68202880781055
 20
9.966866824312675
 10
-51.33562728977601
 20
9.407278229188988
 10
-50.88263129921576
 20
8.89090520141177
 10
-50.35463587134007
 20
8.45786510348305
 10
-49.74037366741305
 20
8.103245519207805
 10
-49.0907079633123
 20
7.858481048485003
 10
-48.38685769349357
 20
7.718400111225654
 10
-47.69598623365242
 20
7.695652646636598
 10
-46.99094538929851
 20
7.7877414026162
 10
-46.33452944557112
 20
7.985005765013714
 10
-45.70404535214871
 20
8.291878330000449
 10
-45.14716422739404
 20
8.684769566579908
 10
-44.65291555060663
 20
9.170978649883276
 10
-44.25905276153581
 20
9.71343853113982
 10
-43.95896379068213
 20
10.32242723945889
 10
-43.7787719467383
 20
10.94266154651211
 10
-43.71211604222496
 20
11.59373948545128
 10
-43.71200000402307
 20
11.62183582855065
  0
LWPOLYLINE
  5
B6
330
88
100
AcDbEntity
  8
AM_9
100
AcDbPolyline
 90
        4
 70
     0
 43
0.0
 10
-43.71200000402307
 20
11.62183582855065
 10
-43.76373165243515
 20
12.21343248474531
 10
-43.93369132956798
 20
12.82665407316851
 10
-43.96941275966926
 20
12.91611295334374
  0
LINE
  5
B7
330
88
100
AcDbEntity
  8
AM_9
100
AcDbLine
 10
-11.65
 20
-34.40000000000001
 30
0.0
 11
-3.399999999999997
 21
-34.40000000000001
 31
0.0
  0
LINE
  5
B8
330
88
100
AcDbEntity
  8
AM_9
100
AcDbLine
 10
-3.399999999999997
 20
34.40000000000002
 30
0.0
 11
-11.65
 21
34.40000000000002
 31
0.0
  0
LINE
  5
B9
330
88
100
AcDbEntity
  8
AM_9
100
AcDbLine
 10
-40.59999999999999
 20
-34.40000000000001
 30
0.0
 11
-35.55
 21
-34.40000000000001
 31
0.0
  0
LINE
  5
BA
330
88
100
AcDbEntity
  8
AM_9
100
AcDbLine
 10
-35.55
 20
34.40000000000002
 30
0.0
 11
-40.59999999999999
 21
34.40000000000002
 31
0.0
  0
LINE
  5
BB
330
88
100
AcDbEntity
  8
AM_9
100
AcDbLine
 10
-30.95333333333334
 20
-47.61000000000002
 30
0.0
 11
-27.76666666666667
 21
-47.61000000000002
 31
0.0
  0
LINE
  5
BC
330
88
100
AcDbEntity
  8
AM_9
100
AcDbLine
 10
-27.76666666666667
 20
47.61000000000003
 30
0.0
 11
-30.95333333333334
 21
47.61000000000003
 31
0.0
  0
LINE
  5
BD
330
88
100
AcDbEntity
  8
AM_9
100
AcDbLine
 10
-11.65
 20
46.96542330695224
 30
0.0
 11
-11.65
 21
-46.96542330695222
 31
0.0
  0
ARC
  5
BE
330
88
100
AcDbEntity
  8
AM_9
100
AcDbCircle
 10
-12.60599999999998
 20
-46.96542330695225
 30
0.0
 40
0.9559999999999764
100
AcDbArc
 50
291.4124670468835
 51
0.0000008537736463
  0
ARC
  5
BF
330
88
100
AcDbEntity
  8
AM_9
100
AcDbCircle
 10
-12.60600000000001
 20
46.96542330695224
 30
0.0
 40
0.9560000000000066
100
AcDbArc
 50
0.0
 51
68.58753295311534
  0
LINE
  5
C0
330
88
100
AcDbEntity
  8
AM_9
100
AcDbLine
 10
-35.55
 20
46.96542332119777
 30
0.0
 11
-35.55
 21
-46.96542332119775
 31
0.0
  0
ARC
  5
C1
330
88
100
AcDbEntity
  8
AM_9
100
AcDbCircle
 10
-34.59400000000002
 20
-46.96542330695224
 30
0.0
 40
0.9559999999999889
100
AcDbArc
 50
180.0
 51
248.5875329531161
  0
ARC
  5
C2
330
88
100
AcDbEntity
  8
AM_9
100
AcDbCircle
 10
-34.59400000000002
 20
46.96542330695225
 30
0.0
 40
0.955999999999987
100
AcDbArc
 50
111.4124670468839
 51
180.0
  0
ARC
  5
C3
330
88
100
AcDbEntity
  8
AM_9
100
AcDbCircle
 10
-23.60000000000041
 20
-18.93000000000173
 30
0.0
 40
31.06999999999825
100
AcDbArc
 50
248.5875329531155
 51
256.3099227445072
  0
ARC
  5
C4
330
88
100
AcDbEntity
  8
AM_9
100
AcDbCircle
 10
-23.59999999999951
 20
18.92999999999889
 30
0.0
 40
31.07000000000123
100
AcDbArc
 50
103.6900772554932
 51
111.4124670468842
  0
LINE
  5
C5
330
88
100
AcDbEntity
  8
AM_9
100
AcDbLine
 10
-34.94301587301588
 20
47.85543674526819
 30
0.0
 11
-34.94301587301588
 21
-47.85543674526817
 31
0.0
  0
LINE
  5
C6
330
88
100
AcDbEntity
  8
AM_9
100
AcDbLine
 10
-30.95333333333334
 20
49.11730509483898
 30
0.0
 11
-30.95333333333334
 21
-49.11730509483896
 31
0.0
  0
LWPOLYLINE
  5
C7
330
88
100
AcDbEntity
  8
AM_9
100
AcDbPolyline
 90
       38
 70
     0
 43
0.0
 10
-15.52447852138364
 20
-1.704326193749888
 10
-15.2658610521895
 20
-1.403602951949507
 10
-15.05944453277958
 20
-1.063072100919184
 10
-14.91233497382923
 20
-0.6909845463150581
 10
-14.82873184837666
 20
-0.2986425172288577
 10
-14.81216828892607
 20
0.095770766933586
 10
-14.86023521456866
 20
0.4874430724252416
 10
-14.97100205637638
 20
0.8617322873399359
 10
-15.14021304678164
 20
1.212178908969865
 10
-15.36642725850319
 20
1.53267324449381
 10
-15.64055442557233
 20
1.811140386717137
 10
-15.963823291457
 20
2.045223450317269
 10
-16.32030863611847
 20
2.222215809572109
 10
-16.7101118064952
 20
2.339020819853983
 10
-17.11385818468923
 20
2.388447107987728
 10
-17.52512771073372
 20
2.367533624303531
 10
-17.92758405006886
 20
2.276559125102043
 10
-18.3076231124959
 20
2.117553788469456
 10
-18.65605140459088
 20
1.895261012944895
 10
-18.95726734583966
 20
1.619525573277556
 10
-19.20824978319574
 20
1.295774983665855
 10
-19.39733398556483
 20
0.9394689533898233
 10
-19.52447126273787
 20
0.5558177297512444
 10
-19.58430266844575
 20
0.161310038371903
 10
-19.57814029343895
 20
-0.2377997996679097
 10
-19.50589232127742
 20
-0.627551611177193
 10
-19.37088235013588
 20
-0.9996848612780468
 10
-19.17587060823957
 20
-1.344220521198877
 10
-18.9277428401638
 20
-1.651364489827344
 10
-18.62986752958499
 20
-1.914809468919091
 10
-18.29381990109704
 20
-2.125007770330274
 10
-17.92255534264129
 20
-2.277923908447385
 10
-17.53210440892491
 20
-2.366813609385539
 10
-17.12601056796893
 20
-2.388625187004624
 10
-16.72239947870062
 20
-2.341793701856446
 10
-16.32809061561214
 20
-2.225022576682718
 10
-15.95882368355014
 20
-2.042444944541692
 10
-15.52447852138437
 20
-1.704326193748614
  0
ARC
  5
C8
330
88
100
AcDbEntity
  8
AM_9
100
AcDbCircle
 10
-23.6000000000006
 20
-18.92999999999529
 30
0.0
 40
31.07000000000461
100
AcDbArc
 50
262.2930851783902
 51
291.4124670468819
  0
ARC
  5
C9
330
88
100
AcDbEntity
  8
AM_9
100
AcDbCircle
 10
-23.6
 20
18.93000000000022
 30
0.0
 40
31.06999999999982
100
AcDbArc
 50
90.53603130059093
 51
97.70691482161214
  0
ARC
  5
CA
330
88
100
AcDbEntity
  8
AM_9
100
AcDbCircle
 10
-23.60000000023919
 20
18.92999999870533
 30
0.0
 40
31.07000000129264
100
AcDbArc
 50
68.58753295357693
 51
90.48111774159351
  0
LINE
  5
CB
330
88
100
AcDbEntity
  8
AM_9
100
AcDbLine
 10
-27.76666666666668
 20
49.71934537934983
 30
0.0
 11
-27.76666666666668
 21
-49.71934537934982
 31
0.0
  0
LINE
  5
CC
330
88
100
AcDbEntity
  8
AM_9
100
AcDbLine
 10
-12.25698412698413
 20
47.85543674526819
 30
0.0
 11
-12.25698412698413
 21
-47.85543674526817
 31
0.0
  0
LINE
  5
CE
330
88
100
AcDbEntity
  8
AM_5
100
AcDbLine
 10
-42.9
 20
34.40000000000002
 30
0.0
 11
-42.9
 21
27.5
 31
0.0
  0
LINE
  5
CF
330
88
100
AcDbEntity
  8
AM_5
100
AcDbLine
 10
-52.9
 20
34.40000000000002
 30
0.0
 11
-52.9
 21
27.5
 31
0.0
  0
LINE
  5
D2
330
88
100
AcDbEntity
  8
AM_7
100
AcDbLine
 10
-17.20000000000001
 20
-0.2281363636363656
 30
0.0
 11
-17.20000000000001
 21
0.2281363636363676
 31
0.0
  0
LINE
  5
D3
330
88
100
AcDbEntity
  8
AM_7
100
AcDbLine
 10
-47.9
 20
34.81047619047619
 30
0.0
 11
-47.9
 21
25.78
 31
0.0
  0
LWPOLYLINE
  5
D5
330
88
100
AcDbEntity
  8
AM_4
100
AcDbPolyline
 90
        9
 70
     0
 43
0.0
 10
-47.9
 20
15.28205682564146
 10
-48.58855792531521
 20
15.23409053410644
 10
-49.27711585063039
 20
15.08572167634072
 10
-49.90767684268023
 20
14.84878018135735
 10
-50.49884223392554
 20
14.51524253678901
 10
-51.00547045148928
 20
14.10778659061575
 10
-51.43765106352416
 20
13.61482911364143
 10
-51.76072618014409
 20
13.07268378662604
 10
-51.83652937838874
 20
12.90173602423427
  0
LWPOLYLINE
  5
D6
330
88
100
AcDbEntity
  8
AM_4
100
AcDbPolyline
 90
        9
 70
     0
 43
0.0
 10
-43.96941275966926
 20
12.91611295334374
 10
-44.20734181449701
 20
13.38261292749002
 10
-44.59228563179886
 20
13.89924872323697
 10
-45.06169509187433
 20
14.33988443795502
 10
-45.62580984290786
 20
14.7138212194407
 10
-46.24130370258525
 20
14.99304033672914
 10
-46.92354226825986
 20
15.18485755361925
 10
-47.40482456129345
 20
15.25733840197275
 10
-47.9
 20
15.28205682564146
  0
LINE
  5
D7
330
88
100
AcDbEntity
  8
AM_4
100
AcDbLine
 10
-3.399999999999997
 20
-34.40000000000001
 30
0.0
 11
-1.844000000000023
 21
-34.40000000000001
 31
0.0
  0
LINE
  5
D8
330
88
100
AcDbEntity
  8
AM_4
100
AcDbLine
 10
-1.844000000000023
 20
34.40000000000002
 30
0.0
 11
-3.399999999999997
 21
34.40000000000002
 31
0.0
  0
LWPOLYLINE
  5
D9
330
88
100
AcDbEntity
  8
AM_4
100
AcDbPolyline
 90
       39
 70
     0
 43
0.0
 10
-44.07562139904537
 20
11.75267079098659
 10
-44.5965906442131
 20
11.28086816684515
 10
-45.18466169307303
 20
10.88317333407822
 10
-45.92746971844465
 20
10.5279372407014
 10
-46.72045648977049
 20
10.28894725508348
 10
-47.58170256926364
 20
10.17087965043202
 10
-48.45159909494926
 20
10.18887992145466
 10
-49.32294525388546
 20
10.34875871315549
 10
-50.15360634495783
 20
10.64551812474651
 10
-50.91225474867878
 20
11.06951192000783
 10
-51.58160371296535
 20
11.60914773181688
 10
-52.11668707886884
 20
12.22371708209719
 10
-52.52636553601568
 20
12.91229856308946
 10
-52.77753671749275
 20
13.6025428564146
 10
-52.89313489783873
 20
14.31588917428295
 10
-52.87113974204281
 20
14.98666438678976
 10
-52.72543994235886
 20
15.63805618296875
 10
-52.46404665719671
 20
16.24452005866394
 10
-52.09702244979156
 20
16.80088858769647
 10
-51.61471069379812
 20
17.31374366180844
 10
-51.04609405840561
 20
17.75110841839629
 10
-50.36200200396095
 20
18.12574684586695
 10
-49.61711563601005
 20
18.40179667927671
 10
-48.78478419569994
 20
18.58130634745763
 10
-47.92891172550709
 20
18.6444761987276
 10
-47.04738834929706
 20
18.58579331011005
 10
-46.18988480473616
 20
18.40383897434014
 10
-45.38063786130651
 20
18.09913219593745
 10
-44.64532155672494
 20
17.67801476134869
 10
-44.02626025630401
 20
17.16251863971791
 10
-43.52303342753568
 20
16.55438848203646
 10
-43.17624884154751
 20
15.91014599167326
 10
-42.96482030885957
 20
15.21423881619843
 10
-42.90056502544092
 20
14.53675267713196
 10
-42.96529917804855
 20
13.85247343646144
 10
-43.15052479396156
 20
13.20242802662903
 10
-43.4474365740846
 20
12.58317175992356
 10
-43.73588017704613
 20
12.15198955061234
 10
-44.07562139389292
 20
11.75267078348998
  0
LINE
  5
DA
330
88
100
AcDbEntity
  8
AM_4
100
AcDbLine
 10
-56.52400000000001
 20
-34.40000000000001
 30
0.0
 11
-40.59999999999999
 21
-34.40000000000001
 31
0.0
  0
LINE
  5
DB
330
88
100
AcDbEntity
  8
AM_4
100
AcDbLine
 10
-40.59999999999999
 20
34.40000000000002
 30
0.0
 11
-42.90591836236177
 21
34.40000000000002
 31
0.0
  0
LINE
  5
DC
330
88
100
AcDbEntity
  8
AM_4
100
AcDbLine
 10
-52.88643368661668
 20
34.40000000000002
 30
0.0
 11
-56.52400000000001
 21
34.40000000000002
 31
0.0
  0
LWPOLYLINE
  5
DD
330
88
100
AcDbEntity
  8
AM_4
100
AcDbPolyline
 90
       20
 70
     0
 43
0.0
 10
-42.90000000000514
 20
34.39999999999937
 10
-42.95497916613606
 20
34.39306008531114
 10
-43.12665745118199
 20
34.37186822709472
 10
-43.4179741104469
 20
34.33757311984638
 10
-43.81341754448984
 20
34.29438894384927
 10
-44.31470892849055
 20
34.24525917028791
 10
-44.91897473502274
 20
34.19444166461859
 10
-45.61152989404564
 20
34.14758462413582
 10
-46.38719248968992
 20
34.10964433681426
 10
-47.22337970631531
 20
34.08604930126079
 10
-48.08797242265177
 20
34.08060026975015
 10
-48.97159933839259
 20
34.09495198681922
 10
-49.8101095224244
 20
34.1271526270277
 10
-50.61719374577222
 20
34.17515265475556
 10
-51.30957636569357
 20
34.22953162512478
 10
-51.92008955911787
 20
34.28751030712339
 10
-52.36769882134161
 20
34.33594067976142
 10
-52.69576364137499
 20
34.37459464517548
 10
-52.86129470743202
 20
34.39510656449965
 10
-52.89999999998984
 20
34.39999999999873
  0
LINE
  5
DE
330
88
100
AcDbEntity
  8
AM_4
100
AcDbLine
 10
-57.9
 20
-33.024
 30
0.0
 11
-56.52400000000001
 21
-34.40000000000001
 31
0.0
  0
LINE
  5
DF
330
88
100
AcDbEntity
  8
AM_4
100
AcDbLine
 10
-56.52400000000001
 20
34.40000000000002
 30
0.0
 11
-57.9
 21
33.02400000000002
 31
0.0
  0
LINE
  5
E0
330
88
100
AcDbEntity
  8
AM_4
100
AcDbLine
 10
-57.9
 20
33.02400000000002
 30
0.0
 11
-57.9
 21
-33.024
 31
0.0
  0
LINE
  5
E1
330
88
100
AcDbEntity
  8
AM_4
100
AcDbLine
 10
-56.52400000000001
 20
34.40000000000002
 30
0.0
 11
-56.52400000000001
 21
-34.40000000000001
 31
0.0
  0
LINE
  5
E2
330
88
100
AcDbEntity
  8
AM_4
100
AcDbLine
 10
-1.500000000000022
 20
34.05599999999998
 30
0.0
 11
-1.844000000000023
 21
34.40000000000002
 31
0.0
  0
LINE
  5
E3
330
88
100
AcDbEntity
  8
AM_4
100
AcDbLine
 10
-1.844000000000023
 20
-34.40000000000001
 30
0.0
 11
-1.500000000000022
 21
-34.05599999999996
 31
0.0
  0
LINE
  5
E4
330
88
100
AcDbEntity
  8
AM_4
100
AcDbLine
 10
-1.844000000000023
 20
34.40000000000002
 30
0.0
 11
-1.844000000000023
 21
-34.40000000000001
 31
0.0
  0
LINE
  5
E5
330
88
100
AcDbEntity
  8
AM_4
100
AcDbLine
 10
-1.500000000000022
 20
34.05599999999998
 30
0.0
 11
-1.500000000000022
 21
-34.05599999999996
 31
0.0
  0
ELLIPSE
  5
E6
330
88
100
AcDbEntity
  8
AM_4
100
AcDbEllipse
 10
-47.9
 20
14.19490217534662
 30
0.0
 11
4.188000000000002
 21
0.0
 31
0.0
210
0.0
220
0.0
230
1.0
 40
0.9063077870366507
 41
0.0
 42
6.283185307179586
  0
ENDBLK
  5
8B
330
88
100
AcDbEntity
  8
0
100
AcDbBlockEnd
  0
BLOCK
  5
E9
330
E7
100
AcDbEntity
  8
0
100
AcDbBlockBegin
  2
3_405015E_Metric_0_in_125710_2
 70
     2
 10
0.0
 20
0.0
 30
0.0
  3
3_405015E_Metric_0_in_125710_2
  1

  0
ATTDEF
  5
EB
330
E7
100
AcDbEntity
  8
AM_6
100
AcDbText
 10
-18.02649730810374
 20
59.37333579018921
 30
0.0
 40
0.5
  1
405015E -Metric
100
AcDbAttributeDefinition
  3

  2
NN
 70
     8
280
     0
  0
ATTDEF
  5
EC
330
E7
100
AcDbEntity
  8
AM_6
100
AcDbText
 10
-18.02649730810374
 20
58.87333579018921
 30
0.0
 40
0.5
  1
Grease Fitting
100
AcDbAttributeDefinition
  3

  2
NT
 70
     8
280
     0
  0
ATTDEF
  5
ED
330
E7
100
AcDbEntity
  8
AM_6
100
AcDbText
 10
-18.02649730810374
 20
58.37333579018921
 30
0.0
 40
0.5
  1
405015E-Metric
100
AcDbAttributeDefinition
  3

  2
NB
 70
     8
280
     0
  0
ATTDEF
  5
EE
330
E7
100
AcDbEntity
  8
AM_6
100
AcDbText
 10
-18.02649730810374
 20
57.87333579018921
 30
0.0
 40
0.5
  1
$MN.-Metric
100
AcDbAttributeDefinition
  3

  2
NBSYN
 70
     8
280
     0
  0
ATTDEF
  5
EF
330
E7
100
AcDbEntity
  8
AM_6
100
AcDbText
 10
-18.02649730810374
 20
57.37333579018921
 30
0.0
 40
0.5
  1
405015E
100
AcDbAttributeDefinition
  3

  2
LINA
 70
     8
280
     0
  0
ATTDEF
  5
F0
330
E7
100
AcDbEntity
  8
AM_6
100
AcDbText
 10
-18.02649730810374
 20
56.87333579018921
 30
0.0
 40
0.5
  1
405015E
100
AcDbAttributeDefinition
  3

  2
MN
 70
     8
280
     0
  0
ATTDEF
  5
F1
330
E7
100
AcDbEntity
  8
AM_6
100
AcDbText
 10
-18.02649730810374
 20
56.37333579018921
 30
0.0
 40
0.5
  1
1/8 x 27PTF
100
AcDbAttributeDefinition
  3

  2
T
 70
     8
280
     0
  0
ATTDEF
  5
F2
330
E7
100
AcDbEntity
  8
AM_6
100
AcDbText
 10
-18.02649730810374
 20
55.87333579018921
 30
0.0
 40
0.5
  1
baldor
100
AcDbAttributeDefinition
  3

  2
COMPANY
 70
     8
280
     0
  0
ELLIPSE
  5
F3
330
E7
100
AcDbEntity
  8
AM_9
100
AcDbEllipse
 10
-28.8
 20
46.20527216503149
 30
0.0
 11
-4.157993753183518
 21
5.092073740710886E-16
 31
0.0
210
0.0
220
0.0
230
1.0
 40
0.7071067811865479
 41
0.0
 42
6.283185307179586
  0
ELLIPSE
  5
F4
330
E7
100
AcDbEntity
  8
AM_9
100
AcDbEllipse
 10
-28.79999999999999
 20
50.96480790919816
 30
0.0
 11
5.000000000000007
 21
0.0
 31
0.0
210
0.0
220
0.0
230
1.0
 40
0.7071067811865408
 41
1.570796326794897
 42
2.617993877991498
  0
LWPOLYLINE
  5
F5
330
E7
100
AcDbEntity
  8
AM_9
100
AcDbPolyline
 90
        3
 70
     0
 43
0.0
 10
-32.78777245773374
 20
53.16071339212046
 10
-32.40843918243515
 20
53.65514121368905
 10
-31.68675134594812
 20
54.64689635763513
  0
LINE
  5
F6
330
E7
100
AcDbEntity
  8
AM_9
100
AcDbLine
 10
-33.1301270189222
 20
52.7325748621645
 30
0.0
 11
-32.78777245773374
 21
53.16071339212046
 31
0.0
  0
LINE
  5
F7
330
E7
100
AcDbEntity
  8
AM_9
100
AcDbLine
 10
-29.43805626363537
 20
54.50802423477796
 30
0.0
 11
-28.8
 21
54.50034181513087
 31
0.0
  0
LWPOLYLINE
  5
F8
330
E7
100
AcDbEntity
  8
AM_9
100
AcDbPolyline
 90
        4
 70
     0
 43
0.0
 10
-31.68675134594812
 20
54.64689635763513
 10
-31.03135904478312
 20
54.59039720264053
 10
-29.91901401901461
 20
54.52377707102541
 10
-29.43805626363537
 20
54.50802423477796
  0
LINE
  5
F9
330
E7
100
AcDbEntity
  8
AM_9
100
AcDbLine
 10
-24.82564526522567
 20
53.17784977853024
 30
0.0
 11
-24.4698729810778
 21
52.7325748621645
 31
0.0
  0
LWPOLYLINE
  5
FA
330
E7
100
AcDbEntity
  8
AM_9
100
AcDbPolyline
 90
        3
 70
     0
 43
0.0
 10
-25.91324865405187
 20
54.64689635763513
 10
-25.19480572040851
 20
53.65945713311154
 10
-24.82564526522567
 20
53.17784977853024
  0
LWPOLYLINE
  5
FB
330
E7
100
AcDbEntity
  8
AM_9
100
AcDbPolyline
 90
        3
 70
     0
 43
0.0
 10
-28.14856844762424
 20
54.5083483328889
 10
-27.35662432702593
 20
54.53902469017224
 10
-25.91324865405187
 20
54.64689635763513
  0
LINE
  5
FC
330
E7
100
AcDbEntity
  8
AM_9
100
AcDbLine
 10
-28.8
 20
54.50034181513087
 30
0.0
 11
-28.14856844762424
 21
54.5083483328889
 31
0.0
  0
LINE
  5
FD
330
E7
100
AcDbEntity
  8
AM_9
100
AcDbLine
 10
-25.91324865405187
 20
56.47510761618626
 30
0.0
 11
-25.91324865405187
 21
54.64689635763513
 31
0.0
  0
LINE
  5
FE
330
E7
100
AcDbEntity
  8
AM_9
100
AcDbLine
 10
-31.68675134594812
 20
56.47510761618626
 30
0.0
 11
-31.68675134594812
 21
54.64689635763513
 31
0.0
  0
LINE
  5
FF
330
E7
100
AcDbEntity
  8
AM_9
100
AcDbLine
 10
-25.64295898151951
 20
56.19151709245096
 30
0.0
 11
-25.91324865405187
 21
56.47510761618626
 31
0.0
  0
LWPOLYLINE
  5
100
330
E7
100
AcDbEntity
  8
AM_9
100
AcDbPolyline
 90
        3
 70
     0
 43
0.0
 10
-25.91324865405187
 20
56.47510761618626
 10
-27.35013452133859
 20
56.58263754234262
 10
-28.8
 20
56.62166215869051
  0
LINE
  5
101
330
E7
100
AcDbEntity
  8
AM_9
100
AcDbLine
 10
-31.68675134594812
 20
56.47510761618626
 30
0.0
 11
-31.95711084785526
 21
56.19144280944867
 31
0.0
  0
LWPOLYLINE
  5
102
330
E7
100
AcDbEntity
  8
AM_9
100
AcDbPolyline
 90
        4
 70
     0
 43
0.0
 10
-28.8
 20
56.62166215869051
 10
-29.91567952239156
 20
56.59836468836914
 10
-31.03135904478312
 20
56.53160677118086
 10
-31.68675134594812
 20
56.47510761618626
  0
LWPOLYLINE
  5
103
330
E7
100
AcDbEntity
  8
AM_9
100
AcDbPolyline
 90
        3
 70
     0
 43
0.0
 10
-24.1547767581855
 20
52.35415733811161
 10
-23.74818514459077
 20
51.88737426072268
 10
-23.02649730810374
 20
51.11136245170239
  0
LINE
  5
104
330
E7
100
AcDbEntity
  8
AM_9
100
AcDbLine
 10
-24.4698729810778
 20
52.7325748621645
 30
0.0
 11
-24.1547767581855
 21
52.35415733811161
 31
0.0
  0
ELLIPSE
  5
105
330
E7
100
AcDbEntity
  8
AM_9
100
AcDbEllipse
 10
-28.79999999999995
 20
50.96480790919814
 30
0.0
 11
5.00000000000005
 21
0.0
 31
0.0
210
0.0
220
0.0
230
1.0
 40
0.7071067811865476
 41
2.6179938779915
 42
3.665191429188086
  0
LINE
  5
106
330
E7
100
AcDbEntity
  8
AM_9
100
AcDbLine
 10
-33.49802024284671
 20
52.29220207218725
 30
0.0
 11
-33.1301270189222
 21
52.7325748621645
 31
0.0
  0
LWPOLYLINE
  5
107
330
E7
100
AcDbEntity
  8
AM_9
100
AcDbPolyline
 90
        3
 70
     0
 43
0.0
 10
-34.57350269189625
 20
51.11136245170239
 10
-33.8550597582529
 20
51.88374182391326
 10
-33.49802024284671
 20
52.29220207218725
  0
ELLIPSE
  5
108
330
E7
100
AcDbEntity
  8
AM_9
100
AcDbEllipse
 10
-28.8
 20
46.62956147980891
 30
0.0
 11
4.758029456511774
 21
7.090016389655731E-8
 31
0.0
210
0.0
220
0.0
230
1.0
 40
0.7071067811865248
 41
0.000001724255827
 42
3.172849283493415
  0
LINE
  5
109
330
E7
100
AcDbEntity
  8
AM_9
100
AcDbLine
 10
-24.04429459986381
 20
46.52441763512632
 30
0.0
 11
-23.85278597881429
 21
50.85543000226549
 31
0.0
  0
LINE
  5
10A
330
E7
100
AcDbEntity
  8
AM_9
100
AcDbLine
 10
-33.74721402118571
 20
50.85543000226549
 30
0.0
 11
-33.55570540013618
 21
46.52441763512633
 31
0.0
  0
ELLIPSE
  5
10B
330
E7
100
AcDbEntity
  8
AM_9
100
AcDbEllipse
 10
-28.79999999999999
 20
46.62956147980894
 30
0.0
 11
4.758029456511782
 21
0.0
 31
0.0
210
0.0
220
0.0
230
1.0
 40
0.7071067811865357
 41
3.172849304556559
 42
6.251928656212821
  0
ELLIPSE
  5
10C
330
E7
100
AcDbEntity
  8
AM_9
100
AcDbEllipse
 10
-28.80000000001575
 20
46.62956147980913
 30
0.0
 11
4.758029456527527
 21
0.0
 31
0.0
210
0.0
220
0.0
230
1.0
 40
0.7071067811865478
 41
6.251928656212867
 42
6.283185307179586
  0
ELLIPSE
  5
10D
330
E7
100
AcDbEntity
  8
AM_9
100
AcDbEllipse
 10
-28.79999999999999
 20
50.96480790919818
 30
0.0
 11
5.000000000000032
 21
0.0
 31
0.0
210
0.0
220
0.0
230
1.0
 40
0.7071067811865501
 41
3.6651914291881
 42
4.71238898038469
  0
ELLIPSE
  5
10E
330
E7
100
AcDbEntity
  8
AM_9
100
AcDbEllipse
 10
-28.79999999999999
 20
50.96480790919814
 30
0.0
 11
5.0
 21
0.0
 31
0.0
210
0.0
220
0.0
230
1.0
 40
0.7071067811865503
 41
4.71238898038469
 42
7.853981633974483
  0
ELLIPSE
  5
10F
330
E7
100
AcDbEntity
  8
AM_9
100
AcDbEllipse
 10
-28.80000000000002
 20
53.08612825275765
 30
0.0
 11
5.000000000000082
 21
0.0
 31
0.0
210
0.0
220
0.0
230
1.0
 40
0.7071067811865601
 41
0.8982051386269694
 42
2.24338751496301
  0
LINE
  5
110
330
E7
100
AcDbEntity
  8
AM_9
100
AcDbLine
 10
-30.78992883273251
 20
55.86581728316772
 30
0.0
 11
-31.20658641745394
 21
55.60199781128085
 31
0.0
  0
LINE
  5
111
330
E7
100
AcDbEntity
  8
AM_9
100
AcDbLine
 10
-26.39341358254605
 20
55.60199781128085
 30
0.0
 11
-26.81007116726749
 21
55.86581728316772
 31
0.0
  0
ELLIPSE
  5
112
330
E7
100
AcDbEntity
  8
AM_9
100
AcDbEllipse
 10
-28.8
 20
54.29444172228915
 30
0.0
 11
2.982994982562492
 21
0.0
 31
0.0
210
0.0
220
0.0
230
1.0
 40
0.7071067811865513
 41
0.3869422381883805
 42
2.301093308049174
  0
ELLIPSE
  5
113
330
E7
100
AcDbEntity
  8
AM_9
100
AcDbEllipse
 10
-28.80000000000004
 20
54.29444172228922
 30
0.0
 11
2.982994982562467
 21
0.0
 31
0.0
210
0.0
220
0.0
230
1.0
 40
0.7071067811865358
 41
2.301093308049175
 42
2.754650415401429
  0
ELLIPSE
  5
114
330
E7
100
AcDbEntity
  8
AM_9
100
AcDbEllipse
 10
-28.8
 20
53.70160267185438
 30
0.0
 11
3.607583894601092
 21
0.0
 31
0.0
210
0.0
220
0.0
230
1.0
 40
0.7071067811865501
 41
0.8404993455406213
 42
2.338287027841798
  0
ELLIPSE
  5
115
330
E7
100
AcDbEntity
  8
AM_9
100
AcDbEllipse
 10
-28.8000000000001
 20
53.70160267185518
 30
0.0
 11
3.607583894600946
 21
0.0
 31
0.0
210
0.0
220
0.0
230
1.0
 40
0.7071067811864191
 41
-3.944898279337688
 42
-3.804975968778577
  0
LINE
  5
116
330
E7
100
AcDbEntity
  8
AM_9
100
AcDbLine
 10
-31.27722991985558
 20
55.5853504751308
 30
0.0
 11
-31.54897711671493
 21
55.11378882426581
 31
0.0
  0
LINE
  5
117
330
E7
100
AcDbEntity
  8
AM_9
100
AcDbLine
 10
-26.05102288328506
 20
55.11378882426581
 30
0.0
 11
-26.32277008014442
 21
55.5853504751308
 31
0.0
  0
ELLIPSE
  5
118
330
E7
100
AcDbEntity
  8
AM_9
100
AcDbEllipse
 10
-28.8
 20
54.87157287525382
 30
0.0
 11
2.67499999999999
 21
0.0
 31
0.0
210
0.0
220
0.0
230
1.0
 40
0.7071067811865485
 41
0.3869422381883814
 42
3.141592653589793
  0
ELLIPSE
  5
119
330
E7
100
AcDbEntity
  8
AM_9
100
AcDbEllipse
 10
-28.79999999999861
 20
53.70160267184526
 30
0.0
 11
3.607583894598971
 21
0.0
 31
0.0
210
0.0
220
0.0
230
1.0
 40
0.7071067811886518
 41
0.6633833151905328
 42
0.8404993455418144
  0
ELLIPSE
  5
11A
330
E7
100
AcDbEntity
  8
AM_9
100
AcDbEllipse
 10
-28.79999999999999
 20
53.08612825275775
 30
0.0
 11
4.750000000000025
 21
0.0
 31
0.0
210
0.0
220
0.0
230
1.0
 40
0.707106781186551
 41
0.8736482899486271
 42
2.267944363641176
  0
ELLIPSE
  5
11B
330
E7
100
AcDbEntity
  8
AM_9
100
AcDbEllipse
 10
-28.79999999999998
 20
54.87157287525371
 30
0.0
 11
2.674999999999983
 21
0.0
 31
0.0
210
0.0
220
0.0
230
1.0
 40
0.7071067811865582
 41
0.0
 42
0.3869422381884309
  0
LINE
  5
11C
330
E7
100
AcDbEntity
  8
AM_9
100
AcDbLine
 10
-26.125
 20
54.98824549414958
 30
0.0
 11
-26.125
 21
55.36654762208438
 31
0.0
  0
LINE
  5
11D
330
E7
100
AcDbEntity
  8
AM_9
100
AcDbLine
 10
-31.47499999999999
 20
55.36654762208438
 30
0.0
 11
-31.47499999999999
 21
54.98824549414959
 31
0.0
  0
ELLIPSE
  5
11E
330
E7
100
AcDbEntity
  8
AM_9
100
AcDbEllipse
 10
-28.80000000000013
 20
55.36654762208428
 30
0.0
 11
2.674999999999869
 21
3.986060619354053E-8
 31
0.0
210
0.0
220
0.0
230
1.0
 40
0.7071067811865378
 41
3.141592638688632
 42
3.536383753774788
  0
ELLIPSE
  5
11F
330
E7
100
AcDbEntity
  8
AM_9
100
AcDbEllipse
 10
-28.8
 20
55.36654762208438
 30
0.0
 11
2.674999999999997
 21
3.986060619354244E-8
 31
0.0
210
0.0
220
0.0
230
1.0
 40
0.7071067811865492
 41
0.0000017304280906
 42
3.141592638688632
  0
ELLIPSE
  5
120
330
E7
100
AcDbEntity
  8
AM_9
100
AcDbEllipse
 10
-28.80000000000007
 20
55.36654762208431
 30
0.0
 11
2.675000000000079
 21
0.0
 31
0.0
210
0.0
220
0.0
230
1.0
 40
0.7071067811865382
 41
5.888394187479869
 42
6.283185307179586
  0
ELLIPSE
  5
121
330
E7
100
AcDbEntity
  8
AM_9
100
AcDbEllipse
 10
-28.8
 20
56.2857864376269
 30
0.0
 11
3.175000000000004
 21
4.731118679046638E-8
 31
0.0
210
0.0
220
0.0
230
1.0
 40
0.707106781186546
 41
0.4159140327491073
 42
2.725678582133805
  0
ELLIPSE
  5
122
330
E7
100
AcDbEntity
  8
AM_9
100
AcDbEllipse
 10
-28.8
 20
50.96480790919812
 30
0.0
 11
4.949631665534987
 21
0.0
 31
0.0
210
0.0
220
0.0
230
1.0
 40
0.707106781186547
 41
0.0
 42
6.283185307179586
  0
LWPOLYLINE
  5
123
330
E7
100
AcDbEntity
  8
AM_4
100
AcDbPolyline
 90
        3
 70
     0
 43
0.0
 10
-24.4698729810778
 20
54.85389520572414
 10
-25.19156081756483
 20
55.69909580716597
 10
-25.64295898151951
 20
56.19151709245096
  0
LWPOLYLINE
  5
124
330
E7
100
AcDbEntity
  8
AM_4
100
AcDbPolyline
 90
        3
 70
     0
 43
0.0
 10
-31.95711084785526
 20
56.19144280944867
 10
-32.40519427959148
 20
55.70272824397539
 10
-33.13012701892219
 20
54.85389520572414
  0
LWPOLYLINE
  5
125
330
E7
100
AcDbEntity
  8
AM_4
100
AcDbPolyline
 90
        3
 70
     0
 43
0.0
 10
-33.13012701892219
 20
54.85389520572414
 10
-33.85181485540922
 20
53.9313288541996
 10
-34.57350269189625
 20
52.93957371025352
  0
LWPOLYLINE
  5
126
330
E7
100
AcDbEntity
  8
AM_4
100
AcDbPolyline
 90
        3
 70
     0
 43
0.0
 10
-23.02649730810374
 20
52.93957371025352
 10
-23.7449402417471
 20
53.92701293477711
 10
-24.4698729810778
 20
54.85389520572414
  0
LWPOLYLINE
  5
127
330
E7
100
AcDbEntity
  8
AM_4
100
AcDbPolyline
 90
        4
 70
     0
 43
0.0
 10
-31.68675134594812
 20
49.40403980432078
 10
-31.03135904478312
 20
49.46053895931538
 10
-29.91901401901461
 20
49.5271590909305
 10
-28.8
 20
49.55059434682503
  0
LWPOLYLINE
  5
128
330
E7
100
AcDbEntity
  8
AM_4
100
AcDbPolyline
 90
        4
 70
     0
 43
0.0
 10
-29.8964556216948
 20
47.45178476204784
 10
-29.91567952239156
 20
47.45257147358677
 10
-31.03135904478312
 20
47.51932939077505
 10
-31.68675134594812
 20
47.57582854576965
  0
LINE
  5
129
330
E7
100
AcDbEntity
  8
AM_4
100
AcDbLine
 10
-29.71783166054297
 20
47.44510288906312
 30
0.0
 11
-29.8964556216948
 21
47.45178476204784
 31
0.0
  0
LINE
  5
12A
330
E7
100
AcDbEntity
  8
AM_4
100
AcDbLine
 10
-28.8
 20
47.4292740032654
 30
0.0
 11
-29.71783166054297
 21
47.44510288906312
 31
0.0
  0
LINE
  5
12B
330
E7
100
AcDbEntity
  8
AM_4
100
AcDbLine
 10
-27.90188403704903
 20
47.44443545729213
 30
0.0
 11
-28.8
 21
47.4292740032654
 31
0.0
  0
LINE
  5
12C
330
E7
100
AcDbEntity
  8
AM_4
100
AcDbLine
 10
-27.6412069243081
 20
47.45438312958198
 30
0.0
 11
-27.90188403704903
 21
47.44443545729213
 31
0.0
  0
LWPOLYLINE
  5
12D
330
E7
100
AcDbEntity
  8
AM_4
100
AcDbPolyline
 90
        3
 70
     0
 43
0.0
 10
-25.91324865405187
 20
47.57582854576965
 10
-27.35013452133859
 20
47.46829861961329
 10
-27.6412069243081
 20
47.45438312958198
  0
LINE
  5
12E
330
E7
100
AcDbEntity
  8
AM_4
100
AcDbLine
 10
-23.02649730810374
 20
52.93957371025352
 30
0.0
 11
-23.02649730810374
 21
51.11136245170239
 31
0.0
  0
LWPOLYLINE
  5
12F
330
E7
100
AcDbEntity
  8
AM_4
100
AcDbPolyline
 90
        3
 70
     0
 43
0.0
 10
-24.4698729810778
 20
51.31836129979141
 10
-23.74818514459077
 20
52.16356190123323
 10
-23.02649730810374
 20
52.93957371025352
  0
LINE
  5
130
330
E7
100
AcDbEntity
  8
AM_4
100
AcDbLine
 10
-25.91324865405187
 20
49.40403980432078
 30
0.0
 11
-25.91324865405187
 21
47.57582854576965
 31
0.0
  0
LWPOLYLINE
  5
131
330
E7
100
AcDbEntity
  8
AM_4
100
AcDbPolyline
 90
        3
 70
     0
 43
0.0
 10
-24.96826860585747
 20
48.60527552211305
 10
-25.19156081756483
 20
48.35184035478994
 10
-25.91324865405187
 20
47.57582854576965
  0
LINE
  5
132
330
E7
100
AcDbEntity
  8
AM_4
100
AcDbLine
 10
-24.91893130941731
 20
48.66222054890674
 30
0.0
 11
-24.96826860585747
 21
48.60527552211305
 31
0.0
  0
LINE
  5
133
330
E7
100
AcDbEntity
  8
AM_4
100
AcDbLine
 10
-24.4698729810778
 20
49.19704095623177
 30
0.0
 11
-24.91893130941731
 21
48.66222054890674
 31
0.0
  0
LINE
  5
134
330
E7
100
AcDbEntity
  8
AM_4
100
AcDbLine
 10
-24.00850066322143
 20
49.77810172267436
 30
0.0
 11
-24.4698729810778
 21
49.19704095623177
 31
0.0
  0
LWPOLYLINE
  5
135
330
E7
100
AcDbEntity
  8
AM_4
100
AcDbPolyline
 90
        3
 70
     0
 43
0.0
 10
-23.02649730810374
 20
51.11136245170239
 10
-23.7449402417471
 20
50.1239232271788
 10
-24.00850066322143
 20
49.77810172267436
  0
LWPOLYLINE
  5
136
330
E7
100
AcDbEntity
  8
AM_4
100
AcDbPolyline
 90
        3
 70
     0
 43
0.0
 10
-28.8
 20
49.55059434682503
 10
-27.35662432702593
 20
49.51191147178368
 10
-25.91324865405187
 20
49.40403980432078
  0
LWPOLYLINE
  5
137
330
E7
100
AcDbEntity
  8
AM_4
100
AcDbPolyline
 90
        3
 70
     0
 43
0.0
 10
-25.91324865405187
 20
49.40403980432078
 10
-25.19480572040851
 20
50.39147902884437
 10
-24.4698729810778
 20
51.31836129979141
  0
ELLIPSE
  5
138
330
E7
100
AcDbEntity
  8
AM_4
100
AcDbEllipse
 10
-28.79999999999997
 20
53.08612825275777
 30
0.0
 11
5.000000000000046
 21
0.0
 31
0.0
210
0.0
220
0.0
230
1.0
 40
0.707106781186541
 41
3.665191429188091
 42
4.71238898038469
  0
ELLIPSE
  5
139
330
E7
100
AcDbEntity
  8
AM_4
100
AcDbEllipse
 10
-28.80000000000003
 20
53.08612825275777
 30
0.0
 11
5.00000000000005
 21
0.0
 31
0.0
210
0.0
220
0.0
230
1.0
 40
0.7071067811865405
 41
4.71238898038469
 42
7.181390445806547
  0
ELLIPSE
  5
13A
330
E7
100
AcDbEntity
  8
AM_4
100
AcDbEllipse
 10
-28.79999999999988
 20
53.0861282527579
 30
0.0
 11
5.000000000000149
 21
0.0
 31
0.0
210
0.0
220
0.0
230
1.0
 40
0.7071067811865207
 41
2.243387514963049
 42
2.617993877991521
  0
ELLIPSE
  5
13B
330
E7
100
AcDbEntity
  8
AM_4
100
AcDbEllipse
 10
-28.80000000000003
 20
53.0861282527578
 30
0.0
 11
4.999999999999964
 21
0.0
 31
0.0
210
0.0
220
0.0
230
1.0
 40
0.7071067811865483
 41
2.617993877991498
 42
3.665191429188098
  0
LINE
  5
13C
330
E7
100
AcDbEntity
  8
AM_4
100
AcDbLine
 10
-31.68675134594812
 20
49.40403980432078
 30
0.0
 11
-31.68675134594812
 21
47.57582854576965
 31
0.0
  0
LWPOLYLINE
  5
13D
330
E7
100
AcDbEntity
  8
AM_4
100
AcDbPolyline
 90
        3
 70
     0
 43
0.0
 10
-33.1301270189222
 20
51.31836129979141
 10
-32.40843918243515
 20
50.39579494826685
 10
-31.68675134594812
 20
49.40403980432078
  0
LWPOLYLINE
  5
13E
330
E7
100
AcDbEntity
  8
AM_4
100
AcDbPolyline
 90
        3
 70
     0
 43
0.0
 10
-34.57350269189625
 20
52.93957371025352
 10
-33.8550597582529
 20
52.16719433804265
 10
-33.1301270189222
 20
51.31836129979141
  0
LINE
  5
13F
330
E7
100
AcDbEntity
  8
AM_4
100
AcDbLine
 10
-34.57350269189625
 20
52.93957371025352
 30
0.0
 11
-34.57350269189625
 21
51.11136245170239
 31
0.0
  0
LWPOLYLINE
  5
140
330
E7
100
AcDbEntity
  8
AM_4
100
AcDbPolyline
 90
        3
 70
     0
 43
0.0
 10
-33.60066007119759
 20
49.78995732409428
 10
-33.85181485540922
 20
50.11960730775631
 10
-34.57350269189625
 20
51.11136245170239
  0
LINE
  5
141
330
E7
100
AcDbEntity
  8
AM_4
100
AcDbLine
 10
-33.1301270189222
 20
49.19704095623177
 30
0.0
 11
-33.60066007119759
 21
49.78995732409428
 31
0.0
  0
LINE
  5
142
330
E7
100
AcDbEntity
  8
AM_4
100
AcDbLine
 10
-32.6810690374467
 20
48.66222095048894
 30
0.0
 11
-33.1301270189222
 21
49.19704095623177
 31
0.0
  0
LINE
  5
143
330
E7
100
AcDbEntity
  8
AM_4
100
AcDbLine
 10
-32.61220718285313
 20
48.58283703121283
 30
0.0
 11
-32.6810690374467
 21
48.66222095048894
 31
0.0
  0
LWPOLYLINE
  5
144
330
E7
100
AcDbEntity
  8
AM_4
100
AcDbPolyline
 90
        3
 70
     0
 43
0.0
 10
-31.68675134594812
 20
47.57582854576965
 10
-32.40519427959148
 20
48.34820791798052
 10
-32.61220718285313
 20
48.58283703121283
  0
ELLIPSE
  5
145
330
E7
100
AcDbEntity
  8
AM_4
100
AcDbEllipse
 10
-28.8
 20
53.70160267185436
 30
0.0
 11
3.607583894601109
 21
5.375718913377985E-8
 31
0.0
210
0.0
220
0.0
230
1.0
 40
0.7071067811865486
 41
2.478209321322883
 42
6.283187037607677
  0
ELLIPSE
  5
146
330
E7
100
AcDbEntity
  8
AM_4
100
AcDbEllipse
 10
-28.80000000000016
 20
54.29444172228912
 30
0.0
 11
2.982994982562676
 21
0.0
 31
0.0
210
0.0
220
0.0
230
1.0
 40
0.7071067811865481
 41
0.0
 42
0.386942238188375
  0
LINE
  5
147
330
E7
100
AcDbEntity
  8
AM_4
100
AcDbLine
 10
-31.54897711671493
 20
55.11378882426581
 30
0.0
 11
-31.56245398937679
 21
55.09040246961571
 31
0.0
  0
LINE
  5
148
330
E7
100
AcDbEntity
  8
AM_4
100
AcDbLine
 10
-26.0375460106232
 20
55.09040246961571
 30
0.0
 11
-26.05102288328506
 21
55.11378882426581
 31
0.0
  0
ELLIPSE
  5
149
330
E7
100
AcDbEntity
  8
AM_4
100
AcDbEllipse
 10
-28.8
 20
54.29444172228915
 30
0.0
 11
2.982994982562513
 21
0.0
 31
0.0
210
0.0
220
0.0
230
1.0
 40
0.7071067811865487
 41
2.754650415401411
 42
6.283185307179586
  0
ELLIPSE
  5
14A
330
E7
100
AcDbEntity
  8
AM_4
100
AcDbEllipse
 10
-28.79999999999991
 20
53.70160267185445
 30
0.0
 11
3.607583894601028
 21
0.0
 31
0.0
210
0.0
220
0.0
230
1.0
 40
0.7071067811865409
 41
0.0
 42
0.6633833151889222
  0
ELLIPSE
  5
14B
330
E7
100
AcDbEntity
  8
AM_4
100
AcDbEllipse
 10
-28.8
 20
53.08612825275778
 30
0.0
 11
4.750000000000011
 21
0.0
 31
0.0
210
0.0
220
0.0
230
1.0
 40
0.7071067811865487
 41
2.267944363641178
 42
6.283185307179586
  0
ELLIPSE
  5
14C
330
E7
100
AcDbEntity
  8
AM_4
100
AcDbEllipse
 10
-28.8
 20
53.0861282527577
 30
0.0
 11
4.750000000000007
 21
0.0
 31
0.0
210
0.0
220
0.0
230
1.0
 40
0.7071067811865537
 41
0.0
 42
0.8736482899486343
  0
LINE
  5
14D
330
E7
100
AcDbEntity
  8
AM_4
100
AcDbLine
 10
-26.125
 20
54.8715728752538
 30
0.0
 11
-26.125
 21
54.98824549414958
 31
0.0
  0
LINE
  5
14E
330
E7
100
AcDbEntity
  8
AM_4
100
AcDbLine
 10
-31.47499999999999
 20
54.98824549414959
 30
0.0
 11
-31.47499999999999
 21
54.8715728752538
 31
0.0
  0
ELLIPSE
  5
14F
330
E7
100
AcDbEntity
  8
AM_4
100
AcDbEllipse
 10
-28.8
 20
54.8715728752538
 30
0.0
 11
2.674999999999997
 21
3.986060619354244E-8
 31
0.0
210
0.0
220
0.0
230
1.0
 40
0.7071067811865466
 41
3.141592638688632
 42
6.283187037607677
  0
LINE
  5
150
330
E7
100
AcDbEntity
  8
AM_4
100
AcDbLine
 10
-26.33076923076923
 20
54.63904352990208
 30
0.0
 11
-25.86923076923076
 21
55.42230027213948
 31
0.0
  0
LINE
  5
151
330
E7
100
AcDbEntity
  8
AM_4
100
AcDbLine
 10
-31.73076923076922
 20
55.42230027213948
 30
0.0
 11
-31.26923076923076
 21
54.63904352990208
 31
0.0
  0
ELLIPSE
  5
152
330
E7
100
AcDbEntity
  8
AM_4
100
AcDbEllipse
 10
-28.79999999999999
 20
56.28578643762691
 30
0.0
 11
3.175000000000001
 21
0.0
 31
0.0
210
0.0
220
0.0
230
1.0
 40
0.707106781186549
 41
3.536383773289559
 42
6.283185307179586
  0
ELLIPSE
  5
153
330
E7
100
AcDbEntity
  8
AM_4
100
AcDbEllipse
 10
-28.79999999999999
 20
55.36654762208438
 30
0.0
 11
2.674999999999986
 21
0.0
 31
0.0
210
0.0
220
0.0
230
1.0
 40
0.7071067811865493
 41
3.536383773289547
 42
5.888394187479827
  0
ELLIPSE
  5
154
330
E7
100
AcDbEntity
  8
AM_4
100
AcDbEllipse
 10
-28.79999999999993
 20
57.7
 30
0.0
 11
2.366947548329623
 21
0.0
 31
0.0
210
0.0
220
0.0
230
1.0
 40
0.7071067811865417
 41
2.725678601487258
 42
6.699099359282144
  0
ELLIPSE
  5
155
330
E7
100
AcDbEntity
  8
AM_4
100
AcDbEllipse
 10
-28.80000000000007
 20
56.28578643762688
 30
0.0
 11
3.175000000000072
 21
0.0
 31
0.0
210
0.0
220
0.0
230
1.0
 40
0.7071067811865467
 41
0.0
 42
0.4159140521025452
  0
LINE
  5
156
330
E7
100
AcDbEntity
  8
AM_4
100
AcDbLine
 10
-30.9651591196919
 20
58.37621249728131
 30
0.0
 11
-31.70432300025952
 21
57.19285118453406
 31
0.0
  0
LINE
  5
157
330
E7
100
AcDbEntity
  8
AM_4
100
AcDbLine
 10
-25.89567699974047
 20
57.19285118453406
 30
0.0
 11
-26.63484088030809
 21
58.37621249728131
 31
0.0
  0
ELLIPSE
  5
158
330
E7
100
AcDbEntity
  8
AM_4
100
AcDbEllipse
 10
-28.79999999999999
 20
57.7
 30
0.0
 11
2.366947548329683
 21
3.527026695504313E-8
 31
0.0
210
0.0
220
0.0
230
1.0
 40
0.7071067811865447
 41
0.4159140327491047
 42
2.725678582133807
  0
ELLIPSE
  5
159
330
E7
100
AcDbEntity
  8
AM_4
100
AcDbEllipse
 10
-28.80000000000009
 20
56.28578643762692
 30
0.0
 11
3.174999999999908
 21
0.0
 31
0.0
210
0.0
220
0.0
230
1.0
 40
0.7071067811865472
 41
2.725678601487245
 42
3.536383773289578
  0
ENDBLK
  5
EA
330
E7
100
AcDbEntity
  8
0
100
AcDbBlockEnd
  0
BLOCK
  5
15C
330
15A
100
AcDbEntity
  8
0
100
AcDbBlockBegin
  2
4_123619vscM_0_in_125710_2
 70
     2
 10
0.0
 20
0.0
 30
0.0
  3
4_123619vscM_0_in_125710_2
  1

  0
ATTDEF
  5
15E
330
15A
100
AcDbEntity
  8
AM_6
100
AcDbText
 10
7.895
 20
109.6
 30
0.0
 40
0.5
  1
F2B-VSMetric - housing
100
AcDbAttributeDefinition
  3

  2
NN
 70
     8
280
     0
  0
ATTDEF
  5
15F
330
15A
100
AcDbEntity
  8
AM_6
100
AcDbText
 10
7.895
 20
109.1
 30
0.0
 40
0.5
  1
VSC Intermediate Duty 2-Bolt Flange Bearings
100
AcDbAttributeDefinition
  3

  2
NT
 70
     8
280
     0
  0
ATTDEF
  5
160
330
15A
100
AcDbEntity
  8
AM_6
100
AcDbText
 10
7.895
 20
108.6
 30
0.0
 40
0.5
  1
123619vscM
100
AcDbAttributeDefinition
  3

  2
NB
 70
     8
280
     0
  0
ATTDEF
  5
161
330
15A
100
AcDbEntity
  8
AM_6
100
AcDbText
 10
7.895
 20
108.1
 30
0.0
 40
0.5
  1
$PN.M
100
AcDbAttributeDefinition
  3

  2
NBSYN
 70
     8
280
     0
  0
ATTDEF
  5
162
330
15A
100
AcDbEntity
  8
AM_6
100
AcDbText
 10
7.895
 20
107.6
 30
0.0
 40
0.5
  1
123619vscM
100
AcDbAttributeDefinition
  3

  2
LINA
 70
     8
280
     0
  0
ATTDEF
  5
163
330
15A
100
AcDbEntity
  8
AM_6
100
AcDbText
 10
7.895
 20
107.1
 30
0.0
 40
0.5
  1
211
100
AcDbAttributeDefinition
  3

  2
RS
 70
     8
280
     0
  0
ATTDEF
  5
164
330
15A
100
AcDbEntity
  8
AM_6
100
AcDbText
 10
7.895
 20
106.6
 30
0.0
 40
0.5
  1
55
100
AcDbAttributeDefinition
  3

  2
SS
 70
     8
280
     0
  0
ATTDEF
  5
165
330
15A
100
AcDbEntity
  8
AM_6
100
AcDbText
 10
7.895
 20
106.1
 30
0.0
 40
0.5
  1
55.000000
100
AcDbAttributeDefinition
  3

  2
SS1
 70
     8
280
     0
  0
ATTDEF
  5
166
330
15A
100
AcDbEntity
  8
AM_6
100
AcDbText
 10
7.895
 20
105.6
 30
0.0
 40
0.5
  1
123619vsc
100
AcDbAttributeDefinition
  3

  2
PN
 70
     8
280
     0
  0
ATTDEF
  5
167
330
15A
100
AcDbEntity
  8
AM_6
100
AcDbText
 10
7.895
 20
105.1
 30
0.0
 40
0.5
  1
100.000
100
AcDbAttributeDefinition
  3

  2
BOD
 70
     8
280
     0
  0
ATTDEF
  5
168
330
15A
100
AcDbEntity
  8
AM_6
100
AcDbText
 10
7.895
 20
104.6
 30
0.0
 40
0.5
  1
F2B-VSC-55M
100
AcDbAttributeDefinition
  3

  2
DESCRIPTION
 70
     8
280
     0
  0
ATTDEF
  5
169
330
15A
100
AcDbEntity
  8
AM_6
100
AcDbText
 10
7.895
 20
104.1
 30
0.0
 40
0.5
  1
2.99
100
AcDbAttributeDefinition
  3

  2
WEIGHT
 70
     8
280
     0
  0
ATTDEF
  5
16A
330
15A
100
AcDbEntity
  8
AM_6
100
AcDbText
 10
7.895
 20
103.6
 30
0.0
 40
0.5
  1
56.400
100
AcDbAttributeDefinition
  3

  2
A
 70
     8
280
     0
  0
ATTDEF
  5
16B
330
15A
100
AcDbEntity
  8
AM_6
100
AcDbText
 10
7.895
 20
103.1
 30
0.0
 40
0.5
  1
219.200
100
AcDbAttributeDefinition
  3

  2
B
 70
     8
280
     0
  0
ATTDEF
  5
16C
330
15A
100
AcDbEntity
  8
AM_6
100
AcDbText
 10
7.895
 20
102.6
 30
0.0
 40
0.5
  1
57.900
100
AcDbAttributeDefinition
  3

  2
C
 70
     8
280
     0
  0
ATTDEF
  5
16D
330
15A
100
AcDbEntity
  8
AM_6
100
AcDbText
 10
7.895
 20
102.1
 30
0.0
 40
0.5
  1
184.200
100
AcDbAttributeDefinition
  3

  2
D
 70
     8
280
     0
  0
ATTDEF
  5
16E
330
15A
100
AcDbEntity
  8
AM_6
100
AcDbText
 10
7.895
 20
101.6
 30
0.0
 40
0.5
  1
M16
100
AcDbAttributeDefinition
  3

  2
F
 70
     8
280
     0
  0
ATTDEF
  5
16F
330
15A
100
AcDbEntity
  8
AM_6
100
AcDbText
 10
7.895
 20
101.1
 30
0.0
 40
0.5
  1
16.000
100
AcDbAttributeDefinition
  3

  2
F1
 70
     8
280
     0
  0
ATTDEF
  5
170
330
15A
100
AcDbEntity
  8
AM_6
100
AcDbText
 10
7.895
 20
100.6
 30
0.0
 40
0.5
  1
17.000
100
AcDbAttributeDefinition
  3

  2
H
 70
     8
280
     0
  0
ATTDEF
  5
171
330
15A
100
AcDbEntity
  8
AM_6
100
AcDbText
 10
7.895
 20
100.1
 30
0.0
 40
0.5
  1
17.300
100
AcDbAttributeDefinition
  3

  2
J
 70
     8
280
     0
  0
ATTDEF
  5
172
330
15A
100
AcDbEntity
  8
AM_6
100
AcDbText
 10
7.895
 20
99.60000000000001
 30
0.0
 40
0.5
  1
68.800
100
AcDbAttributeDefinition
  3

  2
L
 70
     8
280
     0
  0
ATTDEF
  5
173
330
15A
100
AcDbEntity
  8
AM_6
100
AcDbText
 10
7.895
 20
99.10000000000001
 30
0.0
 40
0.5
  1
133.400
100
AcDbAttributeDefinition
  3

  2
M
 70
     8
280
     0
  0
ATTDEF
  5
174
330
15A
100
AcDbEntity
  8
AM_6
100
AcDbText
 10
7.895
 20
98.60000000000001
 30
0.0
 40
0.5
  1
57.700
100
AcDbAttributeDefinition
  3

  2
N
 70
     8
280
     0
  0
ATTDEF
  5
175
330
15A
100
AcDbEntity
  8
AM_6
100
AcDbText
 10
7.895
 20
98.10000000000001
 30
0.0
 40
0.5
  1
baldor
100
AcDbAttributeDefinition
  3

  2
COMPANY
 70
     8
280
     0
  0
LINE
  5
176
330
15A
100
AcDbEntity
  8
AM_9
100
AcDbLine
 10
-17.0
 20
-100.1
 30
0.0
 11
0.0
 21
-100.1
 31
0.0
  0
LINE
  5
177
330
15A
100
AcDbEntity
  8
AM_9
100
AcDbLine
 10
0.0
 20
-84.10000000000001
 30
0.0
 11
-17.0
 21
-84.10000000000001
 31
0.0
  0
LINE
  5
178
330
15A
100
AcDbEntity
  8
AM_9
100
AcDbLine
 10
-17.0
 20
84.10000000000001
 30
0.0
 11
0.0
 21
84.10000000000001
 31
0.0
  0
LINE
  5
179
330
15A
100
AcDbEntity
  8
AM_9
100
AcDbLine
 10
0.0
 20
100.1
 30
0.0
 11
-17.0
 21
100.1
 31
0.0
  0
LINE
  5
17A
330
15A
100
AcDbEntity
  8
AM_9
100
AcDbLine
 10
-3.4
 20
60.62478696585507
 30
0.0
 11
-3.4
 21
68.18073999999999
 31
0.0
  0
LINE
  5
17B
330
15A
100
AcDbEntity
  8
AM_9
100
AcDbLine
 10
0.0
 20
68.18073999999999
 30
0.0
 11
-3.4
 21
68.18073999999999
 31
0.0
  0
LINE
  5
17C
330
15A
100
AcDbEntity
  8
AM_9
100
AcDbLine
 10
-3.4
 20
-68.18074000000001
 30
0.0
 11
0.0
 21
-68.18074000000001
 31
0.0
  0
LINE
  5
17D
330
15A
100
AcDbEntity
  8
AM_9
100
AcDbLine
 10
-3.4
 20
-68.18074000000001
 30
0.0
 11
-3.4
 21
-60.62478696585504
 31
0.0
  0
LINE
  5
17E
330
15A
100
AcDbEntity
  8
AM_9
100
AcDbLine
 10
-40.59999999999999
 20
55.31365326269471
 30
0.0
 11
-15.3
 21
55.31365326269471
 31
0.0
  0
LINE
  5
17F
330
15A
100
AcDbEntity
  8
AM_9
100
AcDbLine
 10
-40.59999999999999
 20
54.56970448690854
 30
0.0
 11
-15.3
 21
54.56970448690854
 31
0.0
  0
LINE
  5
180
330
15A
100
AcDbEntity
  8
AM_9
100
AcDbLine
 10
-3.399999999999998
 20
-57.19220152864414
 30
0.0
 11
0.0000000000000023
 21
-57.19220152864414
 31
0.0
  0
LINE
  5
181
330
15A
100
AcDbEntity
  8
AM_9
100
AcDbLine
 10
-3.399999999999998
 20
57.19220226286254
 30
0.0
 11
0.0000000000000023
 21
57.19220226286254
 31
0.0
  0
LINE
  5
182
330
15A
100
AcDbEntity
  8
AM_9
100
AcDbLine
 10
-15.3
 20
38.23507254195958
 30
0.0
 11
-15.3
 21
57.07894984538366
 31
0.0
  0
LINE
  5
183
330
15A
100
AcDbEntity
  8
AM_9
100
AcDbLine
 10
-3.399999999999998
 20
56.93593268528829
 30
0.0
 11
-15.3
 21
56.93593268528829
 31
0.0
  0
LINE
  5
184
330
15A
100
AcDbEntity
  8
AM_9
100
AcDbLine
 10
-25.82974603490015
 20
57.07894984538366
 30
0.0
 11
-31.77025396509984
 21
57.07894984538366
 31
0.0
  0
LINE
  5
185
330
15A
100
AcDbEntity
  8
AM_9
100
AcDbLine
 10
-40.59999999999999
 20
-50.0
 30
0.0
 11
-3.4
 21
-50.0
 31
0.0
  0
LINE
  5
186
330
15A
100
AcDbEntity
  8
AM_9
100
AcDbLine
 10
-3.4
 20
50.0
 30
0.0
 11
-40.59999999999999
 21
50.0
 31
0.0
  0
ELLIPSE
  5
187
330
15A
100
AcDbEntity
  8
AM_9
100
AcDbEllipse
 10
-28.79999999999995
 20
50.96480790919805
 30
0.0
 11
5.080000000000059
 21
0.0
 31
0.0
210
0.0
220
0.0
230
1.0
 40
0.7071067811865489
 41
2.477837542401623
 42
3.141592653589793
  0
ELLIPSE
  5
188
330
15A
100
AcDbEntity
  8
AM_9
100
AcDbEllipse
 10
-28.79999999999998
 20
50.96480790919816
 30
0.0
 11
5.08000000000004
 21
7.569789886474670E-8
 31
0.0
210
0.0
220
0.0
230
1.0
 40
0.7071067811865444
 41
1.570796316258189
 42
2.477837525327459
  0
LINE
  5
189
330
15A
100
AcDbEntity
  8
AM_9
100
AcDbLine
 10
-23.71999999999998
 20
50.946847396956
 30
0.0
 11
-23.71999999999998
 21
50.96480790919814
 31
0.0
  0
LINE
  5
18A
330
15A
100
AcDbEntity
  8
AM_9
100
AcDbLine
 10
-33.88000000000001
 20
50.96480790919814
 30
0.0
 11
-33.88000000000001
 21
50.946847396956
 31
0.0
  0
ELLIPSE
  5
18B
330
15A
100
AcDbEntity
  8
AM_9
100
AcDbEllipse
 10
-28.80000000000027
 20
50.96480790919831
 30
0.0
 11
5.080000000000293
 21
0.0
 31
0.0
210
0.0
220
0.0
230
1.0
 40
0.707106781186554
 41
5.948409517682894
 42
6.952355251769918
  0
ELLIPSE
  5
18C
330
15A
100
AcDbEntity
  8
AM_9
100
AcDbEllipse
 10
-28.80000000000005
 20
50.96480790919824
 30
0.0
 11
5.080000000000116
 21
0.0
 31
0.0
210
0.0
220
0.0
230
1.0
 40
0.7071067811865536
 41
4.905492829323658
 42
5.5683680243429
  0
ELLIPSE
  5
18D
330
15A
100
AcDbEntity
  8
AM_9
100
AcDbEllipse
 10
-28.8
 20
50.96480790919821
 30
0.0
 11
5.080000000000005
 21
0.0
 31
0.0
210
0.0
220
0.0
230
1.0
 40
0.7071067811865605
 41
3.863564253429692
 42
4.529927181893561
  0
ELLIPSE
  5
18E
330
15A
100
AcDbEntity
  8
AM_9
100
AcDbEllipse
 10
-28.79999999999958
 20
50.96480790919819
 30
0.0
 11
5.080000000000432
 21
0.0
 31
0.0
210
0.0
220
0.0
230
1.0
 40
0.7071067811865472
 41
3.141592653589793
 42
3.472599000563594
  0
ELLIPSE
  5
18F
330
15A
100
AcDbEntity
  8
AM_9
100
AcDbEllipse
 10
-28.80000000000013
 20
50.96480790919701
 30
0.0
 11
5.080000000001608
 21
0.0
 31
0.0
210
0.0
220
0.0
230
1.0
 40
0.7071067811865472
 41
1.442036515764118
 42
1.570796326794897
  0
ELLIPSE
  5
190
330
15A
100
AcDbEntity
  8
AM_9
100
AcDbEllipse
 10
-28.79999999999999
 20
50.96480790919809
 30
0.0
 11
5.080000000000005
 21
0.0
 31
0.0
210
0.0
220
0.0
230
1.0
 40
0.7071067811865562
 41
0.6691699445904105
 42
1.442036515764105
  0
ELLIPSE
  5
191
330
15A
100
AcDbEntity
  8
AM_9
100
AcDbEllipse
 10
-28.80000000000021
 20
50.94684739695607
 30
0.0
 11
5.080000000000226
 21
0.0
 31
0.0
210
0.0
220
0.0
230
1.0
 40
0.7071067811865424
 41
5.944858548969258
 42
9.42477796076938
  0
ELLIPSE
  5
192
330
15A
100
AcDbEntity
  8
AM_9
100
AcDbEllipse
 10
-28.79999999999999
 20
50.94684739695599
 30
0.0
 11
5.080000000000044
 21
7.569789886474676E-8
 31
0.0
210
0.0
220
0.0
230
1.0
 40
0.7071067811865425
 41
3.853845048589267
 42
4.493967836931218
  0
ELLIPSE
  5
193
330
15A
100
AcDbEntity
  8
AM_9
100
AcDbEllipse
 10
-28.79999999999938
 20
50.94684739695621
 30
0.0
 11
5.080000000000638
 21
0.0
 31
0.0
210
0.0
220
0.0
230
1.0
 40
0.7071067811865536
 41
3.141592653589793
 42
3.479888083575013
  0
ELLIPSE
  5
194
330
15A
100
AcDbEntity
  8
AM_9
100
AcDbEllipse
 10
-28.79999999999992
 20
50.94684739695587
 30
0.0
 11
5.079999999999866
 21
7.569789886474411E-8
 31
0.0
210
0.0
220
0.0
230
1.0
 40
0.7071067811865406
 41
4.943236851459719
 42
5.572309922092143
  0
LINE
  5
195
330
15A
100
AcDbEntity
  8
AM_9
100
AcDbLine
 10
-31.97423704848897
 20
56.33500106959749
 30
0.0
 11
-25.62576295151102
 21
56.33500106959749
 31
0.0
  0
LINE
  5
196
330
15A
100
AcDbEntity
  8
AM_9
100
AcDbLine
 10
-40.59999999999999
 20
55.01469221948008
 30
0.0
 11
-15.3
 21
55.01469221948006
 31
0.0
  0
LINE
  5
197
330
15A
100
AcDbEntity
  8
AM_7
100
AcDbLine
 10
0.8500000000000001
 20
92.1
 30
0.0
 11
-17.85
 21
92.1
 31
0.0
  0
LINE
  5
198
330
15A
100
AcDbEntity
  8
AM_7
100
AcDbLine
 10
0.8500000000000001
 20
-92.1
 30
0.0
 11
-17.85
 21
-92.1
 31
0.0
  0
LINE
  5
199
330
15A
100
AcDbEntity
  8
AM_7
100
AcDbLine
 10
2.895
 20
0.0
 30
0.0
 11
-60.795
 21
0.0
 31
0.0
  0
LINE
  5
19A
330
15A
100
AcDbEntity
  8
AM_4
100
AcDbLine
 10
-17.0
 20
-109.6
 30
0.0
 11
0.0
 21
-109.6
 31
0.0
  0
LINE
  5
19B
330
15A
100
AcDbEntity
  8
AM_4
100
AcDbLine
 10
-17.0
 20
-109.6
 30
0.0
 11
-17.0
 21
-60.55618213604165
 31
0.0
  0
LINE
  5
19C
330
15A
100
AcDbEntity
  8
AM_4
100
AcDbLine
 10
-17.0
 20
60.55618213604162
 30
0.0
 11
-17.0
 21
109.6
 31
0.0
  0
LINE
  5
19D
330
15A
100
AcDbEntity
  8
AM_4
100
AcDbLine
 10
0.0
 20
109.6
 30
0.0
 11
-17.0
 21
109.6
 31
0.0
  0
LINE
  5
19E
330
15A
100
AcDbEntity
  8
AM_4
100
AcDbLine
 10
-17.0
 20
-97.22395946435034
 30
0.0
 11
-15.3
 21
-97.22395946435034
 31
0.0
  0
LINE
  5
19F
330
15A
100
AcDbEntity
  8
AM_4
100
AcDbLine
 10
-17.0
 20
97.22395946435034
 30
0.0
 11
-15.3
 21
97.22395946435034
 31
0.0
  0
LINE
  5
1A0
330
15A
100
AcDbEntity
  8
AM_4
100
AcDbLine
 10
0.0
 20
-109.6
 30
0.0
 11
0.0000000000000024
 21
-56.78928207986154
 31
0.0
  0
LINE
  5
1A1
330
15A
100
AcDbEntity
  8
AM_4
100
AcDbLine
 10
0.0000000000000024
 20
-56.78928207986154
 30
0.0
 11
-3.399999999999998
 21
-56.78928207986154
 31
0.0
  0
LINE
  5
1A2
330
15A
100
AcDbEntity
  8
AM_4
100
AcDbLine
 10
-3.399999999999998
 20
56.78928207986081
 30
0.0
 11
0.0000000000000024
 21
56.78928207986081
 31
0.0
  0
LINE
  5
1A3
330
15A
100
AcDbEntity
  8
AM_4
100
AcDbLine
 10
0.0000000000000024
 20
56.78928207986081
 30
0.0
 11
0.0
 21
109.6
 31
0.0
  0
LINE
  5
1A4
330
15A
100
AcDbEntity
  8
AM_4
100
AcDbLine
 10
-15.3
 20
57.07894984538366
 30
0.0
 11
-15.3
 21
101.4485342019544
 31
0.0
  0
LINE
  5
1A5
330
15A
100
AcDbEntity
  8
AM_4
100
AcDbLine
 10
-3.399999999999997
 20
60.62478696585507
 30
0.0
 11
0.0000000000000025
 21
60.62478696585507
 31
0.0
  0
LINE
  5
1A6
330
15A
100
AcDbEntity
  8
AM_4
100
AcDbLine
 10
-15.3
 20
101.4485342019544
 30
0.0
 11
0.0000000000000009
 21
101.4485342019544
 31
0.0
  0
LINE
  5
1A7
330
15A
100
AcDbEntity
  8
AM_4
100
AcDbLine
 10
-31.77025396509984
 20
57.07894984538366
 30
0.0
 11
-40.59999999999999
 21
57.07894984538366
 31
0.0
  0
LINE
  5
1A8
330
15A
100
AcDbEntity
  8
AM_4
100
AcDbLine
 10
-3.399999999999998
 20
57.07894984538366
 30
0.0
 11
-25.82974603490015
 21
57.07894984538366
 31
0.0
  0
ELLIPSE
  5
1A9
330
15A
100
AcDbEntity
  8
AM_4
100
AcDbEllipse
 10
-28.80000000000031
 20
50.96480790919816
 30
0.0
 11
5.080000000000364
 21
0.0
 31
0.0
210
0.0
220
0.0
230
1.0
 40
0.7071067811865371
 41
5.56836802434294
 42
5.94840951768293
  0
ELLIPSE
  5
1AA
330
15A
100
AcDbEntity
  8
AM_4
100
AcDbEllipse
 10
-28.8
 20
50.96480790919811
 30
0.0
 11
5.08000000000024
 21
0.0
 31
0.0
210
0.0
220
0.0
230
1.0
 40
0.7071067811865083
 41
4.529927181893571
 42
4.905492829323642
  0
ELLIPSE
  5
1AB
330
15A
100
AcDbEntity
  8
AM_4
100
AcDbEllipse
 10
-28.80000000000005
 20
50.96480790919804
 30
0.0
 11
5.079999999999963
 21
0.0
 31
0.0
210
0.0
220
0.0
230
1.0
 40
0.707106781186537
 41
3.472599000563589
 42
3.863564253429678
  0
ELLIPSE
  5
1AC
330
15A
100
AcDbEntity
  8
AM_4
100
AcDbEllipse
 10
-28.80000000000006
 20
50.94684739695585
 30
0.0
 11
5.079999999999398
 21
0.0
 31
0.0
210
0.0
220
0.0
230
1.0
 40
0.7071067811866059
 41
4.493967847962658
 42
4.71238898038469
  0
ELLIPSE
  5
1AD
330
15A
100
AcDbEntity
  8
AM_4
100
AcDbEllipse
 10
-28.80000000000004
 20
50.946847396956
 30
0.0
 11
5.079999999999981
 21
0.0
 31
0.0
210
0.0
220
0.0
230
1.0
 40
0.7071067811865471
 41
3.479888083575002
 42
3.853845065162309
  0
LINE
  5
1AE
330
15A
100
AcDbEntity
  8
AM_4
100
AcDbLine
 10
-40.59999999999999
 20
40.94524346898407
 30
0.0
 11
-3.399999999999997
 21
40.94524346898407
 31
0.0
  0
ELLIPSE
  5
1AF
330
15A
100
AcDbEntity
  8
AM_4
100
AcDbEllipse
 10
-28.80000000000013
 20
50.94684739695615
 30
0.0
 11
5.080000000000162
 21
0.0
 31
0.0
210
0.0
220
0.0
230
1.0
 40
0.7071067811865583
 41
5.572309938679513
 42
5.944858548969239
  0
ELLIPSE
  5
1B0
330
15A
100
AcDbEntity
  8
AM_4
100
AcDbEllipse
 10
-28.79999999999995
 20
50.94684739695511
 30
0.0
 11
5.079999999999497
 21
0.0
 31
0.0
210
0.0
220
0.0
230
1.0
 40
0.7071067811864438
 41
4.71238898038469
 42
4.943236862548062
  0
LINE
  5
1B1
330
15A
100
AcDbEntity
  8
AM_4
100
AcDbLine
 10
-25.62576295151102
 20
56.33500106959749
 30
0.0
 11
-3.399999999999998
 21
56.33500106959749
 31
0.0
  0
LINE
  5
1B2
330
15A
100
AcDbEntity
  8
AM_4
100
AcDbLine
 10
-40.59999999999999
 20
56.33500106959749
 30
0.0
 11
-31.97423704848897
 21
56.33500106959749
 31
0.0
  0
LINE
  5
1B3
330
15A
100
AcDbEntity
  8
AM_4
100
AcDbLine
 10
-15.3
 20
35.6312703583062
 30
0.0
 11
-15.3
 21
38.23507254195958
 31
0.0
  0
LINE
  5
1B4
330
15A
100
AcDbEntity
  8
AM_4
100
AcDbLine
 10
-3.399999999999997
 20
38.23507254195958
 30
0.0
 11
-15.3
 21
38.23507254195958
 31
0.0
  0
LINE
  5
1B5
330
15A
100
AcDbEntity
  8
AM_4
100
AcDbLine
 10
-3.399999999999997
 20
-60.62478696585504
 30
0.0
 11
-3.399999999999997
 21
60.62478696585507
 31
0.0
  0
LINE
  5
1B6
330
15A
100
AcDbEntity
  8
AM_4
100
AcDbLine
 10
-15.3
 20
-101.4485342019544
 30
0.0
 11
0.0000000000000009
 21
-101.4485342019544
 31
0.0
  0
LINE
  5
1B7
330
15A
100
AcDbEntity
  8
AM_4
100
AcDbLine
 10
-3.399999999999997
 20
-60.62478696585504
 30
0.0
 11
0.0000000000000025
 21
-60.62478696585504
 31
0.0
  0
LINE
  5
1B8
330
15A
100
AcDbEntity
  8
AM_4
100
AcDbLine
 10
-15.3
 20
-101.4485342019544
 30
0.0
 11
-15.3
 21
-35.63127035830622
 31
0.0
  0
LINE
  5
1B9
330
15A
100
AcDbEntity
  8
AM_4
100
AcDbLine
 10
-40.59999999999999
 20
41.96659127588686
 30
0.0
 11
-3.399999999999997
 21
41.96659127588686
 31
0.0
  0
LINE
  5
1BA
330
15A
100
AcDbEntity
  8
AM_4
100
AcDbLine
 10
-40.59999999999999
 20
45.5586937243145
 30
0.0
 11
-3.399999999999997
 21
45.5586937243145
 31
0.0
  0
LINE
  5
1BB
330
15A
100
AcDbEntity
  8
AM_4
100
AcDbLine
 10
-40.59999999999999
 20
-66.69999999999997
 30
0.0
 11
-40.59999999999999
 21
66.69999999999995
 31
0.0
  0
LINE
  5
1BC
330
15A
100
AcDbEntity
  8
AM_4
100
AcDbLine
 10
-17.0
 20
-60.55618213604165
 30
0.0
 11
-15.3
 21
-60.55618213604165
 31
0.0
  0
LINE
  5
1BD
330
15A
100
AcDbEntity
  8
AM_4
100
AcDbLine
 10
-15.3
 20
-35.63127035830622
 30
0.0
 11
-3.399999999999997
 21
-35.63127035830622
 31
0.0
  0
LINE
  5
1BE
330
15A
100
AcDbEntity
  8
AM_4
100
AcDbLine
 10
-15.3
 20
35.6312703583062
 30
0.0
 11
-3.399999999999997
 21
35.6312703583062
 31
0.0
  0
LINE
  5
1BF
330
15A
100
AcDbEntity
  8
AM_4
100
AcDbLine
 10
-40.59999999999999
 20
37.71304336692913
 30
0.0
 11
-15.3
 21
37.71304336692913
 31
0.0
  0
LINE
  5
1C0
330
15A
100
AcDbEntity
  8
AM_4
100
AcDbLine
 10
-15.3
 20
60.55618213604161
 30
0.0
 11
-17.0
 21
60.55618213604162
 31
0.0
  0
LINE
  5
1C1
330
15A
100
AcDbEntity
  8
AM_4
100
AcDbLine
 10
-40.59999999999999
 20
-66.69999999999997
 30
0.0
 11
-17.0
 21
-66.69999999999997
 31
0.0
  0
LINE
  5
1C2
330
15A
100
AcDbEntity
  8
AM_4
100
AcDbLine
 10
-17.0
 20
66.69999999999995
 30
0.0
 11
-40.59999999999999
 21
66.69999999999995
 31
0.0
  0
ENDBLK
  5
15D
330
15A
100
AcDbEntity
  8
0
100
AcDbBlockEnd
  0
ENDSEC
  0
SECTION
  2
ENTITIES
  0
INSERT
  5
6F
330
1F
100
AcDbEntity
  8
0
100
AcDbBlockReference
  2
1_125710_2
 10
0.0
 20
0.0
 30
0.0
  0
POINT
  5
1C4
330
1F
100
AcDbEntity
  8
ConnectionPoints
100
AcDbPoint
 10
-28.79999999999999
 20
50.96480790919814
 30
50.96480790919814
  0
POINT
  5
1C5
330
1F
100
AcDbEntity
  8
ConnectionPoints
100
AcDbPoint
 10
-28.79999999999999
 20
50.96480790919814
 30
50.96480790919814
  0
POINT
  5
1C6
330
1F
100
AcDbEntity
  8
ConnectionPoints
100
AcDbPoint
 10
-57.9
 20
0.0
 30
0.0000000000000035
  0
ENDSEC
  0
SECTION
  2
OBJECTS
  0
DICTIONARY
  5
C
330
0
100
AcDbDictionary
281
     1
  3
ACAD_DETAILVIEWSTYLE
350
1CE
  3
ACAD_GROUP
350
D
  3
ACAD_LAYOUT
350
1A
  3
ACAD_MATERIAL
350
43
  3
ACAD_MLEADERSTYLE
350
6B
  3
ACAD_MLINESTYLE
350
17
  3
ACAD_PLOTSETTINGS
350
19
  3
ACAD_PLOTSTYLENAME
350
E
  3
ACAD_SCALELIST
350
47
  3
ACAD_SECTIONVIEWSTYLE
350
1CF
  3
ACAD_TABLESTYLE
350
69
  3
ACAD_VISUALSTYLE
350
2A
  3
ACDB_RECOMPOSE_DATA
350
1CB
  3
AcDbVariableDictionary
350
1C7
  0
SUN
  5
6D
330
29
100
AcDbSun
 90
        1
290
     0
 63
     7
421
 16777215
 40
1.0
291
     1
 91
  2455826
 92
 54000000
292
     0
 70
     2
 71
   256
280
     1
  0
DICTIONARY
  5
1CE
102
{ACAD_REACTORS
330
C
102
}
330
C
100
AcDbDictionary
281
     1
  0
DICTIONARY
  5
D
102
{ACAD_REACTORS
330
C
102
}
330
C
100
AcDbDictionary
281
     1
  0
DICTIONARY
  5
1A
102
{ACAD_REACTORS
330
C
102
}
330
C
100
AcDbDictionary
281
     1
  3
Layout1
350
1E
  3
Layout2
350
26
  3
Model
350
22
  0
DICTIONARY
  5
43
102
{ACAD_REACTORS
330
C
102
}
330
C
100
AcDbDictionary
281
     1
  3
ByBlock
350
45
  3
ByLayer
350
44
  3
Global
350
46
  0
DICTIONARY
  5
6B
102
{ACAD_REACTORS
330
C
102
}
330
C
100
AcDbDictionary
281
     1
  3
Standard
350
6C
  0
DICTIONARY
  5
17
102
{ACAD_REACTORS
330
C
102
}
330
C
100
AcDbDictionary
281
     1
  3
Standard
350
18
  0
DICTIONARY
  5
19
102
{ACAD_REACTORS
330
C
102
}
330
C
100
AcDbDictionary
281
     1
  0
ACDBDICTIONARYWDFLT
  5
E
102
{ACAD_REACTORS
330
C
102
}
330
C
100
AcDbDictionary
281
     1
  3
Normal
350
F
100
AcDbDictionaryWithDefault
340
F
  0
DICTIONARY
  5
47
102
{ACAD_REACTORS
330
C
102
}
330
C
100
AcDbDictionary
281
     1
  3
A0
350
48
  3
A1
350
49
  3
A2
350
4A
  3
A3
350
4B
  3
A4
350
4C
  3
A5
350
4D
  3
A6
350
4E
  3
A7
350
4F
  3
A8
350
50
  3
A9
350
51
  3
B0
350
52
  3
B1
350
53
  3
B2
350
54
  3
B3
350
55
  3
B4
350
56
  3
B5
350
57
  3
B6
350
58
  3
B7
350
59
  3
B8
350
5A
  3
B9
350
5B
  3
C0
350
5C
  3
C1
350
5D
  3
C2
350
5E
  3
C3
350
5F
  3
C4
350
60
  3
C5
350
61
  3
C6
350
62
  3
C7
350
63
  3
C8
350
64
  3
C9
350
65
  3
D0
350
66
  3
D1
350
67
  3
D2
350
68
  0
DICTIONARY
  5
1CF
102
{ACAD_REACTORS
330
C
102
}
330
C
100
AcDbDictionary
281
     1
  0
DICTIONARY
  5
69
102
{ACAD_REACTORS
330
C
102
}
330
C
100
AcDbDictionary
281
     1
  3
Standard
350
6A
  0
DICTIONARY
  5
2A
102
{ACAD_REACTORS
330
C
102
}
330
C
100
AcDbDictionary
281
     1
  3
2dWireframe
350
2F
  3
Basic
350
32
  3
Brighten
350
36
  3
ColorChange
350
3A
  3
Conceptual
350
34
  3
Dim
350
35
  3
EdgeColorOff
350
3D
  3
Facepattern
350
39
  3
Flat
350
2B
  3
FlatWithEdges
350
2C
  3
Gouraud
350
2D
  3
GouraudWithEdges
350
2E
  3
Hidden
350
31
  3
JitterOff
350
3B
  3
Linepattern
350
38
  3
OverhangOff
350
3C
  3
Realistic
350
33
  3
Shaded
350
42
  3
Shaded with edges
350
41
  3
Shades of Gray
350
3E
  3
Sketchy
350
3F
  3
Thicken
350
37
  3
Wireframe
350
30
  3
X-Ray
350
40
  0
XRECORD
  5
1CB
102
{ACAD_REACTORS
330
C
102
}
330
C
100
AcDbXrecord
280
     1
 90
        1
330
6A
  0
DICTIONARY
  5
1C7
102
{ACAD_REACTORS
330
C
102
}
330
C
100
AcDbDictionary
281
     1
  3
CANNOSCALE
350
1C8
  3
CMLEADERSTYLE
350
1CD
  3
CTABLESTYLE
350
1CC
  0
LAYOUT
  5
1E
102
{ACAD_REACTORS
330
1A
102
}
330
1A
100
AcDbPlotSettings
  1

  2
none_device
  4

  6

 40
0.0
 41
0.0
 42
0.0
 43
0.0
 44
0.0
 45
0.0
 46
0.0
 47
0.0
 48
0.0
 49
0.0
140
0.0
141
0.0
142
1.0
143
1.0
 70
   688
 72
     1
 73
     0
 74
     5
  7

 75
    16
 76
     0
 77
     2
 78
   300
147
1.0
148
0.0
149
0.0
100
AcDbLayout
  1
Layout1
 70
     1
 71
     1
 10
0.0
 20
0.0
 11
420.0
 21
297.0
 12
0.0
 22
0.0
 32
0.0
 14
1.000000000000000E+20
 24
1.000000000000000E+20
 34
1.000000000000000E+20
 15
-1.000000000000000E+20
 25
-1.000000000000000E+20
 35
-1.000000000000000E+20
146
0.0
 13
0.0
 23
0.0
 33
0.0
 16
1.0
 26
0.0
 36
0.0
 17
0.0
 27
1.0
 37
0.0
 76
     0
330
1B
  0
LAYOUT
  5
26
102
{ACAD_REACTORS
330
1A
102
}
330
1A
100
AcDbPlotSettings
  1

  2
none_device
  4

  6

 40
0.0
 41
0.0
 42
0.0
 43
0.0
 44
0.0
 45
0.0
 46
0.0
 47
0.0
 48
0.0
 49
0.0
140
0.0
141
0.0
142
1.0
143
1.0
 70
   688
 72
     1
 73
     0
 74
     5
  7

 75
    16
 76
     0
 77
     2
 78
   300
147
1.0
148
0.0
149
0.0
100
AcDbLayout
  1
Layout2
 70
     1
 71
     2
 10
0.0
 20
0.0
 11
0.0
 21
0.0
 12
0.0
 22
0.0
 32
0.0
 14
0.0
 24
0.0
 34
0.0
 15
0.0
 25
0.0
 35
0.0
146
0.0
 13
0.0
 23
0.0
 33
0.0
 16
1.0
 26
0.0
 36
0.0
 17
0.0
 27
1.0
 37
0.0
 76
     0
330
23
  0
LAYOUT
  5
22
102
{ACAD_REACTORS
330
1A
102
}
330
1A
100
AcDbPlotSettings
  1

  2
none_device
  4
Letter_(8.50_x_11.00_Inches)
  6

 40
6.35
 41
6.35
 42
6.35000508
 43
6.35000508
 44
215.9
 45
279.4
 46
0.0
 47
0.0
 48
0.0
 49
0.0
140
0.0
141
0.0
142
1.0
143
1.0
 70
  1712
 72
     1
 73
     0
 74
     0
  7

 75
     0
 76
     0
 77
     2
 78
   300
147
1.0
148
0.0
149
0.0
100
AcDbLayout
  1
Model
 70
     1
 71
     0
 10
0.0
 20
0.0
 11
420.0
 21
297.0
 12
0.0
 22
0.0
 32
0.0
 14
1.000000000000000E+20
 24
1.000000000000000E+20
 34
1.000000000000000E+20
 15
-1.000000000000000E+20
 25
-1.000000000000000E+20
 35
-1.000000000000000E+20
146
0.0
 13
0.0
 23
0.0
 33
0.0
 16
1.0
 26
0.0
 36
0.0
 17
0.0
 27
1.0
 37
0.0
 76
     0
330
1F
331
29
  0
MATERIAL
  5
45
102
{ACAD_REACTORS
330
43
102
}
330
43
100
AcDbMaterial
  1
ByBlock
 72
     1
 94
      127
  0
MATERIAL
  5
44
102
{ACAD_REACTORS
330
43
102
}
330
43
100
AcDbMaterial
  1
ByLayer
 72
     1
 94
      127
  0
MATERIAL
  5
46
102
{ACAD_REACTORS
330
43
102
}
330
43
100
AcDbMaterial
  1
Global
 72
     1
 94
      127
  0
MLEADERSTYLE
  5
6C
102
{ACAD_REACTORS
330
6B
102
}
330
6B
100
AcDbMLeaderStyle
179
     2
170
     2
171
     1
172
     0
 90
        2
 40
0.0
 41
0.0
173
     1
 91
-1056964608
340
14
 92
       -2
290
     1
 42
2.0
291
     1
 43
8.0
  3
Standard
341
0
 44
4.0
300

342
11
174
     1
178
     6
175
     1
176
     0
 93
-1056964608
 45
4.0
292
     0
297
     0
 46
4.0
343
0
 94
-1056964608
 47
1.0
 49
1.0
140
1.0
293
     1
141
0.0
294
     1
177
     0
142
1.0
295
     0
296
     0
143
3.75
271
     0
272
     9
273
     9
298
     0
  0
MLINESTYLE
  5
18
102
{ACAD_REACTORS
330
17
102
}
330
17
100
AcDbMlineStyle
  2
Standard
 70
     0
  3

 62
   256
 51
90.0
 52
90.0
 71
     2
 49
0.5
 62
   256
  6
BYLAYER
 49
-0.5
 62
   256
  6
BYLAYER
  0
ACDBPLACEHOLDER
  5
F
102
{ACAD_REACTORS
330
E
102
}
330
E
  0
SCALE
  5
48
102
{ACAD_REACTORS
330
47
102
}
330
47
100
AcDbScale
 70
     0
300
1:1
140
1.0
141
1.0
290
     1
  0
SCALE
  5
49
102
{ACAD_REACTORS
330
47
102
}
330
47
100
AcDbScale
 70
     0
300
1:2
140
1.0
141
2.0
290
     0
  0
SCALE
  5
4A
102
{ACAD_REACTORS
330
47
102
}
330
47
100
AcDbScale
 70
     0
300
1:4
140
1.0
141
4.0
290
     0
  0
SCALE
  5
4B
102
{ACAD_REACTORS
330
47
102
}
330
47
100
AcDbScale
 70
     0
300
1:5
140
1.0
141
5.0
290
     0
  0
SCALE
  5
4C
102
{ACAD_REACTORS
330
47
102
}
330
47
100
AcDbScale
 70
     0
300
1:8
140
1.0
141
8.0
290
     0
  0
SCALE
  5
4D
102
{ACAD_REACTORS
330
47
102
}
330
47
100
AcDbScale
 70
     0
300
1:10
140
1.0
141
10.0
290
     0
  0
SCALE
  5
4E
102
{ACAD_REACTORS
330
47
102
}
330
47
100
AcDbScale
 70
     0
300
1:16
140
1.0
141
16.0
290
     0
  0
SCALE
  5
4F
102
{ACAD_REACTORS
330
47
102
}
330
47
100
AcDbScale
 70
     0
300
1:20
140
1.0
141
20.0
290
     0
  0
SCALE
  5
50
102
{ACAD_REACTORS
330
47
102
}
330
47
100
AcDbScale
 70
     0
300
1:30
140
1.0
141
30.0
290
     0
  0
SCALE
  5
51
102
{ACAD_REACTORS
330
47
102
}
330
47
100
AcDbScale
 70
     0
300
1:40
140
1.0
141
40.0
290
     0
  0
SCALE
  5
52
102
{ACAD_REACTORS
330
47
102
}
330
47
100
AcDbScale
 70
     0
300
1:50
140
1.0
141
50.0
290
     0
  0
SCALE
  5
53
102
{ACAD_REACTORS
330
47
102
}
330
47
100
AcDbScale
 70
     0
300
1:100
140
1.0
141
100.0
290
     0
  0
SCALE
  5
54
102
{ACAD_REACTORS
330
47
102
}
330
47
100
AcDbScale
 70
     0
300
2:1
140
2.0
141
1.0
290
     0
  0
SCALE
  5
55
102
{ACAD_REACTORS
330
47
102
}
330
47
100
AcDbScale
 70
     0
300
4:1
140
4.0
141
1.0
290
     0
  0
SCALE
  5
56
102
{ACAD_REACTORS
330
47
102
}
330
47
100
AcDbScale
 70
     0
300
8:1
140
8.0
141
1.0
290
     0
  0
SCALE
  5
57
102
{ACAD_REACTORS
330
47
102
}
330
47
100
AcDbScale
 70
     0
300
10:1
140
10.0
141
1.0
290
     0
  0
SCALE
  5
58
102
{ACAD_REACTORS
330
47
102
}
330
47
100
AcDbScale
 70
     0
300
100:1
140
100.0
141
1.0
290
     0
  0
SCALE
  5
59
102
{ACAD_REACTORS
330
47
102
}
330
47
100
AcDbScale
 70
     0
300
1/128" = 1'-0"
140
0.0078125
141
12.0
290
     0
  0
SCALE
  5
5A
102
{ACAD_REACTORS
330
47
102
}
330
47
100
AcDbScale
 70
     0
300
1/64" = 1'-0"
140
0.015625
141
12.0
290
     0
  0
SCALE
  5
5B
102
{ACAD_REACTORS
330
47
102
}
330
47
100
AcDbScale
 70
     0
300
1/32" = 1'-0"
140
0.03125
141
12.0
290
     0
  0
SCALE
  5
5C
102
{ACAD_REACTORS
330
47
102
}
330
47
100
AcDbScale
 70
     0
300
1/16" = 1'-0"
140
0.0625
141
12.0
290
     0
  0
SCALE
  5
5D
102
{ACAD_REACTORS
330
47
102
}
330
47
100
AcDbScale
 70
     0
300
3/32" = 1'-0"
140
0.09375
141
12.0
290
     0
  0
SCALE
  5
5E
102
{ACAD_REACTORS
330
47
102
}
330
47
100
AcDbScale
 70
     0
300
1/8" = 1'-0"
140
0.125
141
12.0
290
     0
  0
SCALE
  5
5F
102
{ACAD_REACTORS
330
47
102
}
330
47
100
AcDbScale
 70
     0
300
3/16" = 1'-0"
140
0.1875
141
12.0
290
     0
  0
SCALE
  5
60
102
{ACAD_REACTORS
330
47
102
}
330
47
100
AcDbScale
 70
     0
300
1/4" = 1'-0"
140
0.25
141
12.0
290
     0
  0
SCALE
  5
61
102
{ACAD_REACTORS
330
47
102
}
330
47
100
AcDbScale
 70
     0
300
3/8" = 1'-0"
140
0.375
141
12.0
290
     0
  0
SCALE
  5
62
102
{ACAD_REACTORS
330
47
102
}
330
47
100
AcDbScale
 70
     0
300
1/2" = 1'-0"
140
0.5
141
12.0
290
     0
  0
SCALE
  5
63
102
{ACAD_REACTORS
330
47
102
}
330
47
100
AcDbScale
 70
     0
300
3/4" = 1'-0"
140
0.75
141
12.0
290
     0
  0
SCALE
  5
64
102
{ACAD_REACTORS
330
47
102
}
330
47
100
AcDbScale
 70
     0
300
1" = 1'-0"
140
1.0
141
12.0
290
     0
  0
SCALE
  5
65
102
{ACAD_REACTORS
330
47
102
}
330
47
100
AcDbScale
 70
     0
300
1-1/2" = 1'-0"
140
1.5
141
12.0
290
     0
  0
SCALE
  5
66
102
{ACAD_REACTORS
330
47
102
}
330
47
100
AcDbScale
 70
     0
300
3" = 1'-0"
140
3.0
141
12.0
290
     0
  0
SCALE
  5
67
102
{ACAD_REACTORS
330
47
102
}
330
47
100
AcDbScale
 70
     0
300
6" = 1'-0"
140
6.0
141
12.0
290
     0
  0
SCALE
  5
68
102
{ACAD_REACTORS
330
47
102
}
330
47
100
AcDbScale
 70
     0
300
1'-0" = 1'-0"
140
12.0
141
12.0
290
     0
  0
TABLESTYLE
  5
6A
102
{ACAD_REACTORS
330
69
102
}
102
{ACAD_XDICTIONARY
360
1C9
102
}
330
69
100
AcDbTableStyle
  3
Standard
 70
     0
 71
     0
 40
0.06
 41
0.06
280
     0
281
     0
  7
Standard
140
4.5
170
     2
 62
     0
 63
   257
283
     0
 90
        4
 91
        0
  1

274
    -2
284
     1
 64
     0
275
    -2
285
     1
 65
     0
276
    -2
286
     1
 66
     0
277
    -2
287
     1
 67
     0
278
    -2
288
     1
 68
     0
279
    -2
289
     1
 69
     0
  7
Standard
140
6.0
170
     5
 62
     0
 63
   257
283
     0
 90
        4
 91
        0
  1

274
    -2
284
     1
 64
     0
275
    -2
285
     1
 65
     0
276
    -2
286
     1
 66
     0
277
    -2
287
     1
 67
     0
278
    -2
288
     1
 68
     0
279
    -2
289
     1
 69
     0
  7
Standard
140
4.5
170
     5
 62
     0
 63
   257
283
     0
 90
        4
 91
        0
  1

274
    -2
284
     1
 64
     0
275
    -2
285
     1
 65
     0
276
    -2
286
     1
 66
     0
277
    -2
287
     1
 67
     0
278
    -2
288
     1
 68
     0
279
    -2
289
     1
 69
     0
  0
VISUALSTYLE
  5
2F
102
{ACAD_REACTORS
330
2A
102
}
330
2A
100
AcDbVisualStyle
  2
2dWireframe
 70
     4
177
     3
291
     0
 70
    58
 90
        0
176
     1
 90
        2
176
     1
 90
        0
176
     1
 90
        0
176
     1
 40
0.6
176
     1
 40
30.0
176
     1
 62
     7
420
 16777215
176
     1
 90
        1
176
     1
 90
        4
176
     1
 62
     7
176
     1
 62
   257
176
     1
 90
        1
176
     1
 90
        1
176
     1
 40
1.0
176
     1
 90
        0
176
     1
 62
   257
176
     1
 40
1.0
176
     1
 90
        1
176
     1
 90
        6
176
     1
 90
        2
176
     1
 62
     7
176
     1
 90
        5
176
     1
 90
        0
176
     1
 90
        0
176
     1
290
     0
176
     1
 90
        1
176
     1
 40
0.0
176
     1
 90
        0
176
     1
290
     1
176
     1
290
     1
176
     1
290
     0
176
     1
290
     0
176
     1
290
     0
176
     1
290
     0
176
     1
290
     0
176
     1
290
     0
176
     1
290
     0
176
     1
 90
       50
176
     1
 40
0.0
176
     1
 40
1.0
176
     1
 90
        0
176
     1
 62
    18
420
        0
176
     1
 90
       50
176
     1
 90
        3
176
     1
 62
     5
420
      255
176
     1
290
     0
176
     1
 90
       50
176
     1
 90
       50
176
     1
 90
       50
176
     1
290
     0
176
     1
 90
       50
176
     1
 62
   256
176
     0
 40
1.0
176
     0
 90
        2
176
     1
  1
strokes_ogs.tif
176
     1
290
     0
176
     1
 40
1.0
176
     1
 40
1.0
176
     1
  0
VISUALSTYLE
  5
32
102
{ACAD_REACTORS
330
2A
102
}
330
2A
100
AcDbVisualStyle
  2
Basic
 70
     7
177
     3
291
     1
 70
    58
 90
        1
176
     1
 90
        0
176
     1
 90
        1
176
     1
 90
        0
176
     1
 40
0.6
176
     1
 40
30.0
176
     1
 62
     7
420
 16777215
176
     1
 90
        0
176
     1
 90
        4
176
     1
 62
     7
176
     1
 62
   257
176
     1
 90
        1
176
     1
 90
        1
176
     1
 40
1.0
176
     1
 90
        8
176
     1
 62
     7
176
     1
 40
1.0
176
     1
 90
        1
176
     1
 90
        6
176
     1
 90
        2
176
     1
 62
     7
176
     1
 90
        5
176
     1
 90
        0
176
     1
 90
        0
176
     1
290
     0
176
     1
 90
        1
176
     1
 40
0.0
176
     1
 90
        0
176
     1
290
     0
176
     1
290
     1
176
     1
290
     1
176
     1
290
     0
176
     1
290
     0
176
     1
290
     0
176
     1
290
     0
176
     1
290
     0
176
     1
290
     0
176
     1
 90
       50
176
     1
 40
0.0
176
     1
 40
1.0
176
     1
 90
        0
176
     1
 62
    18
420
        0
176
     1
 90
       50
176
     1
 90
        3
176
     1
 62
     5
420
      255
176
     1
290
     0
176
     1
 90
       50
176
     1
 90
       50
176
     1
 90
       50
176
     1
290
     0
176
     1
 90
       50
176
     1
 62
   256
176
     0
 40
1.0
176
     0
 90
        2
176
     1
  1
strokes_ogs.tif
176
     1
290
     0
176
     1
 40
1.0
176
     1
 40
1.0
176
     1
  0
VISUALSTYLE
  5
36
102
{ACAD_REACTORS
330
2A
102
}
330
2A
100
AcDbVisualStyle
  2
Brighten
 70
    12
177
     3
291
     1
 70
    58
 90
        2
176
     1
 90
        2
176
     1
 90
        0
176
     1
 90
        0
176
     1
 40
0.6
176
     1
 40
30.0
176
     1
 62
     7
420
 16777215
176
     1
 90
        1
176
     1
 90
        4
176
     1
 62
     7
176
     1
 62
   257
176
     1
 90
        1
176
     1
 90
        1
176
     1
 40
1.0
176
     1
 90
        8
176
     1
 62
     7
176
     1
 40
1.0
176
     1
 90
        1
176
     1
 90
        6
176
     1
 90
        2
176
     1
 62
     7
176
     1
 90
        5
176
     1
 90
        0
176
     1
 90
        0
176
     1
290
     0
176
     1
 90
        1
176
     1
 40
50.0
176
     1
 90
        0
176
     1
290
     0
176
     1
290
     1
176
     1
290
     1
176
     1
290
     0
176
     1
290
     0
176
     1
290
     0
176
     1
290
     0
176
     1
290
     0
176
     1
290
     0
176
     1
 90
       50
176
     1
 40
0.0
176
     1
 40
1.0
176
     1
 90
        0
176
     1
 62
    18
420
        0
176
     1
 90
       50
176
     1
 90
        3
176
     1
 62
     5
420
      255
176
     1
290
     0
176
     1
 90
       50
176
     1
 90
       50
176
     1
 90
       50
176
     1
290
     0
176
     1
 90
       50
176
     1
 62
   256
176
     0
 40
1.0
176
     0
 90
        2
176
     1
  1
strokes_ogs.tif
176
     1
290
     0
176
     1
 40
1.0
176
     1
 40
1.0
176
     1
  0
VISUALSTYLE
  5
3A
102
{ACAD_REACTORS
330
2A
102
}
330
2A
100
AcDbVisualStyle
  2
ColorChange
 70
    16
177
     3
291
     1
 70
    58
 90
        2
176
     1
 90
        2
176
     1
 90
        3
176
     1
 90
        0
176
     1
 40
0.6
176
     1
 40
30.0
176
     1
 62
     8
420
  8421504
176
     1
 90
        1
176
     1
 90
        4
176
     1
 62
     7
176
     1
 62
   257
176
     1
 90
        1
176
     1
 90
        1
176
     1
 40
1.0
176
     1
 90
        8
176
     1
 62
     8
420
  8421504
176
     1
 40
1.0
176
     1
 90
        1
176
     1
 90
        6
176
     1
 90
        2
176
     1
 62
     7
176
     1
 90
        5
176
     1
 90
        0
176
     1
 90
        0
176
     1
290
     0
176
     1
 90
        1
176
     1
 40
0.0
176
     1
 90
        0
176
     1
290
     0
176
     1
290
     1
176
     1
290
     1
176
     1
290
     0
176
     1
290
     0
176
     1
290
     0
176
     1
290
     0
176
     1
290
     0
176
     1
290
     0
176
     1
 90
       50
176
     1
 40
0.0
176
     1
 40
1.0
176
     1
 90
        0
176
     1
 62
    18
420
        0
176
     1
 90
       50
176
     1
 90
        3
176
     1
 62
     5
420
      255
176
     1
290
     0
176
     1
 90
       50
176
     1
 90
       50
176
     1
 90
       50
176
     1
290
     0
176
     1
 90
       50
176
     1
 62
   256
176
     0
 40
1.0
176
     0
 90
        2
176
     1
  1
strokes_ogs.tif
176
     1
290
     0
176
     1
 40
1.0
176
     1
 40
1.0
176
     1
  0
VISUALSTYLE
  5
34
102
{ACAD_REACTORS
330
2A
102
}
330
2A
100
AcDbVisualStyle
  2
Conceptual
 70
     9
177
     3
291
     0
 70
    58
 90
        3
176
     1
 90
        2
176
     1
 90
        0
176
     1
 90
        0
176
     1
 40
0.6
176
     1
 40
30.0
176
     1
 62
     7
420
 16777215
176
     1
 90
        2
176
     1
 90
        2
176
     1
 62
     7
176
     1
 62
   257
176
     1
 90
        1
176
     1
 90
        1
176
     1
 40
179.0
176
     1
 90
        8
176
     1
 62
     7
176
     1
 40
1.0
176
     1
 90
        1
176
     1
 90
        6
176
     1
 90
        2
176
     1
 62
     7
176
     1
 90
        3
176
     1
 90
        0
176
     1
 90
        0
176
     1
290
     0
176
     1
 90
        1
176
     1
 40
0.0
176
     1
 90
        0
176
     1
290
     0
176
     1
290
     1
176
     1
290
     1
176
     1
290
     0
176
     1
290
     0
176
     1
290
     0
176
     1
290
     0
176
     1
290
     0
176
     1
290
     0
176
     1
 90
       50
176
     1
 40
0.0
176
     1
 40
1.0
176
     1
 90
        0
176
     1
 62
    18
420
        0
176
     1
 90
       50
176
     1
 90
        3
176
     1
 62
     5
420
      255
176
     1
290
     0
176
     1
 90
       50
176
     1
 90
       50
176
     1
 90
       50
176
     1
290
     0
176
     1
 90
       50
176
     1
 62
   256
176
     0
 40
1.0
176
     0
 90
        2
176
     1
  1
strokes_ogs.tif
176
     1
290
     0
176
     1
 40
1.0
176
     1
 40
1.0
176
     1
  0
VISUALSTYLE
  5
35
102
{ACAD_REACTORS
330
2A
102
}
330
2A
100
AcDbVisualStyle
  2
Dim
 70
    11
177
     3
291
     1
 70
    58
 90
        2
176
     1
 90
        2
176
     1
 90
        0
176
     1
 90
        0
176
     1
 40
0.6
176
     1
 40
30.0
176
     1
 62
     7
420
 16777215
176
     1
 90
        1
176
     1
 90
        4
176
     1
 62
     7
176
     1
 62
   257
176
     1
 90
        1
176
     1
 90
        1
176
     1
 40
1.0
176
     1
 90
        8
176
     1
 62
     7
176
     1
 40
1.0
176
     1
 90
        1
176
     1
 90
        6
176
     1
 90
        2
176
     1
 62
     7
176
     1
 90
        5
176
     1
 90
        0
176
     1
 90
        0
176
     1
290
     0
176
     1
 90
        1
176
     1
 40
-50.0
176
     1
 90
        0
176
     1
290
     0
176
     1
290
     1
176
     1
290
     1
176
     1
290
     0
176
     1
290
     0
176
     1
290
     0
176
     1
290
     0
176
     1
290
     0
176
     1
290
     0
176
     1
 90
       50
176
     1
 40
0.0
176
     1
 40
1.0
176
     1
 90
        0
176
     1
 62
    18
420
        0
176
     1
 90
       50
176
     1
 90
        3
176
     1
 62
     5
420
      255
176
     1
290
     0
176
     1
 90
       50
176
     1
 90
       50
176
     1
 90
       50
176
     1
290
     0
176
     1
 90
       50
176
     1
 62
   256
176
     0
 40
1.0
176
     0
 90
        2
176
     1
  1
strokes_ogs.tif
176
     1
290
     0
176
     1
 40
1.0
176
     1
 40
1.0
176
     1
  0
VISUALSTYLE
  5
3D
102
{ACAD_REACTORS
330
2A
102
}
330
2A
100
AcDbVisualStyle
  2
EdgeColorOff
 70
    22
177
     3
291
     1
 70
    58
 90
        2
176
     0
 90
        2
176
     0
 90
        0
176
     0
 90
        0
176
     0
 40
0.6
176
     0
 40
30.0
176
     0
 62
     7
420
 16777215
176
     0
 90
        1
176
     0
 90
        4
176
     0
 62
     7
176
     0
 62
   257
176
     0
 90
        1
176
     0
 90
        1
176
     0
 40
1.0
176
     0
 90
        8
176
     2
 62
     7
176
     0
 40
1.0
176
     0
 90
        1
176
     0
 90
        6
176
     0
 90
        2
176
     0
 62
     7
176
     0
 90
        5
176
     0
 90
        0
176
     0
 90
        0
176
     0
290
     0
176
     0
 90
        1
176
     0
 40
0.0
176
     0
 90
        0
176
     0
290
     0
176
     0
290
     1
176
     0
290
     1
176
     0
290
     0
176
     0
290
     0
176
     0
290
     0
176
     0
290
     0
176
     0
290
     0
176
     0
290
     0
176
     0
 90
       50
176
     0
 40
0.0
176
     0
 40
1.0
176
     0
 90
        0
176
     0
 62
    18
420
        0
176
     0
 90
       50
176
     0
 90
        3
176
     0
 62
     5
420
      255
176
     0
290
     0
176
     0
 90
       50
176
     0
 90
       50
176
     0
 90
       50
176
     0
290
     0
176
     0
 90
       50
176
     0
 62
   256
176
     0
 40
1.0
176
     0
 90
        2
176
     0
  1
strokes_ogs.tif
176
     0
290
     0
176
     0
 40
1.0
176
     0
 40
1.0
176
     0
  0
VISUALSTYLE
  5
39
102
{ACAD_REACTORS
330
2A
102
}
330
2A
100
AcDbVisualStyle
  2
Facepattern
 70
    15
177
     3
291
     1
 70
    58
 90
        2
176
     1
 90
        2
176
     1
 90
        0
176
     1
 90
        0
176
     1
 40
0.6
176
     1
 40
30.0
176
     1
 62
     7
420
 16777215
176
     1
 90
        1
176
     1
 90
        4
176
     1
 62
     7
176
     1
 62
   257
176
     1
 90
        1
176
     1
 90
        1
176
     1
 40
1.0
176
     1
 90
        8
176
     1
 62
     7
176
     1
 40
1.0
176
     1
 90
        1
176
     1
 90
        6
176
     1
 90
        2
176
     1
 62
     7
176
     1
 90
        5
176
     1
 90
        0
176
     1
 90
        0
176
     1
290
     0
176
     1
 90
        1
176
     1
 40
0.0
176
     1
 90
        0
176
     1
290
     0
176
     1
290
     1
176
     1
290
     1
176
     1
290
     0
176
     1
290
     0
176
     1
290
     0
176
     1
290
     0
176
     1
290
     0
176
     1
290
     0
176
     1
 90
       50
176
     1
 40
0.0
176
     1
 40
1.0
176
     1
 90
        0
176
     1
 62
    18
420
        0
176
     1
 90
       50
176
     1
 90
        3
176
     1
 62
     5
420
      255
176
     1
290
     0
176
     1
 90
       50
176
     1
 90
       50
176
     1
 90
       50
176
     1
290
     0
176
     1
 90
       50
176
     1
 62
   256
176
     0
 40
1.0
176
     0
 90
        2
176
     1
  1
strokes_ogs.tif
176
     1
290
     0
176
     1
 40
1.0
176
     1
 40
1.0
176
     1
  0
VISUALSTYLE
  5
2B
102
{ACAD_REACTORS
330
2A
102
}
330
2A
100
AcDbVisualStyle
  2
Flat
 70
     0
177
     3
291
     1
 70
    58
 90
        2
176
     1
 90
        1
176
     1
 90
        1
176
     1
 90
        2
176
     1
 40
0.6
176
     1
 40
30.0
176
     1
 62
     7
420
 16777215
176
     1
 90
        0
176
     1
 90
        0
176
     1
 62
     7
176
     1
 62
   257
176
     1
 90
        1
176
     1
 90
        1
176
     1
 40
1.0
176
     1
 90
        8
176
     1
 62
     7
176
     1
 40
1.0
176
     1
 90
        1
176
     1
 90
        6
176
     1
 90
        2
176
     1
 62
     7
176
     1
 90
        5
176
     1
 90
        0
176
     1
 90
        0
176
     1
290
     0
176
     1
 90
       13
176
     1
 40
0.0
176
     1
 90
        0
176
     1
290
     0
176
     1
290
     1
176
     1
290
     1
176
     1
290
     0
176
     1
290
     0
176
     1
290
     0
176
     1
290
     0
176
     1
290
     0
176
     1
290
     0
176
     1
 90
       50
176
     1
 40
0.0
176
     1
 40
1.0
176
     1
 90
        0
176
     1
 62
    18
420
        0
176
     1
 90
       50
176
     1
 90
        3
176
     1
 62
     5
420
      255
176
     1
290
     0
176
     1
 90
       50
176
     1
 90
       50
176
     1
 90
       50
176
     1
290
     0
176
     1
 90
       50
176
     1
 62
   256
176
     0
 40
1.0
176
     0
 90
        2
176
     1
  1
strokes_ogs.tif
176
     1
290
     0
176
     1
 40
1.0
176
     1
 40
1.0
176
     1
  0
VISUALSTYLE
  5
2C
102
{ACAD_REACTORS
330
2A
102
}
330
2A
100
AcDbVisualStyle
  2
FlatWithEdges
 70
     1
177
     3
291
     1
 70
    58
 90
        2
176
     1
 90
        1
176
     1
 90
        1
176
     1
 90
        2
176
     1
 40
0.6
176
     1
 40
30.0
176
     1
 62
     7
420
 16777215
176
     1
 90
        1
176
     1
 90
        0
176
     1
 62
     7
176
     1
 62
   257
176
     1
 90
        1
176
     1
 90
        1
176
     1
 40
1.0
176
     1
 90
        0
176
     1
 62
   257
176
     1
 40
1.0
176
     1
 90
        1
176
     1
 90
        6
176
     1
 90
        2
176
     1
 62
     7
176
     1
 90
        5
176
     1
 90
        0
176
     1
 90
        0
176
     1
290
     0
176
     1
 90
       13
176
     1
 40
0.0
176
     1
 90
        0
176
     1
290
     0
176
     1
290
     1
176
     1
290
     1
176
     1
290
     0
176
     1
290
     0
176
     1
290
     0
176
     1
290
     0
176
     1
290
     0
176
     1
290
     0
176
     1
 90
       50
176
     1
 40
0.0
176
     1
 40
1.0
176
     1
 90
        0
176
     1
 62
    18
420
        0
176
     1
 90
       50
176
     1
 90
        3
176
     1
 62
     5
420
      255
176
     1
290
     0
176
     1
 90
       50
176
     1
 90
       50
176
     1
 90
       50
176
     1
290
     0
176
     1
 90
       50
176
     1
 62
   256
176
     0
 40
1.0
176
     0
 90
        2
176
     1
  1
strokes_ogs.tif
176
     1
290
     0
176
     1
 40
1.0
176
     1
 40
1.0
176
     1
  0
VISUALSTYLE
  5
2D
102
{ACAD_REACTORS
330
2A
102
}
330
2A
100
AcDbVisualStyle
  2
Gouraud
 70
     2
177
     3
291
     1
 70
    58
 90
        2
176
     1
 90
        2
176
     1
 90
        1
176
     1
 90
        2
176
     1
 40
0.6
176
     1
 40
30.0
176
     1
 62
     7
420
 16777215
176
     1
 90
        0
176
     1
 90
        0
176
     1
 62
     7
176
     1
 62
   257
176
     1
 90
        1
176
     1
 90
        1
176
     1
 40
1.0
176
     1
 90
        0
176
     1
 62
     7
176
     1
 40
1.0
176
     1
 90
        1
176
     1
 90
        6
176
     1
 90
        2
176
     1
 62
     7
176
     1
 90
        5
176
     1
 90
        0
176
     1
 90
        0
176
     1
290
     0
176
     1
 90
       13
176
     1
 40
0.0
176
     1
 90
        0
176
     1
290
     0
176
     1
290
     1
176
     1
290
     1
176
     1
290
     0
176
     1
290
     0
176
     1
290
     0
176
     1
290
     0
176
     1
290
     0
176
     1
290
     0
176
     1
 90
       50
176
     1
 40
0.0
176
     1
 40
1.0
176
     1
 90
        0
176
     1
 62
    18
420
        0
176
     1
 90
       50
176
     1
 90
        3
176
     1
 62
     5
420
      255
176
     1
290
     0
176
     1
 90
       50
176
     1
 90
       50
176
     1
 90
       50
176
     1
290
     0
176
     1
 90
       50
176
     1
 62
   256
176
     0
 40
1.0
176
     0
 90
        2
176
     1
  1
strokes_ogs.tif
176
     1
290
     0
176
     1
 40
1.0
176
     1
 40
1.0
176
     1
  0
VISUALSTYLE
  5
2E
102
{ACAD_REACTORS
330
2A
102
}
330
2A
100
AcDbVisualStyle
  2
GouraudWithEdges
 70
     3
177
     3
291
     1
 70
    58
 90
        2
176
     1
 90
        2
176
     1
 90
        1
176
     1
 90
        2
176
     1
 40
0.6
176
     1
 40
30.0
176
     1
 62
     7
420
 16777215
176
     1
 90
        1
176
     1
 90
        0
176
     1
 62
     7
176
     1
 62
   257
176
     1
 90
        1
176
     1
 90
        1
176
     1
 40
1.0
176
     1
 90
        0
176
     1
 62
   257
176
     1
 40
1.0
176
     1
 90
        1
176
     1
 90
        6
176
     1
 90
        2
176
     1
 62
     7
176
     1
 90
        5
176
     1
 90
        0
176
     1
 90
        0
176
     1
290
     0
176
     1
 90
       13
176
     1
 40
0.0
176
     1
 90
        0
176
     1
290
     0
176
     1
290
     1
176
     1
290
     1
176
     1
290
     0
176
     1
290
     0
176
     1
290
     0
176
     1
290
     0
176
     1
290
     0
176
     1
290
     0
176
     1
 90
       50
176
     1
 40
0.0
176
     1
 40
1.0
176
     1
 90
        0
176
     1
 62
    18
420
        0
176
     1
 90
       50
176
     1
 90
        3
176
     1
 62
     5
420
      255
176
     1
290
     0
176
     1
 90
       50
176
     1
 90
       50
176
     1
 90
       50
176
     1
290
     0
176
     1
 90
       50
176
     1
 62
   256
176
     0
 40
1.0
176
     0
 90
        2
176
     1
  1
strokes_ogs.tif
176
     1
290
     0
176
     1
 40
1.0
176
     1
 40
1.0
176
     1
  0
VISUALSTYLE
  5
31
102
{ACAD_REACTORS
330
2A
102
}
330
2A
100
AcDbVisualStyle
  2
Hidden
 70
     6
177
     3
291
     0
 70
    58
 90
        1
176
     1
 90
        2
176
     1
 90
        2
176
     1
 90
        0
176
     1
 40
0.6
176
     1
 40
30.0
176
     1
 62
     7
420
 16777215
176
     1
 90
        2
176
     1
 90
        2
176
     1
 62
     7
176
     1
 62
   257
176
     1
 90
        2
176
     1
 90
        1
176
     1
 40
40.0
176
     1
 90
        0
176
     1
 62
   257
176
     1
 40
1.0
176
     1
 90
        1
176
     1
 90
        6
176
     1
 90
        2
176
     1
 62
     7
176
     1
 90
        3
176
     1
 90
        0
176
     1
 90
        0
176
     1
290
     0
176
     1
 90
        1
176
     1
 40
0.0
176
     1
 90
        0
176
     1
290
     0
176
     1
290
     1
176
     1
290
     1
176
     1
290
     0
176
     1
290
     0
176
     1
290
     0
176
     1
290
     0
176
     1
290
     0
176
     1
290
     0
176
     1
 90
       50
176
     1
 40
0.0
176
     1
 40
1.0
176
     1
 90
        0
176
     1
 62
    18
420
        0
176
     1
 90
       50
176
     1
 90
        3
176
     1
 62
     5
420
      255
176
     1
290
     0
176
     1
 90
       50
176
     1
 90
       50
176
     1
 90
       50
176
     1
290
     0
176
     1
 90
       50
176
     1
 62
   256
176
     0
 40
1.0
176
     0
 90
        2
176
     1
  1
strokes_ogs.tif
176
     1
290
     0
176
     1
 40
1.0
176
     1
 40
1.0
176
     1
  0
VISUALSTYLE
  5
3B
102
{ACAD_REACTORS
330
2A
102
}
330
2A
100
AcDbVisualStyle
  2
JitterOff
 70
    20
177
     3
291
     1
 70
    58
 90
        2
176
     0
 90
        2
176
     0
 90
        0
176
     0
 90
        0
176
     0
 40
0.6
176
     0
 40
30.0
176
     0
 62
     7
420
 16777215
176
     0
 90
        1
176
     0
 90
        4
176
     0
 62
     7
176
     0
 62
   257
176
     0
 90
        1
176
     0
 90
        1
176
     0
 40
1.0
176
     0
 90
       10
176
     2
 62
     7
176
     0
 40
1.0
176
     0
 90
        1
176
     0
 90
        6
176
     0
 90
        2
176
     0
 62
     7
176
     0
 90
        5
176
     0
 90
        0
176
     0
 90
        0
176
     0
290
     0
176
     0
 90
        1
176
     0
 40
0.0
176
     0
 90
        0
176
     0
290
     0
176
     0
290
     1
176
     0
290
     1
176
     0
290
     0
176
     0
290
     0
176
     0
290
     0
176
     0
290
     0
176
     0
290
     0
176
     0
290
     0
176
     0
 90
       50
176
     0
 40
0.0
176
     0
 40
1.0
176
     0
 90
        0
176
     0
 62
    18
420
        0
176
     0
 90
       50
176
     0
 90
        3
176
     0
 62
     5
420
      255
176
     0
290
     0
176
     0
 90
       50
176
     0
 90
       50
176
     0
 90
       50
176
     0
290
     0
176
     0
 90
       50
176
     0
 62
   256
176
     0
 40
1.0
176
     0
 90
        2
176
     0
  1
strokes_ogs.tif
176
     0
290
     0
176
     0
 40
1.0
176
     0
 40
1.0
176
     0
  0
VISUALSTYLE
  5
38
102
{ACAD_REACTORS
330
2A
102
}
330
2A
100
AcDbVisualStyle
  2
Linepattern
 70
    14
177
     3
291
     1
 70
    58
 90
        2
176
     1
 90
        2
176
     1
 90
        0
176
     1
 90
        0
176
     1
 40
0.6
176
     1
 40
30.0
176
     1
 62
     7
420
 16777215
176
     1
 90
        1
176
     1
 90
        4
176
     1
 62
     7
176
     1
 62
   257
176
     1
 90
        7
176
     1
 90
        7
176
     1
 40
1.0
176
     1
 90
        8
176
     1
 62
     7
176
     1
 40
1.0
176
     1
 90
        1
176
     1
 90
        6
176
     1
 90
        2
176
     1
 62
     7
176
     1
 90
        5
176
     1
 90
        0
176
     1
 90
        0
176
     1
290
     0
176
     1
 90
        1
176
     1
 40
0.0
176
     1
 90
        0
176
     1
290
     0
176
     1
290
     1
176
     1
290
     1
176
     1
290
     0
176
     1
290
     0
176
     1
290
     0
176
     1
290
     0
176
     1
290
     0
176
     1
290
     0
176
     1
 90
       50
176
     1
 40
0.0
176
     1
 40
1.0
176
     1
 90
        0
176
     1
 62
    18
420
        0
176
     1
 90
       50
176
     1
 90
        3
176
     1
 62
     5
420
      255
176
     1
290
     0
176
     1
 90
       50
176
     1
 90
       50
176
     1
 90
       50
176
     1
290
     0
176
     1
 90
       50
176
     1
 62
   256
176
     0
 40
1.0
176
     0
 90
        2
176
     1
  1
strokes_ogs.tif
176
     1
290
     0
176
     1
 40
1.0
176
     1
 40
1.0
176
     1
  0
VISUALSTYLE
  5
3C
102
{ACAD_REACTORS
330
2A
102
}
330
2A
100
AcDbVisualStyle
  2
OverhangOff
 70
    21
177
     3
291
     1
 70
    58
 90
        2
176
     0
 90
        2
176
     0
 90
        0
176
     0
 90
        0
176
     0
 40
0.6
176
     0
 40
30.0
176
     0
 62
     7
420
 16777215
176
     0
 90
        1
176
     0
 90
        4
176
     0
 62
     7
176
     0
 62
   257
176
     0
 90
        1
176
     0
 90
        1
176
     0
 40
1.0
176
     0
 90
        9
176
     2
 62
     7
176
     0
 40
1.0
176
     0
 90
        1
176
     0
 90
        6
176
     0
 90
        2
176
     0
 62
     7
176
     0
 90
        5
176
     0
 90
        0
176
     0
 90
        0
176
     0
290
     0
176
     0
 90
        1
176
     0
 40
0.0
176
     0
 90
        0
176
     0
290
     0
176
     0
290
     1
176
     0
290
     1
176
     0
290
     0
176
     0
290
     0
176
     0
290
     0
176
     0
290
     0
176
     0
290
     0
176
     0
290
     0
176
     0
 90
       50
176
     0
 40
0.0
176
     0
 40
1.0
176
     0
 90
        0
176
     0
 62
    18
420
        0
176
     0
 90
       50
176
     0
 90
        3
176
     0
 62
     5
420
      255
176
     0
290
     0
176
     0
 90
       50
176
     0
 90
       50
176
     0
 90
       50
176
     0
290
     0
176
     0
 90
       50
176
     0
 62
   256
176
     0
 40
1.0
176
     0
 90
        2
176
     0
  1
strokes_ogs.tif
176
     0
290
     0
176
     0
 40
1.0
176
     0
 40
1.0
176
     0
  0
VISUALSTYLE
  5
33
102
{ACAD_REACTORS
330
2A
102
}
330
2A
100
AcDbVisualStyle
  2
Realistic
 70
     8
177
     3
291
     0
 70
    58
 90
        2
176
     1
 90
        3
176
     1
 90
        0
176
     1
 90
        2
176
     1
 40
0.6
176
     1
 40
30.0
176
     1
 62
     7
420
 16777215
176
     1
 90
        0
176
     1
 90
        0
176
     1
 62
     7
176
     1
 62
   257
176
     1
 90
        1
176
     1
 90
        1
176
     1
 40
1.0
176
     1
 90
        8
176
     1
 62
   257
176
     1
 40
1.0
176
     1
 90
        1
176
     1
 90
        6
176
     1
 90
        2
176
     1
 62
     7
176
     1
 90
        3
176
     1
 90
        0
176
     1
 90
        0
176
     1
290
     0
176
     1
 90
       13
176
     1
 40
0.0
176
     1
 90
        0
176
     1
290
     0
176
     1
290
     1
176
     1
290
     1
176
     1
290
     0
176
     1
290
     0
176
     1
290
     0
176
     1
290
     0
176
     1
290
     0
176
     1
290
     0
176
     1
 90
       50
176
     1
 40
0.0
176
     1
 40
1.0
176
     1
 90
        0
176
     1
 62
    18
420
        0
176
     1
 90
       50
176
     1
 90
        3
176
     1
 62
     5
420
      255
176
     1
290
     0
176
     1
 90
       50
176
     1
 90
       50
176
     1
 90
       50
176
     1
290
     0
176
     1
 90
       50
176
     1
 62
   256
176
     0
 40
1.0
176
     0
 90
        2
176
     1
  1
strokes_ogs.tif
176
     1
290
     0
176
     1
 40
1.0
176
     1
 40
1.0
176
     1
  0
VISUALSTYLE
  5
42
102
{ACAD_REACTORS
330
2A
102
}
330
2A
100
AcDbVisualStyle
  2
Shaded
 70
    27
177
     3
291
     0
 70
    58
 90
        2
176
     1
 90
        2
176
     1
 90
        1
176
     1
 90
        2
176
     1
 40
0.6
176
     1
 40
30.0
176
     1
 62
     7
420
 16777215
176
     1
 90
        0
176
     1
 90
        4
176
     1
 62
     7
176
     1
 62
   257
176
     1
 90
        1
176
     1
 90
        1
176
     1
 40
1.0
176
     1
 90
        8
176
     1
 62
   257
176
     1
 40
1.0
176
     1
 90
        1
176
     1
 90
        6
176
     1
 90
        2
176
     1
 62
     8
420
  7895160
176
     1
 90
        3
176
     1
 90
        0
176
     1
 90
        0
176
     1
290
     0
176
     1
 90
        5
176
     1
 40
0.0
176
     1
 90
        0
176
     1
290
     0
176
     1
290
     1
176
     1
290
     1
176
     1
290
     0
176
     1
290
     0
176
     1
290
     0
176
     1
290
     0
176
     1
290
     0
176
     1
290
     0
176
     1
 90
       50
176
     1
 40
0.0
176
     1
 40
1.0
176
     1
 90
        0
176
     1
 62
    18
420
        0
176
     1
 90
       50
176
     1
 90
        3
176
     1
 62
     5
420
      255
176
     1
290
     0
176
     1
 90
       50
176
     1
 90
       50
176
     1
 90
       50
176
     1
290
     0
176
     1
 90
       50
176
     1
 62
   256
176
     0
 40
1.0
176
     0
 90
        2
176
     1
  1
strokes_ogs.tif
176
     1
290
     0
176
     1
 40
1.0
176
     1
 40
1.0
176
     1
  0
VISUALSTYLE
  5
41
102
{ACAD_REACTORS
330
2A
102
}
330
2A
100
AcDbVisualStyle
  2
Shaded with edges
 70
    26
177
     3
291
     0
 70
    58
 90
        2
176
     1
 90
        2
176
     1
 90
        1
176
     1
 90
        2
176
     1
 40
0.6
176
     1
 40
30.0
176
     1
 62
     7
420
 16777215
176
     1
 90
        1
176
     1
 90
       10
176
     1
 62
     7
176
     1
 62
   257
176
     1
 90
        2
176
     1
 90
        1
176
     1
 40
1.0
176
     1
 90
        8
176
     1
 62
   257
176
     1
 40
1.0
176
     1
 90
        1
176
     1
 90
        6
176
     1
 90
        2
176
     1
 62
     7
176
     1
 90
        3
176
     1
 90
        0
176
     1
 90
        0
176
     1
290
     0
176
     1
 90
        5
176
     1
 40
0.0
176
     1
 90
        0
176
     1
290
     0
176
     1
290
     1
176
     1
290
     1
176
     1
290
     0
176
     1
290
     0
176
     1
290
     0
176
     1
290
     0
176
     1
290
     0
176
     1
290
     0
176
     1
 90
       50
176
     1
 40
0.0
176
     1
 40
1.0
176
     1
 90
        0
176
     1
 62
    18
420
        0
176
     1
 90
       50
176
     1
 90
        3
176
     1
 62
     5
420
      255
176
     1
290
     0
176
     1
 90
       50
176
     1
 90
       50
176
     1
 90
       50
176
     1
290
     0
176
     1
 90
       50
176
     1
 62
   256
176
     0
 40
1.0
176
     0
 90
        2
176
     1
  1
strokes_ogs.tif
176
     1
290
     0
176
     1
 40
1.0
176
     1
 40
1.0
176
     1
  0
VISUALSTYLE
  5
3E
102
{ACAD_REACTORS
330
2A
102
}
330
2A
100
AcDbVisualStyle
  2
Shades of Gray
 70
    23
177
     3
291
     0
 70
    58
 90
        2
176
     1
 90
        2
176
     1
 90
        3
176
     1
 90
        0
176
     1
 40
0.6
176
     1
 40
30.0
176
     1
 62
     7
420
 16777215
176
     1
 90
        2
176
     1
 90
        2
176
     1
 62
     7
176
     1
 62
     7
176
     1
 90
        1
176
     1
 90
        1
176
     1
 40
40.0
176
     1
 90
        8
176
     1
 62
     7
176
     1
 40
1.0
176
     1
 90
        1
176
     1
 90
        6
176
     1
 90
        2
176
     1
 62
     7
176
     1
 90
        3
176
     1
 90
        0
176
     1
 90
        0
176
     1
290
     0
176
     1
 90
        1
176
     1
 40
0.0
176
     1
 90
        0
176
     1
290
     0
176
     1
290
     1
176
     1
290
     1
176
     1
290
     0
176
     1
290
     0
176
     1
290
     0
176
     1
290
     0
176
     1
290
     0
176
     1
290
     0
176
     1
 90
       50
176
     1
 40
0.0
176
     1
 40
1.0
176
     1
 90
        0
176
     1
 62
    18
420
        0
176
     1
 90
       50
176
     1
 90
        3
176
     1
 62
     5
420
      255
176
     1
290
     0
176
     1
 90
       50
176
     1
 90
       50
176
     1
 90
       50
176
     1
290
     0
176
     1
 90
       50
176
     1
 62
   256
176
     0
 40
1.0
176
     0
 90
        2
176
     1
  1
strokes_ogs.tif
176
     1
290
     0
176
     1
 40
1.0
176
     1
 40
1.0
176
     1
  0
VISUALSTYLE
  5
3F
102
{ACAD_REACTORS
330
2A
102
}
330
2A
100
AcDbVisualStyle
  2
Sketchy
 70
    24
177
     3
291
     0
 70
    58
 90
        1
176
     1
 90
        2
176
     1
 90
        2
176
     1
 90
        0
176
     1
 40
0.6
176
     1
 40
30.0
176
     1
 62
     7
420
 16777215
176
     1
 90
        2
176
     1
 90
        2
176
     1
 62
     7
176
     1
 62
     7
176
     1
 90
        1
176
     1
 90
        1
176
     1
 40
40.0
176
     1
 90
       11
176
     1
 62
     7
176
     1
 40
1.0
176
     1
 90
        1
176
     1
 90
        6
176
     1
 90
        2
176
     1
 62
     7
176
     1
 90
        6
176
     1
 90
        0
176
     1
 90
        0
176
     1
290
     0
176
     1
 90
        1
176
     1
 40
0.0
176
     1
 90
        0
176
     1
290
     0
176
     1
290
     1
176
     1
290
     1
176
     1
290
     0
176
     1
290
     0
176
     1
290
     0
176
     1
290
     0
176
     1
290
     0
176
     1
290
     0
176
     1
 90
       50
176
     1
 40
0.0
176
     1
 40
1.0
176
     1
 90
        0
176
     1
 62
    18
420
        0
176
     1
 90
       50
176
     1
 90
        3
176
     1
 62
     5
420
      255
176
     1
290
     0
176
     1
 90
       50
176
     1
 90
       50
176
     1
 90
       50
176
     1
290
     0
176
     1
 90
       50
176
     1
 62
   256
176
     0
 40
1.0
176
     0
 90
        2
176
     1
  1
strokes_ogs.tif
176
     1
290
     0
176
     1
 40
1.0
176
     1
 40
1.0
176
     1
  0
VISUALSTYLE
  5
37
102
{ACAD_REACTORS
330
2A
102
}
330
2A
100
AcDbVisualStyle
  2
Thicken
 70
    13
177
     3
291
     1
 70
    58
 90
        2
176
     1
 90
        2
176
     1
 90
        0
176
     1
 90
        0
176
     1
 40
0.6
176
     1
 40
30.0
176
     1
 62
     7
420
 16777215
176
     1
 90
        1
176
     1
 90
        4
176
     1
 62
     7
176
     1
 62
   257
176
     1
 90
        1
176
     1
 90
        1
176
     1
 40
1.0
176
     1
 90
       12
176
     1
 62
     7
176
     1
 40
1.0
176
     1
 90
        1
176
     1
 90
        6
176
     1
 90
        2
176
     1
 62
     7
176
     1
 90
        5
176
     1
 90
        0
176
     1
 90
        0
176
     1
290
     0
176
     1
 90
        1
176
     1
 40
0.0
176
     1
 90
        0
176
     1
290
     0
176
     1
290
     1
176
     1
290
     1
176
     1
290
     0
176
     1
290
     0
176
     1
290
     0
176
     1
290
     0
176
     1
290
     0
176
     1
290
     0
176
     1
 90
       50
176
     1
 40
0.0
176
     1
 40
1.0
176
     1
 90
        0
176
     1
 62
    18
420
        0
176
     1
 90
       50
176
     1
 90
        3
176
     1
 62
     5
420
      255
176
     1
290
     0
176
     1
 90
       50
176
     1
 90
       50
176
     1
 90
       50
176
     1
290
     0
176
     1
 90
       50
176
     1
 62
   256
176
     0
 40
1.0
176
     0
 90
        2
176
     1
  1
strokes_ogs.tif
176
     1
290
     0
176
     1
 40
1.0
176
     1
 40
1.0
176
     1
  0
VISUALSTYLE
  5
30
102
{ACAD_REACTORS
330
2A
102
}
330
2A
100
AcDbVisualStyle
  2
Wireframe
 70
     5
177
     3
291
     0
 70
    58
 90
        0
176
     1
 90
        2
176
     1
 90
        0
176
     1
 90
        0
176
     1
 40
0.6
176
     1
 40
30.0
176
     1
 62
     7
420
 16777215
176
     1
 90
        1
176
     1
 90
        4
176
     1
 62
     7
176
     1
 62
   257
176
     1
 90
        1
176
     1
 90
        1
176
     1
 40
1.0
176
     1
 90
        0
176
     1
 62
   257
176
     1
 40
1.0
176
     1
 90
        1
176
     1
 90
        6
176
     1
 90
        2
176
     1
 62
     7
176
     1
 90
        3
176
     1
 90
        0
176
     1
 90
        0
176
     1
290
     0
176
     1
 90
        1
176
     1
 40
0.0
176
     1
 90
        0
176
     1
290
     0
176
     1
290
     1
176
     1
290
     1
176
     1
290
     0
176
     1
290
     0
176
     1
290
     0
176
     1
290
     0
176
     1
290
     0
176
     1
290
     0
176
     1
 90
       50
176
     1
 40
0.0
176
     1
 40
1.0
176
     1
 90
        0
176
     1
 62
    18
420
        0
176
     1
 90
       50
176
     1
 90
        3
176
     1
 62
     5
420
      255
176
     1
290
     0
176
     1
 90
       50
176
     1
 90
       50
176
     1
 90
       50
176
     1
290
     0
176
     1
 90
       50
176
     1
 62
   256
176
     0
 40
1.0
176
     0
 90
        2
176
     1
  1
strokes_ogs.tif
176
     1
290
     0
176
     1
 40
1.0
176
     1
 40
1.0
176
     1
  0
VISUALSTYLE
  5
40
102
{ACAD_REACTORS
330
2A
102
}
330
2A
100
AcDbVisualStyle
  2
X-Ray
 70
    25
177
     3
291
     0
 70
    58
 90
        2
176
     1
 90
        2
176
     1
 90
        1
176
     1
 90
        1
176
     1
 40
0.5
176
     1
 40
30.0
176
     1
 62
     7
420
 16777215
176
     1
 90
        1
176
     1
 90
        0
176
     1
 62
     7
176
     1
 62
   257
176
     1
 90
        1
176
     1
 90
        1
176
     1
 40
1.0
176
     1
 90
        8
176
     1
 62
     7
176
     1
 40
1.0
176
     1
 90
        1
176
     1
 90
        6
176
     1
 90
        2
176
     1
 62
     7
176
     1
 90
        3
176
     1
 90
        0
176
     1
 90
        0
176
     1
290
     0
176
     1
 90
       13
176
     1
 40
0.0
176
     1
 90
        0
176
     1
290
     0
176
     1
290
     1
176
     1
290
     1
176
     1
290
     0
176
     1
290
     0
176
     1
290
     0
176
     1
290
     0
176
     1
290
     0
176
     1
290
     0
176
     1
 90
       50
176
     1
 40
0.0
176
     1
 40
1.0
176
     1
 90
        0
176
     1
 62
    18
420
        0
176
     1
 90
       50
176
     1
 90
        3
176
     1
 62
     5
420
      255
176
     1
290
     0
176
     1
 90
       50
176
     1
 90
       50
176
     1
 90
       50
176
     1
290
     0
176
     1
 90
       50
176
     1
 62
   256
176
     0
 40
1.0
176
     0
 90
        2
176
     1
  1
strokes_ogs.tif
176
     1
290
     0
176
     1
 40
1.0
176
     1
 40
1.0
176
     1
  0
DICTIONARYVAR
  5
1C8
102
{ACAD_REACTORS
330
1C7
102
}
330
1C7
100
DictionaryVariables
280
     0
  1
1:1
  0
DICTIONARYVAR
  5
1CD
102
{ACAD_REACTORS
330
1C7
102
}
330
1C7
100
DictionaryVariables
280
     0
  1
Standard
  0
DICTIONARYVAR
  5
1CC
102
{ACAD_REACTORS
330
1C7
102
}
330
1C7
100
DictionaryVariables
280
     0
  1
Standard
  0
DICTIONARY
  5
1C9
330
6A
100
AcDbDictionary
280
     1
281
     1
  3
ACAD_ROUNDTRIP_2008_TABLESTYLE_CELLSTYLEMAP
360
1CA
  0
CELLSTYLEMAP
  5
1CA
102
{ACAD_REACTORS
330
1C9
102
}
330
1C9
100
AcDbCellStyleMap
 90
        3
300
CELLSTYLE
  1
TABLEFORMAT_BEGIN
 90
        5
170
     1
 91
        0
 92
    32768
 62
   257
 93
        1
300
CONTENTFORMAT
  1
CONTENTFORMAT_BEGIN
 90
        0
 91
        0
 92
        4
 93
        0
300

 40
0.0
140
1.0
 94
        5
 62
     0
340
11
144
6.0
309
CONTENTFORMAT_END
171
     1
301
MARGIN
  1
CELLMARGIN_BEGIN
 40
1.5
 40
1.5
 40
1.5
 40
1.5
 40
1.5
 40
1.5
309
CELLMARGIN_END
 94
        6
 95
        1
302
GRIDFORMAT
  1
GRIDFORMAT_BEGIN
 90
        0
 91
        1
 62
     0
 92
       -2
340
14
 93
        0
 40
0.045
309
GRIDFORMAT_END
 95
        2
302
GRIDFORMAT
  1
GRIDFORMAT_BEGIN
 90
        0
 91
        1
 62
     0
 92
       -2
340
14
 93
        0
 40
0.045
309
GRIDFORMAT_END
 95
        4
302
GRIDFORMAT
  1
GRIDFORMAT_BEGIN
 90
        0
 91
        1
 62
     0
 92
       -2
340
14
 93
        0
 40
0.045
309
GRIDFORMAT_END
 95
        8
302
GRIDFORMAT
  1
GRIDFORMAT_BEGIN
 90
        0
 91
        1
 62
     0
 92
       -2
340
14
 93
        0
 40
0.045
309
GRIDFORMAT_END
 95
       16
302
GRIDFORMAT
  1
GRIDFORMAT_BEGIN
 90
        0
 91
        1
 62
     0
 92
       -2
340
14
 93
        0
 40
0.045
309
GRIDFORMAT_END
 95
       32
302
GRIDFORMAT
  1
GRIDFORMAT_BEGIN
 90
        0
 91
        1
 62
     0
 92
       -2
340
14
 93
        0
 40
0.045
309
GRIDFORMAT_END
309
TABLEFORMAT_END
  1
CELLSTYLE_BEGIN
 90
        1
 91
        1
300
_TITLE
309
CELLSTYLE_END
300
CELLSTYLE
  1
TABLEFORMAT_BEGIN
 90
        5
170
     1
 91
        0
 92
        0
 62
   257
 93
        1
300
CONTENTFORMAT
  1
CONTENTFORMAT_BEGIN
 90
        0
 91
        0
 92
        4
 93
        0
300

 40
0.0
140
1.0
 94
        5
 62
     0
340
11
144
4.5
309
CONTENTFORMAT_END
171
     1
301
MARGIN
  1
CELLMARGIN_BEGIN
 40
1.5
 40
1.5
 40
1.5
 40
1.5
 40
1.5
 40
1.5
309
CELLMARGIN_END
 94
        6
 95
        1
302
GRIDFORMAT
  1
GRIDFORMAT_BEGIN
 90
        0
 91
        1
 62
     0
 92
       -2
340
14
 93
        0
 40
0.045
309
GRIDFORMAT_END
 95
        2
302
GRIDFORMAT
  1
GRIDFORMAT_BEGIN
 90
        0
 91
        1
 62
     0
 92
       -2
340
14
 93
        0
 40
0.045
309
GRIDFORMAT_END
 95
        4
302
GRIDFORMAT
  1
GRIDFORMAT_BEGIN
 90
        0
 91
        1
 62
     0
 92
       -2
340
14
 93
        0
 40
0.045
309
GRIDFORMAT_END
 95
        8
302
GRIDFORMAT
  1
GRIDFORMAT_BEGIN
 90
        0
 91
        1
 62
     0
 92
       -2
340
14
 93
        0
 40
0.045
309
GRIDFORMAT_END
 95
       16
302
GRIDFORMAT
  1
GRIDFORMAT_BEGIN
 90
        0
 91
        1
 62
     0
 92
       -2
340
14
 93
        0
 40
0.045
309
GRIDFORMAT_END
 95
       32
302
GRIDFORMAT
  1
GRIDFORMAT_BEGIN
 90
        0
 91
        1
 62
     0
 92
       -2
340
14
 93
        0
 40
0.045
309
GRIDFORMAT_END
309
TABLEFORMAT_END
  1
CELLSTYLE_BEGIN
 90
        2
 91
        1
300
_HEADER
309
CELLSTYLE_END
300
CELLSTYLE
  1
TABLEFORMAT_BEGIN
 90
        5
170
     1
 91
        0
 92
        0
 62
   257
 93
        1
300
CONTENTFORMAT
  1
CONTENTFORMAT_BEGIN
 90
        0
 91
        0
 92
        4
 93
        0
300

 40
0.0
140
1.0
 94
        2
 62
     0
340
11
144
4.5
309
CONTENTFORMAT_END
171
     1
301
MARGIN
  1
CELLMARGIN_BEGIN
 40
1.5
 40
1.5
 40
1.5
 40
1.5
 40
1.5
 40
1.5
309
CELLMARGIN_END
 94
        6
 95
        1
302
GRIDFORMAT
  1
GRIDFORMAT_BEGIN
 90
        0
 91
        1
 62
     0
 92
       -2
340
14
 93
        0
 40
0.045
309
GRIDFORMAT_END
 95
        2
302
GRIDFORMAT
  1
GRIDFORMAT_BEGIN
 90
        0
 91
        1
 62
     0
 92
       -2
340
14
 93
        0
 40
0.045
309
GRIDFORMAT_END
 95
        4
302
GRIDFORMAT
  1
GRIDFORMAT_BEGIN
 90
        0
 91
        1
 62
     0
 92
       -2
340
14
 93
        0
 40
0.045
309
GRIDFORMAT_END
 95
        8
302
GRIDFORMAT
  1
GRIDFORMAT_BEGIN
 90
        0
 91
        1
 62
     0
 92
       -2
340
14
 93
        0
 40
0.045
309
GRIDFORMAT_END
 95
       16
302
GRIDFORMAT
  1
GRIDFORMAT_BEGIN
 90
        0
 91
        1
 62
     0
 92
       -2
340
14
 93
        0
 40
0.045
309
GRIDFORMAT_END
 95
       32
302
GRIDFORMAT
  1
GRIDFORMAT_BEGIN
 90
        0
 91
        1
 62
     0
 92
       -2
340
14
 93
        0
 40
0.045
309
GRIDFORMAT_END
309
TABLEFORMAT_END
  1
CELLSTYLE_BEGIN
 90
        3
 91
        2
300
_DATA
309
CELLSTYLE_END
  0
ENDSEC
  0
EOF