0
SECTION
  2
HEADER
  9
$ACADVER
  1
AC1027
  9
$ACADMAINTVER
 70
     8
  9
$DWGCODEPAGE
  3
ANSI_1252
  9
$REQUIREDVERSIONS
160
                 0
  9
$COMMENTS
  1
File was created by Cadenas
  9
$CUSTOMPROPERTYTAG
  1
NN
  9
$CUSTOMPROPERTY
  1
Set Screw Intermediate Duty Two-Bolt Flange Metric Bore
  9
$CUSTOMPROPERTYTAG
  1
NT
  9
$CUSTOMPROPERTY
  1
VSC Intermediate Duty 2-Bolt Flange Bearings
  9
$CUSTOMPROPERTYTAG
  1
NB
  9
$CUSTOMPROPERTY
  1
125707
  9
$CUSTOMPROPERTYTAG
  1
NBSYN
  9
$CUSTOMPROPERTY
  1
$PN.
  9
$CUSTOMPROPERTYTAG
  1
LINA
  9
$CUSTOMPROPERTY
  1
125707
  9
$CUSTOMPROPERTYTAG
  1
PN
  9
$CUSTOMPROPERTY
  1
125707
  9
$CUSTOMPROPERTYTAG
  1
SERIES
  9
$CUSTOMPROPERTY
  1
208
  9
$CUSTOMPROPERTYTAG
  1
SS
  9
$CUSTOMPROPERTY
  1
40
  9
$CUSTOMPROPERTYTAG
  1
DESCRIPTION
  9
$CUSTOMPROPERTY
  1
F2B-VSC-40M
  9
$CUSTOMPROPERTYTAG
  1
WEIGHT
  9
$CUSTOMPROPERTY
  1
1.83
  9
$CUSTOMPROPERTYTAG
  1
A
  9
$CUSTOMPROPERTY
  1
49.300
  9
$CUSTOMPROPERTYTAG
  1
B
  9
$CUSTOMPROPERTY
  1
171.500
  9
$CUSTOMPROPERTYTAG
  1
C
  9
$CUSTOMPROPERTY
  1
50.300
  9
$CUSTOMPROPERTYTAG
  1
D
  9
$CUSTOMPROPERTY
  1
143.800
  9
$CUSTOMPROPERTYTAG
  1
F
  9
$CUSTOMPROPERTY
  1
M12
  9
$CUSTOMPROPERTYTAG
  1
H
  9
$CUSTOMPROPERTY
  1
14.200
  9
$CUSTOMPROPERTYTAG
  1
J
  9
$CUSTOMPROPERTY
  1
16.000
  9
$CUSTOMPROPERTYTAG
  1
L
  9
$CUSTOMPROPERTY
  1
52.100
  9
$CUSTOMPROPERTYTAG
  1
M
  9
$CUSTOMPROPERTY
  1
104.900
  9
$CUSTOMPROPERTYTAG
  1
N
  9
$CUSTOMPROPERTY
  1
46.500
  9
$CUSTOMPROPERTYTAG
  1
COMPANY
  9
$CUSTOMPROPERTY
  1
baldor
  9
$INSBASE
 10
0.0
 20
0.0
 30
0.0
  9
$EXTMIN
 10
1.000000000000000E+20
 20
1.000000000000000E+20
 30
1.000000000000000E+20
  9
$EXTMAX
 10
-1.000000000000000E+20
 20
-1.000000000000000E+20
 30
-1.000000000000000E+20
  9
$LIMMIN
 10
0.0
 20
0.0
  9
$LIMMAX
 10
420.0
 20
297.0
  9
$ORTHOMODE
 70
     0
  9
$REGENMODE
 70
     1
  9
$FILLMODE
 70
     1
  9
$QTEXTMODE
 70
     0
  9
$MIRRTEXT
 70
     1
  9
$LTSCALE
 40
1.0
  9
$ATTMODE
 70
     1
  9
$TEXTSIZE
 40
2.5
  9
$TRACEWID
 40
1.0
  9
$TEXTSTYLE
  7
Standard
  9
$CLAYER
  8
0
  9
$CELTYPE
  6
ByLayer
  9
$CECOLOR
 62
   256
  9
$CELTSCALE
 40
1.0
  9
$DISPSILH
 70
     0
  9
$DIMSCALE
 40
1.0
  9
$DIMASZ
 40
2.5
  9
$DIMEXO
 40
0.625
  9
$DIMDLI
 40
3.75
  9
$DIMRND
 40
0.0
  9
$DIMDLE
 40
0.0
  9
$DIMEXE
 40
1.25
  9
$DIMTP
 40
0.0
  9
$DIMTM
 40
0.0
  9
$DIMTXT
 40
2.5
  9
$DIMCEN
 40
2.5
  9
$DIMTSZ
 40
0.0
  9
$DIMTOL
 70
     0
  9
$DIMLIM
 70
     0
  9
$DIMTIH
 70
     0
  9
$DIMTOH
 70
     0
  9
$DIMSE1
 70
     0
  9
$DIMSE2
 70
     0
  9
$DIMTAD
 70
     1
  9
$DIMZIN
 70
     8
  9
$DIMBLK
  1

  9
$DIMASO
 70
     1
  9
$DIMSHO
 70
     1
  9
$DIMPOST
  1

  9
$DIMAPOST
  1

  9
$DIMALT
 70
     0
  9
$DIMALTD
 70
     3
  9
$DIMALTF
 40
0.03937007874016
  9
$DIMLFAC
 40
1.0
  9
$DIMTOFL
 70
     1
  9
$DIMTVP
 40
0.0
  9
$DIMTIX
 70
     0
  9
$DIMSOXD
 70
     0
  9
$DIMSAH
 70
     0
  9
$DIMBLK1
  1

  9
$DIMBLK2
  1

  9
$DIMSTYLE
  2
ISO-25
  9
$DIMCLRD
 70
     0
  9
$DIMCLRE
 70
     0
  9
$DIMCLRT
 70
     0
  9
$DIMTFAC
 40
1.0
  9
$DIMGAP
 40
0.625
  9
$DIMJUST
 70
     0
  9
$DIMSD1
 70
     0
  9
$DIMSD2
 70
     0
  9
$DIMTOLJ
 70
     0
  9
$DIMTZIN
 70
     8
  9
$DIMALTZ
 70
     0
  9
$DIMALTTZ
 70
     0
  9
$DIMUPT
 70
     0
  9
$DIMDEC
 70
     2
  9
$DIMTDEC
 70
     2
  9
$DIMALTU
 70
     2
  9
$DIMALTTD
 70
     3
  9
$DIMTXSTY
  7
Standard
  9
$DIMAUNIT
 70
     0
  9
$DIMADEC
 70
     0
  9
$DIMALTRND
 40
0.0
  9
$DIMAZIN
 70
     0
  9
$DIMDSEP
 70
    44
  9
$DIMATFIT
 70
     3
  9
$DIMFRAC
 70
     0
  9
$DIMLDRBLK
  1

  9
$DIMLUNIT
 70
     2
  9
$DIMLWD
 70
    -2
  9
$DIMLWE
 70
    -2
  9
$DIMTMOVE
 70
     0
  9
$DIMFXL
 40
1.0
  9
$DIMFXLON
 70
     0
  9
$DIMJOGANG
 40
0.7853981633974483
  9
$DIMTFILL
 70
     0
  9
$DIMTFILLCLR
 70
     0
  9
$DIMARCSYM
 70
     0
  9
$DIMLTYPE
  6

  9
$DIMLTEX1
  6

  9
$DIMLTEX2
  6

  9
$DIMTXTDIRECTION
 70
     0
  9
$LUNITS
 70
     2
  9
$LUPREC
 70
     4
  9
$SKETCHINC
 40
1.0
  9
$FILLETRAD
 40
10.0
  9
$AUNITS
 70
     0
  9
$AUPREC
 70
     0
  9
$MENU
  1
.
  9
$ELEVATION
 40
0.0
  9
$PELEVATION
 40
0.0
  9
$THICKNESS
 40
0.0
  9
$LIMCHECK
 70
     0
  9
$CHAMFERA
 40
0.0
  9
$CHAMFERB
 40
0.0
  9
$CHAMFERC
 40
0.0
  9
$CHAMFERD
 40
0.0
  9
$SKPOLY
 70
     0
  9
$TDCREATE
 40
2458168.987601065
  9
$TDUCREATE
 40
2458168.945934398
  9
$TDUPDATE
 40
2458168.987601065
  9
$TDUUPDATE
 40
2458168.945934398
  9
$TDINDWG
 40
0.0000000116
  9
$TDUSRTIMER
 40
0.0000000116
  9
$USRTIMER
 70
     1
  9
$ANGBASE
 50
0.0
  9
$ANGDIR
 70
     0
  9
$PDMODE
 70
     0
  9
$PDSIZE
 40
0.0
  9
$PLINEWID
 40
0.0
  9
$SPLFRAME
 70
     0
  9
$SPLINETYPE
 70
     6
  9
$SPLINESEGS
 70
     8
  9
$HANDSEED
  5
1D0
  9
$SURFTAB1
 70
     6
  9
$SURFTAB2
 70
     6
  9
$SURFTYPE
 70
     6
  9
$SURFU
 70
     6
  9
$SURFV
 70
     6
  9
$UCSBASE
  2

  9
$UCSNAME
  2

  9
$UCSORG
 10
0.0
 20
0.0
 30
0.0
  9
$UCSXDIR
 10
1.0
 20
0.0
 30
0.0
  9
$UCSYDIR
 10
0.0
 20
1.0
 30
0.0
  9
$UCSORTHOREF
  2

  9
$UCSORTHOVIEW
 70
     0
  9
$UCSORGTOP
 10
0.0
 20
0.0
 30
0.0
  9
$UCSORGBOTTOM
 10
0.0
 20
0.0
 30
0.0
  9
$UCSORGLEFT
 10
0.0
 20
0.0
 30
0.0
  9
$UCSORGRIGHT
 10
0.0
 20
0.0
 30
0.0
  9
$UCSORGFRONT
 10
0.0
 20
0.0
 30
0.0
  9
$UCSORGBACK
 10
0.0
 20
0.0
 30
0.0
  9
$PUCSBASE
  2

  9
$PUCSNAME
  2

  9
$PUCSORG
 10
0.0
 20
0.0
 30
0.0
  9
$PUCSXDIR
 10
1.0
 20
0.0
 30
0.0
  9
$PUCSYDIR
 10
0.0
 20
1.0
 30
0.0
  9
$PUCSORTHOREF
  2

  9
$PUCSORTHOVIEW
 70
     0
  9
$PUCSORGTOP
 10
0.0
 20
0.0
 30
0.0
  9
$PUCSORGBOTTOM
 10
0.0
 20
0.0
 30
0.0
  9
$PUCSORGLEFT
 10
0.0
 20
0.0
 30
0.0
  9
$PUCSORGRIGHT
 10
0.0
 20
0.0
 30
0.0
  9
$PUCSORGFRONT
 10
0.0
 20
0.0
 30
0.0
  9
$PUCSORGBACK
 10
0.0
 20
0.0
 30
0.0
  9
$USERI1
 70
     0
  9
$USERI2
 70
     0
  9
$USERI3
 70
     0
  9
$USERI4
 70
     0
  9
$USERI5
 70
     0
  9
$USERR1
 40
0.0
  9
$USERR2
 40
0.0
  9
$USERR3
 40
0.0
  9
$USERR4
 40
0.0
  9
$USERR5
 40
0.0
  9
$WORLDVIEW
 70
     1
  9
$SHADEDGE
 70
     3
  9
$SHADEDIF
 70
    70
  9
$TILEMODE
 70
     1
  9
$MAXACTVP
 70
    64
  9
$PINSBASE
 10
0.0
 20
0.0
 30
0.0
  9
$PLIMCHECK
 70
     0
  9
$PEXTMIN
 10
1.000000000000000E+20
 20
1.000000000000000E+20
 30
1.000000000000000E+20
  9
$PEXTMAX
 10
-1.000000000000000E+20
 20
-1.000000000000000E+20
 30
-1.000000000000000E+20
  9
$PLIMMIN
 10
0.0
 20
0.0
  9
$PLIMMAX
 10
420.0
 20
297.0
  9
$UNITMODE
 70
     0
  9
$VISRETAIN
 70
     1
  9
$PLINEGEN
 70
     0
  9
$PSLTSCALE
 70
     1
  9
$TREEDEPTH
 70
  3020
  9
$CMLSTYLE
  2
Standard
  9
$CMLJUST
 70
     0
  9
$CMLSCALE
 40
20.0
  9
$PROXYGRAPHICS
 70
     1
  9
$MEASUREMENT
 70
     1
  9
$CELWEIGHT
370
    -1
  9
$ENDCAPS
280
     0
  9
$JOINSTYLE
280
     0
  9
$LWDISPLAY
290
     0
  9
$INSUNITS
 70
     4
  9
$HYPERLINKBASE
  1

  9
$STYLESHEET
  1

  9
$XEDIT
290
     1
  9
$CEPSNTYPE
380
     0
  9
$PSTYLEMODE
290
     1
  9
$FINGERPRINTGUID
  2
{28A7B152-0231-4561-B238-DDA7AE447328}
  9
$VERSIONGUID
  2
{FAEB1C32-E019-11D5-929B-00C0DF256EC4}
  9
$EXTNAMES
290
     1
  9
$PSVPSCALE
 40
0.0
  9
$OLESTARTUP
290
     0
  9
$SORTENTS
280
   127
  9
$INDEXCTL
280
     0
  9
$HIDETEXT
280
     1
  9
$XCLIPFRAME
280
     2
  9
$HALOGAP
280
     0
  9
$OBSCOLOR
 70
   257
  9
$OBSLTYPE
280
     0
  9
$INTERSECTIONDISPLAY
280
     0
  9
$INTERSECTIONCOLOR
 70
   257
  9
$DIMASSOC
280
     2
  9
$PROJECTNAME
  1

  9
$CAMERADISPLAY
290
     0
  9
$LENSLENGTH
 40
50.0
  9
$CAMERAHEIGHT
 40
0.0
  9
$STEPSPERSEC
 40
2.0
  9
$STEPSIZE
 40
6.0
  9
$3DDWFPREC
 40
2.0
  9
$PSOLWIDTH
 40
5.0
  9
$PSOLHEIGHT
 40
80.0
  9
$LOFTANG1
 40
1.570796326794897
  9
$LOFTANG2
 40
1.570796326794897
  9
$LOFTMAG1
 40
0.0
  9
$LOFTMAG2
 40
0.0
  9
$LOFTPARAM
 70
     7
  9
$LOFTNORMALS
280
     1
  9
$LATITUDE
 40
37.795
  9
$LONGITUDE
 40
-122.394
  9
$NORTHDIRECTION
 40
0.0
  9
$TIMEZONE
 70
 -8000
  9
$LIGHTGLYPHDISPLAY
280
     1
  9
$TILEMODELIGHTSYNCH
280
     1
  9
$CMATERIAL
347
44
  9
$SOLIDHIST
280
     0
  9
$SHOWHIST
280
     1
  9
$DWFFRAME
280
     2
  9
$DGNFRAME
280
     2
  9
$REALWORLDSCALE
290
     1
  9
$INTERFERECOLOR
 62
   256
  9
$CSHADOW
280
     0
  9
$SHADOWPLANELOCATION
 40
0.0
  0
ENDSEC
  0
SECTION
  2
CLASSES
  0
CLASS
  1
ACDBDICTIONARYWDFLT
  2
AcDbDictionaryWithDefault
  3
ObjectDBX Classes
 90
        0
 91
        4
280
     0
281
     0
  0
CLASS
  1
VISUALSTYLE
  2
AcDbVisualStyle
  3
ObjectDBX Classes
 90
     4095
 91
        4
280
     0
281
     0
  0
CLASS
  1
MATERIAL
  2
AcDbMaterial
  3
ObjectDBX Classes
 90
     1153
 91
        4
280
     0
281
     0
  0
CLASS
  1
SCALE
  2
AcDbScale
  3
ObjectDBX Classes
 90
     1153
 91
        4
280
     0
281
     0
  0
CLASS
  1
TABLESTYLE
  2
AcDbTableStyle
  3
ObjectDBX Classes
 90
     4095
 91
        4
280
     0
281
     0
  0
CLASS
  1
MLEADERSTYLE
  2
AcDbMLeaderStyle
  3
ACDB_MLEADERSTYLE_CLASS
 90
     4095
 91
        4
280
     0
281
     0
  0
CLASS
  1
SUN
  2
AcDbSun
  3
SCENEOE
 90
     1153
 91
        4
280
     0
281
     0
  0
CLASS
  1
DICTIONARYVAR
  2
AcDbDictionaryVar
  3
ObjectDBX Classes
 90
        0
 91
        4
280
     0
281
     0
  0
CLASS
  1
CELLSTYLEMAP
  2
AcDbCellStyleMap
  3
ObjectDBX Classes
 90
     1152
 91
        4
280
     0
281
     0
  0
ENDSEC
  0
SECTION
  2
TABLES
  0
TABLE
  2
VPORT
  5
8
330
0
100
AcDbSymbolTable
 70
     1
  0
VPORT
  5
29
330
8
100
AcDbSymbolTableRecord
100
AcDbViewportTableRecord
  2
*Active
 70
     0
 10
0.0
 20
0.0
 11
1.0
 21
1.0
 12
-25.15000000000003
 22
0.0
 13
0.0
 23
0.0
 14
10.0
 24
10.0
 15
10.0
 25
10.0
 16
0.0
 26
0.0
 36
1.0
 17
0.0
 27
0.0
 37
0.0
 40
174.93
 41
0.3226239067055389
 42
50.0
 43
0.0
 44
0.0
 50
0.0
 51
0.0
 71
     0
 72
   100
 73
     1
 74
     3
 75
     0
 76
     0
 77
     0
 78
     0
281
     0
 65
     1
110
0.0
120
0.0
130
0.0
111
1.0
121
0.0
131
0.0
112
0.0
122
1.0
132
0.0
 79
     0
146
0.0
348
2F
 60
     3
 61
     5
292
     1
282
     1
141
0.0
142
0.0
 63
   250
361
6D
  0
ENDTAB
  0
TABLE
  2
LTYPE
  5
5
330
0
100
AcDbSymbolTable
 70
     3
  0
LTYPE
  5
14
330
5
100
AcDbSymbolTableRecord
100
AcDbLinetypeTableRecord
  2
ByBlock
 70
     0
  3

 72
    65
 73
     0
 40
0.0
  0
LTYPE
  5
15
330
5
100
AcDbSymbolTableRecord
100
AcDbLinetypeTableRecord
  2
ByLayer
 70
     0
  3

 72
    65
 73
     0
 40
0.0
  0
LTYPE
  5
16
330
5
100
AcDbSymbolTableRecord
100
AcDbLinetypeTableRecord
  2
Continuous
 70
     0
  3
Solid line
 72
    65
 73
     0
 40
0.0
  0
LTYPE
  5
9F
330
5
100
AcDbSymbolTableRecord
100
AcDbLinetypeTableRecord
  2
Dashed
 70
     0
  3

 72
    65
 73
     2
 40
2.0
 49
1.0
 74
     0
 49
-1.0
 74
     0
  0
LTYPE
  5
D2
330
5
100
AcDbSymbolTableRecord
100
AcDbLinetypeTableRecord
  2
Center
 70
     0
  3

 72
    65
 73
     4
 40
1.5
 49
0.45
 74
     0
 49
-0.5
 74
     0
 49
0.05
 74
     0
 49
-0.5
 74
     0
  0
ENDTAB
  0
TABLE
  2
LAYER
  5
2
330
0
100
AcDbSymbolTable
 70
     7
  0
LAYER
  5
10
330
2
100
AcDbSymbolTableRecord
100
AcDbLayerTableRecord
  2
0
 70
     0
 62
     7
  6
Continuous
370
    -3
390
F
347
46
348
0
  0
LAYER
  5
72
330
2
100
AcDbSymbolTableRecord
100
AcDbLayerTableRecord
  2
AM_6
 70
     0
 62
    -2
  6
Continuous
370
    35
390
F
347
46
348
0
  0
LAYER
  5
A0
330
2
100
AcDbSymbolTableRecord
100
AcDbLayerTableRecord
  2
AM_9
 70
     0
 62
     6
  6
Dashed
370
    25
390
F
347
46
348
0
  0
LAYER
  5
CF
330
2
100
AcDbSymbolTableRecord
100
AcDbLayerTableRecord
  2
AM_5
 70
     0
 62
     3
  6
Continuous
370
    25
390
F
347
46
348
0
  0
LAYER
  5
D3
330
2
100
AcDbSymbolTableRecord
100
AcDbLayerTableRecord
  2
AM_7
 70
     0
 62
     7
  6
Center
370
    25
390
F
347
46
348
0
  0
LAYER
  5
D6
330
2
100
AcDbSymbolTableRecord
100
AcDbLayerTableRecord
  2
AM_4
 70
     0
 62
     7
  6
Continuous
370
    50
390
F
347
46
348
0
  0
LAYER
  5
1C3
330
2
100
AcDbSymbolTableRecord
100
AcDbLayerTableRecord
  2
ConnectionPoints
 70
     0
 62
     7
  6
Continuous
370
    50
390
F
347
46
348
0
  0
ENDTAB
  0
TABLE
  2
STYLE
  5
3
330
0
100
AcDbSymbolTable
 70
     1
  0
STYLE
  5
11
330
3
100
AcDbSymbolTableRecord
100
AcDbTextStyleTableRecord
  2
Standard
 70
     0
 40
0.0
 41
1.0
 50
0.0
 71
     0
 42
2.5
  3
txt
  4

  0
ENDTAB
  0
TABLE
  2
VIEW
  5
6
330
0
100
AcDbSymbolTable
 70
     0
  0
ENDTAB
  0
TABLE
  2
UCS
  5
7
330
0
100
AcDbSymbolTable
 70
     0
  0
ENDTAB
  0
TABLE
  2
APPID
  5
9
330
0
100
AcDbSymbolTable
 70
     1
  0
APPID
  5
12
330
9
100
AcDbSymbolTableRecord
100
AcDbRegAppTableRecord
  2
ACAD
 70
     0
  0
ENDTAB
  0
TABLE
  2
DIMSTYLE
  5
A
330
0
100
AcDbSymbolTable
 70
     1
100
AcDbDimStyleTable
  0
DIMSTYLE
105
27
330
A
100
AcDbSymbolTableRecord
100
AcDbDimStyleTableRecord
  2
ISO-25
 70
     0
 41
2.5
 42
0.625
 43
3.75
 44
1.25
 73
     0
 74
     0
 77
     1
 78
     8
140
2.5
141
2.5
143
0.03937007874016
147
0.625
171
     3
172
     1
178
     0
271
     2
272
     2
274
     3
278
    44
283
     0
284
     8
340
11
  0
ENDTAB
  0
TABLE
  2
BLOCK_RECORD
  5
1
330
0
100
AcDbSymbolTable
 70
     5
  0
BLOCK_RECORD
  5
1F
330
1
100
AcDbSymbolTableRecord
100
AcDbBlockTableRecord
  2
*Model_Space
340
22
 70
     0
280
     1
281
     0
  0
BLOCK_RECORD
  5
1B
330
1
100
AcDbSymbolTableRecord
100
AcDbBlockTableRecord
  2
*Paper_Space
340
1E
 70
     0
280
     1
281
     0
  0
BLOCK_RECORD
  5
23
330
1
100
AcDbSymbolTableRecord
100
AcDbBlockTableRecord
  2
*Paper_Space0
340
26
 70
     0
280
     1
281
     0
  0
BLOCK_RECORD
  5
6E
330
1
100
AcDbSymbolTableRecord
100
AcDbBlockTableRecord
  2
1_125707_2
340
0
102
{BLKREFS
331
6F
102
}
 70
     0
280
     1
281
     0
  0
BLOCK_RECORD
  5
88
330
1
100
AcDbSymbolTableRecord
100
AcDbBlockTableRecord
  2
2_125640_0_in_125707_2
340
0
102
{BLKREFS
331
89
102
}
 70
     0
280
     1
281
     0
  0
BLOCK_RECORD
  5
EA
330
1
100
AcDbSymbolTableRecord
100
AcDbBlockTableRecord
  2
3_405015E_Metric_0_in_125707_2
340
0
102
{BLKREFS
331
EB
102
}
 70
     0
280
     1
281
     0
  0
BLOCK_RECORD
  5
158
330
1
100
AcDbSymbolTableRecord
100
AcDbBlockTableRecord
  2
4_123615vscM_0_in_125707_2
340
0
102
{BLKREFS
331
159
102
}
 70
     0
280
     1
281
     0
  0
ENDTAB
  0
ENDSEC
  0
SECTION
  2
BLOCKS
  0
BLOCK
  5
20
330
1F
100
AcDbEntity
  8
0
100
AcDbBlockBegin
  2
*Model_Space
 70
     0
 10
0.0
 20
0.0
 30
0.0
  3
*Model_Space
  1

  0
ENDBLK
  5
21
330
1F
100
AcDbEntity
  8
0
100
AcDbBlockEnd
  0
BLOCK
  5
1C
330
1B
100
AcDbEntity
 67
     1
  8
0
100
AcDbBlockBegin
  2
*Paper_Space
 70
     0
 10
0.0
 20
0.0
 30
0.0
  3
*Paper_Space
  1

  0
ENDBLK
  5
1D
330
1B
100
AcDbEntity
 67
     1
  8
0
100
AcDbBlockEnd
  0
BLOCK
  5
24
330
23
100
AcDbEntity
  8
0
100
AcDbBlockBegin
  2
*Paper_Space0
 70
     0
 10
0.0
 20
0.0
 30
0.0
  3
*Paper_Space0
  1

  0
ENDBLK
  5
25
330
23
100
AcDbEntity
  8
0
100
AcDbBlockEnd
  0
BLOCK
  5
70
330
6E
100
AcDbEntity
  8
0
100
AcDbBlockBegin
  2
1_125707_2
 70
     2
 10
0.0
 20
0.0
 30
0.0
  3
1_125707_2
  1

  0
ATTDEF
  5
73
330
6E
100
AcDbEntity
  8
AM_6
100
AcDbText
 10
7.515000000000001
 20
85.75000000000001
 30
0.0
 40
0.5
  1
Set Screw Intermediate Duty Two-Bolt Flange Metric Bore
100
AcDbAttributeDefinition
  3

  2
NN
 70
     8
280
     0
  0
ATTDEF
  5
74
330
6E
100
AcDbEntity
  8
AM_6
100
AcDbText
 10
7.515000000000001
 20
85.25000000000001
 30
0.0
 40
0.5
  1
VSC Intermediate Duty 2-Bolt Flange Bearings
100
AcDbAttributeDefinition
  3

  2
NT
 70
     8
280
     0
  0
ATTDEF
  5
75
330
6E
100
AcDbEntity
  8
AM_6
100
AcDbText
 10
7.515000000000001
 20
84.75000000000001
 30
0.0
 40
0.5
  1
125707
100
AcDbAttributeDefinition
  3

  2
NB
 70
     8
280
     0
  0
ATTDEF
  5
76
330
6E
100
AcDbEntity
  8
AM_6
100
AcDbText
 10
7.515000000000001
 20
84.25000000000001
 30
0.0
 40
0.5
  1
$PN.
100
AcDbAttributeDefinition
  3

  2
NBSYN
 70
     8
280
     0
  0
ATTDEF
  5
77
330
6E
100
AcDbEntity
  8
AM_6
100
AcDbText
 10
7.515000000000001
 20
83.75000000000001
 30
0.0
 40
0.5
  1
125707
100
AcDbAttributeDefinition
  3

  2
LINA
 70
     8
280
     0
  0
ATTDEF
  5
78
330
6E
100
AcDbEntity
  8
AM_6
100
AcDbText
 10
7.515000000000001
 20
83.25000000000001
 30
0.0
 40
0.5
  1
125707
100
AcDbAttributeDefinition
  3

  2
PN
 70
     8
280
     0
  0
ATTDEF
  5
79
330
6E
100
AcDbEntity
  8
AM_6
100
AcDbText
 10
7.515000000000001
 20
82.75000000000001
 30
0.0
 40
0.5
  1
208
100
AcDbAttributeDefinition
  3

  2
SERIES
 70
     8
280
     0
  0
ATTDEF
  5
7A
330
6E
100
AcDbEntity
  8
AM_6
100
AcDbText
 10
7.515000000000001
 20
82.25000000000001
 30
0.0
 40
0.5
  1
40
100
AcDbAttributeDefinition
  3

  2
SS
 70
     8
280
     0
  0
ATTDEF
  5
7B
330
6E
100
AcDbEntity
  8
AM_6
100
AcDbText
 10
7.515000000000001
 20
81.75000000000001
 30
0.0
 40
0.5
  1
F2B-VSC-40M
100
AcDbAttributeDefinition
  3

  2
DESCRIPTION
 70
     8
280
     0
  0
ATTDEF
  5
7C
330
6E
100
AcDbEntity
  8
AM_6
100
AcDbText
 10
7.515000000000001
 20
81.25000000000001
 30
0.0
 40
0.5
  1
1.83
100
AcDbAttributeDefinition
  3

  2
WEIGHT
 70
     8
280
     0
  0
ATTDEF
  5
7D
330
6E
100
AcDbEntity
  8
AM_6
100
AcDbText
 10
7.515000000000001
 20
80.75000000000001
 30
0.0
 40
0.5
  1
49.300
100
AcDbAttributeDefinition
  3

  2
A
 70
     8
280
     0
  0
ATTDEF
  5
7E
330
6E
100
AcDbEntity
  8
AM_6
100
AcDbText
 10
7.515000000000001
 20
80.25000000000001
 30
0.0
 40
0.5
  1
171.500
100
AcDbAttributeDefinition
  3

  2
B
 70
     8
280
     0
  0
ATTDEF
  5
7F
330
6E
100
AcDbEntity
  8
AM_6
100
AcDbText
 10
7.515000000000001
 20
79.75000000000001
 30
0.0
 40
0.5
  1
50.300
100
AcDbAttributeDefinition
  3

  2
C
 70
     8
280
     0
  0
ATTDEF
  5
80
330
6E
100
AcDbEntity
  8
AM_6
100
AcDbText
 10
7.515000000000001
 20
79.25000000000001
 30
0.0
 40
0.5
  1
143.800
100
AcDbAttributeDefinition
  3

  2
D
 70
     8
280
     0
  0
ATTDEF
  5
81
330
6E
100
AcDbEntity
  8
AM_6
100
AcDbText
 10
7.515000000000001
 20
78.75000000000001
 30
0.0
 40
0.5
  1
M12
100
AcDbAttributeDefinition
  3

  2
F
 70
     8
280
     0
  0
ATTDEF
  5
82
330
6E
100
AcDbEntity
  8
AM_6
100
AcDbText
 10
7.515000000000001
 20
78.25000000000001
 30
0.0
 40
0.5
  1
14.200
100
AcDbAttributeDefinition
  3

  2
H
 70
     8
280
     0
  0
ATTDEF
  5
83
330
6E
100
AcDbEntity
  8
AM_6
100
AcDbText
 10
7.515000000000001
 20
77.75000000000001
 30
0.0
 40
0.5
  1
16.000
100
AcDbAttributeDefinition
  3

  2
J
 70
     8
280
     0
  0
ATTDEF
  5
84
330
6E
100
AcDbEntity
  8
AM_6
100
AcDbText
 10
7.515000000000001
 20
77.25000000000001
 30
0.0
 40
0.5
  1
52.100
100
AcDbAttributeDefinition
  3

  2
L
 70
     8
280
     0
  0
ATTDEF
  5
85
330
6E
100
AcDbEntity
  8
AM_6
100
AcDbText
 10
7.515000000000001
 20
76.75000000000001
 30
0.0
 40
0.5
  1
104.900
100
AcDbAttributeDefinition
  3

  2
M
 70
     8
280
     0
  0
ATTDEF
  5
86
330
6E
100
AcDbEntity
  8
AM_6
100
AcDbText
 10
7.515000000000001
 20
76.25000000000001
 30
0.0
 40
0.5
  1
46.500
100
AcDbAttributeDefinition
  3

  2
N
 70
     8
280
     0
  0
ATTDEF
  5
87
330
6E
100
AcDbEntity
  8
AM_6
100
AcDbText
 10
7.515000000000001
 20
75.75000000000001
 30
0.0
 40
0.5
  1
baldor
100
AcDbAttributeDefinition
  3

  2
COMPANY
 70
     8
280
     0
  0
INSERT
  5
89
330
6E
100
AcDbEntity
  8
0
100
AcDbBlockReference
  2
2_125640_0_in_125707_2
 10
0.0
 20
0.0
 30
0.0
  0
INSERT
  5
EB
330
6E
100
AcDbEntity
  8
0
100
AcDbBlockReference
  2
3_405015E_Metric_0_in_125707_2
 10
0.0
 20
0.0
 30
0.0
  0
INSERT
  5
159
330
6E
100
AcDbEntity
  8
0
100
AcDbBlockReference
  2
4_123615vscM_0_in_125707_2
 10
0.0
 20
0.0
 30
0.0
  0
ENDBLK
  5
71
330
6E
100
AcDbEntity
  8
0
100
AcDbBlockEnd
  0
BLOCK
  5
8A
330
88
100
AcDbEntity
  8
0
100
AcDbBlockBegin
  2
2_125640_0_in_125707_2
 70
     2
 10
0.0
 20
0.0
 30
0.0
  3
2_125640_0_in_125707_2
  1

  0
ATTDEF
  5
8C
330
88
100
AcDbEntity
  8
AM_6
100
AcDbText
 10
4.000000000000003
 20
39.97534100810549
 30
0.0
 40
0.5
  1
Set Screw Intermediate Duty Insert Metric Bore
100
AcDbAttributeDefinition
  3

  2
NN
 70
     8
280
     0
  0
ATTDEF
  5
8D
330
88
100
AcDbEntity
  8
AM_6
100
AcDbText
 10
4.000000000000003
 20
39.47534100810549
 30
0.0
 40
0.5
  1
VSC Intermediate Duty Bearing Inserts
100
AcDbAttributeDefinition
  3

  2
NT
 70
     8
280
     0
  0
ATTDEF
  5
8E
330
88
100
AcDbEntity
  8
AM_6
100
AcDbText
 10
4.000000000000003
 20
38.97534100810549
 30
0.0
 40
0.5
  1
125640
100
AcDbAttributeDefinition
  3

  2
NB
 70
     8
280
     0
  0
ATTDEF
  5
8F
330
88
100
AcDbEntity
  8
AM_6
100
AcDbText
 10
4.000000000000003
 20
38.47534100810549
 30
0.0
 40
0.5
  1
$PN.
100
AcDbAttributeDefinition
  3

  2
NBSYN
 70
     8
280
     0
  0
ATTDEF
  5
90
330
88
100
AcDbEntity
  8
AM_6
100
AcDbText
 10
4.000000000000003
 20
37.97534100810549
 30
0.0
 40
0.5
  1
125640
100
AcDbAttributeDefinition
  3

  2
LINA
 70
     8
280
     0
  0
ATTDEF
  5
91
330
88
100
AcDbEntity
  8
AM_6
100
AcDbText
 10
4.000000000000003
 20
37.47534100810549
 30
0.0
 40
0.5
  1
208
100
AcDbAttributeDefinition
  3

  2
SERIES
 70
     8
280
     0
  0
ATTDEF
  5
92
330
88
100
AcDbEntity
  8
AM_6
100
AcDbText
 10
4.000000000000003
 20
36.97534100810549
 30
0.0
 40
0.5
  1
40
100
AcDbAttributeDefinition
  3

  2
SS
 70
     8
280
     0
  0
ATTDEF
  5
93
330
88
100
AcDbEntity
  8
AM_6
100
AcDbText
 10
4.000000000000003
 20
36.47534100810549
 30
0.0
 40
0.5
  1
125640
100
AcDbAttributeDefinition
  3

  2
PN
 70
     8
280
     0
  0
ATTDEF
  5
94
330
88
100
AcDbEntity
  8
AM_6
100
AcDbText
 10
4.000000000000003
 20
35.97534100810549
 30
0.0
 40
0.5
  1
INS-VSC-40M
100
AcDbAttributeDefinition
  3

  2
DESCRIPTION
 70
     8
280
     0
  0
ATTDEF
  5
95
330
88
100
AcDbEntity
  8
AM_6
100
AcDbText
 10
4.000000000000003
 20
35.47534100810549
 30
0.0
 40
0.5
  1
0.52
100
AcDbAttributeDefinition
  3

  2
WEIGHT
 70
     8
280
     0
  0
ATTDEF
  5
96
330
88
100
AcDbEntity
  8
AM_6
100
AcDbText
 10
4.000000000000003
 20
34.97534100810549
 30
0.0
 40
0.5
  1
49.3
100
AcDbAttributeDefinition
  3

  2
A
 70
     8
280
     0
  0
ATTDEF
  5
97
330
88
100
AcDbEntity
  8
AM_6
100
AcDbText
 10
4.000000000000003
 20
34.47534100810549
 30
0.0
 40
0.5
  1
22.1
100
AcDbAttributeDefinition
  3

  2
C
 70
     8
280
     0
  0
ATTDEF
  5
98
330
88
100
AcDbEntity
  8
AM_6
100
AcDbText
 10
4.000000000000003
 20
33.97534100810549
 30
0.0
 40
0.5
  1
80
100
AcDbAttributeDefinition
  3

  2
D
 70
     8
280
     0
  0
ATTDEF
  5
99
330
88
100
AcDbEntity
  8
AM_6
100
AcDbText
 10
4.000000000000003
 20
33.47534100810549
 30
0.0
 40
0.5
  1
5.6
100
AcDbAttributeDefinition
  3

  2
J
 70
     8
280
     0
  0
ATTDEF
  5
9A
330
88
100
AcDbEntity
  8
AM_6
100
AcDbText
 10
4.000000000000003
 20
32.97534100810549
 30
0.0
 40
0.5
  1
52.1
100
AcDbAttributeDefinition
  3

  2
L
 70
     8
280
     0
  0
ATTDEF
  5
9B
330
88
100
AcDbEntity
  8
AM_6
100
AcDbText
 10
4.000000000000003
 20
32.47534100810549
 30
0.0
 40
0.5
  1
M8x1.25
100
AcDbAttributeDefinition
  3

  2
N
 70
     8
280
     0
  0
ATTDEF
  5
9C
330
88
100
AcDbEntity
  8
AM_6
100
AcDbText
 10
4.000000000000003
 20
31.97534100810549
 30
0.0
 40
0.5
  1
19.1
100
AcDbAttributeDefinition
  3

  2
W
 70
     8
280
     0
  0
ATTDEF
  5
9D
330
88
100
AcDbEntity
  8
AM_6
100
AcDbText
 10
4.000000000000003
 20
31.47534100810549
 30
0.0
 40
0.5
  1
30.2
100
AcDbAttributeDefinition
  3

  2
Y
 70
     8
280
     0
  0
ATTDEF
  5
9E
330
88
100
AcDbEntity
  8
AM_6
100
AcDbText
 10
4.000000000000003
 20
30.97534100810549
 30
0.0
 40
0.5
  1
baldor
100
AcDbAttributeDefinition
  3

  2
COMPANY
 70
     8
280
     0
  0
CIRCLE
  5
A1
330
88
100
AcDbEntity
  8
AM_9
100
AcDbCircle
 10
-14.5
 20
0.0000000000000011
 30
0.0
 40
0.2009090909090882
  0
LINE
  5
A2
330
88
100
AcDbEntity
  8
AM_9
100
AcDbLine
 10
-38.97649999999999
 20
19.99890534446326
 30
0.0
 11
-38.97649999999999
 21
25.3735
 31
0.0
  0
LINE
  5
A3
330
88
100
AcDbEntity
  8
AM_9
100
AcDbLine
 10
-45.6235
 20
25.3735
 30
0.0
 11
-45.6235
 21
19.99890534446325
 31
0.0
  0
LINE
  5
A4
330
88
100
AcDbEntity
  8
AM_9
100
AcDbLine
 10
-45.6235
 20
25.3735
 30
0.0
 11
-38.97649999999999
 21
25.3735
 31
0.0
  0
LINE
  5
A5
330
88
100
AcDbEntity
  8
AM_9
100
AcDbLine
 10
-38.97649999999999
 20
25.3735
 30
0.0
 11
-38.3
 21
26.05
 31
0.0
  0
LINE
  5
A6
330
88
100
AcDbEntity
  8
AM_9
100
AcDbLine
 10
-46.3
 20
26.05
 30
0.0
 11
-45.6235
 21
25.3735
 31
0.0
  0
LINE
  5
A7
330
88
100
AcDbEntity
  8
AM_9
100
AcDbLine
 10
-42.59415039460886
 20
19.72411904761905
 30
0.0
 11
-42.00584960539114
 21
19.72411904761905
 31
0.0
  0
LWPOLYLINE
  5
A8
330
88
100
AcDbEntity
  8
AM_9
100
AcDbPolyline
 90
       10
 70
     0
 43
0.0
 10
-42.00584960539114
 20
19.72411904761905
 10
-41.46484417188805
 20
19.73960062937519
 10
-40.93241788112486
 20
19.76928497952992
 10
-40.45339184808244
 20
19.80818793874716
 10
-40.01346319903865
 20
19.85403229301672
 10
-39.64574738923584
 20
19.89973378394165
 10
-39.34376000496417
 20
19.94225921650427
 10
-39.13265236055409
 20
19.97464489844823
 10
-39.00710466361657
 20
19.99493704532164
 10
-38.97650000001414
 20
19.99999999999766
  0
LWPOLYLINE
  5
A9
330
88
100
AcDbEntity
  8
AM_9
100
AcDbPolyline
 90
        3
 70
     0
 43
0.0
 10
-42.00584960539114
 20
11.33606617153519
 10
-42.35320141500331
 20
11.34873553974059
 10
-42.59415039460887
 20
11.33606617153519
  0
LINE
  5
AA
330
88
100
AcDbEntity
  8
AM_9
100
AcDbLine
 10
-49.258
 20
-20.0
 30
0.0
 11
-1.260499999999994
 21
-20.0
 31
0.0
  0
LINE
  5
AB
330
88
100
AcDbEntity
  8
AM_9
100
AcDbLine
 10
-1.260499999999994
 20
20.0
 30
0.0
 11
-38.98313019863028
 21
20.0
 31
0.0
  0
LINE
  5
AC
330
88
100
AcDbEntity
  8
AM_9
100
AcDbLine
 10
-45.61686980136975
 20
20.0
 30
0.0
 11
-49.258
 21
20.0
 31
0.0
  0
LWPOLYLINE
  5
AD
330
88
100
AcDbEntity
  8
AM_9
100
AcDbPolyline
 90
       11
 70
     0
 43
0.0
 10
-45.62349999998587
 20
19.99999999999766
 10
-45.62206747559861
 20
19.99976200014466
 10
-45.55765806230176
 20
19.98916415963609
 10
-45.40649733640814
 20
19.96508636222521
 10
-45.16442674555626
 20
19.92885567037551
 10
-44.84866761176172
 20
19.88592603690467
 10
-44.45197408812638
 20
19.83898536281449
 10
-44.00186057223889
 20
19.79521854280325
 10
-43.48893369696608
 20
19.7577304133289
 10
-43.05330953710358
 20
19.73630722827073
 10
-42.59415039460885
 20
19.72411904761905
  0
LINE
  5
AE
330
88
100
AcDbEntity
  8
AM_9
100
AcDbLine
 10
-1.260499999999994
 20
-20.0
 30
0.0
 11
-0.9999999999999974
 21
-20.26049999999998
 31
0.0
  0
LINE
  5
AF
330
88
100
AcDbEntity
  8
AM_9
100
AcDbLine
 10
-0.9999999999999974
 20
20.26049999999999
 30
0.0
 11
-1.260499999999994
 21
20.0
 31
0.0
  0
LINE
  5
B0
330
88
100
AcDbEntity
  8
AM_9
100
AcDbLine
 10
-49.258
 20
20.0
 30
0.0
 11
-50.3
 21
21.04200000000001
 31
0.0
  0
LINE
  5
B1
330
88
100
AcDbEntity
  8
AM_9
100
AcDbLine
 10
-50.3
 20
-21.042
 30
0.0
 11
-49.258
 21
-20.0
 31
0.0
  0
LINE
  5
B2
330
88
100
AcDbEntity
  8
AM_9
100
AcDbLine
 10
-42.59415039460892
 20
5.335479641007581
 30
0.0
 11
-42.00584960539107
 21
5.33547964100758
 31
0.0
  0
LWPOLYLINE
  5
B3
330
88
100
AcDbEntity
  8
AM_9
100
AcDbPolyline
 90
        4
 70
     0
 43
0.0
 10
-45.37550426353619
 20
9.577287280459359
 10
-45.4673476394459
 20
9.354082100526082
 10
-45.59289533638343
 20
8.85805654324131
 10
-45.62349998125521
 20
8.452045322769976
  0
LWPOLYLINE
  5
B4
330
88
100
AcDbEntity
  8
AM_9
100
AcDbPolyline
 90
       10
 70
     0
 43
0.0
 10
-42.00584960539107
 20
5.335479641007581
 10
-41.46484417188798
 20
5.426853433461041
 10
-40.9324178811248
 20
5.60957521784453
 10
-40.45339184808239
 20
5.866924000044325
 10
-40.0134631990386
 20
6.204726542883737
 10
-39.64574738923579
 20
6.597240444159805
 10
-39.34376000496413
 20
7.051598747930408
 10
-39.13265236055408
 20
7.529217311213819
 10
-39.00710466361656
 20
8.042394532175857
 10
-38.97650001874478
 20
8.452685144225171
  0
LINE
  5
B5
330
88
100
AcDbEntity
  8
AM_9
100
AcDbLine
 10
-38.97649999999999
 20
8.451902613393845
 30
0.0
 11
-38.97649999999999
 21
10.72330446427764
 31
0.0
  0
LINE
  5
B6
330
88
100
AcDbEntity
  8
AM_9
100
AcDbLine
 10
-45.62350000000001
 20
10.72330446427764
 30
0.0
 11
-45.62350000000001
 21
8.451902613393843
 31
0.0
  0
LWPOLYLINE
  5
B7
330
88
100
AcDbEntity
  8
AM_9
100
AcDbPolyline
 90
       11
 70
     0
 43
0.0
 10
-45.62349998125521
 20
8.452045322769976
 10
-45.62206747559861
 20
8.363836049215534
 10
-45.55765806230177
 20
7.851192782428278
 10
-45.40649733640814
 20
7.367043616292547
 10
-45.16442674555626
 20
6.894769957038487
 10
-44.84866761176172
 20
6.470946459772873
 10
-44.45197408812638
 20
6.088895587043429
 10
-44.00186057223889
 20
5.778582304811223
 10
-43.48893369696608
 20
5.537196468510061
 10
-43.05330953710361
 20
5.40720442863598
 10
-42.59415039460892
 20
5.335479641007581
  0
LWPOLYLINE
  5
B8
330
88
100
AcDbEntity
  8
AM_9
100
AcDbPolyline
 90
        5
 70
     0
 43
0.0
 10
-38.97650001874478
 20
8.452685144225171
 10
-38.9779325244014
 20
8.54069325424219
 10
-39.04234193769825
 20
9.044378839161569
 10
-39.19350266359188
 20
9.508176571520636
 10
-39.23292754390907
 20
9.595220478580634
  0
LINE
  5
B9
330
88
100
AcDbEntity
  8
AM_9
100
AcDbLine
 10
-9.049999999999999
 20
-26.04999999999999
 30
0.0
 11
-2.839999999999998
 21
-26.04999999999999
 31
0.0
  0
LINE
  5
BA
330
88
100
AcDbEntity
  8
AM_9
100
AcDbLine
 10
-2.839999999999998
 20
26.05
 30
0.0
 11
-9.049999999999999
 21
26.05
 31
0.0
  0
LINE
  5
BB
330
88
100
AcDbEntity
  8
AM_9
100
AcDbLine
 10
-34.3
 20
-26.04999999999999
 30
0.0
 11
-31.15
 21
-26.04999999999999
 31
0.0
  0
LINE
  5
BC
330
88
100
AcDbEntity
  8
AM_9
100
AcDbLine
 10
-31.15
 20
26.05
 30
0.0
 11
-34.3
 21
26.05
 31
0.0
  0
LINE
  5
BD
330
88
100
AcDbEntity
  8
AM_9
100
AcDbLine
 10
-26.61333333333333
 20
-37.78999999999995
 30
0.0
 11
-23.66666666666666
 21
-37.78999999999995
 31
0.0
  0
LINE
  5
BE
330
88
100
AcDbEntity
  8
AM_9
100
AcDbLine
 10
-23.66666666666666
 20
37.78999999999996
 30
0.0
 11
-26.61333333333333
 21
37.78999999999996
 31
0.0
  0
LINE
  5
BF
330
88
100
AcDbEntity
  8
AM_9
100
AcDbLine
 10
-31.15
 20
37.19396883195166
 30
0.0
 11
-31.15
 21
-37.19396883195164
 31
0.0
  0
ARC
  5
C0
330
88
100
AcDbEntity
  8
AM_9
100
AcDbCircle
 10
-30.26600000000001
 20
-37.19396883195164
 30
0.0
 40
0.8839999999999861
100
AcDbArc
 50
180.0
 51
248.5875329531155
  0
ARC
  5
C1
330
88
100
AcDbEntity
  8
AM_9
100
AcDbCircle
 10
-30.26600000000001
 20
37.19396883195166
 30
0.0
 40
0.8839999999999847
100
AcDbArc
 50
111.4124670468845
 51
180.0
  0
LINE
  5
C2
330
88
100
AcDbEntity
  8
AM_9
100
AcDbLine
 10
-9.049999999999999
 20
37.19396883195165
 30
0.0
 11
-9.049999999999999
 21
-37.19396883195164
 31
0.0
  0
ARC
  5
C3
330
88
100
AcDbEntity
  8
AM_9
100
AcDbCircle
 10
-9.933999999999989
 20
-37.19396883195164
 30
0.0
 40
0.8839999999999898
100
AcDbArc
 50
291.4124636322393
 51
0.0
  0
ARC
  5
C4
330
88
100
AcDbEntity
  8
AM_9
100
AcDbCircle
 10
-9.933999999999989
 20
37.19396883195166
 30
0.0
 40
0.8839999999999897
100
AcDbArc
 50
0.0
 51
68.58753636776066
  0
ARC
  5
C5
330
88
100
AcDbEntity
  8
AM_9
100
AcDbCircle
 10
-20.10000000000151
 20
-11.2700000000051
 30
0.0
 40
28.72999999999469
100
AcDbArc
 50
248.587532953115
 51
256.896639360413
  0
ARC
  5
C6
330
88
100
AcDbEntity
  8
AM_9
100
AcDbCircle
 10
-20.09999999999702
 20
11.26999999999184
 30
0.0
 40
28.7300000000087
100
AcDbArc
 50
108.3563141802294
 51
111.4124670468837
  0
ARC
  5
C7
330
88
100
AcDbEntity
  8
AM_9
100
AcDbCircle
 10
-20.09999999999871
 20
11.26999999999553
 30
0.0
 40
28.73000000000467
100
AcDbArc
 50
103.1033606395881
 51
108.1060551501282
  0
LINE
  5
C8
330
88
100
AcDbEntity
  8
AM_9
100
AcDbLine
 10
-30.58873015873017
 20
38.01695196947392
 30
0.0
 11
-30.58873015873017
 21
-38.0169519694739
 31
0.0
  0
LINE
  5
C9
330
88
100
AcDbEntity
  8
AM_9
100
AcDbLine
 10
-26.61333333333333
 20
39.2519475535369
 30
0.0
 11
-26.61333333333333
 21
-39.25194755353689
 31
0.0
  0
LWPOLYLINE
  5
CA
330
88
100
AcDbEntity
  8
AM_9
100
AcDbPolyline
 90
       38
 70
     0
 43
0.0
 10
-12.94347929404708
 20
-1.568866881524501
 10
-12.70524607053057
 20
-1.289187952458887
 10
-12.51571421901518
 20
-0.9729902051826934
 10
-12.38137568388954
 20
-0.6280850185794455
 10
-12.30593246176242
 20
-0.2648917470441468
 10
-12.29253139509479
 20
0.1008618196966582
 10
-12.33920215738193
 20
0.4637377311984901
 10
-12.44433569566374
 20
0.8108066205134514
 10
-12.60394856442758
 20
1.1353805325369
 10
-12.81631079370388
 20
1.431222703880814
 10
-13.07314004227695
 20
1.687652411205159
 10
-13.37436741443912
 20
1.901619558313722
 10
-13.70598843900545
 20
2.062436821094654
 10
-14.0668303399607
 20
2.166916177942708
 10
-14.43992482033867
 20
2.209183327111781
 10
-14.81895041964811
 20
2.18663458656646
 10
-15.18921277840947
 20
2.099782309211391
 10
-15.53868936046638
 20
1.950430194031092
 10
-15.85852554209035
 20
1.743131765383255
 10
-16.13502758468692
 20
1.486514658143378
 10
-16.36481615757591
 20
1.185985117294414
 10
-16.53750043817426
 20
0.8553660345416048
 10
-16.65272248735172
 20
0.499885879426735
 10
-16.70567035882681
 20
0.1345747136590233
 10
-16.6975156536771
 20
-0.2345739794694138
 10
-16.6282435094802
 20
-0.5947319116884963
 10
-16.50097152829183
 20
-0.9381966440813301
 10
-16.31826983112154
 20
-1.255806335002824
 10
-16.08656613098611
 20
-1.538475840566818
 10
-15.80900395728604
 20
-1.780359759156854
 10
-15.49631511963981
 20
-1.972677414677098
 10
-15.15152098616846
 20
-2.111562069072205
 10
-14.78925370293254
 20
-2.19098888526159
 10
-14.41353449143714
 20
-2.208093691705649
 10
-14.04050546176233
 20
-2.161704135475011
 10
-13.67738369644754
 20
-2.050954052222252
 10
-13.33782126299599
 20
-1.87974481865379
 10
-12.94347929404762
 20
-1.568866881523575
  0
ARC
  5
CB
330
88
100
AcDbEntity
  8
AM_9
100
AcDbCircle
 10
-20.09999999999994
 20
-11.27000000000057
 30
0.0
 40
28.72999999999944
100
AcDbArc
 50
262.8686552534194
 51
291.4124669418184
  0
ARC
  5
CC
330
88
100
AcDbEntity
  8
AM_9
100
AcDbCircle
 10
-20.09999999999998
 20
11.27000000000025
 30
0.0
 40
28.72999999999977
100
AcDbArc
 50
68.58753305818178
 51
97.13134474658041
  0
LINE
  5
CD
330
88
100
AcDbEntity
  8
AM_9
100
AcDbLine
 10
-23.66666666666666
 20
39.77774962863413
 30
0.0
 11
-23.66666666666666
 21
-39.77774962863412
 31
0.0
  0
LINE
  5
CE
330
88
100
AcDbEntity
  8
AM_9
100
AcDbLine
 10
-9.611269890316988
 20
38.0169519887076
 30
0.0
 11
-9.611269890316988
 21
-38.01695198870758
 31
0.0
  0
LINE
  5
D0
330
88
100
AcDbEntity
  8
AM_5
100
AcDbLine
 10
-38.3
 20
26.05
 30
0.0
 11
-38.3
 21
20.0
 31
0.0
  0
LINE
  5
D1
330
88
100
AcDbEntity
  8
AM_5
100
AcDbLine
 10
-46.30000000000001
 20
26.05000000000001
 30
0.0
 11
-46.30000000000001
 21
20.0
 31
0.0
  0
LINE
  5
D4
330
88
100
AcDbEntity
  8
AM_7
100
AcDbLine
 10
-14.5
 20
-0.2109545454545414
 30
0.0
 11
-14.5
 21
0.2109545454545437
 31
0.0
  0
LINE
  5
D5
330
88
100
AcDbEntity
  8
AM_7
100
AcDbLine
 10
-42.3
 20
26.40011904761905
 30
0.0
 11
-42.3
 21
18.69750000000001
 31
0.0
  0
LWPOLYLINE
  5
D7
330
88
100
AcDbEntity
  8
AM_4
100
AcDbPolyline
 90
        8
 70
     0
 43
0.0
 10
-42.59415039460887
 20
11.33606617153519
 10
-43.13515582811196
 20
11.2577779774233
 10
-43.66758211887515
 20
11.1001464899664
 10
-44.14660815191757
 20
10.87567990976854
 10
-44.58653680096135
 20
10.57662668955319
 10
-44.95425261076417
 20
10.22274135758443
 10
-45.25623999503583
 20
9.804327102592607
 10
-45.37550426353619
 20
9.577287280459359
  0
ELLIPSE
  5
D8
330
88
100
AcDbEntity
  8
AM_4
100
AcDbEllipse
 10
-42.3
 20
8.335772906271186
 30
0.0
 11
3.323500000000145
 21
0.0
 31
0.0
210
0.0
220
0.0
230
1.0
 40
0.9063077870366706
 41
1.482174155848659
 42
1.659418497741134
  0
LWPOLYLINE
  5
D9
330
88
100
AcDbEntity
  8
AM_4
100
AcDbPolyline
 90
        8
 70
     0
 43
0.0
 10
-39.23292754390907
 20
9.595220478580634
 10
-39.43557325444377
 20
9.949826726752326
 10
-39.75133238823833
 20
10.33736452986872
 10
-40.14802591187367
 20
10.67973943042029
 10
-40.59813942776117
 20
10.95305939786235
 10
-41.11106630303399
 20
11.16275889793478
 10
-41.54669046289646
 20
11.27464327934839
 10
-42.00584960539114
 20
11.33606617153519
  0
LINE
  5
DA
330
88
100
AcDbEntity
  8
AM_4
100
AcDbLine
 10
-0.9999999999999974
 20
25.78950000000001
 30
0.0
 11
-1.260499999999998
 21
26.05
 31
0.0
  0
LINE
  5
DB
330
88
100
AcDbEntity
  8
AM_4
100
AcDbLine
 10
-1.260499999999998
 20
-26.04999999999999
 30
0.0
 11
-0.9999999999999974
 21
-25.7895
 31
0.0
  0
LINE
  5
DC
330
88
100
AcDbEntity
  8
AM_4
100
AcDbLine
 10
-0.9999999999999974
 20
25.78950000000001
 30
0.0
 11
-0.9999999999999974
 21
-25.7895
 31
0.0
  0
LINE
  5
DD
330
88
100
AcDbEntity
  8
AM_4
100
AcDbLine
 10
-2.839999999999998
 20
-26.04999999999999
 30
0.0
 11
-1.260499999999998
 21
-26.04999999999999
 31
0.0
  0
LINE
  5
DE
330
88
100
AcDbEntity
  8
AM_4
100
AcDbLine
 10
-1.260499999999998
 20
26.05
 30
0.0
 11
-2.839999999999998
 21
26.05
 31
0.0
  0
LINE
  5
DF
330
88
100
AcDbEntity
  8
AM_4
100
AcDbLine
 10
-1.260499999999998
 20
26.05
 30
0.0
 11
-1.260499999999998
 21
-26.04999999999999
 31
0.0
  0
LINE
  5
E0
330
88
100
AcDbEntity
  8
AM_4
100
AcDbLine
 10
-50.3
 20
-25.00799999999999
 30
0.0
 11
-49.258
 21
-26.04999999999999
 31
0.0
  0
LINE
  5
E1
330
88
100
AcDbEntity
  8
AM_4
100
AcDbLine
 10
-49.258
 20
26.05
 30
0.0
 11
-50.3
 21
25.008
 31
0.0
  0
LINE
  5
E2
330
88
100
AcDbEntity
  8
AM_4
100
AcDbLine
 10
-50.3
 20
25.008
 30
0.0
 11
-50.3
 21
-25.00799999999999
 31
0.0
  0
LWPOLYLINE
  5
E3
330
88
100
AcDbEntity
  8
AM_4
100
AcDbPolyline
 90
       39
 70
     0
 43
0.0
 10
-39.23857079628655
 20
8.788342662849882
 10
-39.65507383634178
 20
8.411005710221284
 10
-40.12508773511338
 20
8.092879874018898
 10
-40.7192084902578
 20
7.808327471506006
 10
-41.35337891864503
 20
7.616737663514319
 10
-42.04341247099403
 20
7.521732163960524
 10
-42.74041281753389
 20
7.535933443117733
 10
-43.43896646666638
 20
7.664095532434906
 10
-44.10494627478104
 20
7.902237402235652
 10
-44.71314517885193
 20
8.242585769338447
 10
-45.24966974465435
 20
8.67587301203763
 10
-45.67772449821236
 20
9.16863728702172
 10
-46.00500457654645
 20
9.720674405786378
 10
-46.20424414478344
 20
10.271682033096
 10
-46.29503021864229
 20
10.84072163681761
 10
-46.27606281747582
 20
11.37333160428812
 10
-46.15891358881903
 20
11.89006820759832
 10
-45.95018117152927
 20
12.37054656130142
 10
-45.65792482224351
 20
12.8110383969505
 10
-45.27347085948265
 20
13.21792615207197
 10
-44.82062110832509
 20
13.56484513912499
 10
-44.27417506622044
 20
13.86307255008396
 10
-43.67926165504034
 20
14.08292928194836
 10
-43.01284426188818
 20
14.2264916610656
 10
-42.32749554780782
 20
14.27738029860411
 10
-41.62085086628436
 20
14.23117600208611
 10
-40.93333645749714
 20
14.08658681447303
 10
-40.2843116613211
 20
13.84388766529885
 10
-39.69450487805544
 20
13.50795110025181
 10
-39.19833174702495
 20
13.09648493149521
 10
-38.79519639972445
 20
12.6104607722852
 10
-38.51860222658794
 20
12.09661969154522
 10
-38.35052135313338
 20
11.54117256172215
 10
-38.30046210653377
 20
11.00248415269947
 10
-38.3530542127647
 20
10.45829284492192
 10
-38.50109330423464
 20
9.942158255790996
 10
-38.73751799474881
 20
9.450373016254709
 10
-38.96766361737045
 20
9.106686043165995
 10
-39.23857079110314
 20
8.788342655342541
  0
LINE
  5
E4
330
88
100
AcDbEntity
  8
AM_4
100
AcDbLine
 10
-49.258
 20
-26.04999999999999
 30
0.0
 11
-34.3
 21
-26.04999999999999
 31
0.0
  0
LINE
  5
E5
330
88
100
AcDbEntity
  8
AM_4
100
AcDbLine
 10
-34.3
 20
26.05
 30
0.0
 11
-38.30509906880185
 21
26.05
 31
0.0
  0
LINE
  5
E6
330
88
100
AcDbEntity
  8
AM_4
100
AcDbLine
 10
-46.28947734836025
 20
26.05
 30
0.0
 11
-49.258
 21
26.05
 31
0.0
  0
LINE
  5
E7
330
88
100
AcDbEntity
  8
AM_4
100
AcDbLine
 10
-49.258
 20
26.05
 30
0.0
 11
-49.258
 21
-26.04999999999999
 31
0.0
  0
LWPOLYLINE
  5
E8
330
88
100
AcDbEntity
  8
AM_4
100
AcDbPolyline
 90
       20
 70
     0
 43
0.0
 10
-38.3000000000056
 20
26.04999999999926
 10
-38.34297319498717
 20
26.04430942379825
 10
-38.47848948195769
 20
26.02675310821219
 10
-38.70882115116162
 20
25.9982731145255
 10
-39.02204476822519
 20
25.96230632512971
 10
-39.41915453900383
 20
25.92131700404738
 10
-39.89959621867201
 20
25.87867274975138
 10
-40.45039964443882
 20
25.83922072664121
 10
-41.06970360006668
 20
25.80699714571223
 10
-41.73773088762103
 20
25.78673086996805
 10
-42.43025781506858
 20
25.78166319156174
 10
-43.138583064634
 20
25.79328479472635
 10
-43.81177301322052
 20
25.82004490773012
 10
-44.46037334498815
 20
25.86023614557138
 10
-45.01743792873619
 20
25.90595626793746
 10
-45.50929640754046
 20
25.95484985576634
 10
-45.86975179722193
 20
25.99571103678394
 10
-46.13449910848691
 20
26.02841016924131
 10
-46.26805338010505
 20
26.04576392244021
 10
-46.29999999998967
 20
26.04999999999863
  0
ELLIPSE
  5
E9
330
88
100
AcDbEntity
  8
AM_4
100
AcDbEllipse
 10
-42.3
 20
10.72330446427765
 30
0.0
 11
3.323500000000009
 21
4.952400922775284E-8
 31
0.0
210
0.0
220
0.0
230
1.0
 40
0.9063077870366496
 41
0.0
 42
6.283185307179586
  0
ENDBLK
  5
8B
330
88
100
AcDbEntity
  8
0
100
AcDbBlockEnd
  0
BLOCK
  5
EC
330
EA
100
AcDbEntity
  8
0
100
AcDbBlockBegin
  2
3_405015E_Metric_0_in_125707_2
 70
     2
 10
0.0
 20
0.0
 30
0.0
  3
3_405015E_Metric_0_in_125707_2
  1

  0
ATTDEF
  5
EE
330
EA
100
AcDbEntity
  8
AM_6
100
AcDbText
 10
-13.47649730810374
 20
48.17368466213668
 30
0.0
 40
0.5
  1
405015E -Metric
100
AcDbAttributeDefinition
  3

  2
NN
 70
     8
280
     0
  0
ATTDEF
  5
EF
330
EA
100
AcDbEntity
  8
AM_6
100
AcDbText
 10
-13.47649730810374
 20
47.67368466213668
 30
0.0
 40
0.5
  1
Grease Fitting
100
AcDbAttributeDefinition
  3

  2
NT
 70
     8
280
     0
  0
ATTDEF
  5
F0
330
EA
100
AcDbEntity
  8
AM_6
100
AcDbText
 10
-13.47649730810374
 20
47.17368466213668
 30
0.0
 40
0.5
  1
405015E-Metric
100
AcDbAttributeDefinition
  3

  2
NB
 70
     8
280
     0
  0
ATTDEF
  5
F1
330
EA
100
AcDbEntity
  8
AM_6
100
AcDbText
 10
-13.47649730810374
 20
46.67368466213668
 30
0.0
 40
0.5
  1
$MN.-Metric
100
AcDbAttributeDefinition
  3

  2
NBSYN
 70
     8
280
     0
  0
ATTDEF
  5
F2
330
EA
100
AcDbEntity
  8
AM_6
100
AcDbText
 10
-13.47649730810374
 20
46.17368466213668
 30
0.0
 40
0.5
  1
405015E
100
AcDbAttributeDefinition
  3

  2
LINA
 70
     8
280
     0
  0
ATTDEF
  5
F3
330
EA
100
AcDbEntity
  8
AM_6
100
AcDbText
 10
-13.47649730810374
 20
45.67368466213668
 30
0.0
 40
0.5
  1
405015E
100
AcDbAttributeDefinition
  3

  2
MN
 70
     8
280
     0
  0
ATTDEF
  5
F4
330
EA
100
AcDbEntity
  8
AM_6
100
AcDbText
 10
-13.47649730810374
 20
45.17368466213668
 30
0.0
 40
0.5
  1
1/8 x 27PTF
100
AcDbAttributeDefinition
  3

  2
T
 70
     8
280
     0
  0
ATTDEF
  5
F5
330
EA
100
AcDbEntity
  8
AM_6
100
AcDbText
 10
-13.47649730810374
 20
44.67368466213668
 30
0.0
 40
0.5
  1
baldor
100
AcDbAttributeDefinition
  3

  2
COMPANY
 70
     8
280
     0
  0
ELLIPSE
  5
F6
330
EA
100
AcDbEntity
  8
AM_9
100
AcDbEllipse
 10
-24.25
 20
35.00527216503148
 30
0.0
 11
-4.157993753183522
 21
5.092073740710890E-16
 31
0.0
210
0.0
220
0.0
230
1.0
 40
0.7071067811865472
 41
0.0
 42
6.283185307179586
  0
ELLIPSE
  5
F7
330
EA
100
AcDbEntity
  8
AM_9
100
AcDbEllipse
 10
-24.25000000000004
 20
39.76480790919816
 30
0.0
 11
4.99999999999994
 21
0.0
 31
0.0
210
0.0
220
0.0
230
1.0
 40
0.7071067811865461
 41
1.570796326794897
 42
2.617993877991498
  0
LWPOLYLINE
  5
F8
330
EA
100
AcDbEntity
  8
AM_9
100
AcDbPolyline
 90
        3
 70
     0
 43
0.0
 10
-28.19012705328856
 20
42.0216833017301
 10
-27.85843918243516
 20
42.45514121368904
 10
-27.13675134594812
 20
43.44689635763512
  0
LINE
  5
F9
330
EA
100
AcDbEntity
  8
AM_9
100
AcDbLine
 10
-28.58012701892219
 20
41.53257486216449
 30
0.0
 11
-28.19012705328856
 21
42.0216833017301
 31
0.0
  0
LINE
  5
FA
330
EA
100
AcDbEntity
  8
AM_9
100
AcDbLine
 10
-24.92320288473981
 20
43.30889000984931
 30
0.0
 11
-24.25
 21
43.30034181513086
 31
0.0
  0
LWPOLYLINE
  5
FB
330
EA
100
AcDbEntity
  8
AM_9
100
AcDbPolyline
 90
        4
 70
     0
 43
0.0
 10
-27.13675134594812
 20
43.44689635763512
 10
-26.48135904478313
 20
43.39039720264052
 10
-25.36901401901461
 20
43.3237770710254
 10
-24.92320288473981
 20
43.30889000984931
  0
LINE
  5
FC
330
EA
100
AcDbEntity
  8
AM_9
100
AcDbLine
 10
-20.27341076989439
 20
41.97499416322839
 30
0.0
 11
-19.91987298107781
 21
41.53257486216449
 31
0.0
  0
LWPOLYLINE
  5
FD
330
EA
100
AcDbEntity
  8
AM_9
100
AcDbPolyline
 90
        3
 70
     0
 43
0.0
 10
-21.36324865405187
 20
43.44689635763512
 10
-20.64480572040851
 20
42.45945713311153
 10
-20.27341076989439
 20
41.97499416322839
  0
LWPOLYLINE
  5
FE
330
EA
100
AcDbEntity
  8
AM_9
100
AcDbPolyline
 90
        3
 70
     0
 43
0.0
 10
-23.63510601525461
 20
43.30747864156452
 10
-22.80662432702593
 20
43.33902469017223
 10
-21.36324865405187
 20
43.44689635763512
  0
LINE
  5
FF
330
EA
100
AcDbEntity
  8
AM_9
100
AcDbLine
 10
-24.25
 20
43.30034181513086
 30
0.0
 11
-23.63510601525461
 21
43.30747864156452
 31
0.0
  0
LINE
  5
100
330
EA
100
AcDbEntity
  8
AM_9
100
AcDbLine
 10
-21.36324865405187
 20
45.27510761618625
 30
0.0
 11
-21.36324865405187
 21
43.44689635763512
 31
0.0
  0
LINE
  5
101
330
EA
100
AcDbEntity
  8
AM_9
100
AcDbLine
 10
-27.13675134594812
 20
45.27510761618625
 30
0.0
 11
-27.13675134594812
 21
43.44689635763512
 31
0.0
  0
LINE
  5
102
330
EA
100
AcDbEntity
  8
AM_9
100
AcDbLine
 10
-21.09045762294451
 20
44.98885585832249
 30
0.0
 11
-21.36324865405187
 21
45.27510761618625
 31
0.0
  0
LWPOLYLINE
  5
103
330
EA
100
AcDbEntity
  8
AM_9
100
AcDbPolyline
 90
        3
 70
     0
 43
0.0
 10
-21.36324865405187
 20
45.27510761618625
 10
-22.80013452133859
 20
45.38263754234261
 10
-24.25
 20
45.42166215869051
  0
LINE
  5
104
330
EA
100
AcDbEntity
  8
AM_9
100
AcDbLine
 10
-27.13675134594812
 20
45.27510761618625
 30
0.0
 11
-27.41037471987083
 21
44.98797015974656
 31
0.0
  0
LWPOLYLINE
  5
105
330
EA
100
AcDbEntity
  8
AM_9
100
AcDbPolyline
 90
        4
 70
     0
 43
0.0
 10
-24.25
 20
45.42166215869051
 10
-25.36567952239156
 20
45.39836468836913
 10
-26.48135904478312
 20
45.33160677118085
 10
-27.13675134594812
 20
45.27510761618625
  0
LWPOLYLINE
  5
106
330
EA
100
AcDbEntity
  8
AM_9
100
AcDbPolyline
 90
        3
 70
     0
 43
0.0
 10
-19.53897323447262
 20
41.07700236637287
 10
-19.19818514459077
 20
40.68737426072267
 10
-18.47649730810374
 20
39.91136245170238
  0
LINE
  5
107
330
EA
100
AcDbEntity
  8
AM_9
100
AcDbLine
 10
-19.91987298107781
 20
41.53257486216449
 30
0.0
 11
-19.53897323447262
 21
41.07700236637287
 31
0.0
  0
LINE
  5
108
330
EA
100
AcDbEntity
  8
AM_9
100
AcDbLine
 10
-28.94044761555371
 20
41.10106304288917
 30
0.0
 11
-28.58012701892219
 21
41.53257486216449
 31
0.0
  0
LWPOLYLINE
  5
109
330
EA
100
AcDbEntity
  8
AM_9
100
AcDbPolyline
 90
        3
 70
     0
 43
0.0
 10
-30.02350269189625
 20
39.91136245170238
 10
-29.3050597582529
 20
40.68374182391325
 10
-28.94044761555371
 20
41.10106304288917
  0
ELLIPSE
  5
10A
330
EA
100
AcDbEntity
  8
AM_9
100
AcDbEllipse
 10
-24.25
 20
39.76480790919811
 30
0.0
 11
4.94963166553498
 21
0.0
 31
0.0
210
0.0
220
0.0
230
1.0
 40
0.7071067811865466
 41
0.0
 42
3.172849304556548
  0
ELLIPSE
  5
10B
330
EA
100
AcDbEntity
  8
AM_9
100
AcDbEllipse
 10
-24.25
 20
35.42956147980891
 30
0.0
 11
4.758029456511784
 21
7.090016389655747E-8
 31
0.0
210
0.0
220
0.0
230
1.0
 40
0.7071067811865487
 41
0.000001724255827
 42
3.172849283493415
  0
LINE
  5
10C
330
EA
100
AcDbEntity
  8
AM_9
100
AcDbLine
 10
-19.49429459986382
 20
35.32441763512631
 30
0.0
 11
-19.30278597881428
 21
39.65543000226548
 31
0.0
  0
LINE
  5
10D
330
EA
100
AcDbEntity
  8
AM_9
100
AcDbLine
 10
-29.19721402118571
 20
39.65543000226548
 30
0.0
 11
-29.00570540013618
 21
35.32441763512631
 31
0.0
  0
ELLIPSE
  5
10E
330
EA
100
AcDbEntity
  8
AM_9
100
AcDbEllipse
 10
-24.25
 20
39.76480790919813
 30
0.0
 11
4.949631665534969
 21
0.0
 31
0.0
210
0.0
220
0.0
230
1.0
 40
0.7071067811865481
 41
3.172849304556555
 42
6.283185307179586
  0
ELLIPSE
  5
10F
330
EA
100
AcDbEntity
  8
AM_9
100
AcDbEllipse
 10
-24.25
 20
35.42956147980892
 30
0.0
 11
4.758029456511774
 21
7.090016389655731E-8
 31
0.0
210
0.0
220
0.0
230
1.0
 40
0.7071067811865472
 41
3.172849283493422
 42
6.25192863514969
  0
ELLIPSE
  5
110
330
EA
100
AcDbEntity
  8
AM_9
100
AcDbEllipse
 10
-24.25000000001607
 20
35.42956147979454
 30
0.0
 11
4.75802945652784
 21
0.0
 31
0.0
210
0.0
220
0.0
230
1.0
 40
0.707106781186476
 41
6.251928656217198
 42
6.283185307179586
  0
ELLIPSE
  5
111
330
EA
100
AcDbEntity
  8
AM_9
100
AcDbEllipse
 10
-24.24999999999999
 20
39.76480790919811
 30
0.0
 11
4.999999999999979
 21
0.0
 31
0.0
210
0.0
220
0.0
230
1.0
 40
0.7071067811865462
 41
2.61799387799149
 42
7.853981633974483
  0
ELLIPSE
  5
112
330
EA
100
AcDbEntity
  8
AM_9
100
AcDbEllipse
 10
-24.25
 20
41.88612825275779
 30
0.0
 11
5.000000000000018
 21
0.0
 31
0.0
210
0.0
220
0.0
230
1.0
 40
0.7071067811865421
 41
0.8982051386273975
 42
2.243387514962314
  0
LINE
  5
113
330
EA
100
AcDbEntity
  8
AM_9
100
AcDbLine
 10
-26.23992883273251
 20
44.66581728316771
 30
0.0
 11
-26.65658641745394
 21
44.40199781128084
 31
0.0
  0
LINE
  5
114
330
EA
100
AcDbEntity
  8
AM_9
100
AcDbLine
 10
-21.84341358254606
 20
44.40199781128084
 30
0.0
 11
-22.26007116726749
 21
44.66581728316771
 31
0.0
  0
ELLIPSE
  5
115
330
EA
100
AcDbEntity
  8
AM_9
100
AcDbEllipse
 10
-24.25
 20
43.09444172228914
 30
0.0
 11
2.982994982562484
 21
0.0
 31
0.0
210
0.0
220
0.0
230
1.0
 40
0.7071067811865555
 41
0.3869422381883787
 42
2.301093308049177
  0
ELLIPSE
  5
116
330
EA
100
AcDbEntity
  8
AM_9
100
AcDbEllipse
 10
-24.24999999999999
 20
43.09444172228918
 30
0.0
 11
2.982994982562531
 21
0.0
 31
0.0
210
0.0
220
0.0
230
1.0
 40
0.707106781186535
 41
2.301093308049177
 42
2.754650415401423
  0
ELLIPSE
  5
117
330
EA
100
AcDbEntity
  8
AM_9
100
AcDbEllipse
 10
-24.25
 20
42.50160267185437
 30
0.0
 11
3.607583894601106
 21
5.375718913377980E-8
 31
0.0
210
0.0
220
0.0
230
1.0
 40
0.7071067811865454
 41
0.8404993303149642
 42
2.301093292823509
  0
ELLIPSE
  5
118
330
EA
100
AcDbEntity
  8
AM_9
100
AcDbEllipse
 10
-24.24999999999933
 20
42.50160267185321
 30
0.0
 11
3.607583894602015
 21
5.375718913379335E-8
 31
0.0
210
0.0
220
0.0
230
1.0
 40
0.7071067811866881
 41
-3.944898294954302
 42
-3.804975985856843
  0
ELLIPSE
  5
119
330
EA
100
AcDbEntity
  8
AM_9
100
AcDbEllipse
 10
-24.25000000000124
 20
42.50160267186563
 30
0.0
 11
3.607583894599248
 21
0.0
 31
0.0
210
0.0
220
0.0
230
1.0
 40
0.707106781184481
 41
-3.982091999129184
 42
-3.944898279336442
  0
LINE
  5
11A
330
EA
100
AcDbEntity
  8
AM_9
100
AcDbLine
 10
-26.72722991985558
 20
44.38535047513079
 30
0.0
 11
-26.99897711671493
 21
43.9137888242658
 31
0.0
  0
LINE
  5
11B
330
EA
100
AcDbEntity
  8
AM_9
100
AcDbLine
 10
-21.50102288328506
 20
43.91378882426581
 30
0.0
 11
-21.77277008014442
 21
44.38535047513079
 31
0.0
  0
ELLIPSE
  5
11C
330
EA
100
AcDbEntity
  8
AM_9
100
AcDbEllipse
 10
-24.25
 20
43.6715728752538
 30
0.0
 11
2.674999999999986
 21
0.0
 31
0.0
210
0.0
220
0.0
230
1.0
 40
0.7071067811865493
 41
0.0
 42
2.754650415401408
  0
ELLIPSE
  5
11D
330
EA
100
AcDbEntity
  8
AM_9
100
AcDbEllipse
 10
-24.25000000000001
 20
43.67157287525389
 30
0.0
 11
2.674999999999986
 21
0.0
 31
0.0
210
0.0
220
0.0
230
1.0
 40
0.7071067811865387
 41
2.754650415401447
 42
3.141592653589793
  0
ELLIPSE
  5
11E
330
EA
100
AcDbEntity
  8
AM_9
100
AcDbEllipse
 10
-24.24999999998622
 20
42.5016026718647
 30
0.0
 11
3.607583894581026
 21
0.0
 31
0.0
210
0.0
220
0.0
230
1.0
 40
0.7071067811865479
 41
0.6633833151880832
 42
0.840499345540765
  0
ELLIPSE
  5
11F
330
EA
100
AcDbEntity
  8
AM_9
100
AcDbEllipse
 10
-24.25
 20
41.88612825275777
 30
0.0
 11
4.749999999999996
 21
0.0
 31
0.0
210
0.0
220
0.0
230
1.0
 40
0.7071067811865478
 41
0.8736482899485898
 42
2.267944363641203
  0
LINE
  5
120
330
EA
100
AcDbEntity
  8
AM_9
100
AcDbLine
 10
-21.575
 20
43.78824549414957
 30
0.0
 11
-21.575
 21
44.16654762208438
 31
0.0
  0
LINE
  5
121
330
EA
100
AcDbEntity
  8
AM_9
100
AcDbLine
 10
-26.925
 20
44.16654762208438
 30
0.0
 11
-26.925
 21
43.78824549414957
 31
0.0
  0
ELLIPSE
  5
122
330
EA
100
AcDbEntity
  8
AM_9
100
AcDbEllipse
 10
-24.24999999999986
 20
44.16654762208467
 30
0.0
 11
2.675000000000136
 21
0.0
 31
0.0
210
0.0
220
0.0
230
1.0
 40
0.707106781186571
 41
3.141592653589793
 42
3.536383773289666
  0
ELLIPSE
  5
123
330
EA
100
AcDbEntity
  8
AM_9
100
AcDbEllipse
 10
-24.25
 20
44.16654762208437
 30
0.0
 11
2.675000000000004
 21
0.0
 31
0.0
210
0.0
220
0.0
230
1.0
 40
0.7071067811865474
 41
5.888394187479829
 42
9.42477796076938
  0
ELLIPSE
  5
124
330
EA
100
AcDbEntity
  8
AM_9
100
AcDbEllipse
 10
-24.25
 20
45.08578643762689
 30
0.0
 11
3.174999999999997
 21
0.0
 31
0.0
210
0.0
220
0.0
230
1.0
 40
0.7071067811865521
 41
0.4159140521025488
 42
2.725678601487244
  0
LWPOLYLINE
  5
125
330
EA
100
AcDbEntity
  8
AM_4
100
AcDbPolyline
 90
        3
 70
     0
 43
0.0
 10
-19.91987298107781
 20
43.65389520572414
 10
-20.64156081756483
 20
44.49909580716596
 10
-21.09045762294451
 20
44.98885585832249
  0
LWPOLYLINE
  5
126
330
EA
100
AcDbEntity
  8
AM_4
100
AcDbPolyline
 90
        3
 70
     0
 43
0.0
 10
-27.41037471987083
 20
44.98797015974656
 10
-27.85519427959149
 20
44.50272824397538
 10
-28.58012701892219
 20
43.65389520572414
  0
LWPOLYLINE
  5
127
330
EA
100
AcDbEntity
  8
AM_4
100
AcDbPolyline
 90
        3
 70
     0
 43
0.0
 10
-28.58012701892219
 20
43.65389520572414
 10
-29.30181485540922
 20
42.73132885419959
 10
-30.02350269189625
 20
41.73957371025351
  0
LWPOLYLINE
  5
128
330
EA
100
AcDbEntity
  8
AM_4
100
AcDbPolyline
 90
        3
 70
     0
 43
0.0
 10
-18.47649730810374
 20
41.73957371025351
 10
-19.1949402417471
 20
42.72701293477711
 10
-19.91987298107781
 20
43.65389520572414
  0
LINE
  5
129
330
EA
100
AcDbEntity
  8
AM_4
100
AcDbLine
 10
-18.47649730810374
 20
41.73957371025351
 30
0.0
 11
-18.47649730810374
 21
39.91136245170238
 31
0.0
  0
LWPOLYLINE
  5
12A
330
EA
100
AcDbEntity
  8
AM_4
100
AcDbPolyline
 90
        3
 70
     0
 43
0.0
 10
-19.91987298107781
 20
40.1183612997914
 10
-19.19818514459077
 20
40.96356190123322
 10
-18.47649730810374
 20
41.73957371025351
  0
LWPOLYLINE
  5
12B
330
EA
100
AcDbEntity
  8
AM_4
100
AcDbPolyline
 90
        3
 70
     0
 43
0.0
 10
-20.37560553243098
 20
37.45449667758029
 10
-20.64156081756483
 20
37.15184035478993
 10
-21.36324865405187
 20
36.37582854576964
  0
LINE
  5
12C
330
EA
100
AcDbEntity
  8
AM_4
100
AcDbLine
 10
-19.91987298107781
 20
37.99704095623176
 30
0.0
 11
-20.37560553243098
 21
37.45449667758029
 31
0.0
  0
LINE
  5
12D
330
EA
100
AcDbEntity
  8
AM_4
100
AcDbLine
 10
-19.42556758079069
 20
38.6207791776623
 30
0.0
 11
-19.91987298107781
 21
37.99704095623176
 31
0.0
  0
LWPOLYLINE
  5
12E
330
EA
100
AcDbEntity
  8
AM_4
100
AcDbPolyline
 90
        3
 70
     0
 43
0.0
 10
-18.47649730810374
 20
39.91136245170238
 10
-19.1949402417471
 20
38.92392322717879
 10
-19.42556758079069
 20
38.6207791776623
  0
LWPOLYLINE
  5
12F
330
EA
100
AcDbEntity
  8
AM_4
100
AcDbPolyline
 90
        3
 70
     0
 43
0.0
 10
-21.36324865405187
 20
38.20403980432077
 10
-20.64480572040851
 20
39.19147902884436
 10
-19.91987298107781
 20
40.1183612997914
  0
LINE
  5
130
330
EA
100
AcDbEntity
  8
AM_4
100
AcDbLine
 10
-21.36324865405187
 20
38.20403980432077
 30
0.0
 11
-21.36324865405187
 21
36.37582854576964
 31
0.0
  0
LWPOLYLINE
  5
131
330
EA
100
AcDbEntity
  8
AM_4
100
AcDbPolyline
 90
        3
 70
     0
 43
0.0
 10
-24.25
 20
38.35059434682503
 10
-22.80662432702593
 20
38.31191147178367
 10
-21.36324865405187
 20
38.20403980432077
  0
LWPOLYLINE
  5
132
330
EA
100
AcDbEntity
  8
AM_4
100
AcDbPolyline
 90
        4
 70
     0
 43
0.0
 10
-27.13675134594812
 20
38.20403980432077
 10
-26.48135904478312
 20
38.26053895931537
 10
-25.36901401901461
 20
38.32715909093049
 10
-24.25
 20
38.35059434682503
  0
LWPOLYLINE
  5
133
330
EA
100
AcDbEntity
  8
AM_4
100
AcDbPolyline
 90
        3
 70
     0
 43
0.0
 10
-25.43983856985061
 20
36.25572802884363
 10
-26.48135904478312
 20
36.31932939077504
 10
-27.13675134594812
 20
36.37582854576964
  0
LINE
  5
134
330
EA
100
AcDbEntity
  8
AM_4
100
AcDbLine
 10
-25.14808816991691
 20
36.24443452632612
 30
0.0
 11
-25.43983856985061
 21
36.25572802884363
 31
0.0
  0
LINE
  5
135
330
EA
100
AcDbEntity
  8
AM_4
100
AcDbLine
 10
-24.25
 20
36.22927400326539
 30
0.0
 11
-25.14808816991691
 21
36.24443452632612
 31
0.0
  0
LINE
  5
136
330
EA
100
AcDbEntity
  8
AM_4
100
AcDbLine
 10
-23.35188403704907
 20
36.24443545729212
 30
0.0
 11
-24.25
 21
36.22927400326539
 31
0.0
  0
LINE
  5
137
330
EA
100
AcDbEntity
  8
AM_4
100
AcDbLine
 10
-23.09783363761987
 20
36.25410042677736
 30
0.0
 11
-23.35188403704907
 21
36.24443545729212
 31
0.0
  0
LWPOLYLINE
  5
138
330
EA
100
AcDbEntity
  8
AM_4
100
AcDbPolyline
 90
        3
 70
     0
 43
0.0
 10
-21.36324865405187
 20
36.37582854576964
 10
-22.80013452133859
 20
36.26829861961328
 10
-23.09783363761987
 20
36.25410042677736
  0
ELLIPSE
  5
139
330
EA
100
AcDbEntity
  8
AM_4
100
AcDbEllipse
 10
-24.24999999999998
 20
41.88612825275779
 30
0.0
 11
5.000000000000032
 21
0.0
 31
0.0
210
0.0
220
0.0
230
1.0
 40
0.7071067811865472
 41
3.665191429188095
 42
6.806784082777884
  0
ELLIPSE
  5
13A
330
EA
100
AcDbEntity
  8
AM_4
100
AcDbEllipse
 10
-24.25
 20
41.88612825275768
 30
0.0
 11
5.000000000000007
 21
0.0
 31
0.0
210
0.0
220
0.0
230
1.0
 40
0.7071067811865593
 41
0.5235987755983125
 42
0.8982051386274047
  0
ELLIPSE
  5
13B
330
EA
100
AcDbEntity
  8
AM_4
100
AcDbEllipse
 10
-24.25000000000004
 20
41.88612825275779
 30
0.0
 11
4.99999999999995
 21
0.0
 31
0.0
210
0.0
220
0.0
230
1.0
 40
0.7071067811865475
 41
2.24338751496231
 42
2.617993877991493
  0
ELLIPSE
  5
13C
330
EA
100
AcDbEntity
  8
AM_4
100
AcDbEllipse
 10
-24.25000000000002
 20
41.88612825275778
 30
0.0
 11
4.999999999999979
 21
0.0
 31
0.0
210
0.0
220
0.0
230
1.0
 40
0.7071067811865477
 41
2.617993877991494
 42
3.665191429188098
  0
LINE
  5
13D
330
EA
100
AcDbEntity
  8
AM_4
100
AcDbLine
 10
-27.13675134594812
 20
38.20403980432077
 30
0.0
 11
-27.13675134594812
 21
36.37582854576964
 31
0.0
  0
LWPOLYLINE
  5
13E
330
EA
100
AcDbEntity
  8
AM_4
100
AcDbPolyline
 90
        3
 70
     0
 43
0.0
 10
-28.58012701892219
 20
40.1183612997914
 10
-27.85843918243516
 20
39.19579494826684
 10
-27.13675134594812
 20
38.20403980432077
  0
LWPOLYLINE
  5
13F
330
EA
100
AcDbEntity
  8
AM_4
100
AcDbPolyline
 90
        3
 70
     0
 43
0.0
 10
-30.02350269189625
 20
41.73957371025351
 10
-29.3050597582529
 20
40.96719433804264
 10
-28.58012701892219
 20
40.1183612997914
  0
LINE
  5
140
330
EA
100
AcDbEntity
  8
AM_4
100
AcDbLine
 10
-30.02350269189625
 20
41.73957371025351
 30
0.0
 11
-30.02350269189625
 21
39.91136245170238
 31
0.0
  0
LWPOLYLINE
  5
141
330
EA
100
AcDbEntity
  8
AM_4
100
AcDbPolyline
 90
        3
 70
     0
 43
0.0
 10
-29.03499588607526
 20
38.56969245459613
 10
-29.30181485540922
 20
38.9196073077563
 10
-30.02350269189625
 20
39.91136245170238
  0
LINE
  5
142
330
EA
100
AcDbEntity
  8
AM_4
100
AcDbLine
 10
-28.58012701892219
 20
37.99704095623176
 30
0.0
 11
-29.03499588607526
 21
38.56969245459613
 31
0.0
  0
LINE
  5
143
330
EA
100
AcDbEntity
  8
AM_4
100
AcDbLine
 10
-28.13106903743459
 20
37.4622209504749
 30
0.0
 11
-28.58012701892219
 21
37.99704095623176
 31
0.0
  0
LINE
  5
144
330
EA
100
AcDbEntity
  8
AM_4
100
AcDbLine
 10
-28.0719607983661
 20
37.39403972238469
 30
0.0
 11
-28.13106903743459
 21
37.4622209504749
 31
0.0
  0
LWPOLYLINE
  5
145
330
EA
100
AcDbEntity
  8
AM_4
100
AcDbPolyline
 90
        3
 70
     0
 43
0.0
 10
-27.13675134594812
 20
36.37582854576964
 10
-27.85519427959149
 20
37.14820791798051
 10
-28.0719607983661
 20
37.39403972238469
  0
ELLIPSE
  5
146
330
EA
100
AcDbEntity
  8
AM_4
100
AcDbEllipse
 10
-24.25
 20
42.50160267185436
 30
0.0
 11
3.607583894601113
 21
5.375718913377991E-8
 31
0.0
210
0.0
220
0.0
230
1.0
 40
0.7071067811865478
 41
2.478209321322889
 42
6.283187037607677
  0
ELLIPSE
  5
147
330
EA
100
AcDbEntity
  8
AM_4
100
AcDbEllipse
 10
-24.24999999999987
 20
43.09444172228897
 30
0.0
 11
2.982994982562385
 21
0.0
 31
0.0
210
0.0
220
0.0
230
1.0
 40
0.70710678118656
 41
2.754650415401354
 42
6.670127545368055
  0
LINE
  5
148
330
EA
100
AcDbEntity
  8
AM_4
100
AcDbLine
 10
-26.99897711671493
 20
43.9137888242658
 30
0.0
 11
-27.01245398937679
 21
43.8904024696157
 31
0.0
  0
LINE
  5
149
330
EA
100
AcDbEntity
  8
AM_4
100
AcDbLine
 10
-21.4875460106232
 20
43.8904024696157
 30
0.0
 11
-21.50102288328506
 21
43.91378882426581
 31
0.0
  0
ELLIPSE
  5
14A
330
EA
100
AcDbEntity
  8
AM_4
100
AcDbEllipse
 10
-24.24999999999997
 20
42.50160267185439
 30
0.0
 11
3.607583894601088
 21
0.0
 31
0.0
210
0.0
220
0.0
230
1.0
 40
0.7071067811865429
 41
0.0
 42
0.6633833151889231
  0
ELLIPSE
  5
14B
330
EA
100
AcDbEntity
  8
AM_4
100
AcDbEllipse
 10
-24.24999999999999
 20
41.88612825275777
 30
0.0
 11
4.749999999999996
 21
0.0
 31
0.0
210
0.0
220
0.0
230
1.0
 40
0.7071067811865478
 41
2.267944363641204
 42
7.156833597128177
  0
LINE
  5
14C
330
EA
100
AcDbEntity
  8
AM_4
100
AcDbLine
 10
-21.575
 20
43.6715728752538
 30
0.0
 11
-21.575
 21
43.78824549414957
 31
0.0
  0
LINE
  5
14D
330
EA
100
AcDbEntity
  8
AM_4
100
AcDbLine
 10
-26.925
 20
43.78824549414957
 30
0.0
 11
-26.925
 21
43.6715728752538
 31
0.0
  0
ELLIPSE
  5
14E
330
EA
100
AcDbEntity
  8
AM_4
100
AcDbEllipse
 10
-24.25
 20
43.67157287525381
 30
0.0
 11
2.675000000000008
 21
0.0
 31
0.0
210
0.0
220
0.0
230
1.0
 40
0.707106781186549
 41
3.141592653589793
 42
6.283185307179586
  0
LINE
  5
14F
330
EA
100
AcDbEntity
  8
AM_4
100
AcDbLine
 10
-21.78076923076923
 20
43.43904352990207
 30
0.0
 11
-21.31923076923077
 21
44.22230027213947
 31
0.0
  0
LINE
  5
150
330
EA
100
AcDbEntity
  8
AM_4
100
AcDbLine
 10
-27.18076923076923
 20
44.22230027213947
 30
0.0
 11
-26.71923076923077
 21
43.43904352990207
 31
0.0
  0
ELLIPSE
  5
151
330
EA
100
AcDbEntity
  8
AM_4
100
AcDbEllipse
 10
-24.25
 20
45.0857864376269
 30
0.0
 11
3.175000000000001
 21
0.0
 31
0.0
210
0.0
220
0.0
230
1.0
 40
0.707106781186549
 41
3.536383773289559
 42
5.888394187479821
  0
ELLIPSE
  5
152
330
EA
100
AcDbEntity
  8
AM_4
100
AcDbEllipse
 10
-24.25000000000007
 20
45.08578643762682
 30
0.0
 11
3.175000000000082
 21
0.0
 31
0.0
210
0.0
220
0.0
230
1.0
 40
0.7071067811865398
 41
5.888394187479862
 42
6.699099359282159
  0
ELLIPSE
  5
153
330
EA
100
AcDbEntity
  8
AM_4
100
AcDbEllipse
 10
-24.25
 20
44.16654762208438
 30
0.0
 11
2.674999999999997
 21
3.986060619354244E-8
 31
0.0
210
0.0
220
0.0
230
1.0
 40
0.7071067811865518
 41
3.536383753774814
 42
5.888394167965088
  0
LINE
  5
154
330
EA
100
AcDbEntity
  8
AM_4
100
AcDbLine
 10
-26.4151591196919
 20
47.17621249728131
 30
0.0
 11
-27.15432300025952
 21
45.99285118453405
 31
0.0
  0
LINE
  5
155
330
EA
100
AcDbEntity
  8
AM_4
100
AcDbLine
 10
-21.34567699974047
 20
45.99285118453405
 30
0.0
 11
-22.08484088030809
 21
47.17621249728131
 31
0.0
  0
ELLIPSE
  5
156
330
EA
100
AcDbEntity
  8
AM_4
100
AcDbEllipse
 10
-24.25
 20
45.08578643762693
 30
0.0
 11
3.174999999999994
 21
0.0
 31
0.0
210
0.0
220
0.0
230
1.0
 40
0.7071067811865483
 41
2.725678601487258
 42
3.536383773289571
  0
ELLIPSE
  5
157
330
EA
100
AcDbEntity
  8
AM_4
100
AcDbEllipse
 10
-24.24999999999982
 20
46.50000000000001
 30
0.0
 11
2.366947548329502
 21
0.0
 31
0.0
210
0.0
220
0.0
230
1.0
 40
0.7071067811865478
 41
0.0
 42
6.283185307179586
  0
ENDBLK
  5
ED
330
EA
100
AcDbEntity
  8
0
100
AcDbBlockEnd
  0
BLOCK
  5
15A
330
158
100
AcDbEntity
  8
0
100
AcDbBlockBegin
  2
4_123615vscM_0_in_125707_2
 70
     2
 10
0.0
 20
0.0
 30
0.0
  3
4_123615vscM_0_in_125707_2
  1

  0
ATTDEF
  5
15C
330
158
100
AcDbEntity
  8
AM_6
100
AcDbText
 10
7.515000000000001
 20
85.75000000000001
 30
0.0
 40
0.5
  1
F2B-VSMetric - housing
100
AcDbAttributeDefinition
  3

  2
NN
 70
     8
280
     0
  0
ATTDEF
  5
15D
330
158
100
AcDbEntity
  8
AM_6
100
AcDbText
 10
7.515000000000001
 20
85.25000000000001
 30
0.0
 40
0.5
  1
VSC Intermediate Duty 2-Bolt Flange Bearings
100
AcDbAttributeDefinition
  3

  2
NT
 70
     8
280
     0
  0
ATTDEF
  5
15E
330
158
100
AcDbEntity
  8
AM_6
100
AcDbText
 10
7.515000000000001
 20
84.75000000000001
 30
0.0
 40
0.5
  1
123615vscM
100
AcDbAttributeDefinition
  3

  2
NB
 70
     8
280
     0
  0
ATTDEF
  5
15F
330
158
100
AcDbEntity
  8
AM_6
100
AcDbText
 10
7.515000000000001
 20
84.25000000000001
 30
0.0
 40
0.5
  1
$PN.M
100
AcDbAttributeDefinition
  3

  2
NBSYN
 70
     8
280
     0
  0
ATTDEF
  5
160
330
158
100
AcDbEntity
  8
AM_6
100
AcDbText
 10
7.515000000000001
 20
83.75000000000001
 30
0.0
 40
0.5
  1
123615vscM
100
AcDbAttributeDefinition
  3

  2
LINA
 70
     8
280
     0
  0
ATTDEF
  5
161
330
158
100
AcDbEntity
  8
AM_6
100
AcDbText
 10
7.515000000000001
 20
83.25000000000001
 30
0.0
 40
0.5
  1
208
100
AcDbAttributeDefinition
  3

  2
RS
 70
     8
280
     0
  0
ATTDEF
  5
162
330
158
100
AcDbEntity
  8
AM_6
100
AcDbText
 10
7.515000000000001
 20
82.75000000000001
 30
0.0
 40
0.5
  1
40
100
AcDbAttributeDefinition
  3

  2
SS
 70
     8
280
     0
  0
ATTDEF
  5
163
330
158
100
AcDbEntity
  8
AM_6
100
AcDbText
 10
7.515000000000001
 20
82.25000000000001
 30
0.0
 40
0.5
  1
40.000000
100
AcDbAttributeDefinition
  3

  2
SS1
 70
     8
280
     0
  0
ATTDEF
  5
164
330
158
100
AcDbEntity
  8
AM_6
100
AcDbText
 10
7.515000000000001
 20
81.75000000000001
 30
0.0
 40
0.5
  1
123615vsc
100
AcDbAttributeDefinition
  3

  2
PN
 70
     8
280
     0
  0
ATTDEF
  5
165
330
158
100
AcDbEntity
  8
AM_6
100
AcDbText
 10
7.515000000000001
 20
81.25000000000001
 30
0.0
 40
0.5
  1
82.000
100
AcDbAttributeDefinition
  3

  2
BOD
 70
     8
280
     0
  0
ATTDEF
  5
166
330
158
100
AcDbEntity
  8
AM_6
100
AcDbText
 10
7.515000000000001
 20
80.75000000000001
 30
0.0
 40
0.5
  1
F2B-VSC-40M
100
AcDbAttributeDefinition
  3

  2
DESCRIPTION
 70
     8
280
     0
  0
ATTDEF
  5
167
330
158
100
AcDbEntity
  8
AM_6
100
AcDbText
 10
7.515000000000001
 20
80.25000000000001
 30
0.0
 40
0.5
  1
1.83
100
AcDbAttributeDefinition
  3

  2
WEIGHT
 70
     8
280
     0
  0
ATTDEF
  5
168
330
158
100
AcDbEntity
  8
AM_6
100
AcDbText
 10
7.515000000000001
 20
79.75000000000001
 30
0.0
 40
0.5
  1
49.300
100
AcDbAttributeDefinition
  3

  2
A
 70
     8
280
     0
  0
ATTDEF
  5
169
330
158
100
AcDbEntity
  8
AM_6
100
AcDbText
 10
7.515000000000001
 20
79.25000000000001
 30
0.0
 40
0.5
  1
171.500
100
AcDbAttributeDefinition
  3

  2
B
 70
     8
280
     0
  0
ATTDEF
  5
16A
330
158
100
AcDbEntity
  8
AM_6
100
AcDbText
 10
7.515000000000001
 20
78.75000000000001
 30
0.0
 40
0.5
  1
50.300
100
AcDbAttributeDefinition
  3

  2
C
 70
     8
280
     0
  0
ATTDEF
  5
16B
330
158
100
AcDbEntity
  8
AM_6
100
AcDbText
 10
7.515000000000001
 20
78.25000000000001
 30
0.0
 40
0.5
  1
143.800
100
AcDbAttributeDefinition
  3

  2
D
 70
     8
280
     0
  0
ATTDEF
  5
16C
330
158
100
AcDbEntity
  8
AM_6
100
AcDbText
 10
7.515000000000001
 20
77.75000000000001
 30
0.0
 40
0.5
  1
M12
100
AcDbAttributeDefinition
  3

  2
F
 70
     8
280
     0
  0
ATTDEF
  5
16D
330
158
100
AcDbEntity
  8
AM_6
100
AcDbText
 10
7.515000000000001
 20
77.25000000000001
 30
0.0
 40
0.5
  1
12.000
100
AcDbAttributeDefinition
  3

  2
F1
 70
     8
280
     0
  0
ATTDEF
  5
16E
330
158
100
AcDbEntity
  8
AM_6
100
AcDbText
 10
7.515000000000001
 20
76.75000000000001
 30
0.0
 40
0.5
  1
14.200
100
AcDbAttributeDefinition
  3

  2
H
 70
     8
280
     0
  0
ATTDEF
  5
16F
330
158
100
AcDbEntity
  8
AM_6
100
AcDbText
 10
7.515000000000001
 20
76.25000000000001
 30
0.0
 40
0.5
  1
16.000
100
AcDbAttributeDefinition
  3

  2
J
 70
     8
280
     0
  0
ATTDEF
  5
170
330
158
100
AcDbEntity
  8
AM_6
100
AcDbText
 10
7.515000000000001
 20
75.75000000000001
 30
0.0
 40
0.5
  1
52.100
100
AcDbAttributeDefinition
  3

  2
L
 70
     8
280
     0
  0
ATTDEF
  5
171
330
158
100
AcDbEntity
  8
AM_6
100
AcDbText
 10
7.515000000000001
 20
75.25000000000001
 30
0.0
 40
0.5
  1
104.900
100
AcDbAttributeDefinition
  3

  2
M
 70
     8
280
     0
  0
ATTDEF
  5
172
330
158
100
AcDbEntity
  8
AM_6
100
AcDbText
 10
7.515000000000001
 20
74.75000000000001
 30
0.0
 40
0.5
  1
46.500
100
AcDbAttributeDefinition
  3

  2
N
 70
     8
280
     0
  0
ATTDEF
  5
173
330
158
100
AcDbEntity
  8
AM_6
100
AcDbText
 10
7.515000000000001
 20
74.25000000000001
 30
0.0
 40
0.5
  1
baldor
100
AcDbAttributeDefinition
  3

  2
COMPANY
 70
     8
280
     0
  0
LINE
  5
174
330
158
100
AcDbEntity
  8
AM_9
100
AcDbLine
 10
-14.2
 20
65.9
 30
0.0
 11
0.0
 21
65.9
 31
0.0
  0
LINE
  5
175
330
158
100
AcDbEntity
  8
AM_9
100
AcDbLine
 10
0.0
 20
77.9
 30
0.0
 11
-14.2
 21
77.9
 31
0.0
  0
LINE
  5
176
330
158
100
AcDbEntity
  8
AM_9
100
AcDbLine
 10
-14.2
 20
-77.9
 30
0.0
 11
0.0
 21
-77.9
 31
0.0
  0
LINE
  5
177
330
158
100
AcDbEntity
  8
AM_9
100
AcDbLine
 10
0.0
 20
-65.9
 30
0.0
 11
-14.2
 21
-65.9
 31
0.0
  0
LINE
  5
178
330
158
100
AcDbEntity
  8
AM_9
100
AcDbLine
 10
-2.84
 20
49.73082210803872
 30
0.0
 11
-2.84
 21
53.61438999999999
 31
0.0
  0
LINE
  5
179
330
158
100
AcDbEntity
  8
AM_9
100
AcDbLine
 10
0.0
 20
53.61438999999999
 30
0.0
 11
-2.84
 21
53.61438999999999
 31
0.0
  0
LINE
  5
17A
330
158
100
AcDbEntity
  8
AM_9
100
AcDbLine
 10
-2.84
 20
-53.61438999999998
 30
0.0
 11
0.0
 21
-53.61438999999998
 31
0.0
  0
LINE
  5
17B
330
158
100
AcDbEntity
  8
AM_9
100
AcDbLine
 10
-2.84
 20
-53.61438999999998
 30
0.0
 11
-2.84
 21
-49.73082210803871
 31
0.0
  0
LINE
  5
17C
330
158
100
AcDbEntity
  8
AM_9
100
AcDbLine
 10
-34.3
 20
45.01679732719238
 30
0.0
 11
-12.78
 21
45.01679732719238
 31
0.0
  0
LINE
  5
17D
330
158
100
AcDbEntity
  8
AM_9
100
AcDbLine
 10
-34.3
 20
44.27284855140626
 30
0.0
 11
-12.78
 21
44.27284855140626
 31
0.0
  0
LINE
  5
17E
330
158
100
AcDbEntity
  8
AM_9
100
AcDbLine
 10
-2.839999999999999
 20
-46.23287492219542
 30
0.0
 11
0.0000000000000017
 21
-46.23287492219542
 31
0.0
  0
LINE
  5
17F
330
158
100
AcDbEntity
  8
AM_9
100
AcDbLine
 10
-2.839999999999999
 20
46.23287540509803
 30
0.0
 11
0.0000000000000017
 21
46.23287540509803
 31
0.0
  0
LINE
  5
180
330
158
100
AcDbEntity
  8
AM_9
100
AcDbLine
 10
-12.78
 20
28.15813630041725
 30
0.0
 11
-12.78
 21
45.8413103102068
 31
0.0
  0
LINE
  5
181
330
158
100
AcDbEntity
  8
AM_9
100
AcDbLine
 10
-21.27974603490016
 20
45.87894984538367
 30
0.0
 11
-27.22025396509983
 21
45.87894984538367
 31
0.0
  0
LINE
  5
182
330
158
100
AcDbEntity
  8
AM_9
100
AcDbLine
 10
-34.3
 20
-41.0
 30
0.0
 11
-2.840000000000002
 21
-41.0
 31
0.0
  0
LINE
  5
183
330
158
100
AcDbEntity
  8
AM_9
100
AcDbLine
 10
-2.840000000000002
 20
41.0
 30
0.0
 11
-34.3
 21
41.0
 31
0.0
  0
ELLIPSE
  5
184
330
158
100
AcDbEntity
  8
AM_9
100
AcDbEllipse
 10
-24.25000000000011
 20
39.76480790919804
 30
0.0
 11
5.079999999999885
 21
0.0
 31
0.0
210
0.0
220
0.0
230
1.0
 40
0.7071067811865493
 41
2.755940490593535
 42
3.141592653589793
  0
ELLIPSE
  5
185
330
158
100
AcDbEntity
  8
AM_9
100
AcDbEllipse
 10
-24.2499999999998
 20
39.7648079091982
 30
0.0
 11
5.080000000000221
 21
7.569789886474940E-8
 31
0.0
210
0.0
220
0.0
230
1.0
 40
0.7071067811865331
 41
2.458807858642617
 42
2.755940471011102
  0
ELLIPSE
  5
186
330
158
100
AcDbEntity
  8
AM_9
100
AcDbEllipse
 10
-24.25
 20
39.76480790919812
 30
0.0
 11
5.080000000000023
 21
0.0
 31
0.0
210
0.0
220
0.0
230
1.0
 40
0.7071067811865482
 41
1.703963977787254
 42
2.458807875521284
  0
ELLIPSE
  5
187
330
158
100
AcDbEntity
  8
AM_9
100
AcDbEllipse
 10
-24.25000000000016
 20
39.76480790919953
 30
0.0
 11
5.07999999999803
 21
0.0
 31
0.0
210
0.0
220
0.0
230
1.0
 40
0.7071067811865472
 41
1.570796326794897
 42
1.703963977787274
  0
LINE
  5
188
330
158
100
AcDbEntity
  8
AM_9
100
AcDbLine
 10
-19.16999999999999
 20
39.74684739695599
 30
0.0
 11
-19.16999999999999
 21
39.76480790919813
 31
0.0
  0
LINE
  5
189
330
158
100
AcDbEntity
  8
AM_9
100
AcDbLine
 10
-29.33
 20
39.76480790919813
 30
0.0
 11
-29.33
 21
39.74684739695599
 31
0.0
  0
ELLIPSE
  5
18A
330
158
100
AcDbEntity
  8
AM_9
100
AcDbEllipse
 10
-24.25000000000001
 20
39.76480790919814
 30
0.0
 11
5.080000000000016
 21
0.0
 31
0.0
210
0.0
220
0.0
230
1.0
 40
0.7071067811865478
 41
5.933097644077578
 42
6.951439342465585
  0
ELLIPSE
  5
18B
330
158
100
AcDbEntity
  8
AM_9
100
AcDbEllipse
 10
-24.24999999999998
 20
39.76480790919818
 30
0.0
 11
5.079999999999984
 21
0.0
 31
0.0
210
0.0
220
0.0
230
1.0
 40
0.7071067811865578
 41
4.917324204019797
 42
5.584571344190854
  0
ELLIPSE
  5
18C
330
158
100
AcDbEntity
  8
AM_9
100
AcDbEllipse
 10
-24.25000000000001
 20
39.76480790919819
 30
0.0
 11
5.079999999999981
 21
0.0
 31
0.0
210
0.0
220
0.0
230
1.0
 40
0.7071067811865583
 41
3.848409528866728
 42
4.525193392461108
  0
ELLIPSE
  5
18D
330
158
100
AcDbEntity
  8
AM_9
100
AcDbEllipse
 10
-24.24999999999996
 20
39.76480790919814
 30
0.0
 11
5.08000000000004
 21
7.569789886474670E-8
 31
0.0
210
0.0
220
0.0
230
1.0
 40
0.7071067811865471
 41
3.141592632516369
 42
3.485336774526429
  0
ELLIPSE
  5
18E
330
158
100
AcDbEntity
  8
AM_9
100
AcDbEllipse
 10
-24.24999999999982
 20
39.76480790920027
 30
0.0
 11
5.079999999996978
 21
0.0
 31
0.0
210
0.0
220
0.0
230
1.0
 40
0.7071067811865482
 41
0.6682540352855559
 42
1.570796326794897
  0
ELLIPSE
  5
18F
330
158
100
AcDbEntity
  8
AM_9
100
AcDbEllipse
 10
-24.2500000000001
 20
39.74684739695617
 30
0.0
 11
5.079999999999899
 21
0.0
 31
0.0
210
0.0
220
0.0
230
1.0
 40
0.7071067811865404
 41
2.743907158149619
 42
3.474265226160458
  0
ELLIPSE
  5
190
330
158
100
AcDbEntity
  8
AM_9
100
AcDbEllipse
 10
-24.25000000000007
 20
39.74684739695581
 30
0.0
 11
5.079999999999917
 21
0.0
 31
0.0
210
0.0
220
0.0
230
1.0
 40
0.7071067811865672
 41
2.488168134144834
 42
2.743907158149542
  0
ELLIPSE
  5
191
330
158
100
AcDbEntity
  8
AM_9
100
AcDbEllipse
 10
-24.24999999999999
 20
39.74684739695595
 30
0.0
 11
5.08000000000002
 21
0.0
 31
0.0
210
0.0
220
0.0
230
1.0
 40
0.7071067811865557
 41
1.67216960081807
 42
2.488168134144865
  0
ELLIPSE
  5
192
330
158
100
AcDbEntity
  8
AM_9
100
AcDbEllipse
 10
-24.24999999999999
 20
39.74684739695694
 30
0.0
 11
5.079999999999529
 21
0.0
 31
0.0
210
0.0
220
0.0
230
1.0
 40
0.7071067811864253
 41
0.644105887082338
 42
1.672169600818079
  0
ELLIPSE
  5
193
330
158
100
AcDbEntity
  8
AM_9
100
AcDbEllipse
 10
-24.24999999999955
 20
39.74684739695657
 30
0.0
 11
5.079999999999504
 21
7.569789886473871E-8
 31
0.0
210
0.0
220
0.0
230
1.0
 40
0.7071067811865072
 41
5.966457250070344
 42
6.927291176987914
  0
ELLIPSE
  5
194
330
158
100
AcDbEntity
  8
AM_9
100
AcDbEllipse
 10
-24.24999999999999
 20
39.74684739695599
 30
0.0
 11
5.080000000000009
 21
0.0
 31
0.0
210
0.0
220
0.0
230
1.0
 40
0.7071067811865474
 41
3.856135654328888
 42
4.475806762248296
  0
ELLIPSE
  5
195
330
158
100
AcDbEntity
  8
AM_9
100
AcDbEllipse
 10
-24.25000000000003
 20
39.74684739695606
 30
0.0
 11
5.080000000000059
 21
0.0
 31
0.0
210
0.0
220
0.0
230
1.0
 40
0.7071067811865545
 41
4.941920001656843
 42
5.56204373876549
  0
LINE
  5
196
330
158
100
AcDbEntity
  8
AM_9
100
AcDbLine
 10
-27.42423704848897
 20
45.13500106959749
 30
0.0
 11
-21.07576295151102
 21
45.13500106959749
 31
0.0
  0
LINE
  5
197
330
158
100
AcDbEntity
  8
AM_9
100
AcDbLine
 10
-12.78
 20
28.15813630041725
 30
0.0
 11
-2.840000000000003
 21
28.15813630041725
 31
0.0
  0
LINE
  5
198
330
158
100
AcDbEntity
  8
AM_9
100
AcDbLine
 10
-34.3
 20
44.65055294637676
 30
0.0
 11
-12.78
 21
44.65055294637676
 31
0.0
  0
LINE
  5
199
330
158
100
AcDbEntity
  8
AM_7
100
AcDbLine
 10
0.71
 20
71.9
 30
0.0
 11
-14.91
 21
71.9
 31
0.0
  0
LINE
  5
19A
330
158
100
AcDbEntity
  8
AM_7
100
AcDbLine
 10
0.71
 20
-71.9
 30
0.0
 11
-14.91
 21
-71.9
 31
0.0
  0
LINE
  5
19B
330
158
100
AcDbEntity
  8
AM_7
100
AcDbLine
 10
2.515
 20
0.0
 30
0.0
 11
-52.815
 21
0.0
 31
0.0
  0
LINE
  5
19C
330
158
100
AcDbEntity
  8
AM_4
100
AcDbLine
 10
-14.2
 20
47.63938183583844
 30
0.0
 11
-14.2
 21
85.75000000000001
 31
0.0
  0
LINE
  5
19D
330
158
100
AcDbEntity
  8
AM_4
100
AcDbLine
 10
0.0
 20
85.75000000000001
 30
0.0
 11
-14.2
 21
85.75000000000001
 31
0.0
  0
LINE
  5
19E
330
158
100
AcDbEntity
  8
AM_4
100
AcDbLine
 10
-14.2
 20
-85.75
 30
0.0
 11
0.0
 21
-85.75
 31
0.0
  0
LINE
  5
19F
330
158
100
AcDbEntity
  8
AM_4
100
AcDbLine
 10
-14.2
 20
-85.75
 30
0.0
 11
-14.2
 21
-47.63938183583846
 31
0.0
  0
LINE
  5
1A0
330
158
100
AcDbEntity
  8
AM_4
100
AcDbLine
 10
-14.2
 20
-75.96767501159017
 30
0.0
 11
-12.78
 21
-75.96767501159017
 31
0.0
  0
LINE
  5
1A1
330
158
100
AcDbEntity
  8
AM_4
100
AcDbLine
 10
-14.2
 20
75.96767501159019
 30
0.0
 11
-12.78
 21
75.96767501159019
 31
0.0
  0
LINE
  5
1A2
330
158
100
AcDbEntity
  8
AM_4
100
AcDbLine
 10
0.0
 20
-85.75
 30
0.0
 11
0.0000000000000017
 21
-45.88868024433915
 31
0.0
  0
LINE
  5
1A3
330
158
100
AcDbEntity
  8
AM_4
100
AcDbLine
 10
0.0000000000000017
 20
-45.88868024433915
 30
0.0
 11
-2.839999999999999
 21
-45.88868024433915
 31
0.0
  0
LINE
  5
1A4
330
158
100
AcDbEntity
  8
AM_4
100
AcDbLine
 10
-2.839999999999999
 20
45.88868024433879
 30
0.0
 11
0.0000000000000017
 21
45.88868024433879
 31
0.0
  0
LINE
  5
1A5
330
158
100
AcDbEntity
  8
AM_4
100
AcDbLine
 10
0.0000000000000017
 20
45.88868024433879
 30
0.0
 11
0.0
 21
85.75000000000001
 31
0.0
  0
LINE
  5
1A6
330
158
100
AcDbEntity
  8
AM_4
100
AcDbLine
 10
-2.839999999999999
 20
49.73082210803872
 30
0.0
 11
0.0000000000000019
 21
49.73082210803872
 31
0.0
  0
LINE
  5
1A7
330
158
100
AcDbEntity
  8
AM_4
100
AcDbLine
 10
-12.78
 20
79.3354659248957
 30
0.0
 11
0.0000000000000007
 21
79.3354659248957
 31
0.0
  0
LINE
  5
1A8
330
158
100
AcDbEntity
  8
AM_4
100
AcDbLine
 10
-12.78
 20
45.8413103102068
 30
0.0
 11
-12.78
 21
79.3354659248957
 31
0.0
  0
LINE
  5
1A9
330
158
100
AcDbEntity
  8
AM_4
100
AcDbLine
 10
-2.84
 20
45.84131031020679
 30
0.0
 11
-12.78
 21
45.8413103102068
 31
0.0
  0
LINE
  5
1AA
330
158
100
AcDbEntity
  8
AM_4
100
AcDbLine
 10
-27.22025396509983
 20
45.87894984538367
 30
0.0
 11
-34.3
 21
45.87894984538367
 31
0.0
  0
LINE
  5
1AB
330
158
100
AcDbEntity
  8
AM_4
100
AcDbLine
 10
-12.78
 20
45.87894984538367
 30
0.0
 11
-21.27974603490016
 21
45.87894984538367
 31
0.0
  0
ELLIPSE
  5
1AC
330
158
100
AcDbEntity
  8
AM_4
100
AcDbEllipse
 10
-24.25000000000023
 20
39.76480790919823
 30
0.0
 11
5.080000000000272
 21
0.0
 31
0.0
210
0.0
220
0.0
230
1.0
 40
0.7071067811865471
 41
5.584571344190866
 42
5.933097644077571
  0
ELLIPSE
  5
1AD
330
158
100
AcDbEntity
  8
AM_4
100
AcDbEllipse
 10
-24.25
 20
39.76480790919801
 30
0.0
 11
5.079999999999831
 21
0.0
 31
0.0
210
0.0
220
0.0
230
1.0
 40
0.7071067811865469
 41
4.525193392461098
 42
4.917324204019808
  0
ELLIPSE
  5
1AE
330
158
100
AcDbEntity
  8
AM_4
100
AcDbEllipse
 10
-24.2499999999998
 20
39.76480790919821
 30
0.0
 11
5.080000000000221
 21
7.569789886474940E-8
 31
0.0
210
0.0
220
0.0
230
1.0
 40
0.7071067811865471
 41
3.485336774526438
 42
3.848409512237063
  0
ELLIPSE
  5
1AF
330
158
100
AcDbEntity
  8
AM_4
100
AcDbEllipse
 10
-24.25000000000009
 20
39.74684739695491
 30
0.0
 11
5.079999999999178
 21
0.0
 31
0.0
210
0.0
220
0.0
230
1.0
 40
0.7071067811864477
 41
4.475806762248276
 42
4.71238898038469
  0
ELLIPSE
  5
1B0
330
158
100
AcDbEntity
  8
AM_4
100
AcDbEllipse
 10
-24.25000000000004
 20
39.74684739695589
 30
0.0
 11
5.079999999999959
 21
0.0
 31
0.0
210
0.0
220
0.0
230
1.0
 40
0.7071067811865404
 41
3.474265226160378
 42
3.856135654328877
  0
LINE
  5
1B1
330
158
100
AcDbEntity
  8
AM_4
100
AcDbLine
 10
-12.78
 20
-79.3354659248957
 30
0.0
 11
0.0000000000000007
 21
-79.33546592489569
 31
0.0
  0
LINE
  5
1B2
330
158
100
AcDbEntity
  8
AM_4
100
AcDbLine
 10
-2.839999999999999
 20
-49.73082210803871
 30
0.0
 11
0.0000000000000019
 21
-49.73082210803871
 31
0.0
  0
LINE
  5
1B3
330
158
100
AcDbEntity
  8
AM_4
100
AcDbLine
 10
-12.78
 20
-79.3354659248957
 30
0.0
 11
-12.78
 21
-28.15813630041725
 31
0.0
  0
LINE
  5
1B4
330
158
100
AcDbEntity
  8
AM_4
100
AcDbLine
 10
-34.3
 20
30.64838753348178
 30
0.0
 11
-2.84
 21
30.64838753348178
 31
0.0
  0
LINE
  5
1B5
330
158
100
AcDbEntity
  8
AM_4
100
AcDbLine
 10
-2.839999999999999
 20
-49.73082210803871
 30
0.0
 11
-2.839999999999999
 21
49.73082210803872
 31
0.0
  0
ELLIPSE
  5
1B6
330
158
100
AcDbEntity
  8
AM_4
100
AcDbEllipse
 10
-24.24999999999996
 20
39.74684739695607
 30
0.0
 11
5.07999999999997
 21
0.0
 31
0.0
210
0.0
220
0.0
230
1.0
 40
0.7071067811865542
 41
5.562043738765477
 42
5.966457270121815
  0
ELLIPSE
  5
1B7
330
158
100
AcDbEntity
  8
AM_4
100
AcDbEllipse
 10
-24.24999999999994
 20
39.74684739695522
 30
0.0
 11
5.079999999999671
 21
0.0
 31
0.0
210
0.0
220
0.0
230
1.0
 40
0.7071067811864419
 41
4.71238898038469
 42
4.941920001656843
  0
LINE
  5
1B8
330
158
100
AcDbEntity
  8
AM_4
100
AcDbLine
 10
-21.07576295151102
 20
45.13500106959749
 30
0.0
 11
-2.84
 21
45.13500106959749
 31
0.0
  0
LINE
  5
1B9
330
158
100
AcDbEntity
  8
AM_4
100
AcDbLine
 10
-34.3
 20
45.13500106959749
 30
0.0
 11
-27.42423704848897
 21
45.13500106959749
 31
0.0
  0
LINE
  5
1BA
330
158
100
AcDbEntity
  8
AM_4
100
AcDbLine
 10
-34.3
 20
30.76659127588681
 30
0.0
 11
-2.84
 21
30.76659127588681
 31
0.0
  0
LINE
  5
1BB
330
158
100
AcDbEntity
  8
AM_4
100
AcDbLine
 10
-34.3
 20
34.35869372431451
 30
0.0
 11
-2.84
 21
34.35869372431451
 31
0.0
  0
LINE
  5
1BC
330
158
100
AcDbEntity
  8
AM_4
100
AcDbLine
 10
-34.3
 20
-52.45000000000005
 30
0.0
 11
-34.3
 21
52.45000000000005
 31
0.0
  0
LINE
  5
1BD
330
158
100
AcDbEntity
  8
AM_4
100
AcDbLine
 10
-14.2
 20
-47.63938183583846
 30
0.0
 11
-12.78
 21
-47.63938183583845
 31
0.0
  0
LINE
  5
1BE
330
158
100
AcDbEntity
  8
AM_4
100
AcDbLine
 10
-12.78
 20
-28.15813630041725
 30
0.0
 11
-2.839999999999998
 21
-28.1581363004173
 31
0.0
  0
LINE
  5
1BF
330
158
100
AcDbEntity
  8
AM_4
100
AcDbLine
 10
-34.3
 20
27.51964065141122
 30
0.0
 11
-2.84
 21
27.51964065141122
 31
0.0
  0
LINE
  5
1C0
330
158
100
AcDbEntity
  8
AM_4
100
AcDbLine
 10
-12.78
 20
47.63938183583844
 30
0.0
 11
-14.2
 21
47.63938183583844
 31
0.0
  0
LINE
  5
1C1
330
158
100
AcDbEntity
  8
AM_4
100
AcDbLine
 10
-34.3
 20
-52.45000000000005
 30
0.0
 11
-14.2
 21
-52.45000000000005
 31
0.0
  0
LINE
  5
1C2
330
158
100
AcDbEntity
  8
AM_4
100
AcDbLine
 10
-14.2
 20
52.45000000000005
 30
0.0
 11
-34.3
 21
52.45000000000005
 31
0.0
  0
ENDBLK
  5
15B
330
158
100
AcDbEntity
  8
0
100
AcDbBlockEnd
  0
ENDSEC
  0
SECTION
  2
ENTITIES
  0
INSERT
  5
6F
330
1F
100
AcDbEntity
  8
0
100
AcDbBlockReference
  2
1_125707_2
 10
0.0
 20
0.0
 30
0.0
  0
POINT
  5
1C4
330
1F
100
AcDbEntity
  8
ConnectionPoints
100
AcDbPoint
 10
-24.25
 20
39.76480790919813
 30
39.76480790919813
  0
POINT
  5
1C5
330
1F
100
AcDbEntity
  8
ConnectionPoints
100
AcDbPoint
 10
-24.25
 20
39.76480790919813
 30
39.76480790919813
  0
POINT
  5
1C6
330
1F
100
AcDbEntity
  8
ConnectionPoints
100
AcDbPoint
 10
-50.3
 20
0.0
 30
0.0000000000000031
  0
ENDSEC
  0
SECTION
  2
OBJECTS
  0
DICTIONARY
  5
C
330
0
100
AcDbDictionary
281
     1
  3
ACAD_DETAILVIEWSTYLE
350
1CE
  3
ACAD_GROUP
350
D
  3
ACAD_LAYOUT
350
1A
  3
ACAD_MATERIAL
350
43
  3
ACAD_MLEADERSTYLE
350
6B
  3
ACAD_MLINESTYLE
350
17
  3
ACAD_PLOTSETTINGS
350
19
  3
ACAD_PLOTSTYLENAME
350
E
  3
ACAD_SCALELIST
350
47
  3
ACAD_SECTIONVIEWSTYLE
350
1CF
  3
ACAD_TABLESTYLE
350
69
  3
ACAD_VISUALSTYLE
350
2A
  3
ACDB_RECOMPOSE_DATA
350
1CB
  3
AcDbVariableDictionary
350
1C7
  0
SUN
  5
6D
330
29
100
AcDbSun
 90
        1
290
     0
 63
     7
421
 16777215
 40
1.0
291
     1
 91
  2455826
 92
 54000000
292
     0
 70
     2
 71
   256
280
     1
  0
DICTIONARY
  5
1CE
102
{ACAD_REACTORS
330
C
102
}
330
C
100
AcDbDictionary
281
     1
  0
DICTIONARY
  5
D
102
{ACAD_REACTORS
330
C
102
}
330
C
100
AcDbDictionary
281
     1
  0
DICTIONARY
  5
1A
102
{ACAD_REACTORS
330
C
102
}
330
C
100
AcDbDictionary
281
     1
  3
Layout1
350
1E
  3
Layout2
350
26
  3
Model
350
22
  0
DICTIONARY
  5
43
102
{ACAD_REACTORS
330
C
102
}
330
C
100
AcDbDictionary
281
     1
  3
ByBlock
350
45
  3
ByLayer
350
44
  3
Global
350
46
  0
DICTIONARY
  5
6B
102
{ACAD_REACTORS
330
C
102
}
330
C
100
AcDbDictionary
281
     1
  3
Standard
350
6C
  0
DICTIONARY
  5
17
102
{ACAD_REACTORS
330
C
102
}
330
C
100
AcDbDictionary
281
     1
  3
Standard
350
18
  0
DICTIONARY
  5
19
102
{ACAD_REACTORS
330
C
102
}
330
C
100
AcDbDictionary
281
     1
  0
ACDBDICTIONARYWDFLT
  5
E
102
{ACAD_REACTORS
330
C
102
}
330
C
100
AcDbDictionary
281
     1
  3
Normal
350
F
100
AcDbDictionaryWithDefault
340
F
  0
DICTIONARY
  5
47
102
{ACAD_REACTORS
330
C
102
}
330
C
100
AcDbDictionary
281
     1
  3
A0
350
48
  3
A1
350
49
  3
A2
350
4A
  3
A3
350
4B
  3
A4
350
4C
  3
A5
350
4D
  3
A6
350
4E
  3
A7
350
4F
  3
A8
350
50
  3
A9
350
51
  3
B0
350
52
  3
B1
350
53
  3
B2
350
54
  3
B3
350
55
  3
B4
350
56
  3
B5
350
57
  3
B6
350
58
  3
B7
350
59
  3
B8
350
5A
  3
B9
350
5B
  3
C0
350
5C
  3
C1
350
5D
  3
C2
350
5E
  3
C3
350
5F
  3
C4
350
60
  3
C5
350
61
  3
C6
350
62
  3
C7
350
63
  3
C8
350
64
  3
C9
350
65
  3
D0
350
66
  3
D1
350
67
  3
D2
350
68
  0
DICTIONARY
  5
1CF
102
{ACAD_REACTORS
330
C
102
}
330
C
100
AcDbDictionary
281
     1
  0
DICTIONARY
  5
69
102
{ACAD_REACTORS
330
C
102
}
330
C
100
AcDbDictionary
281
     1
  3
Standard
350
6A
  0
DICTIONARY
  5
2A
102
{ACAD_REACTORS
330
C
102
}
330
C
100
AcDbDictionary
281
     1
  3
2dWireframe
350
2F
  3
Basic
350
32
  3
Brighten
350
36
  3
ColorChange
350
3A
  3
Conceptual
350
34
  3
Dim
350
35
  3
EdgeColorOff
350
3D
  3
Facepattern
350
39
  3
Flat
350
2B
  3
FlatWithEdges
350
2C
  3
Gouraud
350
2D
  3
GouraudWithEdges
350
2E
  3
Hidden
350
31
  3
JitterOff
350
3B
  3
Linepattern
350
38
  3
OverhangOff
350
3C
  3
Realistic
350
33
  3
Shaded
350
42
  3
Shaded with edges
350
41
  3
Shades of Gray
350
3E
  3
Sketchy
350
3F
  3
Thicken
350
37
  3
Wireframe
350
30
  3
X-Ray
350
40
  0
XRECORD
  5
1CB
102
{ACAD_REACTORS
330
C
102
}
330
C
100
AcDbXrecord
280
     1
 90
        1
330
6A
  0
DICTIONARY
  5
1C7
102
{ACAD_REACTORS
330
C
102
}
330
C
100
AcDbDictionary
281
     1
  3
CANNOSCALE
350
1C8
  3
CMLEADERSTYLE
350
1CD
  3
CTABLESTYLE
350
1CC
  0
LAYOUT
  5
1E
102
{ACAD_REACTORS
330
1A
102
}
330
1A
100
AcDbPlotSettings
  1

  2
none_device
  4

  6

 40
0.0
 41
0.0
 42
0.0
 43
0.0
 44
0.0
 45
0.0
 46
0.0
 47
0.0
 48
0.0
 49
0.0
140
0.0
141
0.0
142
1.0
143
1.0
 70
   688
 72
     1
 73
     0
 74
     5
  7

 75
    16
 76
     0
 77
     2
 78
   300
147
1.0
148
0.0
149
0.0
100
AcDbLayout
  1
Layout1
 70
     1
 71
     1
 10
0.0
 20
0.0
 11
420.0
 21
297.0
 12
0.0
 22
0.0
 32
0.0
 14
1.000000000000000E+20
 24
1.000000000000000E+20
 34
1.000000000000000E+20
 15
-1.000000000000000E+20
 25
-1.000000000000000E+20
 35
-1.000000000000000E+20
146
0.0
 13
0.0
 23
0.0
 33
0.0
 16
1.0
 26
0.0
 36
0.0
 17
0.0
 27
1.0
 37
0.0
 76
     0
330
1B
  0
LAYOUT
  5
26
102
{ACAD_REACTORS
330
1A
102
}
330
1A
100
AcDbPlotSettings
  1

  2
none_device
  4

  6

 40
0.0
 41
0.0
 42
0.0
 43
0.0
 44
0.0
 45
0.0
 46
0.0
 47
0.0
 48
0.0
 49
0.0
140
0.0
141
0.0
142
1.0
143
1.0
 70
   688
 72
     1
 73
     0
 74
     5
  7

 75
    16
 76
     0
 77
     2
 78
   300
147
1.0
148
0.0
149
0.0
100
AcDbLayout
  1
Layout2
 70
     1
 71
     2
 10
0.0
 20
0.0
 11
0.0
 21
0.0
 12
0.0
 22
0.0
 32
0.0
 14
0.0
 24
0.0
 34
0.0
 15
0.0
 25
0.0
 35
0.0
146
0.0
 13
0.0
 23
0.0
 33
0.0
 16
1.0
 26
0.0
 36
0.0
 17
0.0
 27
1.0
 37
0.0
 76
     0
330
23
  0
LAYOUT
  5
22
102
{ACAD_REACTORS
330
1A
102
}
330
1A
100
AcDbPlotSettings
  1

  2
none_device
  4
Letter_(8.50_x_11.00_Inches)
  6

 40
6.35
 41
6.35
 42
6.35000508
 43
6.35000508
 44
215.9
 45
279.4
 46
0.0
 47
0.0
 48
0.0
 49
0.0
140
0.0
141
0.0
142
1.0
143
1.0
 70
  1712
 72
     1
 73
     0
 74
     0
  7

 75
     0
 76
     0
 77
     2
 78
   300
147
1.0
148
0.0
149
0.0
100
AcDbLayout
  1
Model
 70
     1
 71
     0
 10
0.0
 20
0.0
 11
420.0
 21
297.0
 12
0.0
 22
0.0
 32
0.0
 14
1.000000000000000E+20
 24
1.000000000000000E+20
 34
1.000000000000000E+20
 15
-1.000000000000000E+20
 25
-1.000000000000000E+20
 35
-1.000000000000000E+20
146
0.0
 13
0.0
 23
0.0
 33
0.0
 16
1.0
 26
0.0
 36
0.0
 17
0.0
 27
1.0
 37
0.0
 76
     0
330
1F
331
29
  0
MATERIAL
  5
45
102
{ACAD_REACTORS
330
43
102
}
330
43
100
AcDbMaterial
  1
ByBlock
 72
     1
 94
      127
  0
MATERIAL
  5
44
102
{ACAD_REACTORS
330
43
102
}
330
43
100
AcDbMaterial
  1
ByLayer
 72
     1
 94
      127
  0
MATERIAL
  5
46
102
{ACAD_REACTORS
330
43
102
}
330
43
100
AcDbMaterial
  1
Global
 72
     1
 94
      127
  0
MLEADERSTYLE
  5
6C
102
{ACAD_REACTORS
330
6B
102
}
330
6B
100
AcDbMLeaderStyle
179
     2
170
     2
171
     1
172
     0
 90
        2
 40
0.0
 41
0.0
173
     1
 91
-1056964608
340
14
 92
       -2
290
     1
 42
2.0
291
     1
 43
8.0
  3
Standard
341
0
 44
4.0
300

342
11
174
     1
178
     6
175
     1
176
     0
 93
-1056964608
 45
4.0
292
     0
297
     0
 46
4.0
343
0
 94
-1056964608
 47
1.0
 49
1.0
140
1.0
293
     1
141
0.0
294
     1
177
     0
142
1.0
295
     0
296
     0
143
3.75
271
     0
272
     9
273
     9
298
     0
  0
MLINESTYLE
  5
18
102
{ACAD_REACTORS
330
17
102
}
330
17
100
AcDbMlineStyle
  2
Standard
 70
     0
  3

 62
   256
 51
90.0
 52
90.0
 71
     2
 49
0.5
 62
   256
  6
BYLAYER
 49
-0.5
 62
   256
  6
BYLAYER
  0
ACDBPLACEHOLDER
  5
F
102
{ACAD_REACTORS
330
E
102
}
330
E
  0
SCALE
  5
48
102
{ACAD_REACTORS
330
47
102
}
330
47
100
AcDbScale
 70
     0
300
1:1
140
1.0
141
1.0
290
     1
  0
SCALE
  5
49
102
{ACAD_REACTORS
330
47
102
}
330
47
100
AcDbScale
 70
     0
300
1:2
140
1.0
141
2.0
290
     0
  0
SCALE
  5
4A
102
{ACAD_REACTORS
330
47
102
}
330
47
100
AcDbScale
 70
     0
300
1:4
140
1.0
141
4.0
290
     0
  0
SCALE
  5
4B
102
{ACAD_REACTORS
330
47
102
}
330
47
100
AcDbScale
 70
     0
300
1:5
140
1.0
141
5.0
290
     0
  0
SCALE
  5
4C
102
{ACAD_REACTORS
330
47
102
}
330
47
100
AcDbScale
 70
     0
300
1:8
140
1.0
141
8.0
290
     0
  0
SCALE
  5
4D
102
{ACAD_REACTORS
330
47
102
}
330
47
100
AcDbScale
 70
     0
300
1:10
140
1.0
141
10.0
290
     0
  0
SCALE
  5
4E
102
{ACAD_REACTORS
330
47
102
}
330
47
100
AcDbScale
 70
     0
300
1:16
140
1.0
141
16.0
290
     0
  0
SCALE
  5
4F
102
{ACAD_REACTORS
330
47
102
}
330
47
100
AcDbScale
 70
     0
300
1:20
140
1.0
141
20.0
290
     0
  0
SCALE
  5
50
102
{ACAD_REACTORS
330
47
102
}
330
47
100
AcDbScale
 70
     0
300
1:30
140
1.0
141
30.0
290
     0
  0
SCALE
  5
51
102
{ACAD_REACTORS
330
47
102
}
330
47
100
AcDbScale
 70
     0
300
1:40
140
1.0
141
40.0
290
     0
  0
SCALE
  5
52
102
{ACAD_REACTORS
330
47
102
}
330
47
100
AcDbScale
 70
     0
300
1:50
140
1.0
141
50.0
290
     0
  0
SCALE
  5
53
102
{ACAD_REACTORS
330
47
102
}
330
47
100
AcDbScale
 70
     0
300
1:100
140
1.0
141
100.0
290
     0
  0
SCALE
  5
54
102
{ACAD_REACTORS
330
47
102
}
330
47
100
AcDbScale
 70
     0
300
2:1
140
2.0
141
1.0
290
     0
  0
SCALE
  5
55
102
{ACAD_REACTORS
330
47
102
}
330
47
100
AcDbScale
 70
     0
300
4:1
140
4.0
141
1.0
290
     0
  0
SCALE
  5
56
102
{ACAD_REACTORS
330
47
102
}
330
47
100
AcDbScale
 70
     0
300
8:1
140
8.0
141
1.0
290
     0
  0
SCALE
  5
57
102
{ACAD_REACTORS
330
47
102
}
330
47
100
AcDbScale
 70
     0
300
10:1
140
10.0
141
1.0
290
     0
  0
SCALE
  5
58
102
{ACAD_REACTORS
330
47
102
}
330
47
100
AcDbScale
 70
     0
300
100:1
140
100.0
141
1.0
290
     0
  0
SCALE
  5
59
102
{ACAD_REACTORS
330
47
102
}
330
47
100
AcDbScale
 70
     0
300
1/128" = 1'-0"
140
0.0078125
141
12.0
290
     0
  0
SCALE
  5
5A
102
{ACAD_REACTORS
330
47
102
}
330
47
100
AcDbScale
 70
     0
300
1/64" = 1'-0"
140
0.015625
141
12.0
290
     0
  0
SCALE
  5
5B
102
{ACAD_REACTORS
330
47
102
}
330
47
100
AcDbScale
 70
     0
300
1/32" = 1'-0"
140
0.03125
141
12.0
290
     0
  0
SCALE
  5
5C
102
{ACAD_REACTORS
330
47
102
}
330
47
100
AcDbScale
 70
     0
300
1/16" = 1'-0"
140
0.0625
141
12.0
290
     0
  0
SCALE
  5
5D
102
{ACAD_REACTORS
330
47
102
}
330
47
100
AcDbScale
 70
     0
300
3/32" = 1'-0"
140
0.09375
141
12.0
290
     0
  0
SCALE
  5
5E
102
{ACAD_REACTORS
330
47
102
}
330
47
100
AcDbScale
 70
     0
300
1/8" = 1'-0"
140
0.125
141
12.0
290
     0
  0
SCALE
  5
5F
102
{ACAD_REACTORS
330
47
102
}
330
47
100
AcDbScale
 70
     0
300
3/16" = 1'-0"
140
0.1875
141
12.0
290
     0
  0
SCALE
  5
60
102
{ACAD_REACTORS
330
47
102
}
330
47
100
AcDbScale
 70
     0
300
1/4" = 1'-0"
140
0.25
141
12.0
290
     0
  0
SCALE
  5
61
102
{ACAD_REACTORS
330
47
102
}
330
47
100
AcDbScale
 70
     0
300
3/8" = 1'-0"
140
0.375
141
12.0
290
     0
  0
SCALE
  5
62
102
{ACAD_REACTORS
330
47
102
}
330
47
100
AcDbScale
 70
     0
300
1/2" = 1'-0"
140
0.5
141
12.0
290
     0
  0
SCALE
  5
63
102
{ACAD_REACTORS
330
47
102
}
330
47
100
AcDbScale
 70
     0
300
3/4" = 1'-0"
140
0.75
141
12.0
290
     0
  0
SCALE
  5
64
102
{ACAD_REACTORS
330
47
102
}
330
47
100
AcDbScale
 70
     0
300
1" = 1'-0"
140
1.0
141
12.0
290
     0
  0
SCALE
  5
65
102
{ACAD_REACTORS
330
47
102
}
330
47
100
AcDbScale
 70
     0
300
1-1/2" = 1'-0"
140
1.5
141
12.0
290
     0
  0
SCALE
  5
66
102
{ACAD_REACTORS
330
47
102
}
330
47
100
AcDbScale
 70
     0
300
3" = 1'-0"
140
3.0
141
12.0
290
     0
  0
SCALE
  5
67
102
{ACAD_REACTORS
330
47
102
}
330
47
100
AcDbScale
 70
     0
300
6" = 1'-0"
140
6.0
141
12.0
290
     0
  0
SCALE
  5
68
102
{ACAD_REACTORS
330
47
102
}
330
47
100
AcDbScale
 70
     0
300
1'-0" = 1'-0"
140
12.0
141
12.0
290
     0
  0
TABLESTYLE
  5
6A
102
{ACAD_REACTORS
330
69
102
}
102
{ACAD_XDICTIONARY
360
1C9
102
}
330
69
100
AcDbTableStyle
  3
Standard
 70
     0
 71
     0
 40
0.06
 41
0.06
280
     0
281
     0
  7
Standard
140
4.5
170
     2
 62
     0
 63
   257
283
     0
 90
        4
 91
        0
  1

274
    -2
284
     1
 64
     0
275
    -2
285
     1
 65
     0
276
    -2
286
     1
 66
     0
277
    -2
287
     1
 67
     0
278
    -2
288
     1
 68
     0
279
    -2
289
     1
 69
     0
  7
Standard
140
6.0
170
     5
 62
     0
 63
   257
283
     0
 90
        4
 91
        0
  1

274
    -2
284
     1
 64
     0
275
    -2
285
     1
 65
     0
276
    -2
286
     1
 66
     0
277
    -2
287
     1
 67
     0
278
    -2
288
     1
 68
     0
279
    -2
289
     1
 69
     0
  7
Standard
140
4.5
170
     5
 62
     0
 63
   257
283
     0
 90
        4
 91
        0
  1

274
    -2
284
     1
 64
     0
275
    -2
285
     1
 65
     0
276
    -2
286
     1
 66
     0
277
    -2
287
     1
 67
     0
278
    -2
288
     1
 68
     0
279
    -2
289
     1
 69
     0
  0
VISUALSTYLE
  5
2F
102
{ACAD_REACTORS
330
2A
102
}
330
2A
100
AcDbVisualStyle
  2
2dWireframe
 70
     4
177
     3
291
     0
 70
    58
 90
        0
176
     1
 90
        2
176
     1
 90
        0
176
     1
 90
        0
176
     1
 40
0.6
176
     1
 40
30.0
176
     1
 62
     7
420
 16777215
176
     1
 90
        1
176
     1
 90
        4
176
     1
 62
     7
176
     1
 62
   257
176
     1
 90
        1
176
     1
 90
        1
176
     1
 40
1.0
176
     1
 90
        0
176
     1
 62
   257
176
     1
 40
1.0
176
     1
 90
        1
176
     1
 90
        6
176
     1
 90
        2
176
     1
 62
     7
176
     1
 90
        5
176
     1
 90
        0
176
     1
 90
        0
176
     1
290
     0
176
     1
 90
        1
176
     1
 40
0.0
176
     1
 90
        0
176
     1
290
     1
176
     1
290
     1
176
     1
290
     0
176
     1
290
     0
176
     1
290
     0
176
     1
290
     0
176
     1
290
     0
176
     1
290
     0
176
     1
290
     0
176
     1
 90
       50
176
     1
 40
0.0
176
     1
 40
1.0
176
     1
 90
        0
176
     1
 62
    18
420
        0
176
     1
 90
       50
176
     1
 90
        3
176
     1
 62
     5
420
      255
176
     1
290
     0
176
     1
 90
       50
176
     1
 90
       50
176
     1
 90
       50
176
     1
290
     0
176
     1
 90
       50
176
     1
 62
   256
176
     0
 40
1.0
176
     0
 90
        2
176
     1
  1
strokes_ogs.tif
176
     1
290
     0
176
     1
 40
1.0
176
     1
 40
1.0
176
     1
  0
VISUALSTYLE
  5
32
102
{ACAD_REACTORS
330
2A
102
}
330
2A
100
AcDbVisualStyle
  2
Basic
 70
     7
177
     3
291
     1
 70
    58
 90
        1
176
     1
 90
        0
176
     1
 90
        1
176
     1
 90
        0
176
     1
 40
0.6
176
     1
 40
30.0
176
     1
 62
     7
420
 16777215
176
     1
 90
        0
176
     1
 90
        4
176
     1
 62
     7
176
     1
 62
   257
176
     1
 90
        1
176
     1
 90
        1
176
     1
 40
1.0
176
     1
 90
        8
176
     1
 62
     7
176
     1
 40
1.0
176
     1
 90
        1
176
     1
 90
        6
176
     1
 90
        2
176
     1
 62
     7
176
     1
 90
        5
176
     1
 90
        0
176
     1
 90
        0
176
     1
290
     0
176
     1
 90
        1
176
     1
 40
0.0
176
     1
 90
        0
176
     1
290
     0
176
     1
290
     1
176
     1
290
     1
176
     1
290
     0
176
     1
290
     0
176
     1
290
     0
176
     1
290
     0
176
     1
290
     0
176
     1
290
     0
176
     1
 90
       50
176
     1
 40
0.0
176
     1
 40
1.0
176
     1
 90
        0
176
     1
 62
    18
420
        0
176
     1
 90
       50
176
     1
 90
        3
176
     1
 62
     5
420
      255
176
     1
290
     0
176
     1
 90
       50
176
     1
 90
       50
176
     1
 90
       50
176
     1
290
     0
176
     1
 90
       50
176
     1
 62
   256
176
     0
 40
1.0
176
     0
 90
        2
176
     1
  1
strokes_ogs.tif
176
     1
290
     0
176
     1
 40
1.0
176
     1
 40
1.0
176
     1
  0
VISUALSTYLE
  5
36
102
{ACAD_REACTORS
330
2A
102
}
330
2A
100
AcDbVisualStyle
  2
Brighten
 70
    12
177
     3
291
     1
 70
    58
 90
        2
176
     1
 90
        2
176
     1
 90
        0
176
     1
 90
        0
176
     1
 40
0.6
176
     1
 40
30.0
176
     1
 62
     7
420
 16777215
176
     1
 90
        1
176
     1
 90
        4
176
     1
 62
     7
176
     1
 62
   257
176
     1
 90
        1
176
     1
 90
        1
176
     1
 40
1.0
176
     1
 90
        8
176
     1
 62
     7
176
     1
 40
1.0
176
     1
 90
        1
176
     1
 90
        6
176
     1
 90
        2
176
     1
 62
     7
176
     1
 90
        5
176
     1
 90
        0
176
     1
 90
        0
176
     1
290
     0
176
     1
 90
        1
176
     1
 40
50.0
176
     1
 90
        0
176
     1
290
     0
176
     1
290
     1
176
     1
290
     1
176
     1
290
     0
176
     1
290
     0
176
     1
290
     0
176
     1
290
     0
176
     1
290
     0
176
     1
290
     0
176
     1
 90
       50
176
     1
 40
0.0
176
     1
 40
1.0
176
     1
 90
        0
176
     1
 62
    18
420
        0
176
     1
 90
       50
176
     1
 90
        3
176
     1
 62
     5
420
      255
176
     1
290
     0
176
     1
 90
       50
176
     1
 90
       50
176
     1
 90
       50
176
     1
290
     0
176
     1
 90
       50
176
     1
 62
   256
176
     0
 40
1.0
176
     0
 90
        2
176
     1
  1
strokes_ogs.tif
176
     1
290
     0
176
     1
 40
1.0
176
     1
 40
1.0
176
     1
  0
VISUALSTYLE
  5
3A
102
{ACAD_REACTORS
330
2A
102
}
330
2A
100
AcDbVisualStyle
  2
ColorChange
 70
    16
177
     3
291
     1
 70
    58
 90
        2
176
     1
 90
        2
176
     1
 90
        3
176
     1
 90
        0
176
     1
 40
0.6
176
     1
 40
30.0
176
     1
 62
     8
420
  8421504
176
     1
 90
        1
176
     1
 90
        4
176
     1
 62
     7
176
     1
 62
   257
176
     1
 90
        1
176
     1
 90
        1
176
     1
 40
1.0
176
     1
 90
        8
176
     1
 62
     8
420
  8421504
176
     1
 40
1.0
176
     1
 90
        1
176
     1
 90
        6
176
     1
 90
        2
176
     1
 62
     7
176
     1
 90
        5
176
     1
 90
        0
176
     1
 90
        0
176
     1
290
     0
176
     1
 90
        1
176
     1
 40
0.0
176
     1
 90
        0
176
     1
290
     0
176
     1
290
     1
176
     1
290
     1
176
     1
290
     0
176
     1
290
     0
176
     1
290
     0
176
     1
290
     0
176
     1
290
     0
176
     1
290
     0
176
     1
 90
       50
176
     1
 40
0.0
176
     1
 40
1.0
176
     1
 90
        0
176
     1
 62
    18
420
        0
176
     1
 90
       50
176
     1
 90
        3
176
     1
 62
     5
420
      255
176
     1
290
     0
176
     1
 90
       50
176
     1
 90
       50
176
     1
 90
       50
176
     1
290
     0
176
     1
 90
       50
176
     1
 62
   256
176
     0
 40
1.0
176
     0
 90
        2
176
     1
  1
strokes_ogs.tif
176
     1
290
     0
176
     1
 40
1.0
176
     1
 40
1.0
176
     1
  0
VISUALSTYLE
  5
34
102
{ACAD_REACTORS
330
2A
102
}
330
2A
100
AcDbVisualStyle
  2
Conceptual
 70
     9
177
     3
291
     0
 70
    58
 90
        3
176
     1
 90
        2
176
     1
 90
        0
176
     1
 90
        0
176
     1
 40
0.6
176
     1
 40
30.0
176
     1
 62
     7
420
 16777215
176
     1
 90
        2
176
     1
 90
        2
176
     1
 62
     7
176
     1
 62
   257
176
     1
 90
        1
176
     1
 90
        1
176
     1
 40
179.0
176
     1
 90
        8
176
     1
 62
     7
176
     1
 40
1.0
176
     1
 90
        1
176
     1
 90
        6
176
     1
 90
        2
176
     1
 62
     7
176
     1
 90
        3
176
     1
 90
        0
176
     1
 90
        0
176
     1
290
     0
176
     1
 90
        1
176
     1
 40
0.0
176
     1
 90
        0
176
     1
290
     0
176
     1
290
     1
176
     1
290
     1
176
     1
290
     0
176
     1
290
     0
176
     1
290
     0
176
     1
290
     0
176
     1
290
     0
176
     1
290
     0
176
     1
 90
       50
176
     1
 40
0.0
176
     1
 40
1.0
176
     1
 90
        0
176
     1
 62
    18
420
        0
176
     1
 90
       50
176
     1
 90
        3
176
     1
 62
     5
420
      255
176
     1
290
     0
176
     1
 90
       50
176
     1
 90
       50
176
     1
 90
       50
176
     1
290
     0
176
     1
 90
       50
176
     1
 62
   256
176
     0
 40
1.0
176
     0
 90
        2
176
     1
  1
strokes_ogs.tif
176
     1
290
     0
176
     1
 40
1.0
176
     1
 40
1.0
176
     1
  0
VISUALSTYLE
  5
35
102
{ACAD_REACTORS
330
2A
102
}
330
2A
100
AcDbVisualStyle
  2
Dim
 70
    11
177
     3
291
     1
 70
    58
 90
        2
176
     1
 90
        2
176
     1
 90
        0
176
     1
 90
        0
176
     1
 40
0.6
176
     1
 40
30.0
176
     1
 62
     7
420
 16777215
176
     1
 90
        1
176
     1
 90
        4
176
     1
 62
     7
176
     1
 62
   257
176
     1
 90
        1
176
     1
 90
        1
176
     1
 40
1.0
176
     1
 90
        8
176
     1
 62
     7
176
     1
 40
1.0
176
     1
 90
        1
176
     1
 90
        6
176
     1
 90
        2
176
     1
 62
     7
176
     1
 90
        5
176
     1
 90
        0
176
     1
 90
        0
176
     1
290
     0
176
     1
 90
        1
176
     1
 40
-50.0
176
     1
 90
        0
176
     1
290
     0
176
     1
290
     1
176
     1
290
     1
176
     1
290
     0
176
     1
290
     0
176
     1
290
     0
176
     1
290
     0
176
     1
290
     0
176
     1
290
     0
176
     1
 90
       50
176
     1
 40
0.0
176
     1
 40
1.0
176
     1
 90
        0
176
     1
 62
    18
420
        0
176
     1
 90
       50
176
     1
 90
        3
176
     1
 62
     5
420
      255
176
     1
290
     0
176
     1
 90
       50
176
     1
 90
       50
176
     1
 90
       50
176
     1
290
     0
176
     1
 90
       50
176
     1
 62
   256
176
     0
 40
1.0
176
     0
 90
        2
176
     1
  1
strokes_ogs.tif
176
     1
290
     0
176
     1
 40
1.0
176
     1
 40
1.0
176
     1
  0
VISUALSTYLE
  5
3D
102
{ACAD_REACTORS
330
2A
102
}
330
2A
100
AcDbVisualStyle
  2
EdgeColorOff
 70
    22
177
     3
291
     1
 70
    58
 90
        2
176
     0
 90
        2
176
     0
 90
        0
176
     0
 90
        0
176
     0
 40
0.6
176
     0
 40
30.0
176
     0
 62
     7
420
 16777215
176
     0
 90
        1
176
     0
 90
        4
176
     0
 62
     7
176
     0
 62
   257
176
     0
 90
        1
176
     0
 90
        1
176
     0
 40
1.0
176
     0
 90
        8
176
     2
 62
     7
176
     0
 40
1.0
176
     0
 90
        1
176
     0
 90
        6
176
     0
 90
        2
176
     0
 62
     7
176
     0
 90
        5
176
     0
 90
        0
176
     0
 90
        0
176
     0
290
     0
176
     0
 90
        1
176
     0
 40
0.0
176
     0
 90
        0
176
     0
290
     0
176
     0
290
     1
176
     0
290
     1
176
     0
290
     0
176
     0
290
     0
176
     0
290
     0
176
     0
290
     0
176
     0
290
     0
176
     0
290
     0
176
     0
 90
       50
176
     0
 40
0.0
176
     0
 40
1.0
176
     0
 90
        0
176
     0
 62
    18
420
        0
176
     0
 90
       50
176
     0
 90
        3
176
     0
 62
     5
420
      255
176
     0
290
     0
176
     0
 90
       50
176
     0
 90
       50
176
     0
 90
       50
176
     0
290
     0
176
     0
 90
       50
176
     0
 62
   256
176
     0
 40
1.0
176
     0
 90
        2
176
     0
  1
strokes_ogs.tif
176
     0
290
     0
176
     0
 40
1.0
176
     0
 40
1.0
176
     0
  0
VISUALSTYLE
  5
39
102
{ACAD_REACTORS
330
2A
102
}
330
2A
100
AcDbVisualStyle
  2
Facepattern
 70
    15
177
     3
291
     1
 70
    58
 90
        2
176
     1
 90
        2
176
     1
 90
        0
176
     1
 90
        0
176
     1
 40
0.6
176
     1
 40
30.0
176
     1
 62
     7
420
 16777215
176
     1
 90
        1
176
     1
 90
        4
176
     1
 62
     7
176
     1
 62
   257
176
     1
 90
        1
176
     1
 90
        1
176
     1
 40
1.0
176
     1
 90
        8
176
     1
 62
     7
176
     1
 40
1.0
176
     1
 90
        1
176
     1
 90
        6
176
     1
 90
        2
176
     1
 62
     7
176
     1
 90
        5
176
     1
 90
        0
176
     1
 90
        0
176
     1
290
     0
176
     1
 90
        1
176
     1
 40
0.0
176
     1
 90
        0
176
     1
290
     0
176
     1
290
     1
176
     1
290
     1
176
     1
290
     0
176
     1
290
     0
176
     1
290
     0
176
     1
290
     0
176
     1
290
     0
176
     1
290
     0
176
     1
 90
       50
176
     1
 40
0.0
176
     1
 40
1.0
176
     1
 90
        0
176
     1
 62
    18
420
        0
176
     1
 90
       50
176
     1
 90
        3
176
     1
 62
     5
420
      255
176
     1
290
     0
176
     1
 90
       50
176
     1
 90
       50
176
     1
 90
       50
176
     1
290
     0
176
     1
 90
       50
176
     1
 62
   256
176
     0
 40
1.0
176
     0
 90
        2
176
     1
  1
strokes_ogs.tif
176
     1
290
     0
176
     1
 40
1.0
176
     1
 40
1.0
176
     1
  0
VISUALSTYLE
  5
2B
102
{ACAD_REACTORS
330
2A
102
}
330
2A
100
AcDbVisualStyle
  2
Flat
 70
     0
177
     3
291
     1
 70
    58
 90
        2
176
     1
 90
        1
176
     1
 90
        1
176
     1
 90
        2
176
     1
 40
0.6
176
     1
 40
30.0
176
     1
 62
     7
420
 16777215
176
     1
 90
        0
176
     1
 90
        0
176
     1
 62
     7
176
     1
 62
   257
176
     1
 90
        1
176
     1
 90
        1
176
     1
 40
1.0
176
     1
 90
        8
176
     1
 62
     7
176
     1
 40
1.0
176
     1
 90
        1
176
     1
 90
        6
176
     1
 90
        2
176
     1
 62
     7
176
     1
 90
        5
176
     1
 90
        0
176
     1
 90
        0
176
     1
290
     0
176
     1
 90
       13
176
     1
 40
0.0
176
     1
 90
        0
176
     1
290
     0
176
     1
290
     1
176
     1
290
     1
176
     1
290
     0
176
     1
290
     0
176
     1
290
     0
176
     1
290
     0
176
     1
290
     0
176
     1
290
     0
176
     1
 90
       50
176
     1
 40
0.0
176
     1
 40
1.0
176
     1
 90
        0
176
     1
 62
    18
420
        0
176
     1
 90
       50
176
     1
 90
        3
176
     1
 62
     5
420
      255
176
     1
290
     0
176
     1
 90
       50
176
     1
 90
       50
176
     1
 90
       50
176
     1
290
     0
176
     1
 90
       50
176
     1
 62
   256
176
     0
 40
1.0
176
     0
 90
        2
176
     1
  1
strokes_ogs.tif
176
     1
290
     0
176
     1
 40
1.0
176
     1
 40
1.0
176
     1
  0
VISUALSTYLE
  5
2C
102
{ACAD_REACTORS
330
2A
102
}
330
2A
100
AcDbVisualStyle
  2
FlatWithEdges
 70
     1
177
     3
291
     1
 70
    58
 90
        2
176
     1
 90
        1
176
     1
 90
        1
176
     1
 90
        2
176
     1
 40
0.6
176
     1
 40
30.0
176
     1
 62
     7
420
 16777215
176
     1
 90
        1
176
     1
 90
        0
176
     1
 62
     7
176
     1
 62
   257
176
     1
 90
        1
176
     1
 90
        1
176
     1
 40
1.0
176
     1
 90
        0
176
     1
 62
   257
176
     1
 40
1.0
176
     1
 90
        1
176
     1
 90
        6
176
     1
 90
        2
176
     1
 62
     7
176
     1
 90
        5
176
     1
 90
        0
176
     1
 90
        0
176
     1
290
     0
176
     1
 90
       13
176
     1
 40
0.0
176
     1
 90
        0
176
     1
290
     0
176
     1
290
     1
176
     1
290
     1
176
     1
290
     0
176
     1
290
     0
176
     1
290
     0
176
     1
290
     0
176
     1
290
     0
176
     1
290
     0
176
     1
 90
       50
176
     1
 40
0.0
176
     1
 40
1.0
176
     1
 90
        0
176
     1
 62
    18
420
        0
176
     1
 90
       50
176
     1
 90
        3
176
     1
 62
     5
420
      255
176
     1
290
     0
176
     1
 90
       50
176
     1
 90
       50
176
     1
 90
       50
176
     1
290
     0
176
     1
 90
       50
176
     1
 62
   256
176
     0
 40
1.0
176
     0
 90
        2
176
     1
  1
strokes_ogs.tif
176
     1
290
     0
176
     1
 40
1.0
176
     1
 40
1.0
176
     1
  0
VISUALSTYLE
  5
2D
102
{ACAD_REACTORS
330
2A
102
}
330
2A
100
AcDbVisualStyle
  2
Gouraud
 70
     2
177
     3
291
     1
 70
    58
 90
        2
176
     1
 90
        2
176
     1
 90
        1
176
     1
 90
        2
176
     1
 40
0.6
176
     1
 40
30.0
176
     1
 62
     7
420
 16777215
176
     1
 90
        0
176
     1
 90
        0
176
     1
 62
     7
176
     1
 62
   257
176
     1
 90
        1
176
     1
 90
        1
176
     1
 40
1.0
176
     1
 90
        0
176
     1
 62
     7
176
     1
 40
1.0
176
     1
 90
        1
176
     1
 90
        6
176
     1
 90
        2
176
     1
 62
     7
176
     1
 90
        5
176
     1
 90
        0
176
     1
 90
        0
176
     1
290
     0
176
     1
 90
       13
176
     1
 40
0.0
176
     1
 90
        0
176
     1
290
     0
176
     1
290
     1
176
     1
290
     1
176
     1
290
     0
176
     1
290
     0
176
     1
290
     0
176
     1
290
     0
176
     1
290
     0
176
     1
290
     0
176
     1
 90
       50
176
     1
 40
0.0
176
     1
 40
1.0
176
     1
 90
        0
176
     1
 62
    18
420
        0
176
     1
 90
       50
176
     1
 90
        3
176
     1
 62
     5
420
      255
176
     1
290
     0
176
     1
 90
       50
176
     1
 90
       50
176
     1
 90
       50
176
     1
290
     0
176
     1
 90
       50
176
     1
 62
   256
176
     0
 40
1.0
176
     0
 90
        2
176
     1
  1
strokes_ogs.tif
176
     1
290
     0
176
     1
 40
1.0
176
     1
 40
1.0
176
     1
  0
VISUALSTYLE
  5
2E
102
{ACAD_REACTORS
330
2A
102
}
330
2A
100
AcDbVisualStyle
  2
GouraudWithEdges
 70
     3
177
     3
291
     1
 70
    58
 90
        2
176
     1
 90
        2
176
     1
 90
        1
176
     1
 90
        2
176
     1
 40
0.6
176
     1
 40
30.0
176
     1
 62
     7
420
 16777215
176
     1
 90
        1
176
     1
 90
        0
176
     1
 62
     7
176
     1
 62
   257
176
     1
 90
        1
176
     1
 90
        1
176
     1
 40
1.0
176
     1
 90
        0
176
     1
 62
   257
176
     1
 40
1.0
176
     1
 90
        1
176
     1
 90
        6
176
     1
 90
        2
176
     1
 62
     7
176
     1
 90
        5
176
     1
 90
        0
176
     1
 90
        0
176
     1
290
     0
176
     1
 90
       13
176
     1
 40
0.0
176
     1
 90
        0
176
     1
290
     0
176
     1
290
     1
176
     1
290
     1
176
     1
290
     0
176
     1
290
     0
176
     1
290
     0
176
     1
290
     0
176
     1
290
     0
176
     1
290
     0
176
     1
 90
       50
176
     1
 40
0.0
176
     1
 40
1.0
176
     1
 90
        0
176
     1
 62
    18
420
        0
176
     1
 90
       50
176
     1
 90
        3
176
     1
 62
     5
420
      255
176
     1
290
     0
176
     1
 90
       50
176
     1
 90
       50
176
     1
 90
       50
176
     1
290
     0
176
     1
 90
       50
176
     1
 62
   256
176
     0
 40
1.0
176
     0
 90
        2
176
     1
  1
strokes_ogs.tif
176
     1
290
     0
176
     1
 40
1.0
176
     1
 40
1.0
176
     1
  0
VISUALSTYLE
  5
31
102
{ACAD_REACTORS
330
2A
102
}
330
2A
100
AcDbVisualStyle
  2
Hidden
 70
     6
177
     3
291
     0
 70
    58
 90
        1
176
     1
 90
        2
176
     1
 90
        2
176
     1
 90
        0
176
     1
 40
0.6
176
     1
 40
30.0
176
     1
 62
     7
420
 16777215
176
     1
 90
        2
176
     1
 90
        2
176
     1
 62
     7
176
     1
 62
   257
176
     1
 90
        2
176
     1
 90
        1
176
     1
 40
40.0
176
     1
 90
        0
176
     1
 62
   257
176
     1
 40
1.0
176
     1
 90
        1
176
     1
 90
        6
176
     1
 90
        2
176
     1
 62
     7
176
     1
 90
        3
176
     1
 90
        0
176
     1
 90
        0
176
     1
290
     0
176
     1
 90
        1
176
     1
 40
0.0
176
     1
 90
        0
176
     1
290
     0
176
     1
290
     1
176
     1
290
     1
176
     1
290
     0
176
     1
290
     0
176
     1
290
     0
176
     1
290
     0
176
     1
290
     0
176
     1
290
     0
176
     1
 90
       50
176
     1
 40
0.0
176
     1
 40
1.0
176
     1
 90
        0
176
     1
 62
    18
420
        0
176
     1
 90
       50
176
     1
 90
        3
176
     1
 62
     5
420
      255
176
     1
290
     0
176
     1
 90
       50
176
     1
 90
       50
176
     1
 90
       50
176
     1
290
     0
176
     1
 90
       50
176
     1
 62
   256
176
     0
 40
1.0
176
     0
 90
        2
176
     1
  1
strokes_ogs.tif
176
     1
290
     0
176
     1
 40
1.0
176
     1
 40
1.0
176
     1
  0
VISUALSTYLE
  5
3B
102
{ACAD_REACTORS
330
2A
102
}
330
2A
100
AcDbVisualStyle
  2
JitterOff
 70
    20
177
     3
291
     1
 70
    58
 90
        2
176
     0
 90
        2
176
     0
 90
        0
176
     0
 90
        0
176
     0
 40
0.6
176
     0
 40
30.0
176
     0
 62
     7
420
 16777215
176
     0
 90
        1
176
     0
 90
        4
176
     0
 62
     7
176
     0
 62
   257
176
     0
 90
        1
176
     0
 90
        1
176
     0
 40
1.0
176
     0
 90
       10
176
     2
 62
     7
176
     0
 40
1.0
176
     0
 90
        1
176
     0
 90
        6
176
     0
 90
        2
176
     0
 62
     7
176
     0
 90
        5
176
     0
 90
        0
176
     0
 90
        0
176
     0
290
     0
176
     0
 90
        1
176
     0
 40
0.0
176
     0
 90
        0
176
     0
290
     0
176
     0
290
     1
176
     0
290
     1
176
     0
290
     0
176
     0
290
     0
176
     0
290
     0
176
     0
290
     0
176
     0
290
     0
176
     0
290
     0
176
     0
 90
       50
176
     0
 40
0.0
176
     0
 40
1.0
176
     0
 90
        0
176
     0
 62
    18
420
        0
176
     0
 90
       50
176
     0
 90
        3
176
     0
 62
     5
420
      255
176
     0
290
     0
176
     0
 90
       50
176
     0
 90
       50
176
     0
 90
       50
176
     0
290
     0
176
     0
 90
       50
176
     0
 62
   256
176
     0
 40
1.0
176
     0
 90
        2
176
     0
  1
strokes_ogs.tif
176
     0
290
     0
176
     0
 40
1.0
176
     0
 40
1.0
176
     0
  0
VISUALSTYLE
  5
38
102
{ACAD_REACTORS
330
2A
102
}
330
2A
100
AcDbVisualStyle
  2
Linepattern
 70
    14
177
     3
291
     1
 70
    58
 90
        2
176
     1
 90
        2
176
     1
 90
        0
176
     1
 90
        0
176
     1
 40
0.6
176
     1
 40
30.0
176
     1
 62
     7
420
 16777215
176
     1
 90
        1
176
     1
 90
        4
176
     1
 62
     7
176
     1
 62
   257
176
     1
 90
        7
176
     1
 90
        7
176
     1
 40
1.0
176
     1
 90
        8
176
     1
 62
     7
176
     1
 40
1.0
176
     1
 90
        1
176
     1
 90
        6
176
     1
 90
        2
176
     1
 62
     7
176
     1
 90
        5
176
     1
 90
        0
176
     1
 90
        0
176
     1
290
     0
176
     1
 90
        1
176
     1
 40
0.0
176
     1
 90
        0
176
     1
290
     0
176
     1
290
     1
176
     1
290
     1
176
     1
290
     0
176
     1
290
     0
176
     1
290
     0
176
     1
290
     0
176
     1
290
     0
176
     1
290
     0
176
     1
 90
       50
176
     1
 40
0.0
176
     1
 40
1.0
176
     1
 90
        0
176
     1
 62
    18
420
        0
176
     1
 90
       50
176
     1
 90
        3
176
     1
 62
     5
420
      255
176
     1
290
     0
176
     1
 90
       50
176
     1
 90
       50
176
     1
 90
       50
176
     1
290
     0
176
     1
 90
       50
176
     1
 62
   256
176
     0
 40
1.0
176
     0
 90
        2
176
     1
  1
strokes_ogs.tif
176
     1
290
     0
176
     1
 40
1.0
176
     1
 40
1.0
176
     1
  0
VISUALSTYLE
  5
3C
102
{ACAD_REACTORS
330
2A
102
}
330
2A
100
AcDbVisualStyle
  2
OverhangOff
 70
    21
177
     3
291
     1
 70
    58
 90
        2
176
     0
 90
        2
176
     0
 90
        0
176
     0
 90
        0
176
     0
 40
0.6
176
     0
 40
30.0
176
     0
 62
     7
420
 16777215
176
     0
 90
        1
176
     0
 90
        4
176
     0
 62
     7
176
     0
 62
   257
176
     0
 90
        1
176
     0
 90
        1
176
     0
 40
1.0
176
     0
 90
        9
176
     2
 62
     7
176
     0
 40
1.0
176
     0
 90
        1
176
     0
 90
        6
176
     0
 90
        2
176
     0
 62
     7
176
     0
 90
        5
176
     0
 90
        0
176
     0
 90
        0
176
     0
290
     0
176
     0
 90
        1
176
     0
 40
0.0
176
     0
 90
        0
176
     0
290
     0
176
     0
290
     1
176
     0
290
     1
176
     0
290
     0
176
     0
290
     0
176
     0
290
     0
176
     0
290
     0
176
     0
290
     0
176
     0
290
     0
176
     0
 90
       50
176
     0
 40
0.0
176
     0
 40
1.0
176
     0
 90
        0
176
     0
 62
    18
420
        0
176
     0
 90
       50
176
     0
 90
        3
176
     0
 62
     5
420
      255
176
     0
290
     0
176
     0
 90
       50
176
     0
 90
       50
176
     0
 90
       50
176
     0
290
     0
176
     0
 90
       50
176
     0
 62
   256
176
     0
 40
1.0
176
     0
 90
        2
176
     0
  1
strokes_ogs.tif
176
     0
290
     0
176
     0
 40
1.0
176
     0
 40
1.0
176
     0
  0
VISUALSTYLE
  5
33
102
{ACAD_REACTORS
330
2A
102
}
330
2A
100
AcDbVisualStyle
  2
Realistic
 70
     8
177
     3
291
     0
 70
    58
 90
        2
176
     1
 90
        3
176
     1
 90
        0
176
     1
 90
        2
176
     1
 40
0.6
176
     1
 40
30.0
176
     1
 62
     7
420
 16777215
176
     1
 90
        0
176
     1
 90
        0
176
     1
 62
     7
176
     1
 62
   257
176
     1
 90
        1
176
     1
 90
        1
176
     1
 40
1.0
176
     1
 90
        8
176
     1
 62
   257
176
     1
 40
1.0
176
     1
 90
        1
176
     1
 90
        6
176
     1
 90
        2
176
     1
 62
     7
176
     1
 90
        3
176
     1
 90
        0
176
     1
 90
        0
176
     1
290
     0
176
     1
 90
       13
176
     1
 40
0.0
176
     1
 90
        0
176
     1
290
     0
176
     1
290
     1
176
     1
290
     1
176
     1
290
     0
176
     1
290
     0
176
     1
290
     0
176
     1
290
     0
176
     1
290
     0
176
     1
290
     0
176
     1
 90
       50
176
     1
 40
0.0
176
     1
 40
1.0
176
     1
 90
        0
176
     1
 62
    18
420
        0
176
     1
 90
       50
176
     1
 90
        3
176
     1
 62
     5
420
      255
176
     1
290
     0
176
     1
 90
       50
176
     1
 90
       50
176
     1
 90
       50
176
     1
290
     0
176
     1
 90
       50
176
     1
 62
   256
176
     0
 40
1.0
176
     0
 90
        2
176
     1
  1
strokes_ogs.tif
176
     1
290
     0
176
     1
 40
1.0
176
     1
 40
1.0
176
     1
  0
VISUALSTYLE
  5
42
102
{ACAD_REACTORS
330
2A
102
}
330
2A
100
AcDbVisualStyle
  2
Shaded
 70
    27
177
     3
291
     0
 70
    58
 90
        2
176
     1
 90
        2
176
     1
 90
        1
176
     1
 90
        2
176
     1
 40
0.6
176
     1
 40
30.0
176
     1
 62
     7
420
 16777215
176
     1
 90
        0
176
     1
 90
        4
176
     1
 62
     7
176
     1
 62
   257
176
     1
 90
        1
176
     1
 90
        1
176
     1
 40
1.0
176
     1
 90
        8
176
     1
 62
   257
176
     1
 40
1.0
176
     1
 90
        1
176
     1
 90
        6
176
     1
 90
        2
176
     1
 62
     8
420
  7895160
176
     1
 90
        3
176
     1
 90
        0
176
     1
 90
        0
176
     1
290
     0
176
     1
 90
        5
176
     1
 40
0.0
176
     1
 90
        0
176
     1
290
     0
176
     1
290
     1
176
     1
290
     1
176
     1
290
     0
176
     1
290
     0
176
     1
290
     0
176
     1
290
     0
176
     1
290
     0
176
     1
290
     0
176
     1
 90
       50
176
     1
 40
0.0
176
     1
 40
1.0
176
     1
 90
        0
176
     1
 62
    18
420
        0
176
     1
 90
       50
176
     1
 90
        3
176
     1
 62
     5
420
      255
176
     1
290
     0
176
     1
 90
       50
176
     1
 90
       50
176
     1
 90
       50
176
     1
290
     0
176
     1
 90
       50
176
     1
 62
   256
176
     0
 40
1.0
176
     0
 90
        2
176
     1
  1
strokes_ogs.tif
176
     1
290
     0
176
     1
 40
1.0
176
     1
 40
1.0
176
     1
  0
VISUALSTYLE
  5
41
102
{ACAD_REACTORS
330
2A
102
}
330
2A
100
AcDbVisualStyle
  2
Shaded with edges
 70
    26
177
     3
291
     0
 70
    58
 90
        2
176
     1
 90
        2
176
     1
 90
        1
176
     1
 90
        2
176
     1
 40
0.6
176
     1
 40
30.0
176
     1
 62
     7
420
 16777215
176
     1
 90
        1
176
     1
 90
       10
176
     1
 62
     7
176
     1
 62
   257
176
     1
 90
        2
176
     1
 90
        1
176
     1
 40
1.0
176
     1
 90
        8
176
     1
 62
   257
176
     1
 40
1.0
176
     1
 90
        1
176
     1
 90
        6
176
     1
 90
        2
176
     1
 62
     7
176
     1
 90
        3
176
     1
 90
        0
176
     1
 90
        0
176
     1
290
     0
176
     1
 90
        5
176
     1
 40
0.0
176
     1
 90
        0
176
     1
290
     0
176
     1
290
     1
176
     1
290
     1
176
     1
290
     0
176
     1
290
     0
176
     1
290
     0
176
     1
290
     0
176
     1
290
     0
176
     1
290
     0
176
     1
 90
       50
176
     1
 40
0.0
176
     1
 40
1.0
176
     1
 90
        0
176
     1
 62
    18
420
        0
176
     1
 90
       50
176
     1
 90
        3
176
     1
 62
     5
420
      255
176
     1
290
     0
176
     1
 90
       50
176
     1
 90
       50
176
     1
 90
       50
176
     1
290
     0
176
     1
 90
       50
176
     1
 62
   256
176
     0
 40
1.0
176
     0
 90
        2
176
     1
  1
strokes_ogs.tif
176
     1
290
     0
176
     1
 40
1.0
176
     1
 40
1.0
176
     1
  0
VISUALSTYLE
  5
3E
102
{ACAD_REACTORS
330
2A
102
}
330
2A
100
AcDbVisualStyle
  2
Shades of Gray
 70
    23
177
     3
291
     0
 70
    58
 90
        2
176
     1
 90
        2
176
     1
 90
        3
176
     1
 90
        0
176
     1
 40
0.6
176
     1
 40
30.0
176
     1
 62
     7
420
 16777215
176
     1
 90
        2
176
     1
 90
        2
176
     1
 62
     7
176
     1
 62
     7
176
     1
 90
        1
176
     1
 90
        1
176
     1
 40
40.0
176
     1
 90
        8
176
     1
 62
     7
176
     1
 40
1.0
176
     1
 90
        1
176
     1
 90
        6
176
     1
 90
        2
176
     1
 62
     7
176
     1
 90
        3
176
     1
 90
        0
176
     1
 90
        0
176
     1
290
     0
176
     1
 90
        1
176
     1
 40
0.0
176
     1
 90
        0
176
     1
290
     0
176
     1
290
     1
176
     1
290
     1
176
     1
290
     0
176
     1
290
     0
176
     1
290
     0
176
     1
290
     0
176
     1
290
     0
176
     1
290
     0
176
     1
 90
       50
176
     1
 40
0.0
176
     1
 40
1.0
176
     1
 90
        0
176
     1
 62
    18
420
        0
176
     1
 90
       50
176
     1
 90
        3
176
     1
 62
     5
420
      255
176
     1
290
     0
176
     1
 90
       50
176
     1
 90
       50
176
     1
 90
       50
176
     1
290
     0
176
     1
 90
       50
176
     1
 62
   256
176
     0
 40
1.0
176
     0
 90
        2
176
     1
  1
strokes_ogs.tif
176
     1
290
     0
176
     1
 40
1.0
176
     1
 40
1.0
176
     1
  0
VISUALSTYLE
  5
3F
102
{ACAD_REACTORS
330
2A
102
}
330
2A
100
AcDbVisualStyle
  2
Sketchy
 70
    24
177
     3
291
     0
 70
    58
 90
        1
176
     1
 90
        2
176
     1
 90
        2
176
     1
 90
        0
176
     1
 40
0.6
176
     1
 40
30.0
176
     1
 62
     7
420
 16777215
176
     1
 90
        2
176
     1
 90
        2
176
     1
 62
     7
176
     1
 62
     7
176
     1
 90
        1
176
     1
 90
        1
176
     1
 40
40.0
176
     1
 90
       11
176
     1
 62
     7
176
     1
 40
1.0
176
     1
 90
        1
176
     1
 90
        6
176
     1
 90
        2
176
     1
 62
     7
176
     1
 90
        6
176
     1
 90
        0
176
     1
 90
        0
176
     1
290
     0
176
     1
 90
        1
176
     1
 40
0.0
176
     1
 90
        0
176
     1
290
     0
176
     1
290
     1
176
     1
290
     1
176
     1
290
     0
176
     1
290
     0
176
     1
290
     0
176
     1
290
     0
176
     1
290
     0
176
     1
290
     0
176
     1
 90
       50
176
     1
 40
0.0
176
     1
 40
1.0
176
     1
 90
        0
176
     1
 62
    18
420
        0
176
     1
 90
       50
176
     1
 90
        3
176
     1
 62
     5
420
      255
176
     1
290
     0
176
     1
 90
       50
176
     1
 90
       50
176
     1
 90
       50
176
     1
290
     0
176
     1
 90
       50
176
     1
 62
   256
176
     0
 40
1.0
176
     0
 90
        2
176
     1
  1
strokes_ogs.tif
176
     1
290
     0
176
     1
 40
1.0
176
     1
 40
1.0
176
     1
  0
VISUALSTYLE
  5
37
102
{ACAD_REACTORS
330
2A
102
}
330
2A
100
AcDbVisualStyle
  2
Thicken
 70
    13
177
     3
291
     1
 70
    58
 90
        2
176
     1
 90
        2
176
     1
 90
        0
176
     1
 90
        0
176
     1
 40
0.6
176
     1
 40
30.0
176
     1
 62
     7
420
 16777215
176
     1
 90
        1
176
     1
 90
        4
176
     1
 62
     7
176
     1
 62
   257
176
     1
 90
        1
176
     1
 90
        1
176
     1
 40
1.0
176
     1
 90
       12
176
     1
 62
     7
176
     1
 40
1.0
176
     1
 90
        1
176
     1
 90
        6
176
     1
 90
        2
176
     1
 62
     7
176
     1
 90
        5
176
     1
 90
        0
176
     1
 90
        0
176
     1
290
     0
176
     1
 90
        1
176
     1
 40
0.0
176
     1
 90
        0
176
     1
290
     0
176
     1
290
     1
176
     1
290
     1
176
     1
290
     0
176
     1
290
     0
176
     1
290
     0
176
     1
290
     0
176
     1
290
     0
176
     1
290
     0
176
     1
 90
       50
176
     1
 40
0.0
176
     1
 40
1.0
176
     1
 90
        0
176
     1
 62
    18
420
        0
176
     1
 90
       50
176
     1
 90
        3
176
     1
 62
     5
420
      255
176
     1
290
     0
176
     1
 90
       50
176
     1
 90
       50
176
     1
 90
       50
176
     1
290
     0
176
     1
 90
       50
176
     1
 62
   256
176
     0
 40
1.0
176
     0
 90
        2
176
     1
  1
strokes_ogs.tif
176
     1
290
     0
176
     1
 40
1.0
176
     1
 40
1.0
176
     1
  0
VISUALSTYLE
  5
30
102
{ACAD_REACTORS
330
2A
102
}
330
2A
100
AcDbVisualStyle
  2
Wireframe
 70
     5
177
     3
291
     0
 70
    58
 90
        0
176
     1
 90
        2
176
     1
 90
        0
176
     1
 90
        0
176
     1
 40
0.6
176
     1
 40
30.0
176
     1
 62
     7
420
 16777215
176
     1
 90
        1
176
     1
 90
        4
176
     1
 62
     7
176
     1
 62
   257
176
     1
 90
        1
176
     1
 90
        1
176
     1
 40
1.0
176
     1
 90
        0
176
     1
 62
   257
176
     1
 40
1.0
176
     1
 90
        1
176
     1
 90
        6
176
     1
 90
        2
176
     1
 62
     7
176
     1
 90
        3
176
     1
 90
        0
176
     1
 90
        0
176
     1
290
     0
176
     1
 90
        1
176
     1
 40
0.0
176
     1
 90
        0
176
     1
290
     0
176
     1
290
     1
176
     1
290
     1
176
     1
290
     0
176
     1
290
     0
176
     1
290
     0
176
     1
290
     0
176
     1
290
     0
176
     1
290
     0
176
     1
 90
       50
176
     1
 40
0.0
176
     1
 40
1.0
176
     1
 90
        0
176
     1
 62
    18
420
        0
176
     1
 90
       50
176
     1
 90
        3
176
     1
 62
     5
420
      255
176
     1
290
     0
176
     1
 90
       50
176
     1
 90
       50
176
     1
 90
       50
176
     1
290
     0
176
     1
 90
       50
176
     1
 62
   256
176
     0
 40
1.0
176
     0
 90
        2
176
     1
  1
strokes_ogs.tif
176
     1
290
     0
176
     1
 40
1.0
176
     1
 40
1.0
176
     1
  0
VISUALSTYLE
  5
40
102
{ACAD_REACTORS
330
2A
102
}
330
2A
100
AcDbVisualStyle
  2
X-Ray
 70
    25
177
     3
291
     0
 70
    58
 90
        2
176
     1
 90
        2
176
     1
 90
        1
176
     1
 90
        1
176
     1
 40
0.5
176
     1
 40
30.0
176
     1
 62
     7
420
 16777215
176
     1
 90
        1
176
     1
 90
        0
176
     1
 62
     7
176
     1
 62
   257
176
     1
 90
        1
176
     1
 90
        1
176
     1
 40
1.0
176
     1
 90
        8
176
     1
 62
     7
176
     1
 40
1.0
176
     1
 90
        1
176
     1
 90
        6
176
     1
 90
        2
176
     1
 62
     7
176
     1
 90
        3
176
     1
 90
        0
176
     1
 90
        0
176
     1
290
     0
176
     1
 90
       13
176
     1
 40
0.0
176
     1
 90
        0
176
     1
290
     0
176
     1
290
     1
176
     1
290
     1
176
     1
290
     0
176
     1
290
     0
176
     1
290
     0
176
     1
290
     0
176
     1
290
     0
176
     1
290
     0
176
     1
 90
       50
176
     1
 40
0.0
176
     1
 40
1.0
176
     1
 90
        0
176
     1
 62
    18
420
        0
176
     1
 90
       50
176
     1
 90
        3
176
     1
 62
     5
420
      255
176
     1
290
     0
176
     1
 90
       50
176
     1
 90
       50
176
     1
 90
       50
176
     1
290
     0
176
     1
 90
       50
176
     1
 62
   256
176
     0
 40
1.0
176
     0
 90
        2
176
     1
  1
strokes_ogs.tif
176
     1
290
     0
176
     1
 40
1.0
176
     1
 40
1.0
176
     1
  0
DICTIONARYVAR
  5
1C8
102
{ACAD_REACTORS
330
1C7
102
}
330
1C7
100
DictionaryVariables
280
     0
  1
1:1
  0
DICTIONARYVAR
  5
1CD
102
{ACAD_REACTORS
330
1C7
102
}
330
1C7
100
DictionaryVariables
280
     0
  1
Standard
  0
DICTIONARYVAR
  5
1CC
102
{ACAD_REACTORS
330
1C7
102
}
330
1C7
100
DictionaryVariables
280
     0
  1
Standard
  0
DICTIONARY
  5
1C9
330
6A
100
AcDbDictionary
280
     1
281
     1
  3
ACAD_ROUNDTRIP_2008_TABLESTYLE_CELLSTYLEMAP
360
1CA
  0
CELLSTYLEMAP
  5
1CA
102
{ACAD_REACTORS
330
1C9
102
}
330
1C9
100
AcDbCellStyleMap
 90
        3
300
CELLSTYLE
  1
TABLEFORMAT_BEGIN
 90
        5
170
     1
 91
        0
 92
    32768
 62
   257
 93
        1
300
CONTENTFORMAT
  1
CONTENTFORMAT_BEGIN
 90
        0
 91
        0
 92
        4
 93
        0
300

 40
0.0
140
1.0
 94
        5
 62
     0
340
11
144
6.0
309
CONTENTFORMAT_END
171
     1
301
MARGIN
  1
CELLMARGIN_BEGIN
 40
1.5
 40
1.5
 40
1.5
 40
1.5
 40
1.5
 40
1.5
309
CELLMARGIN_END
 94
        6
 95
        1
302
GRIDFORMAT
  1
GRIDFORMAT_BEGIN
 90
        0
 91
        1
 62
     0
 92
       -2
340
14
 93
        0
 40
0.045
309
GRIDFORMAT_END
 95
        2
302
GRIDFORMAT
  1
GRIDFORMAT_BEGIN
 90
        0
 91
        1
 62
     0
 92
       -2
340
14
 93
        0
 40
0.045
309
GRIDFORMAT_END
 95
        4
302
GRIDFORMAT
  1
GRIDFORMAT_BEGIN
 90
        0
 91
        1
 62
     0
 92
       -2
340
14
 93
        0
 40
0.045
309
GRIDFORMAT_END
 95
        8
302
GRIDFORMAT
  1
GRIDFORMAT_BEGIN
 90
        0
 91
        1
 62
     0
 92
       -2
340
14
 93
        0
 40
0.045
309
GRIDFORMAT_END
 95
       16
302
GRIDFORMAT
  1
GRIDFORMAT_BEGIN
 90
        0
 91
        1
 62
     0
 92
       -2
340
14
 93
        0
 40
0.045
309
GRIDFORMAT_END
 95
       32
302
GRIDFORMAT
  1
GRIDFORMAT_BEGIN
 90
        0
 91
        1
 62
     0
 92
       -2
340
14
 93
        0
 40
0.045
309
GRIDFORMAT_END
309
TABLEFORMAT_END
  1
CELLSTYLE_BEGIN
 90
        1
 91
        1
300
_TITLE
309
CELLSTYLE_END
300
CELLSTYLE
  1
TABLEFORMAT_BEGIN
 90
        5
170
     1
 91
        0
 92
        0
 62
   257
 93
        1
300
CONTENTFORMAT
  1
CONTENTFORMAT_BEGIN
 90
        0
 91
        0
 92
        4
 93
        0
300

 40
0.0
140
1.0
 94
        5
 62
     0
340
11
144
4.5
309
CONTENTFORMAT_END
171
     1
301
MARGIN
  1
CELLMARGIN_BEGIN
 40
1.5
 40
1.5
 40
1.5
 40
1.5
 40
1.5
 40
1.5
309
CELLMARGIN_END
 94
        6
 95
        1
302
GRIDFORMAT
  1
GRIDFORMAT_BEGIN
 90
        0
 91
        1
 62
     0
 92
       -2
340
14
 93
        0
 40
0.045
309
GRIDFORMAT_END
 95
        2
302
GRIDFORMAT
  1
GRIDFORMAT_BEGIN
 90
        0
 91
        1
 62
     0
 92
       -2
340
14
 93
        0
 40
0.045
309
GRIDFORMAT_END
 95
        4
302
GRIDFORMAT
  1
GRIDFORMAT_BEGIN
 90
        0
 91
        1
 62
     0
 92
       -2
340
14
 93
        0
 40
0.045
309
GRIDFORMAT_END
 95
        8
302
GRIDFORMAT
  1
GRIDFORMAT_BEGIN
 90
        0
 91
        1
 62
     0
 92
       -2
340
14
 93
        0
 40
0.045
309
GRIDFORMAT_END
 95
       16
302
GRIDFORMAT
  1
GRIDFORMAT_BEGIN
 90
        0
 91
        1
 62
     0
 92
       -2
340
14
 93
        0
 40
0.045
309
GRIDFORMAT_END
 95
       32
302
GRIDFORMAT
  1
GRIDFORMAT_BEGIN
 90
        0
 91
        1
 62
     0
 92
       -2
340
14
 93
        0
 40
0.045
309
GRIDFORMAT_END
309
TABLEFORMAT_END
  1
CELLSTYLE_BEGIN
 90
        2
 91
        1
300
_HEADER
309
CELLSTYLE_END
300
CELLSTYLE
  1
TABLEFORMAT_BEGIN
 90
        5
170
     1
 91
        0
 92
        0
 62
   257
 93
        1
300
CONTENTFORMAT
  1
CONTENTFORMAT_BEGIN
 90
        0
 91
        0
 92
        4
 93
        0
300

 40
0.0
140
1.0
 94
        2
 62
     0
340
11
144
4.5
309
CONTENTFORMAT_END
171
     1
301
MARGIN
  1
CELLMARGIN_BEGIN
 40
1.5
 40
1.5
 40
1.5
 40
1.5
 40
1.5
 40
1.5
309
CELLMARGIN_END
 94
        6
 95
        1
302
GRIDFORMAT
  1
GRIDFORMAT_BEGIN
 90
        0
 91
        1
 62
     0
 92
       -2
340
14
 93
        0
 40
0.045
309
GRIDFORMAT_END
 95
        2
302
GRIDFORMAT
  1
GRIDFORMAT_BEGIN
 90
        0
 91
        1
 62
     0
 92
       -2
340
14
 93
        0
 40
0.045
309
GRIDFORMAT_END
 95
        4
302
GRIDFORMAT
  1
GRIDFORMAT_BEGIN
 90
        0
 91
        1
 62
     0
 92
       -2
340
14
 93
        0
 40
0.045
309
GRIDFORMAT_END
 95
        8
302
GRIDFORMAT
  1
GRIDFORMAT_BEGIN
 90
        0
 91
        1
 62
     0
 92
       -2
340
14
 93
        0
 40
0.045
309
GRIDFORMAT_END
 95
       16
302
GRIDFORMAT
  1
GRIDFORMAT_BEGIN
 90
        0
 91
        1
 62
     0
 92
       -2
340
14
 93
        0
 40
0.045
309
GRIDFORMAT_END
 95
       32
302
GRIDFORMAT
  1
GRIDFORMAT_BEGIN
 90
        0
 91
        1
 62
     0
 92
       -2
340
14
 93
        0
 40
0.045
309
GRIDFORMAT_END
309
TABLEFORMAT_END
  1
CELLSTYLE_BEGIN
 90
        3
 91
        2
300
_DATA
309
CELLSTYLE_END
  0
ENDSEC
  0
EOF