0
SECTION
  2
HEADER
  9
$ACADVER
  1
AC1027
  9
$ACADMAINTVER
 70
   105
  9
$DWGCODEPAGE
  3
ANSI_1252
  9
$REQUIREDVERSIONS
160
                 0
  9
$COMMENTS
  1
File was created by Cadenas
  9
$CUSTOMPROPERTYTAG
  1
NN
  9
$CUSTOMPROPERTY
  1
Set Screw Internmediate Duty Four-Bolt Flange Metric Bore
  9
$CUSTOMPROPERTYTAG
  1
NT
  9
$CUSTOMPROPERTY
  1
VSC Intermediate Duty 4-Bolt Flange Bearings
  9
$CUSTOMPROPERTYTAG
  1
NB
  9
$CUSTOMPROPERTY
  1
125695
  9
$CUSTOMPROPERTYTAG
  1
NBSYN
  9
$CUSTOMPROPERTY
  1
$PN.
  9
$CUSTOMPROPERTYTAG
  1
LINA
  9
$CUSTOMPROPERTY
  1
125695
  9
$CUSTOMPROPERTYTAG
  1
RS
  9
$CUSTOMPROPERTY
  1
204
  9
$CUSTOMPROPERTYTAG
  1
SS
  9
$CUSTOMPROPERTY
  1
20
  9
$CUSTOMPROPERTYTAG
  1
PN
  9
$CUSTOMPROPERTY
  1
125695
  9
$CUSTOMPROPERTYTAG
  1
DESCRIPTION
  9
$CUSTOMPROPERTY
  1
F4B-VSC-20M
  9
$CUSTOMPROPERTYTAG
  1
LF
  9
$CUSTOMPROPERTY
  1
RE-LUBE
  9
$CUSTOMPROPERTYTAG
  1
WEIGHT
  9
$CUSTOMPROPERTY
  1
0.67
  9
$CUSTOMPROPERTYTAG
  1
A
  9
$CUSTOMPROPERTY
  1
31.2
  9
$CUSTOMPROPERTYTAG
  1
B
  9
$CUSTOMPROPERTY
  1
85.9
  9
$CUSTOMPROPERTYTAG
  1
C
  9
$CUSTOMPROPERTY
  1
34.0
  9
$CUSTOMPROPERTYTAG
  1
D
  9
$CUSTOMPROPERTY
  1
63.5
  9
$CUSTOMPROPERTYTAG
  1
F
  9
$CUSTOMPROPERTY
  1
M10
  9
$CUSTOMPROPERTYTAG
  1
H
  9
$CUSTOMPROPERTY
  1
11.2
  9
$CUSTOMPROPERTYTAG
  1
J
  9
$CUSTOMPROPERTY
  1
9.1
  9
$CUSTOMPROPERTYTAG
  1
L
  9
$CUSTOMPROPERTY
  1
28.4
  9
$CUSTOMPROPERTYTAG
  1
N
  9
$CUSTOMPROPERTY
  1
49.3
  9
$CUSTOMPROPERTYTAG
  1
COMPANY
  9
$CUSTOMPROPERTY
  1
baldor
  9
$INSBASE
 10
0.0
 20
0.0
 30
0.0
  9
$EXTMIN
 10
1.000000000000000E+20
 20
1.000000000000000E+20
 30
1.000000000000000E+20
  9
$EXTMAX
 10
-1.000000000000000E+20
 20
-1.000000000000000E+20
 30
-1.000000000000000E+20
  9
$LIMMIN
 10
0.0
 20
0.0
  9
$LIMMAX
 10
420.0
 20
297.0
  9
$ORTHOMODE
 70
     0
  9
$REGENMODE
 70
     1
  9
$FILLMODE
 70
     1
  9
$QTEXTMODE
 70
     0
  9
$MIRRTEXT
 70
     1
  9
$LTSCALE
 40
1.0
  9
$ATTMODE
 70
     1
  9
$TEXTSIZE
 40
2.5
  9
$TRACEWID
 40
1.0
  9
$TEXTSTYLE
  7
Standard
  9
$CLAYER
  8
0
  9
$CELTYPE
  6
ByLayer
  9
$CECOLOR
 62
   256
  9
$CELTSCALE
 40
1.0
  9
$DISPSILH
 70
     0
  9
$DIMSCALE
 40
1.0
  9
$DIMASZ
 40
2.5
  9
$DIMEXO
 40
0.625
  9
$DIMDLI
 40
3.75
  9
$DIMRND
 40
0.0
  9
$DIMDLE
 40
0.0
  9
$DIMEXE
 40
1.25
  9
$DIMTP
 40
0.0
  9
$DIMTM
 40
0.0
  9
$DIMTXT
 40
2.5
  9
$DIMCEN
 40
2.5
  9
$DIMTSZ
 40
0.0
  9
$DIMTOL
 70
     0
  9
$DIMLIM
 70
     0
  9
$DIMTIH
 70
     0
  9
$DIMTOH
 70
     0
  9
$DIMSE1
 70
     0
  9
$DIMSE2
 70
     0
  9
$DIMTAD
 70
     1
  9
$DIMZIN
 70
     8
  9
$DIMBLK
  1

  9
$DIMASO
 70
     1
  9
$DIMSHO
 70
     1
  9
$DIMPOST
  1

  9
$DIMAPOST
  1

  9
$DIMALT
 70
     0
  9
$DIMALTD
 70
     3
  9
$DIMALTF
 40
0.03937007874016
  9
$DIMLFAC
 40
1.0
  9
$DIMTOFL
 70
     1
  9
$DIMTVP
 40
0.0
  9
$DIMTIX
 70
     0
  9
$DIMSOXD
 70
     0
  9
$DIMSAH
 70
     0
  9
$DIMBLK1
  1

  9
$DIMBLK2
  1

  9
$DIMSTYLE
  2
ISO-25
  9
$DIMCLRD
 70
     0
  9
$DIMCLRE
 70
     0
  9
$DIMCLRT
 70
     0
  9
$DIMTFAC
 40
1.0
  9
$DIMGAP
 40
0.625
  9
$DIMJUST
 70
     0
  9
$DIMSD1
 70
     0
  9
$DIMSD2
 70
     0
  9
$DIMTOLJ
 70
     0
  9
$DIMTZIN
 70
     8
  9
$DIMALTZ
 70
     0
  9
$DIMALTTZ
 70
     0
  9
$DIMUPT
 70
     0
  9
$DIMDEC
 70
     2
  9
$DIMTDEC
 70
     2
  9
$DIMALTU
 70
     2
  9
$DIMALTTD
 70
     3
  9
$DIMTXSTY
  7
Standard
  9
$DIMAUNIT
 70
     0
  9
$DIMADEC
 70
     0
  9
$DIMALTRND
 40
0.0
  9
$DIMAZIN
 70
     0
  9
$DIMDSEP
 70
    44
  9
$DIMATFIT
 70
     3
  9
$DIMFRAC
 70
     0
  9
$DIMLDRBLK
  1

  9
$DIMLUNIT
 70
     2
  9
$DIMLWD
 70
    -2
  9
$DIMLWE
 70
    -2
  9
$DIMTMOVE
 70
     0
  9
$DIMFXL
 40
1.0
  9
$DIMFXLON
 70
     0
  9
$DIMJOGANG
 40
0.7853981633974483
  9
$DIMTFILL
 70
     0
  9
$DIMTFILLCLR
 70
     0
  9
$DIMARCSYM
 70
     0
  9
$DIMLTYPE
  6

  9
$DIMLTEX1
  6

  9
$DIMLTEX2
  6

  9
$DIMTXTDIRECTION
 70
     0
  9
$LUNITS
 70
     2
  9
$LUPREC
 70
     4
  9
$SKETCHINC
 40
1.0
  9
$FILLETRAD
 40
10.0
  9
$AUNITS
 70
     0
  9
$AUPREC
 70
     0
  9
$MENU
  1
.
  9
$ELEVATION
 40
0.0
  9
$PELEVATION
 40
0.0
  9
$THICKNESS
 40
0.0
  9
$LIMCHECK
 70
     0
  9
$CHAMFERA
 40
0.0
  9
$CHAMFERB
 40
0.0
  9
$CHAMFERC
 40
0.0
  9
$CHAMFERD
 40
0.0
  9
$SKPOLY
 70
     0
  9
$TDCREATE
 40
2458168.987311782
  9
$TDUCREATE
 40
2458168.945645116
  9
$TDUPDATE
 40
2458168.987311782
  9
$TDUUPDATE
 40
2458168.945645116
  9
$TDINDWG
 40
0.0000000116
  9
$TDUSRTIMER
 40
0.0000000116
  9
$USRTIMER
 70
     1
  9
$ANGBASE
 50
0.0
  9
$ANGDIR
 70
     0
  9
$PDMODE
 70
     0
  9
$PDSIZE
 40
0.0
  9
$PLINEWID
 40
0.0
  9
$SPLFRAME
 70
     0
  9
$SPLINETYPE
 70
     6
  9
$SPLINESEGS
 70
     8
  9
$HANDSEED
  5
18E
  9
$SURFTAB1
 70
     6
  9
$SURFTAB2
 70
     6
  9
$SURFTYPE
 70
     6
  9
$SURFU
 70
     6
  9
$SURFV
 70
     6
  9
$UCSBASE
  2

  9
$UCSNAME
  2

  9
$UCSORG
 10
0.0
 20
0.0
 30
0.0
  9
$UCSXDIR
 10
1.0
 20
0.0
 30
0.0
  9
$UCSYDIR
 10
0.0
 20
1.0
 30
0.0
  9
$UCSORTHOREF
  2

  9
$UCSORTHOVIEW
 70
     0
  9
$UCSORGTOP
 10
0.0
 20
0.0
 30
0.0
  9
$UCSORGBOTTOM
 10
0.0
 20
0.0
 30
0.0
  9
$UCSORGLEFT
 10
0.0
 20
0.0
 30
0.0
  9
$UCSORGRIGHT
 10
0.0
 20
0.0
 30
0.0
  9
$UCSORGFRONT
 10
0.0
 20
0.0
 30
0.0
  9
$UCSORGBACK
 10
0.0
 20
0.0
 30
0.0
  9
$PUCSBASE
  2

  9
$PUCSNAME
  2

  9
$PUCSORG
 10
0.0
 20
0.0
 30
0.0
  9
$PUCSXDIR
 10
1.0
 20
0.0
 30
0.0
  9
$PUCSYDIR
 10
0.0
 20
1.0
 30
0.0
  9
$PUCSORTHOREF
  2

  9
$PUCSORTHOVIEW
 70
     0
  9
$PUCSORGTOP
 10
0.0
 20
0.0
 30
0.0
  9
$PUCSORGBOTTOM
 10
0.0
 20
0.0
 30
0.0
  9
$PUCSORGLEFT
 10
0.0
 20
0.0
 30
0.0
  9
$PUCSORGRIGHT
 10
0.0
 20
0.0
 30
0.0
  9
$PUCSORGFRONT
 10
0.0
 20
0.0
 30
0.0
  9
$PUCSORGBACK
 10
0.0
 20
0.0
 30
0.0
  9
$USERI1
 70
     0
  9
$USERI2
 70
     0
  9
$USERI3
 70
     0
  9
$USERI4
 70
     0
  9
$USERI5
 70
     0
  9
$USERR1
 40
0.0
  9
$USERR2
 40
0.0
  9
$USERR3
 40
0.0
  9
$USERR4
 40
0.0
  9
$USERR5
 40
0.0
  9
$WORLDVIEW
 70
     1
  9
$SHADEDGE
 70
     3
  9
$SHADEDIF
 70
    70
  9
$TILEMODE
 70
     1
  9
$MAXACTVP
 70
    64
  9
$PINSBASE
 10
0.0
 20
0.0
 30
0.0
  9
$PLIMCHECK
 70
     0
  9
$PEXTMIN
 10
1.000000000000000E+20
 20
1.000000000000000E+20
 30
1.000000000000000E+20
  9
$PEXTMAX
 10
-1.000000000000000E+20
 20
-1.000000000000000E+20
 30
-1.000000000000000E+20
  9
$PLIMMIN
 10
0.0
 20
0.0
  9
$PLIMMAX
 10
420.0
 20
297.0
  9
$UNITMODE
 70
     0
  9
$VISRETAIN
 70
     1
  9
$PLINEGEN
 70
     0
  9
$PSLTSCALE
 70
     1
  9
$TREEDEPTH
 70
  3020
  9
$CMLSTYLE
  2
Standard
  9
$CMLJUST
 70
     0
  9
$CMLSCALE
 40
20.0
  9
$PROXYGRAPHICS
 70
     1
  9
$MEASUREMENT
 70
     1
  9
$CELWEIGHT
370
    -1
  9
$ENDCAPS
280
     0
  9
$JOINSTYLE
280
     0
  9
$LWDISPLAY
290
     0
  9
$INSUNITS
 70
     4
  9
$HYPERLINKBASE
  1

  9
$STYLESHEET
  1

  9
$XEDIT
290
     1
  9
$CEPSNTYPE
380
     0
  9
$PSTYLEMODE
290
     1
  9
$FINGERPRINTGUID
  2
{8D2D8AB6-06C5-46AA-89E0-769DD8EB2A68}
  9
$VERSIONGUID
  2
{FAEB1C32-E019-11D5-929B-00C0DF256EC4}
  9
$EXTNAMES
290
     1
  9
$PSVPSCALE
 40
0.0
  9
$OLESTARTUP
290
     0
  9
$SORTENTS
280
   127
  9
$INDEXCTL
280
     0
  9
$HIDETEXT
280
     1
  9
$XCLIPFRAME
280
     2
  9
$HALOGAP
280
     0
  9
$OBSCOLOR
 70
   257
  9
$OBSLTYPE
280
     0
  9
$INTERSECTIONDISPLAY
280
     0
  9
$INTERSECTIONCOLOR
 70
   257
  9
$DIMASSOC
280
     2
  9
$PROJECTNAME
  1

  9
$CAMERADISPLAY
290
     0
  9
$LENSLENGTH
 40
50.0
  9
$CAMERAHEIGHT
 40
0.0
  9
$STEPSPERSEC
 40
2.0
  9
$STEPSIZE
 40
6.0
  9
$3DDWFPREC
 40
2.0
  9
$PSOLWIDTH
 40
5.0
  9
$PSOLHEIGHT
 40
80.0
  9
$LOFTANG1
 40
1.570796326794897
  9
$LOFTANG2
 40
1.570796326794897
  9
$LOFTMAG1
 40
0.0
  9
$LOFTMAG2
 40
0.0
  9
$LOFTPARAM
 70
     7
  9
$LOFTNORMALS
280
     1
  9
$LATITUDE
 40
37.795
  9
$LONGITUDE
 40
-122.394
  9
$NORTHDIRECTION
 40
0.0
  9
$TIMEZONE
 70
 -8000
  9
$LIGHTGLYPHDISPLAY
280
     1
  9
$TILEMODELIGHTSYNCH
280
     1
  9
$CMATERIAL
347
44
  9
$SOLIDHIST
280
     0
  9
$SHOWHIST
280
     1
  9
$DWFFRAME
280
     2
  9
$DGNFRAME
280
     2
  9
$REALWORLDSCALE
290
     1
  9
$INTERFERECOLOR
 62
   256
  9
$CSHADOW
280
     0
  9
$SHADOWPLANELOCATION
 40
0.0
  0
ENDSEC
  0
SECTION
  2
CLASSES
  0
CLASS
  1
ACDBDICTIONARYWDFLT
  2
AcDbDictionaryWithDefault
  3
ObjectDBX Classes
 90
        0
 91
        4
280
     0
281
     0
  0
CLASS
  1
VISUALSTYLE
  2
AcDbVisualStyle
  3
ObjectDBX Classes
 90
     4095
 91
        4
280
     0
281
     0
  0
CLASS
  1
MATERIAL
  2
AcDbMaterial
  3
ObjectDBX Classes
 90
     1153
 91
        4
280
     0
281
     0
  0
CLASS
  1
SCALE
  2
AcDbScale
  3
ObjectDBX Classes
 90
     1153
 91
        4
280
     0
281
     0
  0
CLASS
  1
TABLESTYLE
  2
AcDbTableStyle
  3
ObjectDBX Classes
 90
     4095
 91
        4
280
     0
281
     0
  0
CLASS
  1
MLEADERSTYLE
  2
AcDbMLeaderStyle
  3
ACDB_MLEADERSTYLE_CLASS
 90
     4095
 91
        4
280
     0
281
     0
  0
CLASS
  1
SUN
  2
AcDbSun
  3
SCENEOE
 90
     1153
 91
        4
280
     0
281
     0
  0
CLASS
  1
DICTIONARYVAR
  2
AcDbDictionaryVar
  3
ObjectDBX Classes
 90
        0
 91
        4
280
     0
281
     0
  0
CLASS
  1
CELLSTYLEMAP
  2
AcDbCellStyleMap
  3
ObjectDBX Classes
 90
     1152
 91
        4
280
     0
281
     0
  0
ENDSEC
  0
SECTION
  2
TABLES
  0
TABLE
  2
VPORT
  5
8
330
0
100
AcDbSymbolTable
 70
     1
  0
VPORT
  5
29
330
8
100
AcDbSymbolTableRecord
100
AcDbViewportTableRecord
  2
*Active
 70
     0
 10
0.0
 20
0.0
 11
1.0
 21
1.0
 12
-12.33607142857142
 22
4.212400000000002
 13
0.0
 23
0.0
 14
10.0
 24
10.0
 15
10.0
 25
10.0
 16
0.0
 26
0.0
 36
1.0
 17
0.0
 27
0.0
 37
0.0
 40
96.211296
 41
0.4924246554761544
 42
50.0
 43
0.0
 44
0.0
 50
0.0
 51
0.0
 71
     0
 72
   100
 73
     1
 74
     3
 75
     0
 76
     0
 77
     0
 78
     0
281
     0
 65
     1
110
0.0
120
0.0
130
0.0
111
1.0
121
0.0
131
0.0
112
0.0
122
1.0
132
0.0
 79
     0
146
0.0
348
2F
 60
     3
 61
     5
292
     1
282
     1
141
0.0
142
0.0
 63
   250
361
6D
  0
ENDTAB
  0
TABLE
  2
LTYPE
  5
5
330
0
100
AcDbSymbolTable
 70
     3
  0
LTYPE
  5
14
330
5
100
AcDbSymbolTableRecord
100
AcDbLinetypeTableRecord
  2
ByBlock
 70
     0
  3

 72
    65
 73
     0
 40
0.0
  0
LTYPE
  5
15
330
5
100
AcDbSymbolTableRecord
100
AcDbLinetypeTableRecord
  2
ByLayer
 70
     0
  3

 72
    65
 73
     0
 40
0.0
  0
LTYPE
  5
16
330
5
100
AcDbSymbolTableRecord
100
AcDbLinetypeTableRecord
  2
Continuous
 70
     0
  3
Solid line
 72
    65
 73
     0
 40
0.0
  0
LTYPE
  5
9B
330
5
100
AcDbSymbolTableRecord
100
AcDbLinetypeTableRecord
  2
Dashed
 70
     0
  3

 72
    65
 73
     2
 40
2.0
 49
1.0
 74
     0
 49
-1.0
 74
     0
  0
LTYPE
  5
D2
330
5
100
AcDbSymbolTableRecord
100
AcDbLinetypeTableRecord
  2
Center
 70
     0
  3

 72
    65
 73
     4
 40
1.5
 49
0.45
 74
     0
 49
-0.5
 74
     0
 49
0.05
 74
     0
 49
-0.5
 74
     0
  0
ENDTAB
  0
TABLE
  2
LAYER
  5
2
330
0
100
AcDbSymbolTable
 70
     8
  0
LAYER
  5
10
330
2
100
AcDbSymbolTableRecord
100
AcDbLayerTableRecord
  2
0
 70
     0
 62
     7
  6
Continuous
370
    -3
390
F
347
46
348
0
  0
LAYER
  5
6E
330
2
100
AcDbSymbolTableRecord
100
AcDbLayerTableRecord
  2
AM_6
 70
     0
 62
    -2
  6
Continuous
370
    35
390
F
347
46
348
0
  0
LAYER
  5
9C
330
2
100
AcDbSymbolTableRecord
100
AcDbLayerTableRecord
  2
AM_9
 70
     0
 62
     6
  6
Dashed
370
    25
390
F
347
46
348
0
  0
LAYER
  5
CF
330
2
100
AcDbSymbolTableRecord
100
AcDbLayerTableRecord
  2
AM_5
 70
     0
 62
     3
  6
Continuous
370
    25
390
F
347
46
348
0
  0
LAYER
  5
D3
330
2
100
AcDbSymbolTableRecord
100
AcDbLayerTableRecord
  2
AM_7
 70
     0
 62
     7
  6
Center
370
    25
390
F
347
46
348
0
  0
LAYER
  5
D6
330
2
100
AcDbSymbolTableRecord
100
AcDbLayerTableRecord
  2
AM_0
 70
     0
 62
     7
  6
Continuous
370
    50
390
F
347
46
348
0
  0
LAYER
  5
16B
330
2
100
AcDbSymbolTableRecord
100
AcDbLayerTableRecord
  2
AM_4
 70
     0
 62
     3
  6
Continuous
370
    25
390
F
347
46
348
0
  0
LAYER
  5
180
330
2
100
AcDbSymbolTableRecord
100
AcDbLayerTableRecord
  2
ConnectionPoints
 70
     0
 62
     7
  6
Continuous
370
    50
390
F
347
46
348
0
  0
ENDTAB
  0
TABLE
  2
STYLE
  5
3
330
0
100
AcDbSymbolTable
 70
     1
  0
STYLE
  5
11
330
3
100
AcDbSymbolTableRecord
100
AcDbTextStyleTableRecord
  2
Standard
 70
     0
 40
0.0
 41
1.0
 50
0.0
 71
     0
 42
2.5
  3
txt
  4

  0
ENDTAB
  0
TABLE
  2
VIEW
  5
6
330
0
100
AcDbSymbolTable
 70
     0
  0
ENDTAB
  0
TABLE
  2
UCS
  5
7
330
0
100
AcDbSymbolTable
 70
     0
  0
ENDTAB
  0
TABLE
  2
APPID
  5
9
330
0
100
AcDbSymbolTable
 70
     1
  0
APPID
  5
12
330
9
100
AcDbSymbolTableRecord
100
AcDbRegAppTableRecord
  2
ACAD
 70
     0
  0
ENDTAB
  0
TABLE
  2
DIMSTYLE
  5
A
330
0
100
AcDbSymbolTable
 70
     1
100
AcDbDimStyleTable
  0
DIMSTYLE
105
27
330
A
100
AcDbSymbolTableRecord
100
AcDbDimStyleTableRecord
  2
ISO-25
 70
     0
 41
2.5
 42
0.625
 43
3.75
 44
1.25
 73
     0
 74
     0
 77
     1
 78
     8
140
2.5
141
2.5
143
0.03937007874016
147
0.625
171
     3
172
     1
178
     0
271
     2
272
     2
274
     3
278
    44
283
     0
284
     8
340
11
  0
ENDTAB
  0
TABLE
  2
BLOCK_RECORD
  5
1
330
0
100
AcDbSymbolTable
 70
     4
  0
BLOCK_RECORD
  5
1F
330
1
100
AcDbSymbolTableRecord
100
AcDbBlockTableRecord
  2
*Model_Space
340
22
 70
     0
280
     1
281
     0
  0
BLOCK_RECORD
  5
1B
330
1
100
AcDbSymbolTableRecord
100
AcDbBlockTableRecord
  2
*Paper_Space
340
1E
 70
     0
280
     1
281
     0
  0
BLOCK_RECORD
  5
23
330
1
100
AcDbSymbolTableRecord
100
AcDbBlockTableRecord
  2
*Paper_Space0
340
26
 70
     0
280
     1
281
     0
  0
BLOCK_RECORD
  5
84
330
1
100
AcDbSymbolTableRecord
100
AcDbBlockTableRecord
  2
1_125637_0_in_125695_2
340
0
102
{BLKREFS
331
85
102
}
 70
     0
280
     1
281
     0
  0
BLOCK_RECORD
  5
E3
330
1
100
AcDbSymbolTableRecord
100
AcDbBlockTableRecord
  2
2_405015E_Metric_0_in_125695_2
340
0
102
{BLKREFS
331
E4
102
}
 70
     0
280
     1
281
     0
  0
BLOCK_RECORD
  5
123
330
1
100
AcDbSymbolTableRecord
100
AcDbBlockTableRecord
  2
3_125695vsc_0_in_125695_2
340
0
102
{BLKREFS
331
124
102
}
 70
     0
280
     1
281
     0
  0
ENDTAB
  0
ENDSEC
  0
SECTION
  2
BLOCKS
  0
BLOCK
  5
20
330
1F
100
AcDbEntity
  8
0
100
AcDbBlockBegin
  2
*Model_Space
 70
     0
 10
0.0
 20
0.0
 30
0.0
  3
*Model_Space
  1

  0
ENDBLK
  5
21
330
1F
100
AcDbEntity
  8
0
100
AcDbBlockEnd
  0
BLOCK
  5
1C
330
1B
100
AcDbEntity
 67
     1
  8
0
100
AcDbBlockBegin
  2
*Paper_Space
 70
     0
 10
0.0
 20
0.0
 30
0.0
  3
*Paper_Space
  1

  0
ENDBLK
  5
1D
330
1B
100
AcDbEntity
 67
     1
  8
0
100
AcDbBlockEnd
  0
BLOCK
  5
24
330
23
100
AcDbEntity
  8
0
100
AcDbBlockBegin
  2
*Paper_Space0
 70
     0
 10
0.0
 20
0.0
 30
0.0
  3
*Paper_Space0
  1

  0
ENDBLK
  5
25
330
23
100
AcDbEntity
  8
0
100
AcDbBlockEnd
  0
BLOCK
  5
86
330
84
100
AcDbEntity
  8
0
100
AcDbBlockBegin
  2
1_125637_0_in_125695_2
 70
     2
 10
0.0
 20
0.0
 30
0.0
  3
1_125637_0_in_125695_2
  1

  0
ATTDEF
  5
88
330
84
100
AcDbEntity
  8
AM_6
100
AcDbText
 10
2.200000000000003
 20
23.48530545755781
 30
0.0
 40
0.5
  1
Set Screw Intermediate Duty Insert Metric Bore
100
AcDbAttributeDefinition
  3

  2
NN
 70
     8
280
     0
  0
ATTDEF
  5
89
330
84
100
AcDbEntity
  8
AM_6
100
AcDbText
 10
2.200000000000003
 20
22.98530545755781
 30
0.0
 40
0.5
  1
VSC Intermediate Duty Bearing Inserts
100
AcDbAttributeDefinition
  3

  2
NT
 70
     8
280
     0
  0
ATTDEF
  5
8A
330
84
100
AcDbEntity
  8
AM_6
100
AcDbText
 10
2.200000000000003
 20
22.48530545755781
 30
0.0
 40
0.5
  1
125637
100
AcDbAttributeDefinition
  3

  2
NB
 70
     8
280
     0
  0
ATTDEF
  5
8B
330
84
100
AcDbEntity
  8
AM_6
100
AcDbText
 10
2.200000000000003
 20
21.98530545755781
 30
0.0
 40
0.5
  1
$PN.
100
AcDbAttributeDefinition
  3

  2
NBSYN
 70
     8
280
     0
  0
ATTDEF
  5
8C
330
84
100
AcDbEntity
  8
AM_6
100
AcDbText
 10
2.200000000000003
 20
21.48530545755781
 30
0.0
 40
0.5
  1
125637
100
AcDbAttributeDefinition
  3

  2
LINA
 70
     8
280
     0
  0
ATTDEF
  5
8D
330
84
100
AcDbEntity
  8
AM_6
100
AcDbText
 10
2.200000000000003
 20
20.98530545755781
 30
0.0
 40
0.5
  1
204
100
AcDbAttributeDefinition
  3

  2
SERIES
 70
     8
280
     0
  0
ATTDEF
  5
8E
330
84
100
AcDbEntity
  8
AM_6
100
AcDbText
 10
2.200000000000003
 20
20.48530545755781
 30
0.0
 40
0.5
  1
20
100
AcDbAttributeDefinition
  3

  2
SS
 70
     8
280
     0
  0
ATTDEF
  5
8F
330
84
100
AcDbEntity
  8
AM_6
100
AcDbText
 10
2.200000000000003
 20
19.98530545755781
 30
0.0
 40
0.5
  1
125637
100
AcDbAttributeDefinition
  3

  2
PN
 70
     8
280
     0
  0
ATTDEF
  5
90
330
84
100
AcDbEntity
  8
AM_6
100
AcDbText
 10
2.200000000000003
 20
19.48530545755781
 30
0.0
 40
0.5
  1
INS-VSC-20M
100
AcDbAttributeDefinition
  3

  2
DESCRIPTION
 70
     8
280
     0
  0
ATTDEF
  5
91
330
84
100
AcDbEntity
  8
AM_6
100
AcDbText
 10
2.200000000000003
 20
18.98530545755781
 30
0.0
 40
0.5
  1
0.11
100
AcDbAttributeDefinition
  3

  2
WEIGHT
 70
     8
280
     0
  0
ATTDEF
  5
92
330
84
100
AcDbEntity
  8
AM_6
100
AcDbText
 10
2.200000000000003
 20
18.48530545755781
 30
0.0
 40
0.5
  1
31.2
100
AcDbAttributeDefinition
  3

  2
A
 70
     8
280
     0
  0
ATTDEF
  5
93
330
84
100
AcDbEntity
  8
AM_6
100
AcDbText
 10
2.200000000000003
 20
17.98530545755781
 30
0.0
 40
0.5
  1
14.7
100
AcDbAttributeDefinition
  3

  2
C
 70
     8
280
     0
  0
ATTDEF
  5
94
330
84
100
AcDbEntity
  8
AM_6
100
AcDbText
 10
2.200000000000003
 20
17.48530545755781
 30
0.0
 40
0.5
  1
47
100
AcDbAttributeDefinition
  3

  2
D
 70
     8
280
     0
  0
ATTDEF
  5
95
330
84
100
AcDbEntity
  8
AM_6
100
AcDbText
 10
2.200000000000003
 20
16.98530545755781
 30
0.0
 40
0.5
  1
3.8
100
AcDbAttributeDefinition
  3

  2
J
 70
     8
280
     0
  0
ATTDEF
  5
96
330
84
100
AcDbEntity
  8
AM_6
100
AcDbText
 10
2.200000000000003
 20
16.48530545755781
 30
0.0
 40
0.5
  1
28.4
100
AcDbAttributeDefinition
  3

  2
L
 70
     8
280
     0
  0
ATTDEF
  5
97
330
84
100
AcDbEntity
  8
AM_6
100
AcDbText
 10
2.200000000000003
 20
15.98530545755781
 30
0.0
 40
0.5
  1
M6x1
100
AcDbAttributeDefinition
  3

  2
N
 70
     8
280
     0
  0
ATTDEF
  5
98
330
84
100
AcDbEntity
  8
AM_6
100
AcDbText
 10
2.200000000000003
 20
15.48530545755781
 30
0.0
 40
0.5
  1
12.7
100
AcDbAttributeDefinition
  3

  2
W
 70
     8
280
     0
  0
ATTDEF
  5
99
330
84
100
AcDbEntity
  8
AM_6
100
AcDbText
 10
2.200000000000003
 20
14.98530545755781
 30
0.0
 40
0.5
  1
18.5
100
AcDbAttributeDefinition
  3

  2
Y
 70
     8
280
     0
  0
ATTDEF
  5
9A
330
84
100
AcDbEntity
  8
AM_6
100
AcDbText
 10
2.200000000000003
 20
14.48530545755781
 30
0.0
 40
0.5
  1
baldor
100
AcDbAttributeDefinition
  3

  2
COMPANY
 70
     8
280
     0
  0
ARC
  5
9D
330
84
100
AcDbEntity
  8
AM_9
 48
0.3671515355302456
100
AcDbCircle
 10
-11.70000000000015
 20
0.0000000000000173
 30
0.0
 40
1.470000000000151
100
AcDbArc
 50
346.8954856900452
 51
359.9999999999993
  0
CIRCLE
  5
9E
330
84
100
AcDbEntity
  8
AM_9
 48
0.3671515355302456
100
AcDbCircle
 10
-11.7
 20
-0.0000000000000028
 30
0.0
 40
0.1336363636363656
  0
LINE
  5
9F
330
84
100
AcDbEntity
  8
AM_9
 48
0.3671515355302456
100
AcDbLine
 10
-25.5415
 20
10.06530952380953
 30
0.0
 11
-25.5415
 21
13.6585
 31
0.0
  0
LINE
  5
A0
330
84
100
AcDbEntity
  8
AM_9
 48
0.3671515355302456
100
AcDbLine
 10
-30.4585
 20
13.6585
 30
0.0
 11
-30.4585
 21
10.06530952380953
 31
0.0
  0
LINE
  5
A1
330
84
100
AcDbEntity
  8
AM_9
 48
0.3671515355302456
100
AcDbLine
 10
-30.4585
 20
13.6585
 30
0.0
 11
-25.5415
 21
13.6585
 31
0.0
  0
LINE
  5
A2
330
84
100
AcDbEntity
  8
AM_9
 48
0.3671515355302456
100
AcDbLine
 10
-25.5415
 20
13.6585
 30
0.0
 11
-25.00000000000001
 21
14.2
 31
0.0
  0
LINE
  5
A3
330
84
100
AcDbEntity
  8
AM_9
 48
0.3671515355302456
100
AcDbLine
 10
-30.99999999999999
 20
14.2
 30
0.0
 11
-30.4585
 21
13.6585
 31
0.0
  0
LINE
  5
A4
330
84
100
AcDbEntity
  8
AM_9
 48
0.3671515355302456
100
AcDbLine
 10
-30.4585
 20
10.06530952380953
 30
0.0
 11
-25.5415
 21
10.06530952380953
 31
0.0
  0
LINE
  5
A5
330
84
100
AcDbEntity
  8
AM_9
 48
0.3671515355302456
100
AcDbLine
 10
-30.4585
 20
10.06530952380953
 30
0.0
 11
-30.52305134275045
 21
10.00075818105908
 31
0.0
  0
LINE
  5
A6
330
84
100
AcDbEntity
  8
AM_9
 48
0.3671515355302456
100
AcDbLine
 10
-25.47961805921624
 20
10.00342758302576
 30
0.0
 11
-25.5415
 21
10.06530952380953
 31
0.0
  0
LWPOLYLINE
  5
A7
330
84
100
AcDbEntity
  8
AM_9
 48
0.3671515355302456
100
AcDbPolyline
 90
       41
 70
     0
 43
0.0
 10
-26.218613596986
 20
2.241424954260833
 10
-25.92077485069683
 20
2.659163814824217
 10
-25.69615597138193
 20
3.112465425178482
 10
-25.54824011412886
 20
3.588846611014971
 10
-25.48047255333621
 20
4.071526949017778
 10
-25.49686272344197
 20
4.558810002995657
 10
-25.59875996476258
 20
5.024807479392414
 10
-25.78460219461995
 20
5.456362730811415
 10
-26.05017505876815
 20
5.844117530198698
 10
-26.26918222562155
 20
6.072064882285674
 10
-26.52149469506394
 20
6.273867990264534
 10
-26.80352287258508
 20
6.444224443749483
 10
-27.12702222964237
 20
6.583849592987311
 10
-27.47580541643961
 20
6.680347884383995
 10
-27.8445788679873
 20
6.727997440499863
 10
-28.21874680239164
 20
6.723822959518783
 10
-28.54633221432277
 20
6.675596156805797
 10
-28.85966948553978
 20
6.588682192018597
 10
-29.16559512024683
 20
6.459827921787343
 10
-29.44490725968405
 20
6.297127760794925
 10
-29.73773565317022
 20
6.065893010502082
 10
-29.98711330293106
 20
5.798649306669097
 10
-30.22373255823615
 20
5.441236836754196
 10
-30.39380291453387
 20
5.047624007259786
 10
-30.49951469588688
 20
4.586869135886765
 10
-30.52115153769507
 20
4.104420775403905
 10
-30.45638588099021
 20
3.60990514939233
 10
-30.30739248862453
 20
3.12136717116917
 10
-30.07576355518527
 20
2.653421681821631
 10
-29.76619592875287
 20
2.223606274219751
 10
-29.45417369760234
 20
1.911225839605375
 10
-29.09487185648804
 20
1.651212827640776
 10
-28.76958286669893
 20
1.489073360619141
 10
-28.42210445281626
 20
1.381529368908983
 10
-28.05869828883115
 20
1.337490776819086
 10
-27.69332881763752
 20
1.360052467847663
 10
-27.37059725765489
 20
1.437883940773713
 10
-27.06373658857323
 20
1.564115327347582
 10
-26.75889061701501
 20
1.745959342801403
 10
-26.48244309825563
 20
1.967131320029843
 10
-26.21861359698598
 20
2.241424954260816
  0
LINE
  5
A8
330
84
100
AcDbEntity
  8
AM_9
 48
0.3671515355302456
100
AcDbLine
 10
-33.432
 20
-9.999999999999998
 30
0.0
 11
-14.94
 21
-9.999999999999998
 31
0.0
  0
LINE
  5
A9
330
84
100
AcDbEntity
  8
AM_9
 48
0.3671515355302456
100
AcDbLine
 10
-14.94
 20
10.0
 30
0.0
 11
-25.48653196435491
 21
10.0
 31
0.0
  0
LINE
  5
AA
330
84
100
AcDbEntity
  8
AM_9
 48
0.3671515355302456
100
AcDbLine
 10
-30.52151783900172
 20
10.0
 30
0.0
 11
-33.432
 21
10.0
 31
0.0
  0
LWPOLYLINE
  5
AB
330
84
100
AcDbEntity
  8
AM_9
 48
0.3671515355302456
100
AcDbPolyline
 90
       23
 70
     0
 43
0.0
 10
-30.52380952375893
 20
9.99999999998292
 10
-30.52367477860961
 20
9.999954513704436
 10
-30.47693869998122
 20
9.98429128328682
 10
-30.34233542238636
 20
9.94046648740529
 10
-30.1301800045517
 20
9.875404752043188
 10
-29.83156314211493
 20
9.792607315874925
 10
-29.47418620974925
 20
9.707940345490906
 10
-29.26216572275095
 20
9.665595316339632
 10
-29.03338882144164
 20
9.62679628779007
 10
-28.71372995345617
 20
9.585043936851358
 10
-28.36451132181921
 20
9.556594884617622
 10
-28.0125760452845
 20
9.546509430855345
 10
-27.64828748843592
 20
9.555899236434106
 10
-27.33153830418949
 20
9.5803334973483
 10
-27.02404940955477
 20
9.618210548082425
 10
-26.72255650867335
 20
9.668439612688017
 10
-26.44480189609107
 20
9.725698826804612
 10
-26.16060064090431
 20
9.794643607893141
 10
-25.91864872803696
 20
9.861149170316835
 10
-25.70383422682772
 20
9.925883116341154
 10
-25.55578769932648
 20
9.973459104524084
 10
-25.48226641112069
 20
9.997950795496966
 10
-25.47619047628142
 20
9.9999999999693
  0
LINE
  5
AC
330
84
100
AcDbEntity
  8
AM_9
 48
0.3671515355302456
100
AcDbLine
 10
-2.941999999999997
 20
-9.999999999999998
 30
0.0
 11
-2.799999999999998
 21
-10.142
 31
0.0
  0
LINE
  5
AD
330
84
100
AcDbEntity
  8
AM_9
 48
0.3671515355302456
100
AcDbLine
 10
-2.799999999999998
 20
10.14200000000001
 30
0.0
 11
-2.941999999999997
 21
10.0
 31
0.0
  0
LINE
  5
AE
330
84
100
AcDbEntity
  8
AM_9
 48
0.3671515355302456
100
AcDbLine
 10
-33.432
 20
10.0
 30
0.0
 11
-34.0
 21
10.568
 31
0.0
  0
LINE
  5
AF
330
84
100
AcDbEntity
  8
AM_9
 48
0.3671515355302456
100
AcDbLine
 10
-34.0
 20
-10.56799999999999
 30
0.0
 11
-33.432
 21
-9.999999999999998
 31
0.0
  0
ELLIPSE
  5
B0
330
84
100
AcDbEntity
  8
AM_9
 48
0.3671515355302456
100
AcDbEllipse
 10
-28.00000000000009
 20
4.253783614834473
 30
0.0
 11
2.458499999999912
 21
-1.949413702212492E-13
 31
0.0
210
0.0
220
0.0
230
1.0
 40
0.9063077870366525
 41
2.793864179755623
 42
3.141592653589873
  0
LINE
  5
B1
330
84
100
AcDbEntity
  8
AM_9
 48
0.3671515355302456
100
AcDbLine
 10
-25.5415
 20
4.25378361483449
 30
0.0
 11
-25.5415
 21
5.772331527985345
 31
0.0
  0
LINE
  5
B2
330
84
100
AcDbEntity
  8
AM_9
 48
0.3671515355302456
100
AcDbLine
 10
-30.4585
 20
5.772331527985345
 30
0.0
 11
-30.4585
 21
4.25378361483449
 31
0.0
  0
ELLIPSE
  5
B3
330
84
100
AcDbEntity
  8
AM_9
 48
0.3671515355302456
100
AcDbEllipse
 10
-28.0
 20
4.25378361483449
 30
0.0
 11
2.458500000000001
 21
-2.785745475973512E-15
 31
0.0
210
0.0
220
0.0
230
1.0
 40
0.9063077870366497
 41
3.141592653589794
 42
6.283185307179588
  0
ELLIPSE
  5
B4
330
84
100
AcDbEntity
  8
AM_9
 48
0.3671515355302456
100
AcDbEllipse
 10
-27.99999999999985
 20
4.253783614834489
 30
0.0
 11
2.458499999999848
 21
1.829647544582258E-13
 31
0.0
210
0.0
220
0.0
230
1.0
 40
0.9063077870366522
 41
6.283185307179503
 42
6.630913781017646
  0
LINE
  5
B5
330
84
100
AcDbEntity
  8
AM_9
 48
0.3671515355302456
100
AcDbLine
 10
-24.9
 20
-14.19999999999999
 30
0.0
 11
-22.85
 21
-14.19999999999999
 31
0.0
  0
LINE
  5
B6
330
84
100
AcDbEntity
  8
AM_9
 48
0.3671515355302456
100
AcDbLine
 10
-22.85
 20
14.2
 30
0.0
 11
-24.9
 21
14.2
 31
0.0
  0
LINE
  5
B7
330
84
100
AcDbEntity
  8
AM_9
 48
0.3671515355302456
100
AcDbLine
 10
-8.15
 20
-14.20000000000001
 30
0.0
 11
-2.941999999999997
 21
-14.20000000000001
 31
0.0
  0
LINE
  5
B8
330
84
100
AcDbEntity
  8
AM_9
 48
0.3671515355302456
100
AcDbLine
 10
-2.941999999999997
 20
14.20000000000001
 30
0.0
 11
-8.15
 21
14.20000000000001
 31
0.0
  0
LINE
  5
B9
330
84
100
AcDbEntity
  8
AM_9
 48
0.3671515355302456
100
AcDbLine
 10
-2.799999999999997
 20
14.058
 30
0.0
 11
-2.941999999999997
 21
14.20000000000002
 31
0.0
  0
LINE
  5
BA
330
84
100
AcDbEntity
  8
AM_9
 48
0.3671515355302456
100
AcDbLine
 10
-2.941999999999997
 20
-14.20000000000002
 30
0.0
 11
-2.799999999999997
 21
-14.058
 31
0.0
  0
LINE
  5
BB
330
84
100
AcDbEntity
  8
AM_9
 48
0.3671515355302456
100
AcDbLine
 10
-2.941999999999997
 20
14.20000000000002
 30
0.0
 11
-2.941999999999997
 21
-14.20000000000002
 31
0.0
  0
LINE
  5
BC
330
84
100
AcDbEntity
  8
AM_9
 48
0.3671515355302456
100
AcDbLine
 10
-2.799999999999997
 20
14.058
 30
0.0
 11
-2.799999999999997
 21
-14.058
 31
0.0
  0
LINE
  5
BD
330
84
100
AcDbEntity
  8
AM_9
 48
0.3671515355302456
100
AcDbLine
 10
-19.9
 20
-22.03
 30
0.0
 11
-17.94
 21
-22.03
 31
0.0
  0
LINE
  5
BE
330
84
100
AcDbEntity
  8
AM_9
 48
0.3671515355302456
100
AcDbLine
 10
-17.94
 20
22.03
 30
0.0
 11
-19.9
 21
22.03
 31
0.0
  0
LINE
  5
BF
330
84
100
AcDbEntity
  8
AM_9
 48
0.3671515355302456
100
AcDbLine
 10
-8.15
 20
21.63354487917145
 30
0.0
 11
-8.15
 21
-21.63354487917145
 31
0.0
  0
ARC
  5
C0
330
84
100
AcDbEntity
  8
AM_9
 48
0.3671515355302456
100
AcDbCircle
 10
-8.738000000000007
 20
-21.63354487917146
 30
0.0
 40
0.588000000000004
100
AcDbArc
 50
291.412467046885
 51
0.0000000000010385
  0
ARC
  5
C1
330
84
100
AcDbEntity
  8
AM_9
 48
0.3671515355302456
100
AcDbCircle
 10
-8.738000000000007
 20
21.63354487917146
 30
0.0
 40
0.5880000000000063
100
AcDbArc
 50
359.999999999999
 51
68.58753295311503
  0
LINE
  5
C2
330
84
100
AcDbEntity
  8
AM_9
 48
0.3671515355302456
100
AcDbLine
 10
-22.85
 20
21.63354487917145
 30
0.0
 11
-22.85
 21
-21.63354487917145
 31
0.0
  0
ARC
  5
C3
330
84
100
AcDbEntity
  8
AM_9
 48
0.3671515355302456
100
AcDbCircle
 10
-22.262
 20
-21.63354487917146
 30
0.0
 40
0.5879999999999939
100
AcDbArc
 50
179.9999999999986
 51
248.5875329531151
  0
ARC
  5
C4
330
84
100
AcDbEntity
  8
AM_9
 48
0.3671515355302456
100
AcDbCircle
 10
-22.262
 20
21.63354487917147
 30
0.0
 40
0.5879999999999961
100
AcDbArc
 50
111.4124670468849
 51
180.0000000000014
  0
ARC
  5
C5
330
84
100
AcDbEntity
  8
AM_9
 48
0.3671515355302456
100
AcDbCircle
 10
-15.50000000000024
 20
-4.390000000000601
 30
0.0
 40
19.10999999999936
100
AcDbArc
 50
248.5875329531159
 51
256.6884480428109
  0
ARC
  5
C6
330
84
100
AcDbEntity
  8
AM_9
 48
0.3671515355302456
100
AcDbCircle
 10
-15.49999999999983
 20
4.389999999999304
 30
0.0
 40
19.11000000000072
100
AcDbArc
 50
103.3115519571894
 51
111.4124670468838
  0
LINE
  5
C7
330
84
100
AcDbEntity
  8
AM_9
 48
0.3671515355302456
100
AcDbLine
 10
-22.47666666666668
 20
22.18095900231976
 30
0.0
 11
-22.47666666666668
 21
-22.18095900231976
 31
0.0
  0
LINE
  5
C8
330
84
100
AcDbEntity
  8
AM_9
 48
0.3671515355302456
100
AcDbLine
 10
-19.9
 20
22.9865615101287
 30
0.0
 11
-19.9
 21
-22.98656151012869
 31
0.0
  0
LWPOLYLINE
  5
C9
330
84
100
AcDbEntity
  8
AM_9
 48
0.3671515355302456
100
AcDbPolyline
 90
       16
 70
     0
 43
0.0
 10
-12.15907402422041
 20
-1.39647808442743
 10
-12.38166660904292
 20
-1.301420474915737
 10
-12.58571746533828
 20
-1.16993541739764
 10
-12.76550404850941
 20
-1.004911146832342
 10
-12.91586550356697
 20
-0.8117193561710424
 10
-13.03229024811873
 20
-0.5950883624928259
 10
-13.11169416520941
 20
-0.3617597505192921
 10
-13.1513438792666
 20
-0.1176590649333824
 10
-13.15048539954095
 20
0.1297519076760539
 10
-13.10851045334187
 20
0.37370528618481
 10
-13.02714912318219
 20
0.6071186005135287
 10
-12.9082081389494
 20
0.8230927926014654
 10
-12.75554564341697
 20
1.015819903305082
 10
-12.57335762105861
 20
1.179189015409451
 10
-12.36700477098571
 20
1.30926147565607
 10
-12.15907402424874
 20
1.39647808441811
  0
LWPOLYLINE
  5
CA
330
84
100
AcDbEntity
  8
AM_9
 48
0.3671515355302456
100
AcDbPolyline
 90
       24
 70
     0
 43
0.0
 10
-12.15907402422041
 20
-1.39647808442743
 10
-11.91369771272306
 20
-1.454235043268019
 10
-11.66244952686125
 20
-1.469520316963014
 10
-11.41193835336658
 20
-1.441349942939311
 10
-11.1696680653554
 20
-1.371002567136961
 10
-10.94231854514509
 20
-1.259510180830047
 10
-10.73675773899861
 20
-1.110434305405294
 10
-10.56135553825433
 20
-0.9294708604597642
 10
-10.41873418600221
 20
-0.720595527241594
 10
-10.31584610274437
 20
-0.4945147582046517
 10
-10.25207791923567
 20
-0.2538141998295276
 10
-10.23019219115178
 20
-0.0106834835554451
 10
-10.24854355144523
 20
0.2327534703259383
 10
-10.30639065055623
 20
0.4672609277458712
 10
-10.40133936952365
 20
0.6887529069635695
 10
-10.53203032295482
 20
0.8923834791867382
 10
-10.69355205424792
 20
1.071430134209146
 10
-10.88557069932822
 20
1.22360528170283
 10
-11.09941781288378
 20
1.341715706295007
 10
-11.33460492504651
 20
1.423719315571001
 10
-11.57994386664863
 20
1.465089254907265
 10
-11.83217645777356
 20
1.463896898714733
 10
-12.08082271038699
 20
1.419814798927491
 10
-12.15907402424874
 20
1.39647808441811
  0
ARC
  5
CB
330
84
100
AcDbEntity
  8
AM_9
 48
0.3671515355302456
100
AcDbCircle
 10
-15.50000000000001
 20
-4.38999999999989
 30
0.0
 40
19.11000000000011
100
AcDbArc
 50
262.6643447152239
 51
291.4124670468839
  0
ARC
  5
CC
330
84
100
AcDbEntity
  8
AM_9
 48
0.3671515355302456
100
AcDbCircle
 10
-15.50000000000005
 20
4.389999999999581
 30
0.0
 40
19.11000000000042
100
AcDbArc
 50
68.58753295311625
 51
97.33565528477587
  0
LINE
  5
CD
330
84
100
AcDbEntity
  8
AM_9
 48
0.3671515355302456
100
AcDbLine
 10
-17.94000000000001
 20
23.34358805081509
 30
0.0
 11
-17.94000000000001
 21
-23.34358805081508
 31
0.0
  0
LINE
  5
CE
330
84
100
AcDbEntity
  8
AM_9
 48
0.3671515355302456
100
AcDbLine
 10
-8.52333333333333
 20
22.18095900231976
 30
0.0
 11
-8.52333333333333
 21
-22.18095900231976
 31
0.0
  0
LINE
  5
D0
330
84
100
AcDbEntity
  8
AM_5
 48
0.3671515355302456
100
AcDbLine
 10
-25.0
 20
14.2
 30
0.0
 11
-25.0
 21
10.0
 31
0.0
  0
LINE
  5
D1
330
84
100
AcDbEntity
  8
AM_5
 48
0.3671515355302456
100
AcDbLine
 10
-31.0
 20
14.2
 30
0.0
 11
-31.0
 21
10.0
 31
0.0
  0
LINE
  5
D4
330
84
100
AcDbEntity
  8
AM_7
 48
0.3671515355302456
100
AcDbLine
 10
-11.7
 20
-0.1403181818181867
 30
0.0
 11
-11.7
 21
0.1403181818181811
 31
0.0
  0
LINE
  5
D5
330
84
100
AcDbEntity
  8
AM_7
 48
0.3671515355302456
100
AcDbLine
 10
-28.0
 20
14.43380952380952
 30
0.0
 11
-28.0
 21
9.290000000000004
 31
0.0
  0
ELLIPSE
  5
D7
330
84
100
AcDbEntity
  8
AM_0
 48
0.3671515355302456
100
AcDbEllipse
 10
-28.00000000000001
 20
4.253783614834495
 30
0.0
 11
2.458499999999994
 21
3.552713678800501E-15
 31
0.0
210
0.0
220
0.0
230
1.0
 40
0.9063077870366502
 41
1.570796326794893
 42
2.793864179755555
  0
ELLIPSE
  5
D8
330
84
100
AcDbEntity
  8
AM_0
 48
0.3671515355302456
100
AcDbEllipse
 10
-28.0
 20
4.253783614834493
 30
0.0
 11
2.458500000000001
 21
-7.152918765639030E-15
 31
0.0
210
0.0
220
0.0
230
1.0
 40
0.9063077870366497
 41
0.3477284738381217
 42
1.570796326794899
  0
LINE
  5
D9
330
84
100
AcDbEntity
  8
AM_0
 48
0.3671515355302456
100
AcDbLine
 10
-34.0
 20
-13.632
 30
0.0
 11
-33.432
 21
-14.19999999999999
 31
0.0
  0
LINE
  5
DA
330
84
100
AcDbEntity
  8
AM_0
 48
0.3671515355302456
100
AcDbLine
 10
-33.432
 20
14.2
 30
0.0
 11
-34.0
 21
13.632
 31
0.0
  0
LINE
  5
DB
330
84
100
AcDbEntity
  8
AM_0
 48
0.3671515355302456
100
AcDbLine
 10
-34.0
 20
13.632
 30
0.0
 11
-34.0
 21
-13.632
 31
0.0
  0
LWPOLYLINE
  5
DC
330
84
100
AcDbEntity
  8
AM_0
 48
0.3671515355302456
100
AcDbPolyline
 90
       39
 70
     0
 43
0.0
 10
-25.6928178464495
 20
4.374709830172217
 10
-26.00359941019364
 20
4.092071170034085
 10
-26.35369120161373
 20
3.853414940895952
 10
-26.79866359804585
 20
3.637785315631195
 10
-27.27331334622552
 20
3.491722947720176
 10
-27.79593635933719
 20
3.417371886167308
 10
-28.32407760565502
 20
3.426712344853061
 10
-28.85476476712991
 20
3.523675082825148
 10
-29.36099584971904
 20
3.70531078713645
 10
-29.82355624830135
 20
3.965718774834737
 10
-30.23136471867168
 20
4.297907420246433
 10
-30.55310812614637
 20
4.672893030938148
 10
-30.79690645253069
 20
5.092819679022951
 10
-30.93826004980106
 20
5.49971507936973
 10
-30.99830205773852
 20
5.91794811779747
 10
-30.97788727314079
 20
6.29683993684028
 10
-30.8879110653283
 20
6.662196661151582
 10
-30.73408829641982
 20
6.999322172864042
 10
-30.52248975000826
 20
7.307077438428816
 10
-30.2417275629624
 20
7.595739246648658
 10
-29.91279984044737
 20
7.841562750881351
 10
-29.5074762100283
 20
8.058200895160862
 10
-29.06651270831159
 20
8.218545666497134
 10
-28.56413981214197
 20
8.32633819680055
 10
-28.04693501373934
 20
8.366685366977672
 10
-27.51033192139541
 20
8.336362062305538
 10
-26.98750532051819
 20
8.233695574214753
 10
-26.49274510542587
 20
8.058202299158712
 10
-26.04248676367088
 20
7.812474522387604
 10
-25.66460340573021
 20
7.509373929054008
 10
-25.35828229854189
 20
7.147831422775711
 10
-25.15390793391357
 20
6.770294393722459
 10
-25.03221228411467
 20
6.359894778135797
 10
-25.00055276986517
 20
5.972594442468481
 10
-25.04309374510373
 20
5.580760764507782
 10
-25.15239616396092
 20
5.213239399670525
 10
-25.32317101391317
 20
4.862499434334246
 10
-25.49321478080532
 20
4.609376414731189
 10
-25.69281783165175
 20
4.374709809443788
  0
LINE
  5
DD
330
84
100
AcDbEntity
  8
AM_0
 48
0.3671515355302456
100
AcDbLine
 10
-33.432
 20
-14.19999999999999
 30
0.0
 11
-24.9
 21
-14.19999999999999
 31
0.0
  0
LINE
  5
DE
330
84
100
AcDbEntity
  8
AM_0
 48
0.3671515355302456
100
AcDbLine
 10
-24.9
 20
14.2
 30
0.0
 11
-25.00512176888294
 21
14.2
 31
0.0
  0
LINE
  5
DF
330
84
100
AcDbEntity
  8
AM_0
 48
0.3671515355302456
100
AcDbLine
 10
-30.99380626680433
 20
14.2
 30
0.0
 11
-33.432
 21
14.2
 31
0.0
  0
LINE
  5
E0
330
84
100
AcDbEntity
  8
AM_0
 48
0.3671515355302456
100
AcDbLine
 10
-33.432
 20
14.2
 30
0.0
 11
-33.432
 21
-14.19999999999999
 31
0.0
  0
LWPOLYLINE
  5
E1
330
84
100
AcDbEntity
  8
AM_0
 48
0.3671515355302456
100
AcDbPolyline
 90
       20
 70
     0
 43
0.0
 10
-25.0000000000186
 20
14.19999999999675
 10
-25.0282572130822
 20
14.19509322787129
 10
-25.12175324614418
 20
14.17916966774995
 10
-25.28181938087246
 20
14.15302595220547
 10
-25.50176474730357
 20
14.11942425806507
 10
-25.78055003705668
 20
14.08074165795684
 10
-26.12615368629946
 20
14.03893654459402
 10
-26.52297048177135
 20
13.9994528452072
 10
-26.98104886916142
 20
13.96535299336009
 10
-27.47703266011652
 20
13.94246650693261
 10
-28.00001364400056
 20
13.93426661441143
 10
-28.53759010081768
 20
13.94293123298092
 10
-29.05324056317796
 20
13.96747619309202
 10
-29.55316841764587
 20
14.00631703344492
 10
-29.98652577993695
 20
14.05181296155902
 10
-30.37257084498816
 20
14.10144377192744
 10
-30.65533987412485
 20
14.14315017564122
 10
-30.86580928603352
 20
14.17708758448682
 10
-30.97129168868924
 20
14.19501525011078
 10
-30.99999999997467
 20
14.19999999999558
  0
ELLIPSE
  5
E2
330
84
100
AcDbEntity
  8
AM_0
 48
0.3671515355302456
100
AcDbEllipse
 10
-28.0
 20
5.772331527985347
 30
0.0
 11
2.458500000000004
 21
-2.785745475973517E-15
 31
0.0
210
0.0
220
0.0
230
1.0
 40
0.9063077870366495
 41
0.0
 42
6.283185307179586
  0
ENDBLK
  5
87
330
84
100
AcDbEntity
  8
0
100
AcDbBlockEnd
  0
BLOCK
  5
E5
330
E3
100
AcDbEntity
  8
0
100
AcDbBlockBegin
  2
2_405015E_Metric_0_in_125695_2
 70
     2
 10
0.0
 20
0.0
 30
0.0
  3
2_405015E_Metric_0_in_125695_2
  1

  0
ATTDEF
  5
E7
330
E3
100
AcDbEntity
  8
AM_6
100
AcDbText
 10
-4.736497308103743
 20
50.8748
 30
0.0
 40
0.5
  1
405015E -Metric
100
AcDbAttributeDefinition
  3

  2
NN
 70
     8
280
     0
  0
ATTDEF
  5
E8
330
E3
100
AcDbEntity
  8
AM_6
100
AcDbText
 10
-4.736497308103743
 20
50.3748
 30
0.0
 40
0.5
  1
Grease Fitting
100
AcDbAttributeDefinition
  3

  2
NT
 70
     8
280
     0
  0
ATTDEF
  5
E9
330
E3
100
AcDbEntity
  8
AM_6
100
AcDbText
 10
-4.736497308103743
 20
49.8748
 30
0.0
 40
0.5
  1
405015E-Metric
100
AcDbAttributeDefinition
  3

  2
NB
 70
     8
280
     0
  0
ATTDEF
  5
EA
330
E3
100
AcDbEntity
  8
AM_6
100
AcDbText
 10
-4.736497308103743
 20
49.3748
 30
0.0
 40
0.5
  1
$MN.-Metric
100
AcDbAttributeDefinition
  3

  2
NBSYN
 70
     8
280
     0
  0
ATTDEF
  5
EB
330
E3
100
AcDbEntity
  8
AM_6
100
AcDbText
 10
-4.736497308103743
 20
48.8748
 30
0.0
 40
0.5
  1
405015E
100
AcDbAttributeDefinition
  3

  2
LINA
 70
     8
280
     0
  0
ATTDEF
  5
EC
330
E3
100
AcDbEntity
  8
AM_6
100
AcDbText
 10
-4.736497308103743
 20
48.3748
 30
0.0
 40
0.5
  1
405015E
100
AcDbAttributeDefinition
  3

  2
MN
 70
     8
280
     0
  0
ATTDEF
  5
ED
330
E3
100
AcDbEntity
  8
AM_6
100
AcDbText
 10
-4.736497308103743
 20
47.8748
 30
0.0
 40
0.5
  1
1/8 x 27PTF
100
AcDbAttributeDefinition
  3

  2
T
 70
     8
280
     0
  0
ATTDEF
  5
EE
330
E3
100
AcDbEntity
  8
AM_6
100
AcDbText
 10
-4.736497308103743
 20
47.3748
 30
0.0
 40
0.5
  1
baldor
100
AcDbAttributeDefinition
  3

  2
COMPANY
 70
     8
280
     0
  0
LINE
  5
EF
330
E3
100
AcDbEntity
  8
AM_9
 48
0.0788183806600721
100
AcDbLine
 10
-10.51
 20
40.537
 30
0.0
 11
-9.736497308103743
 21
40.7442594216369
 31
0.0
  0
LINE
  5
F0
330
E3
100
AcDbEntity
  8
AM_9
 48
0.0788183806600721
100
AcDbLine
 10
-19.66799375318352
 20
33.806
 30
0.0
 11
-11.35200624681648
 21
33.806
 31
0.0
  0
LINE
  5
F1
330
E3
100
AcDbEntity
  8
AM_9
 48
0.0788183806600721
100
AcDbLine
 10
-11.35200624681648
 20
33.806
 30
0.0
 11
-10.75197054348823
 21
34.40603570332824
 31
0.0
  0
LINE
  5
F2
330
E3
100
AcDbEntity
  8
AM_9
 48
0.0788183806600721
100
AcDbLine
 10
-20.26802945651177
 20
34.40603570332824
 30
0.0
 11
-19.66799375318352
 21
33.806
 31
0.0
  0
LINE
  5
F3
330
E3
100
AcDbEntity
  8
AM_9
 48
0.0788183806600721
100
AcDbLine
 10
-20.26802945651177
 20
34.40603570332824
 30
0.0
 11
-10.75197054348823
 21
34.40603570332824
 31
0.0
  0
LINE
  5
F4
330
E3
100
AcDbEntity
  8
AM_9
 48
0.0788183806600721
100
AcDbLine
 10
-10.75197054348823
 20
34.40603570332824
 30
0.0
 11
-10.56036833446504
 21
40.537
 31
0.0
  0
LINE
  5
F5
330
E3
100
AcDbEntity
  8
AM_9
 48
0.0788183806600721
100
AcDbLine
 10
-20.45963166553497
 20
40.537
 30
0.0
 11
-20.26802945651177
 21
34.40603570332824
 31
0.0
  0
LINE
  5
F6
330
E3
100
AcDbEntity
  8
AM_9
 48
0.0788183806600721
100
AcDbLine
 10
-9.736497308103743
 20
42.95
 30
0.0
 11
-9.736497308103743
 21
40.7442594216369
 31
0.0
  0
LWPOLYLINE
  5
F7
330
E3
100
AcDbEntity
  8
AM_9
 48
0.0788183806600721
100
AcDbPolyline
 90
        4
 70
     0
 43
0.0
 10
-9.736497308103743
 20
40.7442594216369
 10
-10.4549402417471
 20
40.59218914170559
 10
-10.81690112909365
 20
40.55104712718234
 10
-11.17987298107781
 20
40.537
  0
LINE
  5
F8
330
E3
100
AcDbEntity
  8
AM_5
 48
0.0788183806600721
100
AcDbLine
 10
-11.17491707355492
 20
39.47257036016892
 30
0.0
 11
-11.35200624681648
 21
33.806
 31
0.0
  0
LINE
  5
F9
330
E3
100
AcDbEntity
  8
AM_5
 48
0.0788183806600721
100
AcDbLine
 10
-10.56036833446503
 20
40.53700000000001
 30
0.0
 11
-11.17491707355492
 21
39.47257036016892
 31
0.0
  0
LINE
  5
FA
330
E3
100
AcDbEntity
  8
AM_5
 48
0.0788183806600721
100
AcDbLine
 10
-19.84508292644508
 20
39.47257036016892
 30
0.0
 11
-19.66799375318352
 21
33.806
 31
0.0
  0
LINE
  5
FB
330
E3
100
AcDbEntity
  8
AM_5
 48
0.0788183806600721
100
AcDbLine
 10
-20.45963166553496
 20
40.53699999999999
 30
0.0
 11
-19.84508292644508
 21
39.47257036016892
 31
0.0
  0
LINE
  5
FC
330
E3
100
AcDbEntity
  8
AM_5
 48
0.0788183806600721
100
AcDbLine
 10
-20.42636657696609
 20
39.47257036016892
 30
0.0
 11
-10.59363342303391
 21
39.47257036016892
 31
0.0
  0
LINE
  5
FD
330
E3
100
AcDbEntity
  8
AM_7
 48
0.0788183806600721
100
AcDbLine
 10
-15.51
 20
50.8748
 30
0.0
 11
-15.51
 21
32.99319999999999
 31
0.0
  0
LINE
  5
FE
330
E3
100
AcDbEntity
  8
AM_0
 48
0.0788183806600721
100
AcDbLine
 10
-20.51
 20
43.53699999999999
 30
0.0
 11
-10.51
 21
43.53699999999999
 31
0.0
  0
LINE
  5
FF
330
E3
100
AcDbEntity
  8
AM_0
 48
0.0788183806600721
100
AcDbLine
 10
-9.736497308103743
 20
43.32974057836309
 30
0.0
 11
-10.51
 21
43.53699999999999
 31
0.0
  0
LINE
  5
100
330
E3
100
AcDbEntity
  8
AM_0
 48
0.0788183806600721
100
AcDbLine
 10
-21.28350269189626
 20
40.7442594216369
 30
0.0
 11
-20.51
 21
40.537
 31
0.0
  0
LINE
  5
101
330
E3
100
AcDbEntity
  8
AM_0
 48
0.0788183806600721
100
AcDbLine
 10
-20.51
 20
43.53699999999999
 30
0.0
 11
-21.28350269189626
 21
43.32974057836309
 31
0.0
  0
LINE
  5
102
330
E3
100
AcDbEntity
  8
AM_0
 48
0.0788183806600721
100
AcDbLine
 10
-12.835
 20
46.062
 30
0.0
 11
-12.835
 21
46.762
 31
0.0
  0
LINE
  5
103
330
E3
100
AcDbEntity
  8
AM_0
 48
0.0788183806600721
100
AcDbLine
 10
-18.185
 20
46.762
 30
0.0
 11
-18.185
 21
46.062
 31
0.0
  0
LINE
  5
104
330
E3
100
AcDbEntity
  8
AM_0
 48
0.0788183806600721
100
AcDbLine
 10
-18.185
 20
46.062
 30
0.0
 11
-12.835
 21
46.062
 31
0.0
  0
LINE
  5
105
330
E3
100
AcDbEntity
  8
AM_0
 48
0.0788183806600721
100
AcDbLine
 10
-18.185
 20
46.062
 30
0.0
 11
-18.49299498256251
 21
45.24581329620934
 31
0.0
  0
LINE
  5
106
330
E3
100
AcDbEntity
  8
AM_0
 48
0.0788183806600721
100
AcDbLine
 10
-12.52700501743749
 20
45.24581329620934
 30
0.0
 11
-12.835
 21
46.062
 31
0.0
  0
LINE
  5
107
330
E3
100
AcDbEntity
  8
AM_0
 48
0.0788183806600721
100
AcDbLine
 10
-18.185
 20
46.762
 30
0.0
 11
-12.835
 21
46.762
 31
0.0
  0
LINE
  5
108
330
E3
100
AcDbEntity
  8
AM_0
 48
0.0788183806600721
100
AcDbLine
 10
-12.835
 20
46.762
 30
0.0
 11
-12.335
 21
48.06199999999999
 31
0.0
  0
LINE
  5
109
330
E3
100
AcDbEntity
  8
AM_0
 48
0.0788183806600721
100
AcDbLine
 10
-18.685
 20
48.06199999999999
 30
0.0
 11
-18.185
 21
46.762
 31
0.0
  0
LINE
  5
10A
330
E3
100
AcDbEntity
  8
AM_0
 48
0.0788183806600721
100
AcDbLine
 10
-17.87694754832969
 20
50.062
 30
0.0
 11
-13.14305245167031
 21
50.062
 31
0.0
  0
LINE
  5
10B
330
E3
100
AcDbEntity
  8
AM_0
 48
0.0788183806600721
100
AcDbLine
 10
-18.685
 20
48.06199999999999
 30
0.0
 11
-12.335
 21
48.06199999999999
 31
0.0
  0
LINE
  5
10C
330
E3
100
AcDbEntity
  8
AM_0
 48
0.0788183806600721
100
AcDbLine
 10
-17.87694754832969
 20
50.062
 30
0.0
 11
-18.685
 21
48.06199999999999
 31
0.0
  0
LINE
  5
10D
330
E3
100
AcDbEntity
  8
AM_0
 48
0.0788183806600721
100
AcDbLine
 10
-12.335
 20
48.06199999999999
 30
0.0
 11
-13.14305245167031
 21
50.062
 31
0.0
  0
LINE
  5
10E
330
E3
100
AcDbEntity
  8
AM_0
 48
0.0788183806600721
100
AcDbLine
 10
-18.49299498256251
 20
45.24581329620934
 30
0.0
 11
-12.52700501743749
 21
45.24581329620934
 31
0.0
  0
LINE
  5
10F
330
E3
100
AcDbEntity
  8
AM_0
 48
0.0788183806600721
100
AcDbLine
 10
-18.49299498256251
 20
45.24581329620934
 30
0.0
 11
-19.11758389460111
 21
44.4074122707801
 31
0.0
  0
LINE
  5
110
330
E3
100
AcDbEntity
  8
AM_0
 48
0.0788183806600721
100
AcDbLine
 10
-11.90241610539889
 20
44.4074122707801
 30
0.0
 11
-12.52700501743749
 21
45.24581329620934
 31
0.0
  0
LINE
  5
111
330
E3
100
AcDbEntity
  8
AM_0
 48
0.0788183806600721
100
AcDbLine
 10
-19.11758389460111
 20
44.4074122707801
 30
0.0
 11
-11.90241610539889
 21
44.4074122707801
 31
0.0
  0
LINE
  5
112
330
E3
100
AcDbEntity
  8
AM_0
 48
0.0788183806600721
100
AcDbLine
 10
-19.11758389460111
 20
44.4074122707801
 30
0.0
 11
-20.26
 21
43.537
 31
0.0
  0
LINE
  5
113
330
E3
100
AcDbEntity
  8
AM_0
 48
0.0788183806600721
100
AcDbLine
 10
-10.76
 20
43.537
 30
0.0
 11
-11.90241610539889
 21
44.4074122707801
 31
0.0
  0
LINE
  5
114
330
E3
100
AcDbEntity
  8
AM_0
 48
0.0788183806600721
100
AcDbLine
 10
-9.736497308103743
 20
43.32974057836309
 30
0.0
 11
-9.736497308103743
 21
42.95
 31
0.0
  0
LWPOLYLINE
  5
115
330
E3
100
AcDbEntity
  8
AM_0
 48
0.0788183806600721
100
AcDbPolyline
 90
        4
 70
     0
 43
0.0
 10
-11.17987298107781
 20
43.537
 10
-10.81902906283429
 20
43.52311625133716
 10
-10.45818514459078
 20
43.48229415348492
 10
-9.736497308103743
 20
43.32974057836309
  0
LWPOLYLINE
  5
116
330
E3
100
AcDbEntity
  8
AM_0
 48
0.0788183806600721
100
AcDbPolyline
 90
        4
 70
     0
 43
0.0
 10
-21.28350269189626
 20
43.32974057836309
 10
-20.5650597582529
 20
43.48181085829439
 10
-20.20309887090636
 20
43.52295287281765
 10
-19.84012701892219
 20
43.537
  0
LINE
  5
117
330
E3
100
AcDbEntity
  8
AM_0
 48
0.0788183806600721
100
AcDbLine
 10
-21.28350269189626
 20
43.32974057836309
 30
0.0
 11
-21.28350269189626
 21
40.7442594216369
 31
0.0
  0
LWPOLYLINE
  5
118
330
E3
100
AcDbEntity
  8
AM_0
 48
0.0788183806600721
100
AcDbPolyline
 90
        4
 70
     0
 43
0.0
 10
-19.8401270189222
 20
40.537
 10
-20.20097093716571
 20
40.55088374866283
 10
-20.56181485540923
 20
40.59170584651507
 10
-21.28350269189626
 20
40.7442594216369
  0
LWPOLYLINE
  5
119
330
E3
100
AcDbEntity
  8
AM_0
 48
0.0788183806600721
100
AcDbPolyline
 90
        4
 70
     0
 43
0.0
 10
-18.39675134594813
 20
40.7442594216369
 10
-19.11519427959149
 20
40.59218914170559
 10
-19.47715516693803
 20
40.55104712718234
 10
-19.8401270189222
 20
40.537
  0
LWPOLYLINE
  5
11A
330
E3
100
AcDbEntity
  8
AM_0
 48
0.0788183806600721
100
AcDbPolyline
 90
        4
 70
     0
 43
0.0
 10
-19.84012701892219
 20
43.537
 10
-19.47928310067868
 20
43.52311625133716
 10
-19.11843918243516
 20
43.48229415348492
 10
-18.39675134594813
 20
43.32974057836309
  0
LWPOLYLINE
  5
11B
330
E3
100
AcDbEntity
  8
AM_0
 48
0.0788183806600721
100
AcDbPolyline
 90
        4
 70
     0
 43
0.0
 10
-11.17987298107781
 20
40.537
 10
-11.54071689932132
 20
40.55088374866283
 10
-11.90156081756484
 20
40.59170584651507
 10
-12.62324865405187
 20
40.7442594216369
  0
LINE
  5
11C
330
E3
100
AcDbEntity
  8
AM_0
 48
0.0788183806600721
100
AcDbLine
 10
-12.62324865405187
 20
43.32974057836309
 30
0.0
 11
-12.62324865405187
 21
40.7442594216369
 31
0.0
  0
LWPOLYLINE
  5
11D
330
E3
100
AcDbEntity
  8
AM_0
 48
0.0788183806600721
100
AcDbPolyline
 90
        4
 70
     0
 43
0.0
 10
-18.39675134594813
 20
43.32974057836309
 10
-16.95986547866141
 20
43.48181085829439
 10
-16.23594370396833
 20
43.52295287281765
 10
-15.51
 20
43.537
  0
LINE
  5
11E
330
E3
100
AcDbEntity
  8
AM_0
 48
0.0788183806600721
100
AcDbLine
 10
-18.39675134594813
 20
43.32974057836309
 30
0.0
 11
-18.39675134594813
 21
40.7442594216369
 31
0.0
  0
LWPOLYLINE
  5
11F
330
E3
100
AcDbEntity
  8
AM_0
 48
0.0788183806600721
100
AcDbPolyline
 90
        4
 70
     0
 43
0.0
 10
-15.51
 20
40.537
 10
-16.23168783648703
 20
40.55088374866283
 10
-16.95337567297407
 20
40.59170584651507
 10
-18.39675134594813
 20
40.7442594216369
  0
LWPOLYLINE
  5
120
330
E3
100
AcDbEntity
  8
AM_0
 48
0.0788183806600721
100
AcDbPolyline
 90
        4
 70
     0
 43
0.0
 10
-12.62324865405187
 20
40.7442594216369
 10
-13.27864095521688
 20
40.66435755038091
 10
-14.39098598098539
 20
40.57014245672373
 10
-15.51
 20
40.537
  0
LWPOLYLINE
  5
121
330
E3
100
AcDbEntity
  8
AM_0
 48
0.0788183806600721
100
AcDbPolyline
 90
        4
 70
     0
 43
0.0
 10
-15.51
 20
43.537
 10
-14.39432047760844
 20
43.50405240150252
 10
-13.27864095521688
 20
43.40964244961908
 10
-12.62324865405187
 20
43.32974057836309
  0
LWPOLYLINE
  5
122
330
E3
100
AcDbEntity
  8
AM_0
 48
0.0788183806600721
100
AcDbPolyline
 90
        4
 70
     0
 43
0.0
 10
-12.62324865405187
 20
43.32974057836309
 10
-11.90480572040851
 20
43.48181085829439
 10
-11.54284483306197
 20
43.52295287281765
 10
-11.17987298107781
 20
43.537
  0
ENDBLK
  5
E6
330
E3
100
AcDbEntity
  8
0
100
AcDbBlockEnd
  0
BLOCK
  5
125
330
123
100
AcDbEntity
  8
0
100
AcDbBlockBegin
  2
3_125695vsc_0_in_125695_2
 70
     2
 10
0.0
 20
0.0
 30
0.0
  3
3_125695vsc_0_in_125695_2
  1

  0
ATTDEF
  5
127
330
123
100
AcDbEntity
  8
AM_6
100
AcDbText
 10
6.245
 20
42.95
 30
0.0
 40
0.5
  1
F4B-VSC -Metric - housing
100
AcDbAttributeDefinition
  3

  2
NN
 70
     8
280
     0
  0
ATTDEF
  5
128
330
123
100
AcDbEntity
  8
AM_6
100
AcDbText
 10
6.245
 20
42.45
 30
0.0
 40
0.5
  1
VSC Intermediate Duty 4-Bolt Flange Bearings
100
AcDbAttributeDefinition
  3

  2
NT
 70
     8
280
     0
  0
ATTDEF
  5
129
330
123
100
AcDbEntity
  8
AM_6
100
AcDbText
 10
6.245
 20
41.95
 30
0.0
 40
0.5
  1
125695vsc
100
AcDbAttributeDefinition
  3

  2
NB
 70
     8
280
     0
  0
ATTDEF
  5
12A
330
123
100
AcDbEntity
  8
AM_6
100
AcDbText
 10
6.245
 20
41.45
 30
0.0
 40
0.5
  1
$PN.
100
AcDbAttributeDefinition
  3

  2
NBSYN
 70
     8
280
     0
  0
ATTDEF
  5
12B
330
123
100
AcDbEntity
  8
AM_6
100
AcDbText
 10
6.245
 20
40.95
 30
0.0
 40
0.5
  1
125695vsc
100
AcDbAttributeDefinition
  3

  2
LINA
 70
     8
280
     0
  0
ATTDEF
  5
12C
330
123
100
AcDbEntity
  8
AM_6
100
AcDbText
 10
6.245
 20
40.45
 30
0.0
 40
0.5
  1
204
100
AcDbAttributeDefinition
  3

  2
RS
 70
     8
280
     0
  0
ATTDEF
  5
12D
330
123
100
AcDbEntity
  8
AM_6
100
AcDbText
 10
6.245
 20
39.95
 30
0.0
 40
0.5
  1
20
100
AcDbAttributeDefinition
  3

  2
SS
 70
     8
280
     0
  0
ATTDEF
  5
12E
330
123
100
AcDbEntity
  8
AM_6
100
AcDbText
 10
6.245
 20
39.45
 30
0.0
 40
0.5
  1
20.000000
100
AcDbAttributeDefinition
  3

  2
SS1
 70
     8
280
     0
  0
ATTDEF
  5
12F
330
123
100
AcDbEntity
  8
AM_6
100
AcDbText
 10
6.245
 20
38.95
 30
0.0
 40
0.5
  1
125695vsc
100
AcDbAttributeDefinition
  3

  2
PN
 70
     8
280
     0
  0
ATTDEF
  5
130
330
123
100
AcDbEntity
  8
AM_6
100
AcDbText
 10
6.245
 20
38.45
 30
0.0
 40
0.5
  1
47.000000
100
AcDbAttributeDefinition
  3

  2
BOD
 70
     8
280
     0
  0
ATTDEF
  5
131
330
123
100
AcDbEntity
  8
AM_6
100
AcDbText
 10
6.245
 20
37.95
 30
0.0
 40
0.5
  1
F4B-VSC-20M
100
AcDbAttributeDefinition
  3

  2
DESCRIPTION
 70
     8
280
     0
  0
ATTDEF
  5
132
330
123
100
AcDbEntity
  8
AM_6
100
AcDbText
 10
6.245
 20
37.45
 30
0.0
 40
0.5
  1
RE-LUBE
100
AcDbAttributeDefinition
  3

  2
LF
 70
     8
280
     0
  0
ATTDEF
  5
133
330
123
100
AcDbEntity
  8
AM_6
100
AcDbText
 10
6.245
 20
36.95
 30
0.0
 40
0.5
  1
0.67
100
AcDbAttributeDefinition
  3

  2
WEIGHT
 70
     8
280
     0
  0
ATTDEF
  5
134
330
123
100
AcDbEntity
  8
AM_6
100
AcDbText
 10
6.245
 20
36.45
 30
0.0
 40
0.5
  1
31.2
100
AcDbAttributeDefinition
  3

  2
A
 70
     8
280
     0
  0
ATTDEF
  5
135
330
123
100
AcDbEntity
  8
AM_6
100
AcDbText
 10
6.245
 20
35.95
 30
0.0
 40
0.5
  1
31.200000
100
AcDbAttributeDefinition
  3

  2
A1
 70
     8
280
     0
  0
ATTDEF
  5
136
330
123
100
AcDbEntity
  8
AM_6
100
AcDbText
 10
6.245
 20
35.45
 30
0.0
 40
0.5
  1
85.9
100
AcDbAttributeDefinition
  3

  2
B
 70
     8
280
     0
  0
ATTDEF
  5
137
330
123
100
AcDbEntity
  8
AM_6
100
AcDbText
 10
6.245
 20
34.95
 30
0.0
 40
0.5
  1
85.900000
100
AcDbAttributeDefinition
  3

  2
B1
 70
     8
280
     0
  0
ATTDEF
  5
138
330
123
100
AcDbEntity
  8
AM_6
100
AcDbText
 10
6.245
 20
34.45
 30
0.0
 40
0.5
  1
34.0
100
AcDbAttributeDefinition
  3

  2
C
 70
     8
280
     0
  0
ATTDEF
  5
139
330
123
100
AcDbEntity
  8
AM_6
100
AcDbText
 10
6.245
 20
33.95
 30
0.0
 40
0.5
  1
34.000000
100
AcDbAttributeDefinition
  3

  2
C1
 70
     8
280
     0
  0
ATTDEF
  5
13A
330
123
100
AcDbEntity
  8
AM_6
100
AcDbText
 10
6.245
 20
33.45
 30
0.0
 40
0.5
  1
63.5
100
AcDbAttributeDefinition
  3

  2
D
 70
     8
280
     0
  0
ATTDEF
  5
13B
330
123
100
AcDbEntity
  8
AM_6
100
AcDbText
 10
6.245
 20
32.95
 30
0.0
 40
0.5
  1
63.500000
100
AcDbAttributeDefinition
  3

  2
D1
 70
     8
280
     0
  0
ATTDEF
  5
13C
330
123
100
AcDbEntity
  8
AM_6
100
AcDbText
 10
6.245
 20
32.45
 30
0.0
 40
0.5
  1
M10
100
AcDbAttributeDefinition
  3

  2
F
 70
     8
280
     0
  0
ATTDEF
  5
13D
330
123
100
AcDbEntity
  8
AM_6
100
AcDbText
 10
6.245
 20
31.95
 30
0.0
 40
0.5
  1
10.000000
100
AcDbAttributeDefinition
  3

  2
F1
 70
     8
280
     0
  0
ATTDEF
  5
13E
330
123
100
AcDbEntity
  8
AM_6
100
AcDbText
 10
6.245
 20
31.45
 30
0.0
 40
0.5
  1
11.2
100
AcDbAttributeDefinition
  3

  2
H
 70
     8
280
     0
  0
ATTDEF
  5
13F
330
123
100
AcDbEntity
  8
AM_6
100
AcDbText
 10
6.245
 20
30.95
 30
0.0
 40
0.5
  1
11.200000
100
AcDbAttributeDefinition
  3

  2
H1
 70
     8
280
     0
  0
ATTDEF
  5
140
330
123
100
AcDbEntity
  8
AM_6
100
AcDbText
 10
6.245
 20
30.45
 30
0.0
 40
0.5
  1
9.1
100
AcDbAttributeDefinition
  3

  2
J
 70
     8
280
     0
  0
ATTDEF
  5
141
330
123
100
AcDbEntity
  8
AM_6
100
AcDbText
 10
6.245
 20
29.95
 30
0.0
 40
0.5
  1
9.100000
100
AcDbAttributeDefinition
  3

  2
J1
 70
     8
280
     0
  0
ATTDEF
  5
142
330
123
100
AcDbEntity
  8
AM_6
100
AcDbText
 10
6.245
 20
29.45
 30
0.0
 40
0.5
  1
28.4
100
AcDbAttributeDefinition
  3

  2
L
 70
     8
280
     0
  0
ATTDEF
  5
143
330
123
100
AcDbEntity
  8
AM_6
100
AcDbText
 10
6.245
 20
28.95
 30
0.0
 40
0.5
  1
28.400000
100
AcDbAttributeDefinition
  3

  2
L1
 70
     8
280
     0
  0
ATTDEF
  5
144
330
123
100
AcDbEntity
  8
AM_6
100
AcDbText
 10
6.245
 20
28.45
 30
0.0
 40
0.5
  1
49.3
100
AcDbAttributeDefinition
  3

  2
N
 70
     8
280
     0
  0
ATTDEF
  5
145
330
123
100
AcDbEntity
  8
AM_6
100
AcDbText
 10
6.245
 20
27.95
 30
0.0
 40
0.5
  1
49.300000
100
AcDbAttributeDefinition
  3

  2
N1
 70
     8
280
     0
  0
ATTDEF
  5
146
330
123
100
AcDbEntity
  8
AM_6
100
AcDbText
 10
6.245
 20
27.45
 30
0.0
 40
0.5
  1
1390
100
AcDbAttributeDefinition
  3

  2
CS
 70
     8
280
     0
  0
ATTDEF
  5
147
330
123
100
AcDbEntity
  8
AM_6
100
AcDbText
 10
6.245
 20
26.95
 30
0.0
 40
0.5
  1
2899
100
AcDbAttributeDefinition
  3

  2
CD
 70
     8
280
     0
  0
ATTDEF
  5
148
330
123
100
AcDbEntity
  8
AM_6
100
AcDbText
 10
6.245
 20
26.45
 30
0.0
 40
0.5
  1
baldor
100
AcDbAttributeDefinition
  3

  2
COMPANY
 70
     8
280
     0
  0
LINE
  5
149
330
123
100
AcDbEntity
  8
AM_9
 48
0.8855789585049979
100
AcDbLine
 10
-12.51
 20
36.537
 30
0.0
 11
-18.51
 21
36.537
 31
0.0
  0
LINE
  5
14A
330
123
100
AcDbEntity
  8
AM_9
 48
0.8855789585049979
100
AcDbLine
 10
-18.51
 20
40.537
 30
0.0
 11
-18.51
 21
36.537
 31
0.0
  0
LINE
  5
14B
330
123
100
AcDbEntity
  8
AM_9
 48
0.8855789585049979
100
AcDbLine
 10
-12.51
 20
36.537
 30
0.0
 11
-12.51
 21
40.537
 31
0.0
  0
LINE
  5
14C
330
123
100
AcDbEntity
  8
AM_9
 48
0.8855789585049979
100
AcDbLine
 10
-11.2
 20
40.537
 30
0.0
 11
-3.733333333333333
 21
40.537
 31
0.0
  0
LINE
  5
14D
330
123
100
AcDbEntity
  8
AM_9
 48
0.8855789585049979
100
AcDbLine
 10
-5.973333333333333
 20
42.95
 30
0.0
 11
-5.973333333333333
 21
40.537
 31
0.0
  0
LINE
  5
14E
330
123
100
AcDbEntity
  8
AM_9
 48
0.8855789585049979
100
AcDbLine
 10
-3.733333333333333
 20
42.95
 30
0.0
 11
-3.733333333333333
 21
40.537
 31
0.0
  0
LINE
  5
14F
330
123
100
AcDbEntity
  8
AM_9
 48
0.8855789585049979
100
AcDbLine
 10
-14.94
 20
-10.0
 30
0.0
 11
-2.240000000000001
 21
-10.0
 31
0.0
  0
LINE
  5
150
330
123
100
AcDbEntity
  8
AM_9
 48
0.8855789585049979
100
AcDbLine
 10
-14.94
 20
9.999999999999996
 30
0.0
 11
-2.240000000000001
 21
9.999999999999995
 31
0.0
  0
LINE
  5
151
330
123
100
AcDbEntity
  8
AM_9
 48
0.8855789585049979
100
AcDbLine
 10
-22.66
 20
-23.5
 30
0.0
 11
-2.240000000000006
 21
-23.5
 31
0.0
  0
LINE
  5
152
330
123
100
AcDbEntity
  8
AM_9
 48
0.8855789585049979
100
AcDbLine
 10
-2.240000000000006
 20
23.5
 30
0.0
 11
-22.66
 21
23.5
 31
0.0
  0
LINE
  5
153
330
123
100
AcDbEntity
  8
AM_9
 48
0.8855789585049979
100
AcDbLine
 10
-14.94
 20
-10.0
 30
0.0
 11
-14.94
 21
9.999999999999996
 31
0.0
  0
LINE
  5
154
330
123
100
AcDbEntity
  8
AM_9
 48
0.8855789585049979
100
AcDbLine
 10
-24.9
 20
-24.83333333333333
 30
0.0
 11
-22.66
 21
-24.83333333333333
 31
0.0
  0
LINE
  5
155
330
123
100
AcDbEntity
  8
AM_9
 48
0.8855789585049979
100
AcDbLine
 10
-22.66
 20
24.83333333333333
 30
0.0
 11
-24.9
 21
24.83333333333333
 31
0.0
  0
LINE
  5
156
330
123
100
AcDbEntity
  8
AM_9
 48
0.8855789585049979
100
AcDbLine
 10
-22.66
 20
24.83333333333333
 30
0.0
 11
-22.66
 21
-24.83333333333333
 31
0.0
  0
LINE
  5
157
330
123
100
AcDbEntity
  8
AM_9
 48
0.8855789585049979
100
AcDbLine
 10
-2.240000000000001
 20
-24.83333333333333
 30
0.0
 11
0.0
 21
-24.83333333333333
 31
0.0
  0
LINE
  5
158
330
123
100
AcDbEntity
  8
AM_9
 48
0.8855789585049979
100
AcDbLine
 10
0.0
 20
24.83333333333333
 30
0.0
 11
-2.240000000000001
 21
24.83333333333333
 31
0.0
  0
LINE
  5
159
330
123
100
AcDbEntity
  8
AM_9
 48
0.8855789585049979
100
AcDbLine
 10
-2.240000000000001
 20
24.83333333333333
 30
0.0
 11
-2.240000000000001
 21
-24.83333333333333
 31
0.0
  0
LINE
  5
15A
330
123
100
AcDbEntity
  8
AM_9
 48
0.8855789585049979
100
AcDbLine
 10
-10.08
 20
41.45035054778949
 30
0.0
 11
-11.2
 21
41.45035054778949
 31
0.0
  0
LINE
  5
15B
330
123
100
AcDbEntity
  8
AM_9
 48
0.8855789585049979
100
AcDbLine
 10
-10.08
 20
42.95
 30
0.0
 11
-10.08
 21
33.90784476068265
 31
0.0
  0
LINE
  5
15C
330
123
100
AcDbEntity
  8
AM_9
 48
0.8855789585049979
100
AcDbLine
 10
-10.08
 20
-41.4503505477895
 30
0.0
 11
-11.2
 21
-41.4503505477895
 31
0.0
  0
LINE
  5
15D
330
123
100
AcDbEntity
  8
AM_9
 48
0.8855789585049979
100
AcDbLine
 10
-10.08
 20
-33.90784476068265
 30
0.0
 11
-10.08
 21
-42.95
 31
0.0
  0
LINE
  5
15E
330
123
100
AcDbEntity
  8
AM_9
 48
0.8855789585049979
100
AcDbLine
 10
-11.2
 20
-33.87893565140429
 30
0.0
 11
-10.08
 21
-33.90784476068265
 31
0.0
  0
LINE
  5
15F
330
123
100
AcDbEntity
  8
AM_9
 48
0.8855789585049979
100
AcDbLine
 10
-10.08
 20
33.90784476068265
 30
0.0
 11
-11.2
 21
33.87893565140429
 31
0.0
  0
LINE
  5
160
330
123
100
AcDbEntity
  8
AM_9
 48
0.8855789585049979
100
AcDbLine
 10
-10.08
 20
35.90071100505585
 30
0.0
 11
-11.20000001606056
 21
35.85517350670105
 31
0.0
  0
LINE
  5
161
330
123
100
AcDbEntity
  8
AM_9
 48
0.8855789585049979
100
AcDbLine
 10
-11.2
 20
-36.30020080321285
 30
0.0
 11
-10.08
 21
-36.34518072289157
 31
0.0
  0
LINE
  5
162
330
123
100
AcDbEntity
  8
AM_9
 48
0.8855789585049979
100
AcDbLine
 10
-11.2
 20
-36.75000000000001
 30
0.0
 11
0.0000000000000019
 21
-36.75000000000001
 31
0.0
  0
LINE
  5
163
330
123
100
AcDbEntity
  8
AM_9
 48
0.8855789585049979
100
AcDbLine
 10
0.0000000000000019
 20
-26.75000000000001
 30
0.0
 11
-11.2
 21
-26.75000000000001
 31
0.0
  0
LINE
  5
164
330
123
100
AcDbEntity
  8
AM_9
 48
0.8855789585049979
100
AcDbLine
 10
-11.2
 20
26.75
 30
0.0
 11
0.0000000000000019
 21
26.75
 31
0.0
  0
LINE
  5
165
330
123
100
AcDbEntity
  8
AM_9
 48
0.8855789585049979
100
AcDbLine
 10
0.0000000000000019
 20
36.75
 30
0.0
 11
-11.2
 21
36.75
 31
0.0
  0
LINE
  5
166
330
123
100
AcDbEntity
  8
AM_7
 48
0.8855789585049979
100
AcDbLine
 10
0.5599999999999979
 20
31.75000000000001
 30
0.0
 11
-11.76
 21
31.75000000000001
 31
0.0
  0
LINE
  5
167
330
123
100
AcDbEntity
  8
AM_7
 48
0.8855789585049979
100
AcDbLine
 10
0.5599999999999979
 20
-31.74999999999999
 30
0.0
 11
-11.76
 21
-31.74999999999999
 31
0.0
  0
LINE
  5
168
330
123
100
AcDbEntity
  8
AM_7
 48
0.8855789585049979
100
AcDbLine
 10
-35.56
 20
0.0000000000000023
 30
0.0
 11
1.245
 21
0.0
 31
0.0
  0
LINE
  5
169
330
123
100
AcDbEntity
  8
AM_0
 48
0.8855789585049979
100
AcDbLine
 10
-24.9
 20
40.537
 30
0.0
 11
-11.2
 21
40.537
 31
0.0
  0
LINE
  5
16A
330
123
100
AcDbEntity
  8
AM_0
 48
0.8855789585049979
100
AcDbLine
 10
-24.9
 20
-34.67407707233899
 30
0.0
 11
-24.9
 21
40.537
 31
0.0
  0
LINE
  5
16C
330
123
100
AcDbEntity
  8
AM_4
 48
0.8855789585049979
100
AcDbLine
 10
-23.78
 20
35.34359172946479
 30
0.0
 11
-23.78
 21
40.537
 31
0.0
  0
LWPOLYLINE
  5
16D
330
123
100
AcDbEntity
  8
AM_0
 48
0.8855789585049979
100
AcDbPolyline
 90
       11
 70
     0
 43
0.0
 10
-24.9
 20
34.37469189739347
 10
-24.89998858952982
 20
34.37912257014856
 10
-24.87900733697359
 20
34.56333723343768
 10
-24.81541573939856
 20
34.74690217221793
 10
-24.72280145181519
 20
34.9005547733551
 10
-24.59036461930339
 20
35.04573357200221
 10
-24.46577006116835
 20
35.14221676230279
 10
-24.31529860253197
 20
35.2263810283239
 10
-24.1795402840895
 20
35.27980653873187
 10
-24.02807996599129
 20
35.31895426767198
 10
-23.82494368995469
 20
35.34190834211913
  0
ARC
  5
16E
330
123
100
AcDbEntity
  8
AM_0
 48
0.8855789585049979
100
AcDbCircle
 10
-23.78000000000002
 20
-34.67407707233902
 30
0.0
 40
1.119999999999983
100
AcDbArc
 50
179.9999999999986
 51
267.7002005782087
  0
LINE
  5
16F
330
123
100
AcDbEntity
  8
AM_0
 48
0.8855789585049979
100
AcDbLine
 10
-11.20000001606056
 20
35.85517350670105
 30
0.0
 11
-23.82494368995469
 21
35.34190834211913
 31
0.0
  0
LINE
  5
170
330
123
100
AcDbEntity
  8
AM_4
 48
0.8855789585049979
100
AcDbLine
 10
-23.82494368995469
 20
35.34190834211913
 30
0.0
 11
-23.82494368995469
 21
-35.79317495221066
 31
0.0
  0
LINE
  5
171
330
123
100
AcDbEntity
  8
AM_0
 48
0.8855789585049979
100
AcDbLine
 10
-23.82494368995469
 20
-35.79317495221066
 30
0.0
 11
-11.2
 21
-36.30020080321285
 31
0.0
  0
LINE
  5
172
330
123
100
AcDbEntity
  8
AM_0
 48
0.8855789585049979
100
AcDbLine
 10
-10.08
 20
-13.08549676034866
 30
0.0
 11
-11.2
 21
-13.03542471427697
 31
0.0
  0
LINE
  5
173
330
123
100
AcDbEntity
  8
AM_0
 48
0.8855789585049979
100
AcDbLine
 10
-11.2
 20
13.03542471427697
 30
0.0
 11
-11.2
 21
42.95
 31
0.0
  0
LINE
  5
174
330
123
100
AcDbEntity
  8
AM_0
 48
0.8855789585049979
100
AcDbLine
 10
-11.2
 20
13.03542471427697
 30
0.0
 11
-10.08
 21
13.08549676034866
 31
0.0
  0
LINE
  5
175
330
123
100
AcDbEntity
  8
AM_4
 48
0.8855789585049979
100
AcDbLine
 10
-10.08
 20
-26.1495
 30
0.0
 11
-11.2
 21
-26.1495
 31
0.0
  0
LINE
  5
176
330
123
100
AcDbEntity
  8
AM_0
 48
0.8855789585049979
100
AcDbLine
 10
-11.2
 20
-42.95
 30
0.0
 11
-11.2
 21
-13.03542471427697
 31
0.0
  0
LINE
  5
177
330
123
100
AcDbEntity
  8
AM_0
 48
0.8855789585049979
100
AcDbLine
 10
-11.2
 20
-42.95
 30
0.0
 11
0.0000000000000019
 21
-42.95
 31
0.0
  0
LINE
  5
178
330
123
100
AcDbEntity
  8
AM_0
 48
0.8855789585049979
100
AcDbLine
 10
0.0000000000000019
 20
-42.95
 30
0.0
 11
0.0000000000000019
 21
42.95
 31
0.0
  0
LINE
  5
179
330
123
100
AcDbEntity
  8
AM_0
 48
0.8855789585049979
100
AcDbLine
 10
-11.2
 20
42.95
 30
0.0
 11
0.0000000000000019
 21
42.95
 31
0.0
  0
LINE
  5
17A
330
123
100
AcDbEntity
  8
AM_4
 48
0.8855789585049979
100
AcDbLine
 10
-10.08
 20
26.14950000000001
 30
0.0
 11
-11.2
 21
26.14950000000001
 31
0.0
  0
LINE
  5
17B
330
123
100
AcDbEntity
  8
AM_0
 48
0.8855789585049979
100
AcDbLine
 10
-10.08
 20
31.60033036380253
 30
0.0
 11
-11.2
 21
31.60033036380253
 31
0.0
  0
LINE
  5
17C
330
123
100
AcDbEntity
  8
AM_0
 48
0.8855789585049979
100
AcDbLine
 10
-10.08
 20
-31.60033036380245
 30
0.0
 11
-10.08
 21
31.60033036380253
 31
0.0
  0
LINE
  5
17D
330
123
100
AcDbEntity
  8
AM_0
 48
0.8855789585049979
100
AcDbLine
 10
-11.2
 20
-31.60033036380245
 30
0.0
 11
-10.08
 21
-31.60033036380245
 31
0.0
  0
LINE
  5
17E
330
123
100
AcDbEntity
  8
AM_4
 48
0.8855789585049979
100
AcDbLine
 10
-11.2
 20
-31.75
 30
0.0
 11
0.0000000000000026
 21
-31.75
 31
0.0
  0
LINE
  5
17F
330
123
100
AcDbEntity
  8
AM_4
 48
0.8855789585049979
100
AcDbLine
 10
-11.2
 20
31.75
 30
0.0
 11
0.0000000000000026
 21
31.75
 31
0.0
  0
ENDBLK
  5
126
330
123
100
AcDbEntity
  8
0
100
AcDbBlockEnd
  0
ENDSEC
  0
SECTION
  2
ENTITIES
  0
ATTDEF
  5
6F
330
1F
100
AcDbEntity
  8
AM_6
100
AcDbText
 10
6.245
 20
50.8748
 30
0.0
 40
0.5
  1
Set Screw Internmediate Duty Four-Bolt Flange Metric Bore
100
AcDbAttributeDefinition
  3

  2
NN
 70
     8
280
     0
  0
ATTDEF
  5
70
330
1F
100
AcDbEntity
  8
AM_6
100
AcDbText
 10
6.245
 20
50.3748
 30
0.0
 40
0.5
  1
VSC Intermediate Duty 4-Bolt Flange Bearings
100
AcDbAttributeDefinition
  3

  2
NT
 70
     8
280
     0
  0
ATTDEF
  5
71
330
1F
100
AcDbEntity
  8
AM_6
100
AcDbText
 10
6.245
 20
49.8748
 30
0.0
 40
0.5
  1
125695
100
AcDbAttributeDefinition
  3

  2
NB
 70
     8
280
     0
  0
ATTDEF
  5
72
330
1F
100
AcDbEntity
  8
AM_6
100
AcDbText
 10
6.245
 20
49.3748
 30
0.0
 40
0.5
  1
$PN.
100
AcDbAttributeDefinition
  3

  2
NBSYN
 70
     8
280
     0
  0
ATTDEF
  5
73
330
1F
100
AcDbEntity
  8
AM_6
100
AcDbText
 10
6.245
 20
48.8748
 30
0.0
 40
0.5
  1
125695
100
AcDbAttributeDefinition
  3

  2
LINA
 70
     8
280
     0
  0
ATTDEF
  5
74
330
1F
100
AcDbEntity
  8
AM_6
100
AcDbText
 10
6.245
 20
48.3748
 30
0.0
 40
0.5
  1
204
100
AcDbAttributeDefinition
  3

  2
RS
 70
     8
280
     0
  0
ATTDEF
  5
75
330
1F
100
AcDbEntity
  8
AM_6
100
AcDbText
 10
6.245
 20
47.8748
 30
0.0
 40
0.5
  1
20
100
AcDbAttributeDefinition
  3

  2
SS
 70
     8
280
     0
  0
ATTDEF
  5
76
330
1F
100
AcDbEntity
  8
AM_6
100
AcDbText
 10
6.245
 20
47.3748
 30
0.0
 40
0.5
  1
125695
100
AcDbAttributeDefinition
  3

  2
PN
 70
     8
280
     0
  0
ATTDEF
  5
77
330
1F
100
AcDbEntity
  8
AM_6
100
AcDbText
 10
6.245
 20
46.8748
 30
0.0
 40
0.5
  1
F4B-VSC-20M
100
AcDbAttributeDefinition
  3

  2
DESCRIPTION
 70
     8
280
     0
  0
ATTDEF
  5
78
330
1F
100
AcDbEntity
  8
AM_6
100
AcDbText
 10
6.245
 20
46.3748
 30
0.0
 40
0.5
  1
RE-LUBE
100
AcDbAttributeDefinition
  3

  2
LF
 70
     8
280
     0
  0
ATTDEF
  5
79
330
1F
100
AcDbEntity
  8
AM_6
100
AcDbText
 10
6.245
 20
45.8748
 30
0.0
 40
0.5
  1
0.67
100
AcDbAttributeDefinition
  3

  2
WEIGHT
 70
     8
280
     0
  0
ATTDEF
  5
7A
330
1F
100
AcDbEntity
  8
AM_6
100
AcDbText
 10
6.245
 20
45.3748
 30
0.0
 40
0.5
  1
31.2
100
AcDbAttributeDefinition
  3

  2
A
 70
     8
280
     0
  0
ATTDEF
  5
7B
330
1F
100
AcDbEntity
  8
AM_6
100
AcDbText
 10
6.245
 20
44.8748
 30
0.0
 40
0.5
  1
85.9
100
AcDbAttributeDefinition
  3

  2
B
 70
     8
280
     0
  0
ATTDEF
  5
7C
330
1F
100
AcDbEntity
  8
AM_6
100
AcDbText
 10
6.245
 20
44.3748
 30
0.0
 40
0.5
  1
34.0
100
AcDbAttributeDefinition
  3

  2
C
 70
     8
280
     0
  0
ATTDEF
  5
7D
330
1F
100
AcDbEntity
  8
AM_6
100
AcDbText
 10
6.245
 20
43.8748
 30
0.0
 40
0.5
  1
63.5
100
AcDbAttributeDefinition
  3

  2
D
 70
     8
280
     0
  0
ATTDEF
  5
7E
330
1F
100
AcDbEntity
  8
AM_6
100
AcDbText
 10
6.245
 20
43.3748
 30
0.0
 40
0.5
  1
M10
100
AcDbAttributeDefinition
  3

  2
F
 70
     8
280
     0
  0
ATTDEF
  5
7F
330
1F
100
AcDbEntity
  8
AM_6
100
AcDbText
 10
6.245
 20
42.8748
 30
0.0
 40
0.5
  1
11.2
100
AcDbAttributeDefinition
  3

  2
H
 70
     8
280
     0
  0
ATTDEF
  5
80
330
1F
100
AcDbEntity
  8
AM_6
100
AcDbText
 10
6.245
 20
42.3748
 30
0.0
 40
0.5
  1
9.1
100
AcDbAttributeDefinition
  3

  2
J
 70
     8
280
     0
  0
ATTDEF
  5
81
330
1F
100
AcDbEntity
  8
AM_6
100
AcDbText
 10
6.245
 20
41.8748
 30
0.0
 40
0.5
  1
28.4
100
AcDbAttributeDefinition
  3

  2
L
 70
     8
280
     0
  0
ATTDEF
  5
82
330
1F
100
AcDbEntity
  8
AM_6
100
AcDbText
 10
6.245
 20
41.3748
 30
0.0
 40
0.5
  1
49.3
100
AcDbAttributeDefinition
  3

  2
N
 70
     8
280
     0
  0
ATTDEF
  5
83
330
1F
100
AcDbEntity
  8
AM_6
100
AcDbText
 10
6.245
 20
40.8748
 30
0.0
 40
0.5
  1
baldor
100
AcDbAttributeDefinition
  3

  2
COMPANY
 70
     8
280
     0
  0
INSERT
  5
85
330
1F
100
AcDbEntity
  8
0
100
AcDbBlockReference
  2
1_125637_0_in_125695_2
 10
0.0
 20
0.0
 30
0.0
  0
INSERT
  5
E4
330
1F
100
AcDbEntity
  8
0
100
AcDbBlockReference
  2
2_405015E_Metric_0_in_125695_2
 10
0.0
 20
0.0
 30
0.0
  0
INSERT
  5
124
330
1F
100
AcDbEntity
  8
0
100
AcDbBlockReference
  2
3_125695vsc_0_in_125695_2
 10
0.0
 20
0.0
 30
0.0
  0
POINT
  5
181
330
1F
100
AcDbEntity
  8
ConnectionPoints
100
AcDbPoint
 10
-15.51
 20
40.537
 30
0.0000000000000009
  0
POINT
  5
182
330
1F
100
AcDbEntity
  8
ConnectionPoints
100
AcDbPoint
 10
-15.51
 20
40.537
 30
0.0000000000000009
  0
POINT
  5
183
330
1F
100
AcDbEntity
  8
ConnectionPoints
100
AcDbPoint
 10
-34.0
 20
0.0
 30
0.0000000000000021
  0
ENDSEC
  0
SECTION
  2
OBJECTS
  0
DICTIONARY
  5
C
330
0
100
AcDbDictionary
281
     1
  3
ACAD_DETAILVIEWSTYLE
350
18B
  3
ACAD_GROUP
350
D
  3
ACAD_LAYOUT
350
1A
  3
ACAD_MATERIAL
350
43
  3
ACAD_MLEADERSTYLE
350
6B
  3
ACAD_MLINESTYLE
350
17
  3
ACAD_PLOTSETTINGS
350
19
  3
ACAD_PLOTSTYLENAME
350
E
  3
ACAD_SCALELIST
350
47
  3
ACAD_SECTIONVIEWSTYLE
350
18C
  3
ACAD_TABLESTYLE
350
69
  3
ACAD_VISUALSTYLE
350
2A
  3
ACDB_RECOMPOSE_DATA
350
188
  3
AcDbVariableDictionary
350
184
  0
SUN
  5
6D
330
29
100
AcDbSun
 90
        1
290
     0
 63
     7
421
 16777215
 40
1.0
291
     1
 91
  2455826
 92
 54000000
292
     0
 70
     2
 71
   256
280
     1
  0
DICTIONARY
  5
18B
102
{ACAD_REACTORS
330
C
102
}
330
C
100
AcDbDictionary
281
     1
  0
DICTIONARY
  5
D
102
{ACAD_REACTORS
330
C
102
}
330
C
100
AcDbDictionary
281
     1
  0
DICTIONARY
  5
1A
102
{ACAD_REACTORS
330
C
102
}
330
C
100
AcDbDictionary
281
     1
  3
Layout1
350
1E
  3
Layout2
350
26
  3
Model
350
22
  0
DICTIONARY
  5
43
102
{ACAD_REACTORS
330
C
102
}
330
C
100
AcDbDictionary
281
     1
  3
ByBlock
350
45
  3
ByLayer
350
44
  3
Global
350
46
  0
DICTIONARY
  5
6B
102
{ACAD_REACTORS
330
C
102
}
330
C
100
AcDbDictionary
281
     1
  3
Standard
350
6C
  0
DICTIONARY
  5
17
102
{ACAD_REACTORS
330
C
102
}
330
C
100
AcDbDictionary
281
     1
  3
Standard
350
18
  0
DICTIONARY
  5
19
102
{ACAD_REACTORS
330
C
102
}
330
C
100
AcDbDictionary
281
     1
  0
ACDBDICTIONARYWDFLT
  5
E
102
{ACAD_REACTORS
330
C
102
}
330
C
100
AcDbDictionary
281
     1
  3
Normal
350
F
100
AcDbDictionaryWithDefault
340
F
  0
DICTIONARY
  5
47
102
{ACAD_REACTORS
330
C
102
}
330
C
100
AcDbDictionary
281
     1
  3
A0
350
48
  3
A1
350
49
  3
A2
350
4A
  3
A3
350
4B
  3
A4
350
4C
  3
A5
350
4D
  3
A6
350
4E
  3
A7
350
4F
  3
A8
350
50
  3
A9
350
51
  3
B0
350
52
  3
B1
350
53
  3
B2
350
54
  3
B3
350
55
  3
B4
350
56
  3
B5
350
57
  3
B6
350
58
  3
B7
350
59
  3
B8
350
5A
  3
B9
350
5B
  3
C0
350
5C
  3
C1
350
5D
  3
C2
350
5E
  3
C3
350
5F
  3
C4
350
60
  3
C5
350
61
  3
C6
350
62
  3
C7
350
63
  3
C8
350
64
  3
C9
350
65
  3
D0
350
66
  3
D1
350
67
  3
D2
350
68
  0
DICTIONARY
  5
18C
102
{ACAD_REACTORS
330
C
102
}
330
C
100
AcDbDictionary
281
     1
  0
DICTIONARY
  5
69
102
{ACAD_REACTORS
330
C
102
}
330
C
100
AcDbDictionary
281
     1
  3
Standard
350
6A
  0
DICTIONARY
  5
2A
102
{ACAD_REACTORS
330
C
102
}
330
C
100
AcDbDictionary
281
     1
  3
2dWireframe
350
2F
  3
Basic
350
32
  3
Brighten
350
36
  3
ColorChange
350
3A
  3
Conceptual
350
34
  3
Dim
350
35
  3
EdgeColorOff
350
3D
  3
Facepattern
350
39
  3
Flat
350
2B
  3
FlatWithEdges
350
2C
  3
Gouraud
350
2D
  3
GouraudWithEdges
350
2E
  3
Hidden
350
31
  3
JitterOff
350
3B
  3
Linepattern
350
38
  3
OverhangOff
350
3C
  3
Realistic
350
33
  3
Shaded
350
42
  3
Shaded with edges
350
41
  3
Shades of Gray
350
3E
  3
Sketchy
350
3F
  3
Thicken
350
37
  3
Wireframe
350
30
  3
X-Ray
350
40
  0
XRECORD
  5
188
102
{ACAD_REACTORS
330
C
102
}
330
C
100
AcDbXrecord
280
     1
 90
        1
330
6A
  0
DICTIONARY
  5
184
102
{ACAD_REACTORS
330
C
102
}
330
C
100
AcDbDictionary
281
     1
  3
CANNOSCALE
350
185
  3
CMLEADERSTYLE
350
18A
  3
CTABLESTYLE
350
189
  3
SECTIONTHICKNESSINC
350
18D
  0
LAYOUT
  5
1E
102
{ACAD_REACTORS
330
1A
102
}
330
1A
100
AcDbPlotSettings
  1

  2
none_device
  4

  6

 40
0.0
 41
0.0
 42
0.0
 43
0.0
 44
0.0
 45
0.0
 46
0.0
 47
0.0
 48
0.0
 49
0.0
140
0.0
141
0.0
142
1.0
143
1.0
 70
   688
 72
     1
 73
     0
 74
     5
  7

 75
    16
 76
     0
 77
     2
 78
   300
147
1.0
148
0.0
149
0.0
100
AcDbLayout
  1
Layout1
 70
     1
 71
     1
 10
0.0
 20
0.0
 11
420.0
 21
297.0
 12
0.0
 22
0.0
 32
0.0
 14
1.000000000000000E+20
 24
1.000000000000000E+20
 34
1.000000000000000E+20
 15
-1.000000000000000E+20
 25
-1.000000000000000E+20
 35
-1.000000000000000E+20
146
0.0
 13
0.0
 23
0.0
 33
0.0
 16
1.0
 26
0.0
 36
0.0
 17
0.0
 27
1.0
 37
0.0
 76
     0
330
1B
  0
LAYOUT
  5
26
102
{ACAD_REACTORS
330
1A
102
}
330
1A
100
AcDbPlotSettings
  1

  2
none_device
  4

  6

 40
0.0
 41
0.0
 42
0.0
 43
0.0
 44
0.0
 45
0.0
 46
0.0
 47
0.0
 48
0.0
 49
0.0
140
0.0
141
0.0
142
1.0
143
1.0
 70
   688
 72
     1
 73
     0
 74
     5
  7

 75
    16
 76
     0
 77
     2
 78
   300
147
1.0
148
0.0
149
0.0
100
AcDbLayout
  1
Layout2
 70
     1
 71
     2
 10
0.0
 20
0.0
 11
0.0
 21
0.0
 12
0.0
 22
0.0
 32
0.0
 14
0.0
 24
0.0
 34
0.0
 15
0.0
 25
0.0
 35
0.0
146
0.0
 13
0.0
 23
0.0
 33
0.0
 16
1.0
 26
0.0
 36
0.0
 17
0.0
 27
1.0
 37
0.0
 76
     0
330
23
  0
LAYOUT
  5
22
102
{ACAD_REACTORS
330
1A
102
}
330
1A
100
AcDbPlotSettings
  1

  2
none_device
  4
Letter_(8.50_x_11.00_Inches)
  6

 40
6.35
 41
6.35
 42
6.35000508
 43
6.35000508
 44
215.9
 45
279.4
 46
0.0
 47
0.0
 48
0.0
 49
0.0
140
0.0
141
0.0
142
1.0
143
1.0
 70
  1712
 72
     1
 73
     0
 74
     0
  7

 75
     0
 76
     0
 77
     2
 78
   300
147
1.0
148
0.0
149
0.0
100
AcDbLayout
  1
Model
 70
     1
 71
     0
 10
0.0
 20
0.0
 11
420.0
 21
297.0
 12
0.0
 22
0.0
 32
0.0
 14
1.000000000000000E+20
 24
1.000000000000000E+20
 34
1.000000000000000E+20
 15
-1.000000000000000E+20
 25
-1.000000000000000E+20
 35
-1.000000000000000E+20
146
0.0
 13
0.0
 23
0.0
 33
0.0
 16
1.0
 26
0.0
 36
0.0
 17
0.0
 27
1.0
 37
0.0
 76
     0
330
1F
331
29
  0
MATERIAL
  5
45
102
{ACAD_REACTORS
330
43
102
}
330
43
100
AcDbMaterial
  1
ByBlock
 72
     1
 94
      127
  0
MATERIAL
  5
44
102
{ACAD_REACTORS
330
43
102
}
330
43
100
AcDbMaterial
  1
ByLayer
 72
     1
 94
      127
  0
MATERIAL
  5
46
102
{ACAD_REACTORS
330
43
102
}
330
43
100
AcDbMaterial
  1
Global
 72
     1
 94
      127
  0
MLEADERSTYLE
  5
6C
102
{ACAD_REACTORS
330
6B
102
}
330
6B
100
AcDbMLeaderStyle
179
     2
170
     2
171
     1
172
     0
 90
        2
 40
0.0
 41
0.0
173
     1
 91
-1056964608
340
14
 92
       -2
290
     1
 42
2.0
291
     1
 43
8.0
  3
Standard
341
0
 44
4.0
300

342
11
174
     1
178
     6
175
     1
176
     0
 93
-1056964608
 45
4.0
292
     0
297
     0
 46
4.0
343
0
 94
-1056964608
 47
1.0
 49
1.0
140
1.0
293
     1
141
0.0
294
     1
177
     0
142
1.0
295
     0
296
     0
143
3.75
271
     0
272
     9
273
     9
298
     0
  0
MLINESTYLE
  5
18
102
{ACAD_REACTORS
330
17
102
}
330
17
100
AcDbMlineStyle
  2
Standard
 70
     0
  3

 62
   256
 51
90.0
 52
90.0
 71
     2
 49
0.5
 62
   256
  6
BYLAYER
 49
-0.5
 62
   256
  6
BYLAYER
  0
ACDBPLACEHOLDER
  5
F
102
{ACAD_REACTORS
330
E
102
}
330
E
  0
SCALE
  5
48
102
{ACAD_REACTORS
330
47
102
}
330
47
100
AcDbScale
 70
     0
300
1:1
140
1.0
141
1.0
290
     1
  0
SCALE
  5
49
102
{ACAD_REACTORS
330
47
102
}
330
47
100
AcDbScale
 70
     0
300
1:2
140
1.0
141
2.0
290
     0
  0
SCALE
  5
4A
102
{ACAD_REACTORS
330
47
102
}
330
47
100
AcDbScale
 70
     0
300
1:4
140
1.0
141
4.0
290
     0
  0
SCALE
  5
4B
102
{ACAD_REACTORS
330
47
102
}
330
47
100
AcDbScale
 70
     0
300
1:5
140
1.0
141
5.0
290
     0
  0
SCALE
  5
4C
102
{ACAD_REACTORS
330
47
102
}
330
47
100
AcDbScale
 70
     0
300
1:8
140
1.0
141
8.0
290
     0
  0
SCALE
  5
4D
102
{ACAD_REACTORS
330
47
102
}
330
47
100
AcDbScale
 70
     0
300
1:10
140
1.0
141
10.0
290
     0
  0
SCALE
  5
4E
102
{ACAD_REACTORS
330
47
102
}
330
47
100
AcDbScale
 70
     0
300
1:16
140
1.0
141
16.0
290
     0
  0
SCALE
  5
4F
102
{ACAD_REACTORS
330
47
102
}
330
47
100
AcDbScale
 70
     0
300
1:20
140
1.0
141
20.0
290
     0
  0
SCALE
  5
50
102
{ACAD_REACTORS
330
47
102
}
330
47
100
AcDbScale
 70
     0
300
1:30
140
1.0
141
30.0
290
     0
  0
SCALE
  5
51
102
{ACAD_REACTORS
330
47
102
}
330
47
100
AcDbScale
 70
     0
300
1:40
140
1.0
141
40.0
290
     0
  0
SCALE
  5
52
102
{ACAD_REACTORS
330
47
102
}
330
47
100
AcDbScale
 70
     0
300
1:50
140
1.0
141
50.0
290
     0
  0
SCALE
  5
53
102
{ACAD_REACTORS
330
47
102
}
330
47
100
AcDbScale
 70
     0
300
1:100
140
1.0
141
100.0
290
     0
  0
SCALE
  5
54
102
{ACAD_REACTORS
330
47
102
}
330
47
100
AcDbScale
 70
     0
300
2:1
140
2.0
141
1.0
290
     0
  0
SCALE
  5
55
102
{ACAD_REACTORS
330
47
102
}
330
47
100
AcDbScale
 70
     0
300
4:1
140
4.0
141
1.0
290
     0
  0
SCALE
  5
56
102
{ACAD_REACTORS
330
47
102
}
330
47
100
AcDbScale
 70
     0
300
8:1
140
8.0
141
1.0
290
     0
  0
SCALE
  5
57
102
{ACAD_REACTORS
330
47
102
}
330
47
100
AcDbScale
 70
     0
300
10:1
140
10.0
141
1.0
290
     0
  0
SCALE
  5
58
102
{ACAD_REACTORS
330
47
102
}
330
47
100
AcDbScale
 70
     0
300
100:1
140
100.0
141
1.0
290
     0
  0
SCALE
  5
59
102
{ACAD_REACTORS
330
47
102
}
330
47
100
AcDbScale
 70
     0
300
1/128" = 1'-0"
140
0.0078125
141
12.0
290
     0
  0
SCALE
  5
5A
102
{ACAD_REACTORS
330
47
102
}
330
47
100
AcDbScale
 70
     0
300
1/64" = 1'-0"
140
0.015625
141
12.0
290
     0
  0
SCALE
  5
5B
102
{ACAD_REACTORS
330
47
102
}
330
47
100
AcDbScale
 70
     0
300
1/32" = 1'-0"
140
0.03125
141
12.0
290
     0
  0
SCALE
  5
5C
102
{ACAD_REACTORS
330
47
102
}
330
47
100
AcDbScale
 70
     0
300
1/16" = 1'-0"
140
0.0625
141
12.0
290
     0
  0
SCALE
  5
5D
102
{ACAD_REACTORS
330
47
102
}
330
47
100
AcDbScale
 70
     0
300
3/32" = 1'-0"
140
0.09375
141
12.0
290
     0
  0
SCALE
  5
5E
102
{ACAD_REACTORS
330
47
102
}
330
47
100
AcDbScale
 70
     0
300
1/8" = 1'-0"
140
0.125
141
12.0
290
     0
  0
SCALE
  5
5F
102
{ACAD_REACTORS
330
47
102
}
330
47
100
AcDbScale
 70
     0
300
3/16" = 1'-0"
140
0.1875
141
12.0
290
     0
  0
SCALE
  5
60
102
{ACAD_REACTORS
330
47
102
}
330
47
100
AcDbScale
 70
     0
300
1/4" = 1'-0"
140
0.25
141
12.0
290
     0
  0
SCALE
  5
61
102
{ACAD_REACTORS
330
47
102
}
330
47
100
AcDbScale
 70
     0
300
3/8" = 1'-0"
140
0.375
141
12.0
290
     0
  0
SCALE
  5
62
102
{ACAD_REACTORS
330
47
102
}
330
47
100
AcDbScale
 70
     0
300
1/2" = 1'-0"
140
0.5
141
12.0
290
     0
  0
SCALE
  5
63
102
{ACAD_REACTORS
330
47
102
}
330
47
100
AcDbScale
 70
     0
300
3/4" = 1'-0"
140
0.75
141
12.0
290
     0
  0
SCALE
  5
64
102
{ACAD_REACTORS
330
47
102
}
330
47
100
AcDbScale
 70
     0
300
1" = 1'-0"
140
1.0
141
12.0
290
     0
  0
SCALE
  5
65
102
{ACAD_REACTORS
330
47
102
}
330
47
100
AcDbScale
 70
     0
300
1-1/2" = 1'-0"
140
1.5
141
12.0
290
     0
  0
SCALE
  5
66
102
{ACAD_REACTORS
330
47
102
}
330
47
100
AcDbScale
 70
     0
300
3" = 1'-0"
140
3.0
141
12.0
290
     0
  0
SCALE
  5
67
102
{ACAD_REACTORS
330
47
102
}
330
47
100
AcDbScale
 70
     0
300
6" = 1'-0"
140
6.0
141
12.0
290
     0
  0
SCALE
  5
68
102
{ACAD_REACTORS
330
47
102
}
330
47
100
AcDbScale
 70
     0
300
1'-0" = 1'-0"
140
12.0
141
12.0
290
     0
  0
TABLESTYLE
  5
6A
102
{ACAD_REACTORS
330
69
102
}
102
{ACAD_XDICTIONARY
360
186
102
}
330
69
100
AcDbTableStyle
  3
Standard
 70
     0
 71
     0
 40
0.06
 41
0.06
280
     0
281
     0
  7
Standard
140
4.5
170
     2
 62
     0
 63
   257
283
     0
 90
        4
 91
        0
  1

274
    -2
284
     1
 64
     0
275
    -2
285
     1
 65
     0
276
    -2
286
     1
 66
     0
277
    -2
287
     1
 67
     0
278
    -2
288
     1
 68
     0
279
    -2
289
     1
 69
     0
  7
Standard
140
6.0
170
     5
 62
     0
 63
   257
283
     0
 90
        4
 91
        0
  1

274
    -2
284
     1
 64
     0
275
    -2
285
     1
 65
     0
276
    -2
286
     1
 66
     0
277
    -2
287
     1
 67
     0
278
    -2
288
     1
 68
     0
279
    -2
289
     1
 69
     0
  7
Standard
140
4.5
170
     5
 62
     0
 63
   257
283
     0
 90
        4
 91
        0
  1

274
    -2
284
     1
 64
     0
275
    -2
285
     1
 65
     0
276
    -2
286
     1
 66
     0
277
    -2
287
     1
 67
     0
278
    -2
288
     1
 68
     0
279
    -2
289
     1
 69
     0
  0
VISUALSTYLE
  5
2F
102
{ACAD_REACTORS
330
2A
102
}
330
2A
100
AcDbVisualStyle
  2
2dWireframe
 70
     4
177
     3
291
     0
 70
    58
 90
        0
176
     1
 90
        2
176
     1
 90
        0
176
     1
 90
        0
176
     1
 40
0.6
176
     1
 40
30.0
176
     1
 62
     7
420
 16777215
176
     1
 90
        1
176
     1
 90
        4
176
     1
 62
     7
176
     1
 62
   257
176
     1
 90
        1
176
     1
 90
        1
176
     1
 40
1.0
176
     1
 90
        0
176
     1
 62
   257
176
     1
 40
1.0
176
     1
 90
        1
176
     1
 90
        6
176
     1
 90
        2
176
     1
 62
     7
176
     1
 90
        5
176
     1
 90
        0
176
     1
 90
        0
176
     1
290
     0
176
     1
 90
        1
176
     1
 40
0.0
176
     1
 90
        0
176
     1
290
     1
176
     1
290
     1
176
     1
290
     0
176
     1
290
     0
176
     1
290
     0
176
     1
290
     0
176
     1
290
     0
176
     1
290
     0
176
     1
290
     0
176
     1
 90
       50
176
     1
 40
0.0
176
     1
 40
1.0
176
     1
 90
        0
176
     1
 62
    18
420
        0
176
     1
 90
       50
176
     1
 90
        3
176
     1
 62
     5
420
      255
176
     1
290
     0
176
     1
 90
       50
176
     1
 90
       50
176
     1
 90
       50
176
     1
290
     0
176
     1
 90
       50
176
     1
 62
   256
176
     0
 40
1.0
176
     0
 90
        2
176
     1
  1
strokes_ogs.tif
176
     1
290
     0
176
     1
 40
1.0
176
     1
 40
1.0
176
     1
  0
VISUALSTYLE
  5
32
102
{ACAD_REACTORS
330
2A
102
}
330
2A
100
AcDbVisualStyle
  2
Basic
 70
     7
177
     3
291
     1
 70
    58
 90
        1
176
     1
 90
        0
176
     1
 90
        1
176
     1
 90
        0
176
     1
 40
0.6
176
     1
 40
30.0
176
     1
 62
     7
420
 16777215
176
     1
 90
        0
176
     1
 90
        4
176
     1
 62
     7
176
     1
 62
   257
176
     1
 90
        1
176
     1
 90
        1
176
     1
 40
1.0
176
     1
 90
        8
176
     1
 62
     7
176
     1
 40
1.0
176
     1
 90
        1
176
     1
 90
        6
176
     1
 90
        2
176
     1
 62
     7
176
     1
 90
        5
176
     1
 90
        0
176
     1
 90
        0
176
     1
290
     0
176
     1
 90
        1
176
     1
 40
0.0
176
     1
 90
        0
176
     1
290
     0
176
     1
290
     1
176
     1
290
     1
176
     1
290
     0
176
     1
290
     0
176
     1
290
     0
176
     1
290
     0
176
     1
290
     0
176
     1
290
     0
176
     1
 90
       50
176
     1
 40
0.0
176
     1
 40
1.0
176
     1
 90
        0
176
     1
 62
    18
420
        0
176
     1
 90
       50
176
     1
 90
        3
176
     1
 62
     5
420
      255
176
     1
290
     0
176
     1
 90
       50
176
     1
 90
       50
176
     1
 90
       50
176
     1
290
     0
176
     1
 90
       50
176
     1
 62
   256
176
     0
 40
1.0
176
     0
 90
        2
176
     1
  1
strokes_ogs.tif
176
     1
290
     0
176
     1
 40
1.0
176
     1
 40
1.0
176
     1
  0
VISUALSTYLE
  5
36
102
{ACAD_REACTORS
330
2A
102
}
330
2A
100
AcDbVisualStyle
  2
Brighten
 70
    12
177
     3
291
     1
 70
    58
 90
        2
176
     1
 90
        2
176
     1
 90
        0
176
     1
 90
        0
176
     1
 40
0.6
176
     1
 40
30.0
176
     1
 62
     7
420
 16777215
176
     1
 90
        1
176
     1
 90
        4
176
     1
 62
     7
176
     1
 62
   257
176
     1
 90
        1
176
     1
 90
        1
176
     1
 40
1.0
176
     1
 90
        8
176
     1
 62
     7
176
     1
 40
1.0
176
     1
 90
        1
176
     1
 90
        6
176
     1
 90
        2
176
     1
 62
     7
176
     1
 90
        5
176
     1
 90
        0
176
     1
 90
        0
176
     1
290
     0
176
     1
 90
        1
176
     1
 40
50.0
176
     1
 90
        0
176
     1
290
     0
176
     1
290
     1
176
     1
290
     1
176
     1
290
     0
176
     1
290
     0
176
     1
290
     0
176
     1
290
     0
176
     1
290
     0
176
     1
290
     0
176
     1
 90
       50
176
     1
 40
0.0
176
     1
 40
1.0
176
     1
 90
        0
176
     1
 62
    18
420
        0
176
     1
 90
       50
176
     1
 90
        3
176
     1
 62
     5
420
      255
176
     1
290
     0
176
     1
 90
       50
176
     1
 90
       50
176
     1
 90
       50
176
     1
290
     0
176
     1
 90
       50
176
     1
 62
   256
176
     0
 40
1.0
176
     0
 90
        2
176
     1
  1
strokes_ogs.tif
176
     1
290
     0
176
     1
 40
1.0
176
     1
 40
1.0
176
     1
  0
VISUALSTYLE
  5
3A
102
{ACAD_REACTORS
330
2A
102
}
330
2A
100
AcDbVisualStyle
  2
ColorChange
 70
    16
177
     3
291
     1
 70
    58
 90
        2
176
     1
 90
        2
176
     1
 90
        3
176
     1
 90
        0
176
     1
 40
0.6
176
     1
 40
30.0
176
     1
 62
     8
420
  8421504
176
     1
 90
        1
176
     1
 90
        4
176
     1
 62
     7
176
     1
 62
   257
176
     1
 90
        1
176
     1
 90
        1
176
     1
 40
1.0
176
     1
 90
        8
176
     1
 62
     8
420
  8421504
176
     1
 40
1.0
176
     1
 90
        1
176
     1
 90
        6
176
     1
 90
        2
176
     1
 62
     7
176
     1
 90
        5
176
     1
 90
        0
176
     1
 90
        0
176
     1
290
     0
176
     1
 90
        1
176
     1
 40
0.0
176
     1
 90
        0
176
     1
290
     0
176
     1
290
     1
176
     1
290
     1
176
     1
290
     0
176
     1
290
     0
176
     1
290
     0
176
     1
290
     0
176
     1
290
     0
176
     1
290
     0
176
     1
 90
       50
176
     1
 40
0.0
176
     1
 40
1.0
176
     1
 90
        0
176
     1
 62
    18
420
        0
176
     1
 90
       50
176
     1
 90
        3
176
     1
 62
     5
420
      255
176
     1
290
     0
176
     1
 90
       50
176
     1
 90
       50
176
     1
 90
       50
176
     1
290
     0
176
     1
 90
       50
176
     1
 62
   256
176
     0
 40
1.0
176
     0
 90
        2
176
     1
  1
strokes_ogs.tif
176
     1
290
     0
176
     1
 40
1.0
176
     1
 40
1.0
176
     1
  0
VISUALSTYLE
  5
34
102
{ACAD_REACTORS
330
2A
102
}
330
2A
100
AcDbVisualStyle
  2
Conceptual
 70
     9
177
     3
291
     0
 70
    58
 90
        3
176
     1
 90
        2
176
     1
 90
        0
176
     1
 90
        0
176
     1
 40
0.6
176
     1
 40
30.0
176
     1
 62
     7
420
 16777215
176
     1
 90
        2
176
     1
 90
        2
176
     1
 62
     7
176
     1
 62
   257
176
     1
 90
        1
176
     1
 90
        1
176
     1
 40
179.0
176
     1
 90
        8
176
     1
 62
     7
176
     1
 40
1.0
176
     1
 90
        1
176
     1
 90
        6
176
     1
 90
        2
176
     1
 62
     7
176
     1
 90
        3
176
     1
 90
        0
176
     1
 90
        0
176
     1
290
     0
176
     1
 90
        1
176
     1
 40
0.0
176
     1
 90
        0
176
     1
290
     0
176
     1
290
     1
176
     1
290
     1
176
     1
290
     0
176
     1
290
     0
176
     1
290
     0
176
     1
290
     0
176
     1
290
     0
176
     1
290
     0
176
     1
 90
       50
176
     1
 40
0.0
176
     1
 40
1.0
176
     1
 90
        0
176
     1
 62
    18
420
        0
176
     1
 90
       50
176
     1
 90
        3
176
     1
 62
     5
420
      255
176
     1
290
     0
176
     1
 90
       50
176
     1
 90
       50
176
     1
 90
       50
176
     1
290
     0
176
     1
 90
       50
176
     1
 62
   256
176
     0
 40
1.0
176
     0
 90
        2
176
     1
  1
strokes_ogs.tif
176
     1
290
     0
176
     1
 40
1.0
176
     1
 40
1.0
176
     1
  0
VISUALSTYLE
  5
35
102
{ACAD_REACTORS
330
2A
102
}
330
2A
100
AcDbVisualStyle
  2
Dim
 70
    11
177
     3
291
     1
 70
    58
 90
        2
176
     1
 90
        2
176
     1
 90
        0
176
     1
 90
        0
176
     1
 40
0.6
176
     1
 40
30.0
176
     1
 62
     7
420
 16777215
176
     1
 90
        1
176
     1
 90
        4
176
     1
 62
     7
176
     1
 62
   257
176
     1
 90
        1
176
     1
 90
        1
176
     1
 40
1.0
176
     1
 90
        8
176
     1
 62
     7
176
     1
 40
1.0
176
     1
 90
        1
176
     1
 90
        6
176
     1
 90
        2
176
     1
 62
     7
176
     1
 90
        5
176
     1
 90
        0
176
     1
 90
        0
176
     1
290
     0
176
     1
 90
        1
176
     1
 40
-50.0
176
     1
 90
        0
176
     1
290
     0
176
     1
290
     1
176
     1
290
     1
176
     1
290
     0
176
     1
290
     0
176
     1
290
     0
176
     1
290
     0
176
     1
290
     0
176
     1
290
     0
176
     1
 90
       50
176
     1
 40
0.0
176
     1
 40
1.0
176
     1
 90
        0
176
     1
 62
    18
420
        0
176
     1
 90
       50
176
     1
 90
        3
176
     1
 62
     5
420
      255
176
     1
290
     0
176
     1
 90
       50
176
     1
 90
       50
176
     1
 90
       50
176
     1
290
     0
176
     1
 90
       50
176
     1
 62
   256
176
     0
 40
1.0
176
     0
 90
        2
176
     1
  1
strokes_ogs.tif
176
     1
290
     0
176
     1
 40
1.0
176
     1
 40
1.0
176
     1
  0
VISUALSTYLE
  5
3D
102
{ACAD_REACTORS
330
2A
102
}
330
2A
100
AcDbVisualStyle
  2
EdgeColorOff
 70
    22
177
     3
291
     1
 70
    58
 90
        2
176
     0
 90
        2
176
     0
 90
        0
176
     0
 90
        0
176
     0
 40
0.6
176
     0
 40
30.0
176
     0
 62
     7
420
 16777215
176
     0
 90
        1
176
     0
 90
        4
176
     0
 62
     7
176
     0
 62
   257
176
     0
 90
        1
176
     0
 90
        1
176
     0
 40
1.0
176
     0
 90
        8
176
     2
 62
     7
176
     0
 40
1.0
176
     0
 90
        1
176
     0
 90
        6
176
     0
 90
        2
176
     0
 62
     7
176
     0
 90
        5
176
     0
 90
        0
176
     0
 90
        0
176
     0
290
     0
176
     0
 90
        1
176
     0
 40
0.0
176
     0
 90
        0
176
     0
290
     0
176
     0
290
     1
176
     0
290
     1
176
     0
290
     0
176
     0
290
     0
176
     0
290
     0
176
     0
290
     0
176
     0
290
     0
176
     0
290
     0
176
     0
 90
       50
176
     0
 40
0.0
176
     0
 40
1.0
176
     0
 90
        0
176
     0
 62
    18
420
        0
176
     0
 90
       50
176
     0
 90
        3
176
     0
 62
     5
420
      255
176
     0
290
     0
176
     0
 90
       50
176
     0
 90
       50
176
     0
 90
       50
176
     0
290
     0
176
     0
 90
       50
176
     0
 62
   256
176
     0
 40
1.0
176
     0
 90
        2
176
     0
  1
strokes_ogs.tif
176
     0
290
     0
176
     0
 40
1.0
176
     0
 40
1.0
176
     0
  0
VISUALSTYLE
  5
39
102
{ACAD_REACTORS
330
2A
102
}
330
2A
100
AcDbVisualStyle
  2
Facepattern
 70
    15
177
     3
291
     1
 70
    58
 90
        2
176
     1
 90
        2
176
     1
 90
        0
176
     1
 90
        0
176
     1
 40
0.6
176
     1
 40
30.0
176
     1
 62
     7
420
 16777215
176
     1
 90
        1
176
     1
 90
        4
176
     1
 62
     7
176
     1
 62
   257
176
     1
 90
        1
176
     1
 90
        1
176
     1
 40
1.0
176
     1
 90
        8
176
     1
 62
     7
176
     1
 40
1.0
176
     1
 90
        1
176
     1
 90
        6
176
     1
 90
        2
176
     1
 62
     7
176
     1
 90
        5
176
     1
 90
        0
176
     1
 90
        0
176
     1
290
     0
176
     1
 90
        1
176
     1
 40
0.0
176
     1
 90
        0
176
     1
290
     0
176
     1
290
     1
176
     1
290
     1
176
     1
290
     0
176
     1
290
     0
176
     1
290
     0
176
     1
290
     0
176
     1
290
     0
176
     1
290
     0
176
     1
 90
       50
176
     1
 40
0.0
176
     1
 40
1.0
176
     1
 90
        0
176
     1
 62
    18
420
        0
176
     1
 90
       50
176
     1
 90
        3
176
     1
 62
     5
420
      255
176
     1
290
     0
176
     1
 90
       50
176
     1
 90
       50
176
     1
 90
       50
176
     1
290
     0
176
     1
 90
       50
176
     1
 62
   256
176
     0
 40
1.0
176
     0
 90
        2
176
     1
  1
strokes_ogs.tif
176
     1
290
     0
176
     1
 40
1.0
176
     1
 40
1.0
176
     1
  0
VISUALSTYLE
  5
2B
102
{ACAD_REACTORS
330
2A
102
}
330
2A
100
AcDbVisualStyle
  2
Flat
 70
     0
177
     3
291
     1
 70
    58
 90
        2
176
     1
 90
        1
176
     1
 90
        1
176
     1
 90
        2
176
     1
 40
0.6
176
     1
 40
30.0
176
     1
 62
     7
420
 16777215
176
     1
 90
        0
176
     1
 90
        0
176
     1
 62
     7
176
     1
 62
   257
176
     1
 90
        1
176
     1
 90
        1
176
     1
 40
1.0
176
     1
 90
        8
176
     1
 62
     7
176
     1
 40
1.0
176
     1
 90
        1
176
     1
 90
        6
176
     1
 90
        2
176
     1
 62
     7
176
     1
 90
        5
176
     1
 90
        0
176
     1
 90
        0
176
     1
290
     0
176
     1
 90
       13
176
     1
 40
0.0
176
     1
 90
        0
176
     1
290
     0
176
     1
290
     1
176
     1
290
     1
176
     1
290
     0
176
     1
290
     0
176
     1
290
     0
176
     1
290
     0
176
     1
290
     0
176
     1
290
     0
176
     1
 90
       50
176
     1
 40
0.0
176
     1
 40
1.0
176
     1
 90
        0
176
     1
 62
    18
420
        0
176
     1
 90
       50
176
     1
 90
        3
176
     1
 62
     5
420
      255
176
     1
290
     0
176
     1
 90
       50
176
     1
 90
       50
176
     1
 90
       50
176
     1
290
     0
176
     1
 90
       50
176
     1
 62
   256
176
     0
 40
1.0
176
     0
 90
        2
176
     1
  1
strokes_ogs.tif
176
     1
290
     0
176
     1
 40
1.0
176
     1
 40
1.0
176
     1
  0
VISUALSTYLE
  5
2C
102
{ACAD_REACTORS
330
2A
102
}
330
2A
100
AcDbVisualStyle
  2
FlatWithEdges
 70
     1
177
     3
291
     1
 70
    58
 90
        2
176
     1
 90
        1
176
     1
 90
        1
176
     1
 90
        2
176
     1
 40
0.6
176
     1
 40
30.0
176
     1
 62
     7
420
 16777215
176
     1
 90
        1
176
     1
 90
        0
176
     1
 62
     7
176
     1
 62
   257
176
     1
 90
        1
176
     1
 90
        1
176
     1
 40
1.0
176
     1
 90
        0
176
     1
 62
   257
176
     1
 40
1.0
176
     1
 90
        1
176
     1
 90
        6
176
     1
 90
        2
176
     1
 62
     7
176
     1
 90
        5
176
     1
 90
        0
176
     1
 90
        0
176
     1
290
     0
176
     1
 90
       13
176
     1
 40
0.0
176
     1
 90
        0
176
     1
290
     0
176
     1
290
     1
176
     1
290
     1
176
     1
290
     0
176
     1
290
     0
176
     1
290
     0
176
     1
290
     0
176
     1
290
     0
176
     1
290
     0
176
     1
 90
       50
176
     1
 40
0.0
176
     1
 40
1.0
176
     1
 90
        0
176
     1
 62
    18
420
        0
176
     1
 90
       50
176
     1
 90
        3
176
     1
 62
     5
420
      255
176
     1
290
     0
176
     1
 90
       50
176
     1
 90
       50
176
     1
 90
       50
176
     1
290
     0
176
     1
 90
       50
176
     1
 62
   256
176
     0
 40
1.0
176
     0
 90
        2
176
     1
  1
strokes_ogs.tif
176
     1
290
     0
176
     1
 40
1.0
176
     1
 40
1.0
176
     1
  0
VISUALSTYLE
  5
2D
102
{ACAD_REACTORS
330
2A
102
}
330
2A
100
AcDbVisualStyle
  2
Gouraud
 70
     2
177
     3
291
     1
 70
    58
 90
        2
176
     1
 90
        2
176
     1
 90
        1
176
     1
 90
        2
176
     1
 40
0.6
176
     1
 40
30.0
176
     1
 62
     7
420
 16777215
176
     1
 90
        0
176
     1
 90
        0
176
     1
 62
     7
176
     1
 62
   257
176
     1
 90
        1
176
     1
 90
        1
176
     1
 40
1.0
176
     1
 90
        0
176
     1
 62
     7
176
     1
 40
1.0
176
     1
 90
        1
176
     1
 90
        6
176
     1
 90
        2
176
     1
 62
     7
176
     1
 90
        5
176
     1
 90
        0
176
     1
 90
        0
176
     1
290
     0
176
     1
 90
       13
176
     1
 40
0.0
176
     1
 90
        0
176
     1
290
     0
176
     1
290
     1
176
     1
290
     1
176
     1
290
     0
176
     1
290
     0
176
     1
290
     0
176
     1
290
     0
176
     1
290
     0
176
     1
290
     0
176
     1
 90
       50
176
     1
 40
0.0
176
     1
 40
1.0
176
     1
 90
        0
176
     1
 62
    18
420
        0
176
     1
 90
       50
176
     1
 90
        3
176
     1
 62
     5
420
      255
176
     1
290
     0
176
     1
 90
       50
176
     1
 90
       50
176
     1
 90
       50
176
     1
290
     0
176
     1
 90
       50
176
     1
 62
   256
176
     0
 40
1.0
176
     0
 90
        2
176
     1
  1
strokes_ogs.tif
176
     1
290
     0
176
     1
 40
1.0
176
     1
 40
1.0
176
     1
  0
VISUALSTYLE
  5
2E
102
{ACAD_REACTORS
330
2A
102
}
330
2A
100
AcDbVisualStyle
  2
GouraudWithEdges
 70
     3
177
     3
291
     1
 70
    58
 90
        2
176
     1
 90
        2
176
     1
 90
        1
176
     1
 90
        2
176
     1
 40
0.6
176
     1
 40
30.0
176
     1
 62
     7
420
 16777215
176
     1
 90
        1
176
     1
 90
        0
176
     1
 62
     7
176
     1
 62
   257
176
     1
 90
        1
176
     1
 90
        1
176
     1
 40
1.0
176
     1
 90
        0
176
     1
 62
   257
176
     1
 40
1.0
176
     1
 90
        1
176
     1
 90
        6
176
     1
 90
        2
176
     1
 62
     7
176
     1
 90
        5
176
     1
 90
        0
176
     1
 90
        0
176
     1
290
     0
176
     1
 90
       13
176
     1
 40
0.0
176
     1
 90
        0
176
     1
290
     0
176
     1
290
     1
176
     1
290
     1
176
     1
290
     0
176
     1
290
     0
176
     1
290
     0
176
     1
290
     0
176
     1
290
     0
176
     1
290
     0
176
     1
 90
       50
176
     1
 40
0.0
176
     1
 40
1.0
176
     1
 90
        0
176
     1
 62
    18
420
        0
176
     1
 90
       50
176
     1
 90
        3
176
     1
 62
     5
420
      255
176
     1
290
     0
176
     1
 90
       50
176
     1
 90
       50
176
     1
 90
       50
176
     1
290
     0
176
     1
 90
       50
176
     1
 62
   256
176
     0
 40
1.0
176
     0
 90
        2
176
     1
  1
strokes_ogs.tif
176
     1
290
     0
176
     1
 40
1.0
176
     1
 40
1.0
176
     1
  0
VISUALSTYLE
  5
31
102
{ACAD_REACTORS
330
2A
102
}
330
2A
100
AcDbVisualStyle
  2
Hidden
 70
     6
177
     3
291
     0
 70
    58
 90
        1
176
     1
 90
        2
176
     1
 90
        2
176
     1
 90
        0
176
     1
 40
0.6
176
     1
 40
30.0
176
     1
 62
     7
420
 16777215
176
     1
 90
        2
176
     1
 90
        2
176
     1
 62
     7
176
     1
 62
   257
176
     1
 90
        2
176
     1
 90
        1
176
     1
 40
40.0
176
     1
 90
        0
176
     1
 62
   257
176
     1
 40
1.0
176
     1
 90
        1
176
     1
 90
        6
176
     1
 90
        2
176
     1
 62
     7
176
     1
 90
        3
176
     1
 90
        0
176
     1
 90
        0
176
     1
290
     0
176
     1
 90
        1
176
     1
 40
0.0
176
     1
 90
        0
176
     1
290
     0
176
     1
290
     1
176
     1
290
     1
176
     1
290
     0
176
     1
290
     0
176
     1
290
     0
176
     1
290
     0
176
     1
290
     0
176
     1
290
     0
176
     1
 90
       50
176
     1
 40
0.0
176
     1
 40
1.0
176
     1
 90
        0
176
     1
 62
    18
420
        0
176
     1
 90
       50
176
     1
 90
        3
176
     1
 62
     5
420
      255
176
     1
290
     0
176
     1
 90
       50
176
     1
 90
       50
176
     1
 90
       50
176
     1
290
     0
176
     1
 90
       50
176
     1
 62
   256
176
     0
 40
1.0
176
     0
 90
        2
176
     1
  1
strokes_ogs.tif
176
     1
290
     0
176
     1
 40
1.0
176
     1
 40
1.0
176
     1
  0
VISUALSTYLE
  5
3B
102
{ACAD_REACTORS
330
2A
102
}
330
2A
100
AcDbVisualStyle
  2
JitterOff
 70
    20
177
     3
291
     1
 70
    58
 90
        2
176
     0
 90
        2
176
     0
 90
        0
176
     0
 90
        0
176
     0
 40
0.6
176
     0
 40
30.0
176
     0
 62
     7
420
 16777215
176
     0
 90
        1
176
     0
 90
        4
176
     0
 62
     7
176
     0
 62
   257
176
     0
 90
        1
176
     0
 90
        1
176
     0
 40
1.0
176
     0
 90
       10
176
     2
 62
     7
176
     0
 40
1.0
176
     0
 90
        1
176
     0
 90
        6
176
     0
 90
        2
176
     0
 62
     7
176
     0
 90
        5
176
     0
 90
        0
176
     0
 90
        0
176
     0
290
     0
176
     0
 90
        1
176
     0
 40
0.0
176
     0
 90
        0
176
     0
290
     0
176
     0
290
     1
176
     0
290
     1
176
     0
290
     0
176
     0
290
     0
176
     0
290
     0
176
     0
290
     0
176
     0
290
     0
176
     0
290
     0
176
     0
 90
       50
176
     0
 40
0.0
176
     0
 40
1.0
176
     0
 90
        0
176
     0
 62
    18
420
        0
176
     0
 90
       50
176
     0
 90
        3
176
     0
 62
     5
420
      255
176
     0
290
     0
176
     0
 90
       50
176
     0
 90
       50
176
     0
 90
       50
176
     0
290
     0
176
     0
 90
       50
176
     0
 62
   256
176
     0
 40
1.0
176
     0
 90
        2
176
     0
  1
strokes_ogs.tif
176
     0
290
     0
176
     0
 40
1.0
176
     0
 40
1.0
176
     0
  0
VISUALSTYLE
  5
38
102
{ACAD_REACTORS
330
2A
102
}
330
2A
100
AcDbVisualStyle
  2
Linepattern
 70
    14
177
     3
291
     1
 70
    58
 90
        2
176
     1
 90
        2
176
     1
 90
        0
176
     1
 90
        0
176
     1
 40
0.6
176
     1
 40
30.0
176
     1
 62
     7
420
 16777215
176
     1
 90
        1
176
     1
 90
        4
176
     1
 62
     7
176
     1
 62
   257
176
     1
 90
        7
176
     1
 90
        7
176
     1
 40
1.0
176
     1
 90
        8
176
     1
 62
     7
176
     1
 40
1.0
176
     1
 90
        1
176
     1
 90
        6
176
     1
 90
        2
176
     1
 62
     7
176
     1
 90
        5
176
     1
 90
        0
176
     1
 90
        0
176
     1
290
     0
176
     1
 90
        1
176
     1
 40
0.0
176
     1
 90
        0
176
     1
290
     0
176
     1
290
     1
176
     1
290
     1
176
     1
290
     0
176
     1
290
     0
176
     1
290
     0
176
     1
290
     0
176
     1
290
     0
176
     1
290
     0
176
     1
 90
       50
176
     1
 40
0.0
176
     1
 40
1.0
176
     1
 90
        0
176
     1
 62
    18
420
        0
176
     1
 90
       50
176
     1
 90
        3
176
     1
 62
     5
420
      255
176
     1
290
     0
176
     1
 90
       50
176
     1
 90
       50
176
     1
 90
       50
176
     1
290
     0
176
     1
 90
       50
176
     1
 62
   256
176
     0
 40
1.0
176
     0
 90
        2
176
     1
  1
strokes_ogs.tif
176
     1
290
     0
176
     1
 40
1.0
176
     1
 40
1.0
176
     1
  0
VISUALSTYLE
  5
3C
102
{ACAD_REACTORS
330
2A
102
}
330
2A
100
AcDbVisualStyle
  2
OverhangOff
 70
    21
177
     3
291
     1
 70
    58
 90
        2
176
     0
 90
        2
176
     0
 90
        0
176
     0
 90
        0
176
     0
 40
0.6
176
     0
 40
30.0
176
     0
 62
     7
420
 16777215
176
     0
 90
        1
176
     0
 90
        4
176
     0
 62
     7
176
     0
 62
   257
176
     0
 90
        1
176
     0
 90
        1
176
     0
 40
1.0
176
     0
 90
        9
176
     2
 62
     7
176
     0
 40
1.0
176
     0
 90
        1
176
     0
 90
        6
176
     0
 90
        2
176
     0
 62
     7
176
     0
 90
        5
176
     0
 90
        0
176
     0
 90
        0
176
     0
290
     0
176
     0
 90
        1
176
     0
 40
0.0
176
     0
 90
        0
176
     0
290
     0
176
     0
290
     1
176
     0
290
     1
176
     0
290
     0
176
     0
290
     0
176
     0
290
     0
176
     0
290
     0
176
     0
290
     0
176
     0
290
     0
176
     0
 90
       50
176
     0
 40
0.0
176
     0
 40
1.0
176
     0
 90
        0
176
     0
 62
    18
420
        0
176
     0
 90
       50
176
     0
 90
        3
176
     0
 62
     5
420
      255
176
     0
290
     0
176
     0
 90
       50
176
     0
 90
       50
176
     0
 90
       50
176
     0
290
     0
176
     0
 90
       50
176
     0
 62
   256
176
     0
 40
1.0
176
     0
 90
        2
176
     0
  1
strokes_ogs.tif
176
     0
290
     0
176
     0
 40
1.0
176
     0
 40
1.0
176
     0
  0
VISUALSTYLE
  5
33
102
{ACAD_REACTORS
330
2A
102
}
330
2A
100
AcDbVisualStyle
  2
Realistic
 70
     8
177
     3
291
     0
 70
    58
 90
        2
176
     1
 90
        3
176
     1
 90
        0
176
     1
 90
        2
176
     1
 40
0.6
176
     1
 40
30.0
176
     1
 62
     7
420
 16777215
176
     1
 90
        0
176
     1
 90
        0
176
     1
 62
     7
176
     1
 62
   257
176
     1
 90
        1
176
     1
 90
        1
176
     1
 40
1.0
176
     1
 90
        8
176
     1
 62
   257
176
     1
 40
1.0
176
     1
 90
        1
176
     1
 90
        6
176
     1
 90
        2
176
     1
 62
     7
176
     1
 90
        3
176
     1
 90
        0
176
     1
 90
        0
176
     1
290
     0
176
     1
 90
       13
176
     1
 40
0.0
176
     1
 90
        0
176
     1
290
     0
176
     1
290
     1
176
     1
290
     1
176
     1
290
     0
176
     1
290
     0
176
     1
290
     0
176
     1
290
     0
176
     1
290
     0
176
     1
290
     0
176
     1
 90
       50
176
     1
 40
0.0
176
     1
 40
1.0
176
     1
 90
        0
176
     1
 62
    18
420
        0
176
     1
 90
       50
176
     1
 90
        3
176
     1
 62
     5
420
      255
176
     1
290
     0
176
     1
 90
       50
176
     1
 90
       50
176
     1
 90
       50
176
     1
290
     0
176
     1
 90
       50
176
     1
 62
   256
176
     0
 40
1.0
176
     0
 90
        2
176
     1
  1
strokes_ogs.tif
176
     1
290
     0
176
     1
 40
1.0
176
     1
 40
1.0
176
     1
  0
VISUALSTYLE
  5
42
102
{ACAD_REACTORS
330
2A
102
}
330
2A
100
AcDbVisualStyle
  2
Shaded
 70
    27
177
     3
291
     0
 70
    58
 90
        2
176
     1
 90
        2
176
     1
 90
        1
176
     1
 90
        2
176
     1
 40
0.6
176
     1
 40
30.0
176
     1
 62
     7
420
 16777215
176
     1
 90
        0
176
     1
 90
        4
176
     1
 62
     7
176
     1
 62
   257
176
     1
 90
        1
176
     1
 90
        1
176
     1
 40
1.0
176
     1
 90
        8
176
     1
 62
   257
176
     1
 40
1.0
176
     1
 90
        1
176
     1
 90
        6
176
     1
 90
        2
176
     1
 62
     8
420
  7895160
176
     1
 90
        3
176
     1
 90
        0
176
     1
 90
        0
176
     1
290
     0
176
     1
 90
        5
176
     1
 40
0.0
176
     1
 90
        0
176
     1
290
     0
176
     1
290
     1
176
     1
290
     1
176
     1
290
     0
176
     1
290
     0
176
     1
290
     0
176
     1
290
     0
176
     1
290
     0
176
     1
290
     0
176
     1
 90
       50
176
     1
 40
0.0
176
     1
 40
1.0
176
     1
 90
        0
176
     1
 62
    18
420
        0
176
     1
 90
       50
176
     1
 90
        3
176
     1
 62
     5
420
      255
176
     1
290
     0
176
     1
 90
       50
176
     1
 90
       50
176
     1
 90
       50
176
     1
290
     0
176
     1
 90
       50
176
     1
 62
   256
176
     0
 40
1.0
176
     0
 90
        2
176
     1
  1
strokes_ogs.tif
176
     1
290
     0
176
     1
 40
1.0
176
     1
 40
1.0
176
     1
  0
VISUALSTYLE
  5
41
102
{ACAD_REACTORS
330
2A
102
}
330
2A
100
AcDbVisualStyle
  2
Shaded with edges
 70
    26
177
     3
291
     0
 70
    58
 90
        2
176
     1
 90
        2
176
     1
 90
        1
176
     1
 90
        2
176
     1
 40
0.6
176
     1
 40
30.0
176
     1
 62
     7
420
 16777215
176
     1
 90
        1
176
     1
 90
       10
176
     1
 62
     7
176
     1
 62
   257
176
     1
 90
        2
176
     1
 90
        1
176
     1
 40
1.0
176
     1
 90
        8
176
     1
 62
   257
176
     1
 40
1.0
176
     1
 90
        1
176
     1
 90
        6
176
     1
 90
        2
176
     1
 62
     7
176
     1
 90
        3
176
     1
 90
        0
176
     1
 90
        0
176
     1
290
     0
176
     1
 90
        5
176
     1
 40
0.0
176
     1
 90
        0
176
     1
290
     0
176
     1
290
     1
176
     1
290
     1
176
     1
290
     0
176
     1
290
     0
176
     1
290
     0
176
     1
290
     0
176
     1
290
     0
176
     1
290
     0
176
     1
 90
       50
176
     1
 40
0.0
176
     1
 40
1.0
176
     1
 90
        0
176
     1
 62
    18
420
        0
176
     1
 90
       50
176
     1
 90
        3
176
     1
 62
     5
420
      255
176
     1
290
     0
176
     1
 90
       50
176
     1
 90
       50
176
     1
 90
       50
176
     1
290
     0
176
     1
 90
       50
176
     1
 62
   256
176
     0
 40
1.0
176
     0
 90
        2
176
     1
  1
strokes_ogs.tif
176
     1
290
     0
176
     1
 40
1.0
176
     1
 40
1.0
176
     1
  0
VISUALSTYLE
  5
3E
102
{ACAD_REACTORS
330
2A
102
}
330
2A
100
AcDbVisualStyle
  2
Shades of Gray
 70
    23
177
     3
291
     0
 70
    58
 90
        2
176
     1
 90
        2
176
     1
 90
        3
176
     1
 90
        0
176
     1
 40
0.6
176
     1
 40
30.0
176
     1
 62
     7
420
 16777215
176
     1
 90
        2
176
     1
 90
        2
176
     1
 62
     7
176
     1
 62
     7
176
     1
 90
        1
176
     1
 90
        1
176
     1
 40
40.0
176
     1
 90
        8
176
     1
 62
     7
176
     1
 40
1.0
176
     1
 90
        1
176
     1
 90
        6
176
     1
 90
        2
176
     1
 62
     7
176
     1
 90
        3
176
     1
 90
        0
176
     1
 90
        0
176
     1
290
     0
176
     1
 90
        1
176
     1
 40
0.0
176
     1
 90
        0
176
     1
290
     0
176
     1
290
     1
176
     1
290
     1
176
     1
290
     0
176
     1
290
     0
176
     1
290
     0
176
     1
290
     0
176
     1
290
     0
176
     1
290
     0
176
     1
 90
       50
176
     1
 40
0.0
176
     1
 40
1.0
176
     1
 90
        0
176
     1
 62
    18
420
        0
176
     1
 90
       50
176
     1
 90
        3
176
     1
 62
     5
420
      255
176
     1
290
     0
176
     1
 90
       50
176
     1
 90
       50
176
     1
 90
       50
176
     1
290
     0
176
     1
 90
       50
176
     1
 62
   256
176
     0
 40
1.0
176
     0
 90
        2
176
     1
  1
strokes_ogs.tif
176
     1
290
     0
176
     1
 40
1.0
176
     1
 40
1.0
176
     1
  0
VISUALSTYLE
  5
3F
102
{ACAD_REACTORS
330
2A
102
}
330
2A
100
AcDbVisualStyle
  2
Sketchy
 70
    24
177
     3
291
     0
 70
    58
 90
        1
176
     1
 90
        2
176
     1
 90
        2
176
     1
 90
        0
176
     1
 40
0.6
176
     1
 40
30.0
176
     1
 62
     7
420
 16777215
176
     1
 90
        2
176
     1
 90
        2
176
     1
 62
     7
176
     1
 62
     7
176
     1
 90
        1
176
     1
 90
        1
176
     1
 40
40.0
176
     1
 90
       11
176
     1
 62
     7
176
     1
 40
1.0
176
     1
 90
        1
176
     1
 90
        6
176
     1
 90
        2
176
     1
 62
     7
176
     1
 90
        6
176
     1
 90
        0
176
     1
 90
        0
176
     1
290
     0
176
     1
 90
        1
176
     1
 40
0.0
176
     1
 90
        0
176
     1
290
     0
176
     1
290
     1
176
     1
290
     1
176
     1
290
     0
176
     1
290
     0
176
     1
290
     0
176
     1
290
     0
176
     1
290
     0
176
     1
290
     0
176
     1
 90
       50
176
     1
 40
0.0
176
     1
 40
1.0
176
     1
 90
        0
176
     1
 62
    18
420
        0
176
     1
 90
       50
176
     1
 90
        3
176
     1
 62
     5
420
      255
176
     1
290
     0
176
     1
 90
       50
176
     1
 90
       50
176
     1
 90
       50
176
     1
290
     0
176
     1
 90
       50
176
     1
 62
   256
176
     0
 40
1.0
176
     0
 90
        2
176
     1
  1
strokes_ogs.tif
176
     1
290
     0
176
     1
 40
1.0
176
     1
 40
1.0
176
     1
  0
VISUALSTYLE
  5
37
102
{ACAD_REACTORS
330
2A
102
}
330
2A
100
AcDbVisualStyle
  2
Thicken
 70
    13
177
     3
291
     1
 70
    58
 90
        2
176
     1
 90
        2
176
     1
 90
        0
176
     1
 90
        0
176
     1
 40
0.6
176
     1
 40
30.0
176
     1
 62
     7
420
 16777215
176
     1
 90
        1
176
     1
 90
        4
176
     1
 62
     7
176
     1
 62
   257
176
     1
 90
        1
176
     1
 90
        1
176
     1
 40
1.0
176
     1
 90
       12
176
     1
 62
     7
176
     1
 40
1.0
176
     1
 90
        1
176
     1
 90
        6
176
     1
 90
        2
176
     1
 62
     7
176
     1
 90
        5
176
     1
 90
        0
176
     1
 90
        0
176
     1
290
     0
176
     1
 90
        1
176
     1
 40
0.0
176
     1
 90
        0
176
     1
290
     0
176
     1
290
     1
176
     1
290
     1
176
     1
290
     0
176
     1
290
     0
176
     1
290
     0
176
     1
290
     0
176
     1
290
     0
176
     1
290
     0
176
     1
 90
       50
176
     1
 40
0.0
176
     1
 40
1.0
176
     1
 90
        0
176
     1
 62
    18
420
        0
176
     1
 90
       50
176
     1
 90
        3
176
     1
 62
     5
420
      255
176
     1
290
     0
176
     1
 90
       50
176
     1
 90
       50
176
     1
 90
       50
176
     1
290
     0
176
     1
 90
       50
176
     1
 62
   256
176
     0
 40
1.0
176
     0
 90
        2
176
     1
  1
strokes_ogs.tif
176
     1
290
     0
176
     1
 40
1.0
176
     1
 40
1.0
176
     1
  0
VISUALSTYLE
  5
30
102
{ACAD_REACTORS
330
2A
102
}
330
2A
100
AcDbVisualStyle
  2
Wireframe
 70
     5
177
     3
291
     0
 70
    58
 90
        0
176
     1
 90
        2
176
     1
 90
        0
176
     1
 90
        0
176
     1
 40
0.6
176
     1
 40
30.0
176
     1
 62
     7
420
 16777215
176
     1
 90
        1
176
     1
 90
        4
176
     1
 62
     7
176
     1
 62
   257
176
     1
 90
        1
176
     1
 90
        1
176
     1
 40
1.0
176
     1
 90
        0
176
     1
 62
   257
176
     1
 40
1.0
176
     1
 90
        1
176
     1
 90
        6
176
     1
 90
        2
176
     1
 62
     7
176
     1
 90
        3
176
     1
 90
        0
176
     1
 90
        0
176
     1
290
     0
176
     1
 90
        1
176
     1
 40
0.0
176
     1
 90
        0
176
     1
290
     0
176
     1
290
     1
176
     1
290
     1
176
     1
290
     0
176
     1
290
     0
176
     1
290
     0
176
     1
290
     0
176
     1
290
     0
176
     1
290
     0
176
     1
 90
       50
176
     1
 40
0.0
176
     1
 40
1.0
176
     1
 90
        0
176
     1
 62
    18
420
        0
176
     1
 90
       50
176
     1
 90
        3
176
     1
 62
     5
420
      255
176
     1
290
     0
176
     1
 90
       50
176
     1
 90
       50
176
     1
 90
       50
176
     1
290
     0
176
     1
 90
       50
176
     1
 62
   256
176
     0
 40
1.0
176
     0
 90
        2
176
     1
  1
strokes_ogs.tif
176
     1
290
     0
176
     1
 40
1.0
176
     1
 40
1.0
176
     1
  0
VISUALSTYLE
  5
40
102
{ACAD_REACTORS
330
2A
102
}
330
2A
100
AcDbVisualStyle
  2
X-Ray
 70
    25
177
     3
291
     0
 70
    58
 90
        2
176
     1
 90
        2
176
     1
 90
        1
176
     1
 90
        1
176
     1
 40
0.5
176
     1
 40
30.0
176
     1
 62
     7
420
 16777215
176
     1
 90
        1
176
     1
 90
        0
176
     1
 62
     7
176
     1
 62
   257
176
     1
 90
        1
176
     1
 90
        1
176
     1
 40
1.0
176
     1
 90
        8
176
     1
 62
     7
176
     1
 40
1.0
176
     1
 90
        1
176
     1
 90
        6
176
     1
 90
        2
176
     1
 62
     7
176
     1
 90
        3
176
     1
 90
        0
176
     1
 90
        0
176
     1
290
     0
176
     1
 90
       13
176
     1
 40
0.0
176
     1
 90
        0
176
     1
290
     0
176
     1
290
     1
176
     1
290
     1
176
     1
290
     0
176
     1
290
     0
176
     1
290
     0
176
     1
290
     0
176
     1
290
     0
176
     1
290
     0
176
     1
 90
       50
176
     1
 40
0.0
176
     1
 40
1.0
176
     1
 90
        0
176
     1
 62
    18
420
        0
176
     1
 90
       50
176
     1
 90
        3
176
     1
 62
     5
420
      255
176
     1
290
     0
176
     1
 90
       50
176
     1
 90
       50
176
     1
 90
       50
176
     1
290
     0
176
     1
 90
       50
176
     1
 62
   256
176
     0
 40
1.0
176
     0
 90
        2
176
     1
  1
strokes_ogs.tif
176
     1
290
     0
176
     1
 40
1.0
176
     1
 40
1.0
176
     1
  0
DICTIONARYVAR
  5
185
102
{ACAD_REACTORS
330
184
102
}
330
184
100
DictionaryVariables
280
     0
  1
1:1
  0
DICTIONARYVAR
  5
18A
102
{ACAD_REACTORS
330
184
102
}
330
184
100
DictionaryVariables
280
     0
  1
Standard
  0
DICTIONARYVAR
  5
189
102
{ACAD_REACTORS
330
184
102
}
330
184
100
DictionaryVariables
280
     0
  1
Standard
  0
DICTIONARYVAR
  5
18D
102
{ACAD_REACTORS
330
184
102
}
330
184
100
DictionaryVariables
280
     0
  1
6.000000
  0
DICTIONARY
  5
186
330
6A
100
AcDbDictionary
280
     1
281
     1
  3
ACAD_ROUNDTRIP_2008_TABLESTYLE_CELLSTYLEMAP
360
187
  0
CELLSTYLEMAP
  5
187
102
{ACAD_REACTORS
330
186
102
}
330
186
100
AcDbCellStyleMap
 90
        3
300
CELLSTYLE
  1
TABLEFORMAT_BEGIN
 90
        5
170
     1
 91
        0
 92
    32768
 62
   257
 93
        1
300
CONTENTFORMAT
  1
CONTENTFORMAT_BEGIN
 90
        0
 91
        0
 92
        4
 93
        0
300

 40
0.0
140
1.0
 94
        5
 62
     0
340
11
144
6.0
309
CONTENTFORMAT_END
171
     1
301
MARGIN
  1
CELLMARGIN_BEGIN
 40
1.5
 40
1.5
 40
1.5
 40
1.5
 40
1.5
 40
1.5
309
CELLMARGIN_END
 94
        6
 95
        1
302
GRIDFORMAT
  1
GRIDFORMAT_BEGIN
 90
        0
 91
        1
 62
     0
 92
       -2
340
14
 93
        0
 40
0.045
309
GRIDFORMAT_END
 95
        2
302
GRIDFORMAT
  1
GRIDFORMAT_BEGIN
 90
        0
 91
        1
 62
     0
 92
       -2
340
14
 93
        0
 40
0.045
309
GRIDFORMAT_END
 95
        4
302
GRIDFORMAT
  1
GRIDFORMAT_BEGIN
 90
        0
 91
        1
 62
     0
 92
       -2
340
14
 93
        0
 40
0.045
309
GRIDFORMAT_END
 95
        8
302
GRIDFORMAT
  1
GRIDFORMAT_BEGIN
 90
        0
 91
        1
 62
     0
 92
       -2
340
14
 93
        0
 40
0.045
309
GRIDFORMAT_END
 95
       16
302
GRIDFORMAT
  1
GRIDFORMAT_BEGIN
 90
        0
 91
        1
 62
     0
 92
       -2
340
14
 93
        0
 40
0.045
309
GRIDFORMAT_END
 95
       32
302
GRIDFORMAT
  1
GRIDFORMAT_BEGIN
 90
        0
 91
        1
 62
     0
 92
       -2
340
14
 93
        0
 40
0.045
309
GRIDFORMAT_END
309
TABLEFORMAT_END
  1
CELLSTYLE_BEGIN
 90
        1
 91
        1
300
_TITLE
309
CELLSTYLE_END
300
CELLSTYLE
  1
TABLEFORMAT_BEGIN
 90
        5
170
     1
 91
        0
 92
        0
 62
   257
 93
        1
300
CONTENTFORMAT
  1
CONTENTFORMAT_BEGIN
 90
        0
 91
        0
 92
        4
 93
        0
300

 40
0.0
140
1.0
 94
        5
 62
     0
340
11
144
4.5
309
CONTENTFORMAT_END
171
     1
301
MARGIN
  1
CELLMARGIN_BEGIN
 40
1.5
 40
1.5
 40
1.5
 40
1.5
 40
1.5
 40
1.5
309
CELLMARGIN_END
 94
        6
 95
        1
302
GRIDFORMAT
  1
GRIDFORMAT_BEGIN
 90
        0
 91
        1
 62
     0
 92
       -2
340
14
 93
        0
 40
0.045
309
GRIDFORMAT_END
 95
        2
302
GRIDFORMAT
  1
GRIDFORMAT_BEGIN
 90
        0
 91
        1
 62
     0
 92
       -2
340
14
 93
        0
 40
0.045
309
GRIDFORMAT_END
 95
        4
302
GRIDFORMAT
  1
GRIDFORMAT_BEGIN
 90
        0
 91
        1
 62
     0
 92
       -2
340
14
 93
        0
 40
0.045
309
GRIDFORMAT_END
 95
        8
302
GRIDFORMAT
  1
GRIDFORMAT_BEGIN
 90
        0
 91
        1
 62
     0
 92
       -2
340
14
 93
        0
 40
0.045
309
GRIDFORMAT_END
 95
       16
302
GRIDFORMAT
  1
GRIDFORMAT_BEGIN
 90
        0
 91
        1
 62
     0
 92
       -2
340
14
 93
        0
 40
0.045
309
GRIDFORMAT_END
 95
       32
302
GRIDFORMAT
  1
GRIDFORMAT_BEGIN
 90
        0
 91
        1
 62
     0
 92
       -2
340
14
 93
        0
 40
0.045
309
GRIDFORMAT_END
309
TABLEFORMAT_END
  1
CELLSTYLE_BEGIN
 90
        2
 91
        1
300
_HEADER
309
CELLSTYLE_END
300
CELLSTYLE
  1
TABLEFORMAT_BEGIN
 90
        5
170
     1
 91
        0
 92
        0
 62
   257
 93
        1
300
CONTENTFORMAT
  1
CONTENTFORMAT_BEGIN
 90
        0
 91
        0
 92
        4
 93
        0
300

 40
0.0
140
1.0
 94
        2
 62
     0
340
11
144
4.5
309
CONTENTFORMAT_END
171
     1
301
MARGIN
  1
CELLMARGIN_BEGIN
 40
1.5
 40
1.5
 40
1.5
 40
1.5
 40
1.5
 40
1.5
309
CELLMARGIN_END
 94
        6
 95
        1
302
GRIDFORMAT
  1
GRIDFORMAT_BEGIN
 90
        0
 91
        1
 62
     0
 92
       -2
340
14
 93
        0
 40
0.045
309
GRIDFORMAT_END
 95
        2
302
GRIDFORMAT
  1
GRIDFORMAT_BEGIN
 90
        0
 91
        1
 62
     0
 92
       -2
340
14
 93
        0
 40
0.045
309
GRIDFORMAT_END
 95
        4
302
GRIDFORMAT
  1
GRIDFORMAT_BEGIN
 90
        0
 91
        1
 62
     0
 92
       -2
340
14
 93
        0
 40
0.045
309
GRIDFORMAT_END
 95
        8
302
GRIDFORMAT
  1
GRIDFORMAT_BEGIN
 90
        0
 91
        1
 62
     0
 92
       -2
340
14
 93
        0
 40
0.045
309
GRIDFORMAT_END
 95
       16
302
GRIDFORMAT
  1
GRIDFORMAT_BEGIN
 90
        0
 91
        1
 62
     0
 92
       -2
340
14
 93
        0
 40
0.045
309
GRIDFORMAT_END
 95
       32
302
GRIDFORMAT
  1
GRIDFORMAT_BEGIN
 90
        0
 91
        1
 62
     0
 92
       -2
340
14
 93
        0
 40
0.045
309
GRIDFORMAT_END
309
TABLEFORMAT_END
  1
CELLSTYLE_BEGIN
 90
        3
 91
        2
300
_DATA
309
CELLSTYLE_END
  0
ENDSEC
  0
EOF