0
SECTION
  2
HEADER
  9
$ACADVER
  1
AC1027
  9
$ACADMAINTVER
 70
     8
  9
$DWGCODEPAGE
  3
ANSI_1252
  9
$REQUIREDVERSIONS
160
                 0
  9
$COMMENTS
  1
File was created by Cadenas
  9
$CUSTOMPROPERTYTAG
  1
NN
  9
$CUSTOMPROPERTY
  1
Set Screw Intermediate Duty Two-Bolt Pillow Block Metric Bore
  9
$CUSTOMPROPERTYTAG
  1
NT
  9
$CUSTOMPROPERTY
  1
VSC Intermediate Duty Pillow Blocks
  9
$CUSTOMPROPERTYTAG
  1
NB
  9
$CUSTOMPROPERTY
  1
125692
  9
$CUSTOMPROPERTYTAG
  1
NBSYN
  9
$CUSTOMPROPERTY
  1
$PN.
  9
$CUSTOMPROPERTYTAG
  1
LINA
  9
$CUSTOMPROPERTY
  1
125692
  9
$CUSTOMPROPERTYTAG
  1
RS
  9
$CUSTOMPROPERTY
  1
210
  9
$CUSTOMPROPERTYTAG
  1
SS
  9
$CUSTOMPROPERTY
  1
50
  9
$CUSTOMPROPERTYTAG
  1
PN
  9
$CUSTOMPROPERTY
  1
125692
  9
$CUSTOMPROPERTYTAG
  1
DESCRIPTION
  9
$CUSTOMPROPERTY
  1
P2B-VSC-50M
  9
$CUSTOMPROPERTYTAG
  1
LF
  9
$CUSTOMPROPERTY
  1
RE-LUBE
  9
$CUSTOMPROPERTYTAG
  1
WEIGHT
  9
$CUSTOMPROPERTY
  1
3.3
  9
$CUSTOMPROPERTYTAG
  1
A
  9
$CUSTOMPROPERTY
  1
49.3
  9
$CUSTOMPROPERTYTAG
  1
B
  9
$CUSTOMPROPERTY
  1
206.4
  9
$CUSTOMPROPERTYTAG
  1
C
  9
$CUSTOMPROPERTY
  1
57.2
  9
$CUSTOMPROPERTYTAG
  1
DMIN
  9
$CUSTOMPROPERTY
  1
152.4
  9
$CUSTOMPROPERTYTAG
  1
DMAX
  9
$CUSTOMPROPERTY
  1
169.7
  9
$CUSTOMPROPERTYTAG
  1
F
  9
$CUSTOMPROPERTY
  1
M16
  9
$CUSTOMPROPERTYTAG
  1
G
  9
$CUSTOMPROPERTY
  1
25.9
  9
$CUSTOMPROPERTYTAG
  1
H
  9
$CUSTOMPROPERTY
  1
19.1
  9
$CUSTOMPROPERTYTAG
  1
J
  9
$CUSTOMPROPERTY
  1
115.1
  9
$CUSTOMPROPERTYTAG
  1
L
  9
$CUSTOMPROPERTY
  1
61.7
  9
$CUSTOMPROPERTYTAG
  1
M
  9
$CUSTOMPROPERTY
  1
57.2
  9
$CUSTOMPROPERTYTAG
  1
R
  9
$CUSTOMPROPERTY
  1
19.1
  9
$CUSTOMPROPERTYTAG
  1
S
  9
$CUSTOMPROPERTY
  1
30.2
  9
$CUSTOMPROPERTYTAG
  1
U
  9
$CUSTOMPROPERTY
  1
93.7
  9
$CUSTOMPROPERTYTAG
  1
V
  9
$CUSTOMPROPERTY
  1
187.5
  9
$CUSTOMPROPERTYTAG
  1
W
  9
$CUSTOMPROPERTY
  1
20.6
  9
$CUSTOMPROPERTYTAG
  1
X
  9
$CUSTOMPROPERTY
  1
3.0
  9
$CUSTOMPROPERTYTAG
  1
COMPANY
  9
$CUSTOMPROPERTY
  1
baldor
  9
$INSBASE
 10
0.0
 20
0.0
 30
0.0
  9
$EXTMIN
 10
1.000000000000000E+20
 20
1.000000000000000E+20
 30
1.000000000000000E+20
  9
$EXTMAX
 10
-1.000000000000000E+20
 20
-1.000000000000000E+20
 30
-1.000000000000000E+20
  9
$LIMMIN
 10
0.0
 20
0.0
  9
$LIMMAX
 10
420.0
 20
297.0
  9
$ORTHOMODE
 70
     0
  9
$REGENMODE
 70
     1
  9
$FILLMODE
 70
     1
  9
$QTEXTMODE
 70
     0
  9
$MIRRTEXT
 70
     1
  9
$LTSCALE
 40
1.0
  9
$ATTMODE
 70
     1
  9
$TEXTSIZE
 40
2.5
  9
$TRACEWID
 40
1.0
  9
$TEXTSTYLE
  7
Standard
  9
$CLAYER
  8
0
  9
$CELTYPE
  6
ByLayer
  9
$CECOLOR
 62
   256
  9
$CELTSCALE
 40
1.0
  9
$DISPSILH
 70
     0
  9
$DIMSCALE
 40
1.0
  9
$DIMASZ
 40
2.5
  9
$DIMEXO
 40
0.625
  9
$DIMDLI
 40
3.75
  9
$DIMRND
 40
0.0
  9
$DIMDLE
 40
0.0
  9
$DIMEXE
 40
1.25
  9
$DIMTP
 40
0.0
  9
$DIMTM
 40
0.0
  9
$DIMTXT
 40
2.5
  9
$DIMCEN
 40
2.5
  9
$DIMTSZ
 40
0.0
  9
$DIMTOL
 70
     0
  9
$DIMLIM
 70
     0
  9
$DIMTIH
 70
     0
  9
$DIMTOH
 70
     0
  9
$DIMSE1
 70
     0
  9
$DIMSE2
 70
     0
  9
$DIMTAD
 70
     1
  9
$DIMZIN
 70
     8
  9
$DIMBLK
  1

  9
$DIMASO
 70
     1
  9
$DIMSHO
 70
     1
  9
$DIMPOST
  1

  9
$DIMAPOST
  1

  9
$DIMALT
 70
     0
  9
$DIMALTD
 70
     3
  9
$DIMALTF
 40
0.03937007874016
  9
$DIMLFAC
 40
1.0
  9
$DIMTOFL
 70
     1
  9
$DIMTVP
 40
0.0
  9
$DIMTIX
 70
     0
  9
$DIMSOXD
 70
     0
  9
$DIMSAH
 70
     0
  9
$DIMBLK1
  1

  9
$DIMBLK2
  1

  9
$DIMSTYLE
  2
ISO-25
  9
$DIMCLRD
 70
     0
  9
$DIMCLRE
 70
     0
  9
$DIMCLRT
 70
     0
  9
$DIMTFAC
 40
1.0
  9
$DIMGAP
 40
0.625
  9
$DIMJUST
 70
     0
  9
$DIMSD1
 70
     0
  9
$DIMSD2
 70
     0
  9
$DIMTOLJ
 70
     0
  9
$DIMTZIN
 70
     8
  9
$DIMALTZ
 70
     0
  9
$DIMALTTZ
 70
     0
  9
$DIMUPT
 70
     0
  9
$DIMDEC
 70
     2
  9
$DIMTDEC
 70
     2
  9
$DIMALTU
 70
     2
  9
$DIMALTTD
 70
     3
  9
$DIMTXSTY
  7
Standard
  9
$DIMAUNIT
 70
     0
  9
$DIMADEC
 70
     0
  9
$DIMALTRND
 40
0.0
  9
$DIMAZIN
 70
     0
  9
$DIMDSEP
 70
    44
  9
$DIMATFIT
 70
     3
  9
$DIMFRAC
 70
     0
  9
$DIMLDRBLK
  1

  9
$DIMLUNIT
 70
     2
  9
$DIMLWD
 70
    -2
  9
$DIMLWE
 70
    -2
  9
$DIMTMOVE
 70
     0
  9
$DIMFXL
 40
1.0
  9
$DIMFXLON
 70
     0
  9
$DIMJOGANG
 40
0.7853981633974483
  9
$DIMTFILL
 70
     0
  9
$DIMTFILLCLR
 70
     0
  9
$DIMARCSYM
 70
     0
  9
$DIMLTYPE
  6

  9
$DIMLTEX1
  6

  9
$DIMLTEX2
  6

  9
$DIMTXTDIRECTION
 70
     0
  9
$LUNITS
 70
     2
  9
$LUPREC
 70
     4
  9
$SKETCHINC
 40
1.0
  9
$FILLETRAD
 40
10.0
  9
$AUNITS
 70
     0
  9
$AUPREC
 70
     0
  9
$MENU
  1
.
  9
$ELEVATION
 40
0.0
  9
$PELEVATION
 40
0.0
  9
$THICKNESS
 40
0.0
  9
$LIMCHECK
 70
     0
  9
$CHAMFERA
 40
0.0
  9
$CHAMFERB
 40
0.0
  9
$CHAMFERC
 40
0.0
  9
$CHAMFERD
 40
0.0
  9
$SKPOLY
 70
     0
  9
$TDCREATE
 40
2458168.986182755
  9
$TDUCREATE
 40
2458168.944516088
  9
$TDUPDATE
 40
2458168.98618294
  9
$TDUUPDATE
 40
2458168.944516273
  9
$TDINDWG
 40
0.0000000116
  9
$TDUSRTIMER
 40
0.0000000116
  9
$USRTIMER
 70
     1
  9
$ANGBASE
 50
0.0
  9
$ANGDIR
 70
     0
  9
$PDMODE
 70
     0
  9
$PDSIZE
 40
0.0
  9
$PLINEWID
 40
0.0
  9
$SPLFRAME
 70
     0
  9
$SPLINETYPE
 70
     6
  9
$SPLINESEGS
 70
     8
  9
$HANDSEED
  5
1D1
  9
$SURFTAB1
 70
     6
  9
$SURFTAB2
 70
     6
  9
$SURFTYPE
 70
     6
  9
$SURFU
 70
     6
  9
$SURFV
 70
     6
  9
$UCSBASE
  2

  9
$UCSNAME
  2

  9
$UCSORG
 10
0.0
 20
0.0
 30
0.0
  9
$UCSXDIR
 10
1.0
 20
0.0
 30
0.0
  9
$UCSYDIR
 10
0.0
 20
1.0
 30
0.0
  9
$UCSORTHOREF
  2

  9
$UCSORTHOVIEW
 70
     0
  9
$UCSORGTOP
 10
0.0
 20
0.0
 30
0.0
  9
$UCSORGBOTTOM
 10
0.0
 20
0.0
 30
0.0
  9
$UCSORGLEFT
 10
0.0
 20
0.0
 30
0.0
  9
$UCSORGRIGHT
 10
0.0
 20
0.0
 30
0.0
  9
$UCSORGFRONT
 10
0.0
 20
0.0
 30
0.0
  9
$UCSORGBACK
 10
0.0
 20
0.0
 30
0.0
  9
$PUCSBASE
  2

  9
$PUCSNAME
  2

  9
$PUCSORG
 10
0.0
 20
0.0
 30
0.0
  9
$PUCSXDIR
 10
1.0
 20
0.0
 30
0.0
  9
$PUCSYDIR
 10
0.0
 20
1.0
 30
0.0
  9
$PUCSORTHOREF
  2

  9
$PUCSORTHOVIEW
 70
     0
  9
$PUCSORGTOP
 10
0.0
 20
0.0
 30
0.0
  9
$PUCSORGBOTTOM
 10
0.0
 20
0.0
 30
0.0
  9
$PUCSORGLEFT
 10
0.0
 20
0.0
 30
0.0
  9
$PUCSORGRIGHT
 10
0.0
 20
0.0
 30
0.0
  9
$PUCSORGFRONT
 10
0.0
 20
0.0
 30
0.0
  9
$PUCSORGBACK
 10
0.0
 20
0.0
 30
0.0
  9
$USERI1
 70
     0
  9
$USERI2
 70
     0
  9
$USERI3
 70
     0
  9
$USERI4
 70
     0
  9
$USERI5
 70
     0
  9
$USERR1
 40
0.0
  9
$USERR2
 40
0.0
  9
$USERR3
 40
0.0
  9
$USERR4
 40
0.0
  9
$USERR5
 40
0.0
  9
$WORLDVIEW
 70
     1
  9
$SHADEDGE
 70
     3
  9
$SHADEDIF
 70
    70
  9
$TILEMODE
 70
     1
  9
$MAXACTVP
 70
    64
  9
$PINSBASE
 10
0.0
 20
0.0
 30
0.0
  9
$PLIMCHECK
 70
     0
  9
$PEXTMIN
 10
1.000000000000000E+20
 20
1.000000000000000E+20
 30
1.000000000000000E+20
  9
$PEXTMAX
 10
-1.000000000000000E+20
 20
-1.000000000000000E+20
 30
-1.000000000000000E+20
  9
$PLIMMIN
 10
0.0
 20
0.0
  9
$PLIMMAX
 10
420.0
 20
297.0
  9
$UNITMODE
 70
     0
  9
$VISRETAIN
 70
     1
  9
$PLINEGEN
 70
     0
  9
$PSLTSCALE
 70
     1
  9
$TREEDEPTH
 70
  3020
  9
$CMLSTYLE
  2
Standard
  9
$CMLJUST
 70
     0
  9
$CMLSCALE
 40
20.0
  9
$PROXYGRAPHICS
 70
     1
  9
$MEASUREMENT
 70
     1
  9
$CELWEIGHT
370
    -1
  9
$ENDCAPS
280
     0
  9
$JOINSTYLE
280
     0
  9
$LWDISPLAY
290
     0
  9
$INSUNITS
 70
     4
  9
$HYPERLINKBASE
  1

  9
$STYLESHEET
  1

  9
$XEDIT
290
     1
  9
$CEPSNTYPE
380
     0
  9
$PSTYLEMODE
290
     1
  9
$FINGERPRINTGUID
  2
{E9DB2991-6E1C-459C-8952-5814DB921EC0}
  9
$VERSIONGUID
  2
{FAEB1C32-E019-11D5-929B-00C0DF256EC4}
  9
$EXTNAMES
290
     1
  9
$PSVPSCALE
 40
0.0
  9
$OLESTARTUP
290
     0
  9
$SORTENTS
280
   127
  9
$INDEXCTL
280
     0
  9
$HIDETEXT
280
     1
  9
$XCLIPFRAME
280
     2
  9
$HALOGAP
280
     0
  9
$OBSCOLOR
 70
   257
  9
$OBSLTYPE
280
     0
  9
$INTERSECTIONDISPLAY
280
     0
  9
$INTERSECTIONCOLOR
 70
   257
  9
$DIMASSOC
280
     2
  9
$PROJECTNAME
  1

  9
$CAMERADISPLAY
290
     0
  9
$LENSLENGTH
 40
50.0
  9
$CAMERAHEIGHT
 40
0.0
  9
$STEPSPERSEC
 40
2.0
  9
$STEPSIZE
 40
6.0
  9
$3DDWFPREC
 40
2.0
  9
$PSOLWIDTH
 40
5.0
  9
$PSOLHEIGHT
 40
80.0
  9
$LOFTANG1
 40
1.570796326794897
  9
$LOFTANG2
 40
1.570796326794897
  9
$LOFTMAG1
 40
0.0
  9
$LOFTMAG2
 40
0.0
  9
$LOFTPARAM
 70
     7
  9
$LOFTNORMALS
280
     1
  9
$LATITUDE
 40
37.795
  9
$LONGITUDE
 40
-122.394
  9
$NORTHDIRECTION
 40
0.0
  9
$TIMEZONE
 70
 -8000
  9
$LIGHTGLYPHDISPLAY
280
     1
  9
$TILEMODELIGHTSYNCH
280
     1
  9
$CMATERIAL
347
44
  9
$SOLIDHIST
280
     0
  9
$SHOWHIST
280
     1
  9
$DWFFRAME
280
     2
  9
$DGNFRAME
280
     2
  9
$REALWORLDSCALE
290
     1
  9
$INTERFERECOLOR
 62
   256
  9
$CSHADOW
280
     0
  9
$SHADOWPLANELOCATION
 40
0.0
  0
ENDSEC
  0
SECTION
  2
CLASSES
  0
CLASS
  1
ACDBDICTIONARYWDFLT
  2
AcDbDictionaryWithDefault
  3
ObjectDBX Classes
 90
        0
 91
        4
280
     0
281
     0
  0
CLASS
  1
VISUALSTYLE
  2
AcDbVisualStyle
  3
ObjectDBX Classes
 90
     4095
 91
        4
280
     0
281
     0
  0
CLASS
  1
MATERIAL
  2
AcDbMaterial
  3
ObjectDBX Classes
 90
     1153
 91
        4
280
     0
281
     0
  0
CLASS
  1
SCALE
  2
AcDbScale
  3
ObjectDBX Classes
 90
     1153
 91
        4
280
     0
281
     0
  0
CLASS
  1
TABLESTYLE
  2
AcDbTableStyle
  3
ObjectDBX Classes
 90
     4095
 91
        4
280
     0
281
     0
  0
CLASS
  1
MLEADERSTYLE
  2
AcDbMLeaderStyle
  3
ACDB_MLEADERSTYLE_CLASS
 90
     4095
 91
        4
280
     0
281
     0
  0
CLASS
  1
SUN
  2
AcDbSun
  3
SCENEOE
 90
     1153
 91
        4
280
     0
281
     0
  0
CLASS
  1
DICTIONARYVAR
  2
AcDbDictionaryVar
  3
ObjectDBX Classes
 90
        0
 91
        4
280
     0
281
     0
  0
CLASS
  1
CELLSTYLEMAP
  2
AcDbCellStyleMap
  3
ObjectDBX Classes
 90
     1152
 91
        4
280
     0
281
     0
  0
ENDSEC
  0
SECTION
  2
TABLES
  0
TABLE
  2
VPORT
  5
8
330
0
100
AcDbSymbolTable
 70
     1
  0
VPORT
  5
29
330
8
100
AcDbSymbolTableRecord
100
AcDbViewportTableRecord
  2
*Active
 70
     0
 10
0.0
 20
0.0
 11
1.0
 21
1.0
 12
0.0
 22
-0.602499999999992
 13
0.0
 23
0.0
 14
10.0
 24
10.0
 15
10.0
 25
10.0
 16
0.0
 26
0.0
 36
1.0
 17
0.0
 27
0.0
 37
0.0
 40
65.4075
 41
3.218713450292398
 42
50.0
 43
0.0
 44
0.0
 50
0.0
 51
0.0
 71
     0
 72
   100
 73
     1
 74
     3
 75
     0
 76
     0
 77
     0
 78
     0
281
     0
 65
     1
110
0.0
120
0.0
130
0.0
111
1.0
121
0.0
131
0.0
112
0.0
122
1.0
132
0.0
 79
     0
146
0.0
348
2F
 60
     3
 61
     5
292
     1
282
     1
141
0.0
142
0.0
 63
   250
361
6D
  0
ENDTAB
  0
TABLE
  2
LTYPE
  5
5
330
0
100
AcDbSymbolTable
 70
     3
  0
LTYPE
  5
14
330
5
100
AcDbSymbolTableRecord
100
AcDbLinetypeTableRecord
  2
ByBlock
 70
     0
  3

 72
    65
 73
     0
 40
0.0
  0
LTYPE
  5
15
330
5
100
AcDbSymbolTableRecord
100
AcDbLinetypeTableRecord
  2
ByLayer
 70
     0
  3

 72
    65
 73
     0
 40
0.0
  0
LTYPE
  5
16
330
5
100
AcDbSymbolTableRecord
100
AcDbLinetypeTableRecord
  2
Continuous
 70
     0
  3
Solid line
 72
    65
 73
     0
 40
0.0
  0
LTYPE
  5
A7
330
5
100
AcDbSymbolTableRecord
100
AcDbLinetypeTableRecord
  2
Dashed
 70
     0
  3

 72
    65
 73
     2
 40
2.0
 49
1.0
 74
     0
 49
-1.0
 74
     0
  0
LTYPE
  5
DF
330
5
100
AcDbSymbolTableRecord
100
AcDbLinetypeTableRecord
  2
Center
 70
     0
  3

 72
    65
 73
     4
 40
1.5
 49
0.45
 74
     0
 49
-0.5
 74
     0
 49
0.05
 74
     0
 49
-0.5
 74
     0
  0
ENDTAB
  0
TABLE
  2
LAYER
  5
2
330
0
100
AcDbSymbolTable
 70
     7
  0
LAYER
  5
10
330
2
100
AcDbSymbolTableRecord
100
AcDbLayerTableRecord
  2
0
 70
     0
 62
     7
  6
Continuous
370
    -3
390
F
347
46
348
0
  0
LAYER
  5
72
330
2
100
AcDbSymbolTableRecord
100
AcDbLayerTableRecord
  2
AM_6
 70
     0
 62
    -2
  6
Continuous
370
    35
390
F
347
46
348
0
  0
LAYER
  5
A8
330
2
100
AcDbSymbolTableRecord
100
AcDbLayerTableRecord
  2
AM_9
 70
     0
 62
     6
  6
Dashed
370
    25
390
F
347
46
348
0
  0
LAYER
  5
E0
330
2
100
AcDbSymbolTableRecord
100
AcDbLayerTableRecord
  2
AM_7
 70
     0
 62
     7
  6
Center
370
    25
390
F
347
46
348
0
  0
LAYER
  5
E3
330
2
100
AcDbSymbolTableRecord
100
AcDbLayerTableRecord
  2
AM_4
 70
     0
 62
     7
  6
Continuous
370
    50
390
F
347
46
348
0
  0
LAYER
  5
EF
330
2
100
AcDbSymbolTableRecord
100
AcDbLayerTableRecord
  2
AM_5
 70
     0
 62
     3
  6
Continuous
370
    25
390
F
347
46
348
0
  0
LAYER
  5
1C4
330
2
100
AcDbSymbolTableRecord
100
AcDbLayerTableRecord
  2
ConnectionPoints
 70
     0
 62
     7
  6
Continuous
370
    50
390
F
347
46
348
0
  0
ENDTAB
  0
TABLE
  2
STYLE
  5
3
330
0
100
AcDbSymbolTable
 70
     1
  0
STYLE
  5
11
330
3
100
AcDbSymbolTableRecord
100
AcDbTextStyleTableRecord
  2
Standard
 70
     0
 40
0.0
 41
1.0
 50
0.0
 71
     0
 42
2.5
  3
txt
  4

  0
ENDTAB
  0
TABLE
  2
VIEW
  5
6
330
0
100
AcDbSymbolTable
 70
     0
  0
ENDTAB
  0
TABLE
  2
UCS
  5
7
330
0
100
AcDbSymbolTable
 70
     0
  0
ENDTAB
  0
TABLE
  2
APPID
  5
9
330
0
100
AcDbSymbolTable
 70
     1
  0
APPID
  5
12
330
9
100
AcDbSymbolTableRecord
100
AcDbRegAppTableRecord
  2
ACAD
 70
     0
  0
ENDTAB
  0
TABLE
  2
DIMSTYLE
  5
A
330
0
100
AcDbSymbolTable
 70
     1
100
AcDbDimStyleTable
  0
DIMSTYLE
105
27
330
A
100
AcDbSymbolTableRecord
100
AcDbDimStyleTableRecord
  2
ISO-25
 70
     0
 41
2.5
 42
0.625
 43
3.75
 44
1.25
 73
     0
 74
     0
 77
     1
 78
     8
140
2.5
141
2.5
143
0.03937007874016
147
0.625
171
     3
172
     1
178
     0
271
     2
272
     2
274
     3
278
    44
283
     0
284
     8
340
11
  0
ENDTAB
  0
TABLE
  2
BLOCK_RECORD
  5
1
330
0
100
AcDbSymbolTable
 70
     5
  0
BLOCK_RECORD
  5
1F
330
1
100
AcDbSymbolTableRecord
100
AcDbBlockTableRecord
  2
*Model_Space
340
22
 70
     0
280
     1
281
     0
  0
BLOCK_RECORD
  5
1B
330
1
100
AcDbSymbolTableRecord
100
AcDbBlockTableRecord
  2
*Paper_Space
340
1E
 70
     0
280
     1
281
     0
  0
BLOCK_RECORD
  5
23
330
1
100
AcDbSymbolTableRecord
100
AcDbBlockTableRecord
  2
*Paper_Space0
340
26
 70
     0
280
     1
281
     0
  0
BLOCK_RECORD
  5
6E
330
1
100
AcDbSymbolTableRecord
100
AcDbBlockTableRecord
  2
1_125692_4
340
0
102
{BLKREFS
331
6F
102
}
 70
     0
280
     1
281
     0
  0
BLOCK_RECORD
  5
90
330
1
100
AcDbSymbolTableRecord
100
AcDbBlockTableRecord
  2
2_125642_0_in_125692_4
340
0
102
{BLKREFS
331
91
102
}
 70
     0
280
     1
281
     0
  0
BLOCK_RECORD
  5
F1
330
1
100
AcDbSymbolTableRecord
100
AcDbBlockTableRecord
  2
3_405020c_M_0_in_125692_4
340
0
102
{BLKREFS
331
F2
102
}
 70
     0
280
     1
281
     0
  0
BLOCK_RECORD
  5
14B
330
1
100
AcDbSymbolTableRecord
100
AcDbBlockTableRecord
  2
4_125692__0_in_125692_4
340
0
102
{BLKREFS
331
14C
102
}
 70
     0
280
     1
281
     0
  0
ENDTAB
  0
ENDSEC
  0
SECTION
  2
BLOCKS
  0
BLOCK
  5
20
330
1F
100
AcDbEntity
  8
0
100
AcDbBlockBegin
  2
*Model_Space
 70
     0
 10
0.0
 20
0.0
 30
0.0
  3
*Model_Space
  1

  0
ENDBLK
  5
21
330
1F
100
AcDbEntity
  8
0
100
AcDbBlockEnd
  0
BLOCK
  5
1C
330
1B
100
AcDbEntity
 67
     1
  8
0
100
AcDbBlockBegin
  2
*Paper_Space
 70
     0
 10
0.0
 20
0.0
 30
0.0
  3
*Paper_Space
  1

  0
ENDBLK
  5
1D
330
1B
100
AcDbEntity
 67
     1
  8
0
100
AcDbBlockEnd
  0
BLOCK
  5
24
330
23
100
AcDbEntity
  8
0
100
AcDbBlockBegin
  2
*Paper_Space0
 70
     0
 10
0.0
 20
0.0
 30
0.0
  3
*Paper_Space0
  1

  0
ENDBLK
  5
25
330
23
100
AcDbEntity
  8
0
100
AcDbBlockEnd
  0
BLOCK
  5
70
330
6E
100
AcDbEntity
  8
0
100
AcDbBlockBegin
  2
1_125692_4
 70
     2
 10
0.0
 20
0.0
 30
0.0
  3
1_125692_4
  1

  0
ATTDEF
  5
73
330
6E
100
AcDbEntity
  8
AM_6
100
AcDbText
 10
108.2
 20
31.46
 30
0.0
 40
0.5
  1
Set Screw Intermediate Duty Two-Bolt Pillow Block Metric Bore
100
AcDbAttributeDefinition
  3

  2
NN
 70
     8
280
     0
  0
ATTDEF
  5
74
330
6E
100
AcDbEntity
  8
AM_6
100
AcDbText
 10
108.2
 20
30.96
 30
0.0
 40
0.5
  1
VSC Intermediate Duty Pillow Blocks
100
AcDbAttributeDefinition
  3

  2
NT
 70
     8
280
     0
  0
ATTDEF
  5
75
330
6E
100
AcDbEntity
  8
AM_6
100
AcDbText
 10
108.2
 20
30.46
 30
0.0
 40
0.5
  1
125692
100
AcDbAttributeDefinition
  3

  2
NB
 70
     8
280
     0
  0
ATTDEF
  5
76
330
6E
100
AcDbEntity
  8
AM_6
100
AcDbText
 10
108.2
 20
29.96
 30
0.0
 40
0.5
  1
$PN.
100
AcDbAttributeDefinition
  3

  2
NBSYN
 70
     8
280
     0
  0
ATTDEF
  5
77
330
6E
100
AcDbEntity
  8
AM_6
100
AcDbText
 10
108.2
 20
29.46
 30
0.0
 40
0.5
  1
125692
100
AcDbAttributeDefinition
  3

  2
LINA
 70
     8
280
     0
  0
ATTDEF
  5
78
330
6E
100
AcDbEntity
  8
AM_6
100
AcDbText
 10
108.2
 20
28.96
 30
0.0
 40
0.5
  1
210
100
AcDbAttributeDefinition
  3

  2
RS
 70
     8
280
     0
  0
ATTDEF
  5
79
330
6E
100
AcDbEntity
  8
AM_6
100
AcDbText
 10
108.2
 20
28.46
 30
0.0
 40
0.5
  1
50
100
AcDbAttributeDefinition
  3

  2
SS
 70
     8
280
     0
  0
ATTDEF
  5
7A
330
6E
100
AcDbEntity
  8
AM_6
100
AcDbText
 10
108.2
 20
27.96
 30
0.0
 40
0.5
  1
125692
100
AcDbAttributeDefinition
  3

  2
PN
 70
     8
280
     0
  0
ATTDEF
  5
7B
330
6E
100
AcDbEntity
  8
AM_6
100
AcDbText
 10
108.2
 20
27.46
 30
0.0
 40
0.5
  1
P2B-VSC-50M
100
AcDbAttributeDefinition
  3

  2
DESCRIPTION
 70
     8
280
     0
  0
ATTDEF
  5
7C
330
6E
100
AcDbEntity
  8
AM_6
100
AcDbText
 10
108.2
 20
26.96
 30
0.0
 40
0.5
  1
RE-LUBE
100
AcDbAttributeDefinition
  3

  2
LF
 70
     8
280
     0
  0
ATTDEF
  5
7D
330
6E
100
AcDbEntity
  8
AM_6
100
AcDbText
 10
108.2
 20
26.46
 30
0.0
 40
0.5
  1
3.3
100
AcDbAttributeDefinition
  3

  2
WEIGHT
 70
     8
280
     0
  0
ATTDEF
  5
7E
330
6E
100
AcDbEntity
  8
AM_6
100
AcDbText
 10
108.2
 20
25.96
 30
0.0
 40
0.5
  1
49.3
100
AcDbAttributeDefinition
  3

  2
A
 70
     8
280
     0
  0
ATTDEF
  5
7F
330
6E
100
AcDbEntity
  8
AM_6
100
AcDbText
 10
108.2
 20
25.46
 30
0.0
 40
0.5
  1
206.4
100
AcDbAttributeDefinition
  3

  2
B
 70
     8
280
     0
  0
ATTDEF
  5
80
330
6E
100
AcDbEntity
  8
AM_6
100
AcDbText
 10
108.2
 20
24.96
 30
0.0
 40
0.5
  1
57.2
100
AcDbAttributeDefinition
  3

  2
C
 70
     8
280
     0
  0
ATTDEF
  5
81
330
6E
100
AcDbEntity
  8
AM_6
100
AcDbText
 10
108.2
 20
24.46
 30
0.0
 40
0.5
  1
152.4
100
AcDbAttributeDefinition
  3

  2
DMIN
 70
     8
280
     0
  0
ATTDEF
  5
82
330
6E
100
AcDbEntity
  8
AM_6
100
AcDbText
 10
108.2
 20
23.96
 30
0.0
 40
0.5
  1
169.7
100
AcDbAttributeDefinition
  3

  2
DMAX
 70
     8
280
     0
  0
ATTDEF
  5
83
330
6E
100
AcDbEntity
  8
AM_6
100
AcDbText
 10
108.2
 20
23.46
 30
0.0
 40
0.5
  1
M16
100
AcDbAttributeDefinition
  3

  2
F
 70
     8
280
     0
  0
ATTDEF
  5
84
330
6E
100
AcDbEntity
  8
AM_6
100
AcDbText
 10
108.2
 20
22.96
 30
0.0
 40
0.5
  1
25.9
100
AcDbAttributeDefinition
  3

  2
G
 70
     8
280
     0
  0
ATTDEF
  5
85
330
6E
100
AcDbEntity
  8
AM_6
100
AcDbText
 10
108.2
 20
22.46
 30
0.0
 40
0.5
  1
19.1
100
AcDbAttributeDefinition
  3

  2
H
 70
     8
280
     0
  0
ATTDEF
  5
86
330
6E
100
AcDbEntity
  8
AM_6
100
AcDbText
 10
108.2
 20
21.96
 30
0.0
 40
0.5
  1
115.1
100
AcDbAttributeDefinition
  3

  2
J
 70
     8
280
     0
  0
ATTDEF
  5
87
330
6E
100
AcDbEntity
  8
AM_6
100
AcDbText
 10
108.2
 20
21.46
 30
0.0
 40
0.5
  1
61.7
100
AcDbAttributeDefinition
  3

  2
L
 70
     8
280
     0
  0
ATTDEF
  5
88
330
6E
100
AcDbEntity
  8
AM_6
100
AcDbText
 10
108.2
 20
20.96
 30
0.0
 40
0.5
  1
57.2
100
AcDbAttributeDefinition
  3

  2
M
 70
     8
280
     0
  0
ATTDEF
  5
89
330
6E
100
AcDbEntity
  8
AM_6
100
AcDbText
 10
108.2
 20
20.46
 30
0.0
 40
0.5
  1
19.1
100
AcDbAttributeDefinition
  3

  2
R
 70
     8
280
     0
  0
ATTDEF
  5
8A
330
6E
100
AcDbEntity
  8
AM_6
100
AcDbText
 10
108.2
 20
19.96
 30
0.0
 40
0.5
  1
30.2
100
AcDbAttributeDefinition
  3

  2
S
 70
     8
280
     0
  0
ATTDEF
  5
8B
330
6E
100
AcDbEntity
  8
AM_6
100
AcDbText
 10
108.2
 20
19.46
 30
0.0
 40
0.5
  1
93.7
100
AcDbAttributeDefinition
  3

  2
U
 70
     8
280
     0
  0
ATTDEF
  5
8C
330
6E
100
AcDbEntity
  8
AM_6
100
AcDbText
 10
108.2
 20
18.96
 30
0.0
 40
0.5
  1
187.5
100
AcDbAttributeDefinition
  3

  2
V
 70
     8
280
     0
  0
ATTDEF
  5
8D
330
6E
100
AcDbEntity
  8
AM_6
100
AcDbText
 10
108.2
 20
18.46
 30
0.0
 40
0.5
  1
20.6
100
AcDbAttributeDefinition
  3

  2
W
 70
     8
280
     0
  0
ATTDEF
  5
8E
330
6E
100
AcDbEntity
  8
AM_6
100
AcDbText
 10
108.2
 20
17.96
 30
0.0
 40
0.5
  1
3.0
100
AcDbAttributeDefinition
  3

  2
X
 70
     8
280
     0
  0
ATTDEF
  5
8F
330
6E
100
AcDbEntity
  8
AM_6
100
AcDbText
 10
108.2
 20
17.46
 30
0.0
 40
0.5
  1
baldor
100
AcDbAttributeDefinition
  3

  2
COMPANY
 70
     8
280
     0
  0
INSERT
  5
91
330
6E
100
AcDbEntity
  8
0
100
AcDbBlockReference
  2
2_125642_0_in_125692_4
 10
0.0
 20
0.0
 30
0.0
  0
INSERT
  5
F2
330
6E
100
AcDbEntity
  8
0
100
AcDbBlockReference
  2
3_405020c_M_0_in_125692_4
 10
0.0
 20
0.0
 30
0.0
  0
INSERT
  5
14C
330
6E
100
AcDbEntity
  8
0
100
AcDbBlockReference
  2
4_125692__0_in_125692_4
 10
0.0
 20
0.0
 30
0.0
  0
ENDBLK
  5
71
330
6E
100
AcDbEntity
  8
0
100
AcDbBlockEnd
  0
BLOCK
  5
92
330
90
100
AcDbEntity
  8
0
100
AcDbBlockBegin
  2
2_125642_0_in_125692_4
 70
     2
 10
0.0
 20
0.0
 30
0.0
  3
2_125642_0_in_125692_4
  1

  0
ATTDEF
  5
94
330
90
100
AcDbEntity
  8
AM_6
100
AcDbText
 10
49.99121541260941
 20
19.1
 30
0.0
 40
0.5
  1
Set Screw Intermediate Duty Insert Metric Bore
100
AcDbAttributeDefinition
  3

  2
NN
 70
     8
280
     0
  0
ATTDEF
  5
95
330
90
100
AcDbEntity
  8
AM_6
100
AcDbText
 10
49.99121541260941
 20
18.6
 30
0.0
 40
0.5
  1
VSC Intermediate Duty Bearing Inserts
100
AcDbAttributeDefinition
  3

  2
NT
 70
     8
280
     0
  0
ATTDEF
  5
96
330
90
100
AcDbEntity
  8
AM_6
100
AcDbText
 10
49.99121541260941
 20
18.1
 30
0.0
 40
0.5
  1
125642
100
AcDbAttributeDefinition
  3

  2
NB
 70
     8
280
     0
  0
ATTDEF
  5
97
330
90
100
AcDbEntity
  8
AM_6
100
AcDbText
 10
49.99121541260941
 20
17.6
 30
0.0
 40
0.5
  1
$PN.
100
AcDbAttributeDefinition
  3

  2
NBSYN
 70
     8
280
     0
  0
ATTDEF
  5
98
330
90
100
AcDbEntity
  8
AM_6
100
AcDbText
 10
49.99121541260941
 20
17.1
 30
0.0
 40
0.5
  1
125642
100
AcDbAttributeDefinition
  3

  2
LINA
 70
     8
280
     0
  0
ATTDEF
  5
99
330
90
100
AcDbEntity
  8
AM_6
100
AcDbText
 10
49.99121541260941
 20
16.6
 30
0.0
 40
0.5
  1
210
100
AcDbAttributeDefinition
  3

  2
SERIES
 70
     8
280
     0
  0
ATTDEF
  5
9A
330
90
100
AcDbEntity
  8
AM_6
100
AcDbText
 10
49.99121541260941
 20
16.1
 30
0.0
 40
0.5
  1
50
100
AcDbAttributeDefinition
  3

  2
SS
 70
     8
280
     0
  0
ATTDEF
  5
9B
330
90
100
AcDbEntity
  8
AM_6
100
AcDbText
 10
49.99121541260941
 20
15.6
 30
0.0
 40
0.5
  1
125642
100
AcDbAttributeDefinition
  3

  2
PN
 70
     8
280
     0
  0
ATTDEF
  5
9C
330
90
100
AcDbEntity
  8
AM_6
100
AcDbText
 10
49.99121541260941
 20
15.1
 30
0.0
 40
0.5
  1
INS-VSC-50M
100
AcDbAttributeDefinition
  3

  2
DESCRIPTION
 70
     8
280
     0
  0
ATTDEF
  5
9D
330
90
100
AcDbEntity
  8
AM_6
100
AcDbText
 10
49.99121541260941
 20
14.6
 30
0.0
 40
0.5
  1
0.63
100
AcDbAttributeDefinition
  3

  2
WEIGHT
 70
     8
280
     0
  0
ATTDEF
  5
9E
330
90
100
AcDbEntity
  8
AM_6
100
AcDbText
 10
49.99121541260941
 20
14.1
 30
0.0
 40
0.5
  1
49.3
100
AcDbAttributeDefinition
  3

  2
A
 70
     8
280
     0
  0
ATTDEF
  5
9F
330
90
100
AcDbEntity
  8
AM_6
100
AcDbText
 10
49.99121541260941
 20
13.6
 30
0.0
 40
0.5
  1
22.1
100
AcDbAttributeDefinition
  3

  2
C
 70
     8
280
     0
  0
ATTDEF
  5
A0
330
90
100
AcDbEntity
  8
AM_6
100
AcDbText
 10
49.99121541260941
 20
13.1
 30
0.0
 40
0.5
  1
90
100
AcDbAttributeDefinition
  3

  2
D
 70
     8
280
     0
  0
ATTDEF
  5
A1
330
90
100
AcDbEntity
  8
AM_6
100
AcDbText
 10
49.99121541260941
 20
12.6
 30
0.0
 40
0.5
  1
6.4
100
AcDbAttributeDefinition
  3

  2
J
 70
     8
280
     0
  0
ATTDEF
  5
A2
330
90
100
AcDbEntity
  8
AM_6
100
AcDbText
 10
49.99121541260941
 20
12.1
 30
0.0
 40
0.5
  1
61.7
100
AcDbAttributeDefinition
  3

  2
L
 70
     8
280
     0
  0
ATTDEF
  5
A3
330
90
100
AcDbEntity
  8
AM_6
100
AcDbText
 10
49.99121541260941
 20
11.6
 30
0.0
 40
0.5
  1
M10x1.5
100
AcDbAttributeDefinition
  3

  2
N
 70
     8
280
     0
  0
ATTDEF
  5
A4
330
90
100
AcDbEntity
  8
AM_6
100
AcDbText
 10
49.99121541260941
 20
11.1
 30
0.0
 40
0.5
  1
19.1
100
AcDbAttributeDefinition
  3

  2
W
 70
     8
280
     0
  0
ATTDEF
  5
A5
330
90
100
AcDbEntity
  8
AM_6
100
AcDbText
 10
49.99121541260941
 20
10.6
 30
0.0
 40
0.5
  1
30.2
100
AcDbAttributeDefinition
  3

  2
Y
 70
     8
280
     0
  0
ATTDEF
  5
A6
330
90
100
AcDbEntity
  8
AM_6
100
AcDbText
 10
49.99121541260941
 20
10.1
 30
0.0
 40
0.5
  1
baldor
100
AcDbAttributeDefinition
  3

  2
COMPANY
 70
     8
280
     0
  0
LINE
  5
A9
330
90
100
AcDbEntity
  8
AM_9
100
AcDbLine
 10
-47.5
 20
6.600909090909092
 30
0.0
 11
-47.5
 21
6.199090909090915
 31
0.0
  0
ARC
  5
AA
330
90
100
AcDbEntity
  8
AM_9
100
AcDbCircle
 10
-45.49090909090908
 20
6.199090909090911
 30
0.0
 40
2.009090909090915
100
AcDbArc
 50
180.0
 51
270.0
  0
ARC
  5
AB
330
90
100
AcDbEntity
  8
AM_9
100
AcDbCircle
 10
-45.49090909090908
 20
6.600909090909096
 30
0.0
 40
2.009090909090907
100
AcDbArc
 50
90.0
 51
180.0
  0
LINE
  5
AC
330
90
100
AcDbEntity
  8
AM_9
100
AcDbLine
 10
-45.4909090909091
 20
8.610000000000003
 30
0.0
 11
-45.4909090909091
 21
4.190000000000004
 31
0.0
  0
LINE
  5
AD
330
90
100
AcDbEntity
  8
AM_9
100
AcDbLine
 10
-45.4909090909091
 20
4.190000000000004
 30
0.0
 11
-44.69126132022674
 21
4.190000000000004
 31
0.0
  0
LINE
  5
AE
330
90
100
AcDbEntity
  8
AM_9
100
AcDbLine
 10
-43.6804835444733
 20
8.610000000000003
 30
0.0
 11
-45.4909090909091
 21
8.610000000000003
 31
0.0
  0
LINE
  5
AF
330
90
100
AcDbEntity
  8
AM_9
100
AcDbLine
 10
22.65556916135708
 20
-24.388
 30
0.0
 11
27.22367330700689
 21
-24.388
 31
0.0
  0
LINE
  5
B0
330
90
100
AcDbEntity
  8
AM_9
100
AcDbLine
 10
27.22367330700689
 20
-16.01199999999999
 30
0.0
 11
22.65715160397221
 21
-16.01199999999999
 31
0.0
  0
LWPOLYLINE
  5
B1
330
90
100
AcDbEntity
  8
AM_9
100
AcDbPolyline
 90
       13
 70
     0
 43
0.0
 10
24.0840677540916
 20
-21.0466434658697
 10
24.09948304212425
 20
-20.69661285746921
 10
24.10623664344415
 20
-20.00663379012983
 10
24.08110167327657
 20
-19.30216476848986
 10
24.0255271610051
 20
-18.64681297927356
 10
23.93542321169771
 20
-18.01702615517529
 10
23.81350703173957
 20
-17.45935631494398
 10
23.65268231650193
 20
-16.96381957971778
 10
23.4596249592094
 20
-16.5674197431484
 10
23.22578699097916
 20
-16.26453044448143
 10
22.96874413759817
 20
-16.08169123079843
 10
22.67755754430895
 20
-16.01226480166353
 10
22.65780285782026
 20
-16.01200000782321
  0
LWPOLYLINE
  5
B2
330
90
100
AcDbEntity
  8
AM_9
100
AcDbPolyline
 90
       10
 70
     0
 43
0.0
 10
22.65755202915316
 20
-24.38799998639877
 10
22.84697745068978
 20
-24.36300944542597
 10
23.11234352398952
 20
-24.23249039142872
 10
23.35651895568412
 20
-23.98554268300072
 10
23.56302586160189
 20
-23.64104219206332
 10
23.74048193228948
 20
-23.19033308590081
 10
23.88014327542942
 20
-22.66350880320384
 10
23.98820786881822
 20
-22.0501354341345
 10
24.05962370244267
 20
-21.40073974170464
 10
24.0840677540916
 20
-21.0466434658697
  0
LWPOLYLINE
  5
B3
330
90
100
AcDbEntity
  8
AM_9
100
AcDbPolyline
 90
       11
 70
     0
 43
0.0
 10
22.65780285782026
 20
-16.01200000782321
 10
22.38010584017358
 20
-16.06108216281405
 10
22.06491330207809
 20
-16.22781282552976
 10
21.76057494242753
 20
-16.49793255121295
 10
21.46112014395699
 20
-16.87890444502206
 10
21.19182596497463
 20
-17.34526693099199
 10
20.95307000863783
 20
-17.90655535906028
 10
20.76789990676854
 20
-18.52067931489343
 10
20.63682826440093
 20
-19.20236792744856
 10
20.58527782097713
 20
-19.69373411007046
 10
20.56758620890206
 20
-20.2
  0
ELLIPSE
  5
B4
330
90
100
AcDbEntity
  8
AM_9
100
AcDbEllipse
 10
27.22367330700687
 20
-20.20000000000001
 30
0.0
 11
-7.693231192243657E-16
 21
-4.187999999999992
 31
0.0
210
0.0
220
0.0
230
1.0
 40
0.4226182617406961
 41
1.281992028154519
 42
5.948281817324635
  0
LINE
  5
B5
330
90
100
AcDbEntity
  8
AM_9
100
AcDbLine
 10
26.39834359450147
 20
-23.9047995044632
 30
0.0
 11
26.90860107617462
 21
-24.5412368166058
 31
0.0
  0
LINE
  5
B6
330
90
100
AcDbEntity
  8
AM_9
100
AcDbLine
 10
26.91142965510663
 20
-15.85523513483571
 30
0.0
 11
26.39834359450147
 21
-16.4952004955368
 31
0.0
  0
LWPOLYLINE
  5
B7
330
90
100
AcDbEntity
  8
AM_9
100
AcDbPolyline
 90
        9
 70
     0
 43
0.0
 10
25.72410991053242
 20
-21.15365672523387
 10
25.71890977697591
 20
-21.09761748329479
 10
25.6762646223498
 20
-20.24009520093124
 10
25.71409482173519
 20
-19.35499733509344
 10
25.83204612500474
 20
-18.49369781644806
 10
26.02672558435678
 20
-17.68035294210616
 10
26.28840496611104
 20
-16.94111121772922
 10
26.59663400829684
 20
-16.31966073365894
 10
26.91370034292708
 20
-15.85240294121114
  0
LWPOLYLINE
  5
B8
330
90
100
AcDbEntity
  8
AM_9
100
AcDbPolyline
 90
       10
 70
     0
 43
0.0
 10
26.91370034292708
 20
-15.85240294121114
 10
26.94418562684418
 20
-15.81498084677564
 10
27.29123278427872
 20
-15.47026257135167
 10
27.64538462265488
 20
-15.26148785736604
 10
27.96665131745686
 20
-15.20060450528281
 10
28.27177199752778
 20
-15.26733497640927
 10
28.5426868165436
 20
-15.45215276749505
 10
28.78544192277077
 20
-15.74621586772947
 10
28.94681729448601
 20
-16.03317070904655
 10
29.08992388219802
 20
-16.37075002101114
  0
LWPOLYLINE
  5
B9
330
90
100
AcDbEntity
  8
AM_9
100
AcDbPolyline
 90
       11
 70
     0
 43
0.0
 10
20.56758620890206
 20
-20.2
 10
20.60029497019668
 20
-20.88759475459139
 10
20.70047003761933
 20
-21.57518950918279
 10
20.85733960649549
 20
-22.20482636321153
 10
21.07184935399644
 20
-22.79517452955349
 10
21.32466903973899
 20
-23.3021015796819
 10
21.61684182545935
 20
-23.73476548687558
 10
21.92181194018282
 20
-24.05882475567161
 10
22.24314668608925
 20
-24.28050612456223
 10
22.54796384349552
 20
-24.38011834062801
 10
22.65755202915316
 20
-24.38799998639877
  0
LINE
  5
BA
330
90
100
AcDbEntity
  8
AM_9
100
AcDbLine
 10
25.0
 20
-28.96599999999999
 30
0.0
 11
25.0
 21
18.7915
 31
0.0
  0
LINE
  5
BB
330
90
100
AcDbEntity
  8
AM_9
100
AcDbLine
 10
-25.0
 20
18.7915
 30
0.0
 11
-25.0
 21
-28.96599999999999
 31
0.0
  0
LINE
  5
BC
330
90
100
AcDbEntity
  8
AM_9
100
AcDbLine
 10
25.0
 20
18.7915
 30
0.0
 11
25.30850000000002
 21
19.1
 31
0.0
  0
LINE
  5
BD
330
90
100
AcDbEntity
  8
AM_9
100
AcDbLine
 10
-25.30850000000002
 20
19.1
 30
0.0
 11
-25.0
 21
18.7915
 31
0.0
  0
LINE
  5
BE
330
90
100
AcDbEntity
  8
AM_9
100
AcDbLine
 10
-25.0
 20
-28.96599999999999
 30
0.0
 11
-26.23400000000004
 21
-30.2
 31
0.0
  0
LINE
  5
BF
330
90
100
AcDbEntity
  8
AM_9
100
AcDbLine
 10
26.23400000000004
 20
-30.2
 30
0.0
 11
25.0
 21
-28.96599999999999
 31
0.0
  0
LINE
  5
C0
330
90
100
AcDbEntity
  8
AM_9
100
AcDbLine
 10
-30.5415
 20
19.1
 30
0.0
 11
30.5415
 21
19.1
 31
0.0
  0
LINE
  5
C1
330
90
100
AcDbEntity
  8
AM_9
100
AcDbLine
 10
-30.5415
 20
19.1
 30
0.0
 11
-30.84999999999999
 21
18.7915
 31
0.0
  0
LINE
  5
C2
330
90
100
AcDbEntity
  8
AM_9
100
AcDbLine
 10
30.84999999999999
 20
18.7915
 30
0.0
 11
30.5415
 21
19.1
 31
0.0
  0
LINE
  5
C3
330
90
100
AcDbEntity
  8
AM_9
100
AcDbLine
 10
-30.84999999999999
 20
18.7915
 30
0.0
 11
30.84999999999999
 21
18.7915
 31
0.0
  0
LINE
  5
C4
330
90
100
AcDbEntity
  8
AM_9
100
AcDbLine
 10
30.84999999999999
 20
11.05
 30
0.0
 11
30.84999999999999
 21
18.7915
 31
0.0
  0
LINE
  5
C5
330
90
100
AcDbEntity
  8
AM_9
100
AcDbLine
 10
-30.84999999999999
 20
18.7915
 30
0.0
 11
-30.84999999999999
 21
11.05
 31
0.0
  0
LWPOLYLINE
  5
C6
330
90
100
AcDbEntity
  8
AM_9
100
AcDbPolyline
 90
        8
 70
     0
 43
0.0
 10
29.08992388219802
 20
-16.37075002101114
 10
29.25213658583033
 20
-16.89102794729981
 10
29.3823540306953
 20
-17.47797465687792
 10
29.49399947608389
 20
-18.22048233528739
 10
29.56649739983518
 20
-19.01293681298981
 10
29.60190017297182
 20
-19.87680755382355
 10
29.59667298056854
 20
-20.74944589859295
 10
29.56216530425509
 20
-21.4510106786635
  0
LINE
  5
C7
330
90
100
AcDbEntity
  8
AM_9
100
AcDbLine
 10
30.84999999999999
 20
-21.5631175470119
 30
0.0
 11
30.84999999999999
 21
-11.05
 31
0.0
  0
LINE
  5
C8
330
90
100
AcDbEntity
  8
AM_9
100
AcDbLine
 10
-30.84999999999999
 20
-11.05
 30
0.0
 11
-30.84999999999999
 21
-21.5631175470119
 31
0.0
  0
LWPOLYLINE
  5
C9
330
90
100
AcDbEntity
  8
AM_9
100
AcDbPolyline
 90
        6
 70
     0
 43
0.0
 10
-4.645034136897086
 20
-20.374151238474
 10
-4.629835426472764
 20
-19.76092812138804
 10
-4.486215167254279
 20
-18.89537252908761
 10
-4.191269061095463
 20
-18.04252463911374
 10
-3.841066081063403
 20
-17.38872192516283
 10
-3.388219635646506
 20
-16.78115062173033
  0
LWPOLYLINE
  5
CA
330
90
100
AcDbEntity
  8
AM_9
100
AcDbPolyline
 90
       17
 70
     0
 43
0.0
 10
-3.388219635646506
 20
-16.78115062173033
 10
-2.88743455137696
 20
-16.28505068255651
 10
-2.304707835429098
 20
-15.86022334614682
 10
-1.599684411107776
 20
-15.50663171200305
 10
-0.8165939202102422
 20
-15.27809012585778
 10
-0.0847614952083061
 20
-15.20083496233002
 10
0.6724569006809201
 20
-15.25282334047643
 10
1.361773611069349
 20
-15.42027460938829
 10
2.032247834648371
 20
-15.70507415619913
 10
2.647122923118236
 20
-16.09294639041008
 10
3.207103677493934
 20
-16.58463305217998
 10
3.702623001070278
 20
-17.18167186617638
 10
4.108652626954159
 20
-17.86627440828559
 10
4.414647703675385
 20
-18.63901770048556
 10
4.598267303965936
 20
-19.47299541184916
 10
4.646042645138276
 20
-20.33975131206996
 10
4.64504207365549
 20
-20.37390711022445
  0
ARC
  5
CB
330
90
100
AcDbEntity
  8
AM_9
100
AcDbCircle
 10
0.0
 20
-20.19999999999999
 30
0.0
 40
4.188
100
AcDbArc
 50
357.7136868872677
 51
182.2863131127322
  0
LINE
  5
CC
330
90
100
AcDbEntity
  8
AM_9
100
AcDbLine
 10
42.78999999999994
 20
-7.233333333333332
 30
0.0
 11
42.78999999999994
 21
-4.286666666666661
 31
0.0
  0
LINE
  5
CD
330
90
100
AcDbEntity
  8
AM_9
100
AcDbLine
 10
-42.78999999999994
 20
-4.286666666666661
 30
0.0
 11
-42.78999999999994
 21
-7.233333333333332
 31
0.0
  0
LINE
  5
CE
330
90
100
AcDbEntity
  8
AM_9
100
AcDbLine
 10
-42.19396883195163
 20
11.05
 30
0.0
 11
42.19396883193355
 21
11.05
 31
0.0
  0
ARC
  5
CF
330
90
100
AcDbEntity
  8
AM_9
100
AcDbCircle
 10
42.19396883195164
 20
10.16600000000002
 30
0.0
 40
0.8839999999999852
100
AcDbArc
 50
21.41247877657207
 51
90.0
  0
ARC
  5
D0
330
90
100
AcDbEntity
  8
AM_9
100
AcDbCircle
 10
-42.19396883195164
 20
10.16600000000002
 30
0.0
 40
0.8839999999999808
100
AcDbArc
 50
90.0
 51
158.587521223428
  0
LINE
  5
D1
330
90
100
AcDbEntity
  8
AM_9
100
AcDbLine
 10
-42.1939688319516
 20
-11.05
 30
0.0
 11
42.19396883193352
 21
-11.05
 31
0.0
  0
ARC
  5
D2
330
90
100
AcDbEntity
  8
AM_9
100
AcDbCircle
 10
42.1939688319516
 20
-10.16599999999998
 30
0.0
 40
0.8840000000000163
100
AcDbArc
 50
270.0
 51
338.587532953115
  0
ARC
  5
D3
330
90
100
AcDbEntity
  8
AM_9
100
AcDbCircle
 10
-42.1939688319516
 20
-10.16599999999998
 30
0.0
 40
0.8840000000000182
100
AcDbArc
 50
201.412467046885
 51
270.0
  0
LINE
  5
D4
330
90
100
AcDbEntity
  8
AM_9
100
AcDbLine
 10
-43.01695196947389
 20
-10.48873015873016
 30
0.0
 11
43.01695196947389
 21
-10.48873015873016
 31
0.0
  0
LINE
  5
D5
330
90
100
AcDbEntity
  8
AM_9
100
AcDbLine
 10
-44.07452820834922
 20
-7.233333333333332
 30
0.0
 11
44.07452820834922
 21
-7.233333333333332
 31
0.0
  0
ARC
  5
D6
330
90
100
AcDbEntity
  8
AM_9
100
AcDbCircle
 10
16.27000000000197
 20
-0.0000000000006395
 30
0.0
 40
28.72999999999791
100
AcDbArc
 50
338.5875329531157
 51
345.4177622541455
  0
ARC
  5
D7
330
90
100
AcDbEntity
  8
AM_9
100
AcDbCircle
 10
-16.26999999999961
 20
0.0000000000001279
 30
0.0
 40
28.73000000000039
100
AcDbArc
 50
194.5822377458547
 51
201.412467046884
  0
LINE
  5
D8
330
90
100
AcDbEntity
  8
AM_9
100
AcDbLine
 10
-44.67840349067311
 20
-4.286666666666664
 30
0.0
 11
44.67840349067311
 21
-4.286666666666664
 31
0.0
  0
LINE
  5
D9
330
90
100
AcDbEntity
  8
AM_9
100
AcDbLine
 10
-43.01695190340402
 20
10.48873032721266
 30
0.0
 11
43.01695190340402
 21
10.48873032721266
 31
0.0
  0
LINE
  5
DA
330
90
100
AcDbEntity
  8
AM_9
100
AcDbLine
 10
-43.85502160168085
 20
7.929611490841862
 30
0.0
 11
-43.8268537830394
 21
8.04078825215127
 31
0.0
  0
ARC
  5
DB
330
90
100
AcDbEntity
  8
AM_9
100
AcDbCircle
 10
16.27000000000011
 20
0.0000000000000001
 30
0.0
 40
28.72999999999987
100
AcDbArc
 50
351.4191278814026
 51
21.41246740779767
  0
ARC
  5
DC
330
90
100
AcDbEntity
  8
AM_9
100
AcDbCircle
 10
-16.27000000000214
 20
0.0000000000007176
 30
0.0
 40
28.72999999999772
100
AcDbArc
 50
158.5875325922022
 51
162.5690897718378
  0
ARC
  5
DD
330
90
100
AcDbEntity
  8
AM_9
100
AcDbCircle
 10
-16.27000000000069
 20
-0.0000000000000053
 30
0.0
 40
28.7299999999993
100
AcDbArc
 50
171.5980643305833
 51
188.5808721185975
  0
LWPOLYLINE
  5
DE
330
90
100
AcDbEntity
  8
AM_9
100
AcDbPolyline
 90
       21
 70
     0
 43
0.0
 10
-43.67950200236578
 20
8.60999999877513
 10
-43.67967644066896
 20
8.609338052510589
 10
-43.69017526377173
 20
8.569447180348783
 10
-43.71514168847242
 20
8.474182902507378
 10
-43.7549130783438
 20
8.321239884714114
 10
-43.80646923999544
 20
8.120760063587399
 10
-43.87016531420234
 20
7.869514943095977
 10
-43.94247516563054
 20
7.57935345502682
 10
-44.02310581973306
 20
7.249339489438865
 10
-44.10759050301345
 20
6.895877713376888
 10
-44.19574071131082
 20
6.518246133976077
 10
-44.28143791212323
 20
6.141962865454921
 10
-44.36588268015878
 20
5.761796013358668
 10
-44.44181258986573
 20
5.411516284960631
 10
-44.51211016323914
 20
5.079654278666005
 10
-44.57008063499973
 20
4.800205001070981
 10
-44.61917225638735
 20
4.559262094806696
 10
-44.65479388383033
 20
4.381860290754211
 10
-44.67951907705797
 20
4.257411613344607
 10
-44.69131903379952
 20
4.19763148872979
 10
-44.69282181627985
 20
4.190000000000482
  0
LINE
  5
E1
330
90
100
AcDbEntity
  8
AM_7
100
AcDbLine
 10
-48.3325
 20
6.400000000000004
 30
0.0
 11
-30.0175
 21
6.400000000000004
 31
0.0
  0
LINE
  5
E2
330
90
100
AcDbEntity
  8
AM_7
100
AcDbLine
 10
-4.397400000000003
 20
-20.19999999999999
 30
0.0
 11
4.397400000000012
 21
-20.19999999999999
 31
0.0
  0
ELLIPSE
  5
E4
330
90
100
AcDbEntity
  8
AM_4
100
AcDbEllipse
 10
27.22367330700688
 20
-20.20000000000001
 30
0.0
 11
-7.693231192243637E-16
 21
-4.187999999999981
 31
0.0
210
0.0
220
0.0
230
1.0
 40
0.4226182617407014
 41
5.948281817324633
 42
7.565177335334102
  0
LWPOLYLINE
  5
E5
330
90
100
AcDbEntity
  8
AM_4
100
AcDbPolyline
 90
        7
 70
     0
 43
0.0
 10
26.91335100528295
 20
-24.54716121537576
 10
26.80056873562655
 20
-24.39789343431926
 10
26.50669062905796
 20
-23.91913421246315
 10
26.24598759383974
 20
-23.35570436681448
 10
26.01324606325873
 20
-22.67371205351066
 10
25.83676726908095
 20
-21.93134407878583
 10
25.72410991053242
 20
-21.15365672523387
  0
LINE
  5
E6
330
90
100
AcDbEntity
  8
AM_4
100
AcDbLine
 10
-29.61600000000003
 20
-30.2
 30
0.0
 11
29.61600000000003
 21
-30.2
 31
0.0
  0
LINE
  5
E7
330
90
100
AcDbEntity
  8
AM_4
100
AcDbLine
 10
29.61600000000003
 20
-30.2
 30
0.0
 11
30.84999999999999
 21
-28.96599999999999
 31
0.0
  0
LINE
  5
E8
330
90
100
AcDbEntity
  8
AM_4
100
AcDbLine
 10
-30.84999999999999
 20
-28.96599999999999
 30
0.0
 11
-29.61600000000003
 21
-30.2
 31
0.0
  0
LINE
  5
E9
330
90
100
AcDbEntity
  8
AM_4
100
AcDbLine
 10
-30.84999999999999
 20
-28.96599999999999
 30
0.0
 11
30.84999999999999
 21
-28.96599999999999
 31
0.0
  0
LWPOLYLINE
  5
EA
330
90
100
AcDbEntity
  8
AM_4
100
AcDbPolyline
 90
       13
 70
     0
 43
0.0
 10
29.56216530425509
 20
-21.4510106786635
 10
29.54906604195417
 20
-21.62448489872025
 10
29.45776063810244
 20
-22.45877558316404
 10
29.32157190230962
 20
-23.22064837359917
 10
29.13815564735744
 20
-23.89263449923262
 10
28.91596243424607
 20
-24.42771065072201
 10
28.64943815656217
 20
-24.83623188176639
 10
28.36515926484158
 20
-25.08310684301872
 10
28.05145371398872
 20
-25.19442234096351
 10
27.739464044993
 20
-25.16897808240394
 10
27.41875878455697
 20
-25.02182177458327
 10
27.10379071272
 20
-24.76143187615482
 10
26.91335100528295
 20
-24.54716121537576
  0
LINE
  5
EB
330
90
100
AcDbEntity
  8
AM_4
100
AcDbLine
 10
30.84999999999999
 20
-28.96599999999999
 30
0.0
 11
30.84999999999999
 21
-21.5631175470119
 31
0.0
  0
LINE
  5
EC
330
90
100
AcDbEntity
  8
AM_4
100
AcDbLine
 10
-30.84999999999999
 20
-21.5631175470119
 30
0.0
 11
-30.84999999999999
 21
-28.96599999999999
 31
0.0
  0
LWPOLYLINE
  5
ED
330
90
100
AcDbEntity
  8
AM_4
100
AcDbPolyline
 90
       20
 70
     0
 43
0.0
 10
4.64504207365549
 20
-20.37390711022445
 10
4.548377440336923
 20
-21.22691139761238
 10
4.308823493124302
 20
-22.07125347448532
 10
3.918194185858872
 20
-22.88548805830013
 10
3.416985184907663
 20
-23.58556577021281
 10
2.779475408149457
 20
-24.20444783290923
 10
2.101755075585221
 20
-24.65768848340786
 10
1.326744408295504
 20
-24.99115226791833
 10
0.5919147454357145
 20
-25.1591207910797
 10
-0.1858394552189998
 20
-25.19598503835717
 10
-0.8934910439639252
 20
-25.10636583662616
 10
-1.595779925526664
 20
-24.8949111417323
 10
-2.239203280435266
 20
-24.5793686780128
 10
-2.83937352387355
 20
-24.15546119589802
 10
-3.381545031982864
 20
-23.6264865434047
 10
-3.84579701978363
 20
-23.00379449886633
 10
-4.223701568010747
 20
-22.28319591841321
 10
-4.489632176200566
 20
-21.49100259803081
 10
-4.629449782447608
 20
-20.64373343881755
 10
-4.645034136897086
 20
-20.374151238474
  0
ARC
  5
EE
330
90
100
AcDbEntity
  8
AM_4
100
AcDbCircle
 10
0.0
 20
-20.2
 30
0.0
 40
4.188
100
AcDbArc
 50
182.2863131127322
 51
357.7136868872677
  0
CIRCLE
  5
F0
330
90
100
AcDbEntity
  8
AM_5
100
AcDbCircle
 10
0.0
 20
-20.2
 30
0.0
 40
4.999999999999999
  0
ENDBLK
  5
93
330
90
100
AcDbEntity
  8
0
100
AcDbBlockEnd
  0
BLOCK
  5
F3
330
F1
100
AcDbEntity
  8
0
100
AcDbBlockBegin
  2
3_405020c_M_0_in_125692_4
 70
     2
 10
0.0
 20
0.0
 30
0.0
  3
3_405020c_M_0_in_125692_4
  1

  0
ATTDEF
  5
F5
330
F1
100
AcDbEntity
  8
AM_6
100
AcDbText
 10
53.77479111963672
 20
4.041451884327386
 30
0.0
 40
0.5
  1
405020C -Metric
100
AcDbAttributeDefinition
  3

  2
NN
 70
     8
280
     0
  0
ATTDEF
  5
F6
330
F1
100
AcDbEntity
  8
AM_6
100
AcDbText
 10
53.77479111963672
 20
3.541451884327386
 30
0.0
 40
0.5
  1
Grease fitting
100
AcDbAttributeDefinition
  3

  2
NT
 70
     8
280
     0
  0
ATTDEF
  5
F7
330
F1
100
AcDbEntity
  8
AM_6
100
AcDbText
 10
53.77479111963672
 20
3.041451884327386
 30
0.0
 40
0.5
  1
405020c-M
100
AcDbAttributeDefinition
  3

  2
NB
 70
     8
280
     0
  0
ATTDEF
  5
F8
330
F1
100
AcDbEntity
  8
AM_6
100
AcDbText
 10
53.77479111963672
 20
2.541451884327386
 30
0.0
 40
0.5
  1
$MN.-M
100
AcDbAttributeDefinition
  3

  2
NBSYN
 70
     8
280
     0
  0
ATTDEF
  5
F9
330
F1
100
AcDbEntity
  8
AM_6
100
AcDbText
 10
53.77479111963672
 20
2.041451884327386
 30
0.0
 40
0.5
  1
405020c
100
AcDbAttributeDefinition
  3

  2
LINA
 70
     8
280
     0
  0
ATTDEF
  5
FA
330
F1
100
AcDbEntity
  8
AM_6
100
AcDbText
 10
53.77479111963672
 20
1.541451884327386
 30
0.0
 40
0.5
  1
405020c
100
AcDbAttributeDefinition
  3

  2
MN
 70
     8
280
     0
  0
ATTDEF
  5
FB
330
F1
100
AcDbEntity
  8
AM_6
100
AcDbText
 10
53.77479111963672
 20
1.041451884327386
 30
0.0
 40
0.5
  1
5.842
100
AcDbAttributeDefinition
  3

  2
NDR
 70
     8
280
     0
  0
ATTDEF
  5
FC
330
F1
100
AcDbEntity
  8
AM_6
100
AcDbText
 10
53.77479111963672
 20
0.5414518843273859
 30
0.0
 40
0.5
  1
5.359
100
AcDbAttributeDefinition
  3

  2
KDR
 70
     8
280
     0
  0
ATTDEF
  5
FD
330
F1
100
AcDbEntity
  8
AM_6
100
AcDbText
 10
53.77479111963672
 20
0.0414518843273859
 30
0.0
 40
0.5
  1
4.000
100
AcDbAttributeDefinition
  3

  2
BZE
 70
     8
280
     0
  0
ATTDEF
  5
FE
330
F1
100
AcDbEntity
  8
AM_6
100
AcDbText
 10
53.77479111963672
 20
-0.4585481156726141
 30
0.0
 40
0.5
  1
7
100
AcDbAttributeDefinition
  3

  2
WAF
 70
     8
280
     0
  0
ATTDEF
  5
FF
330
F1
100
AcDbEntity
  8
AM_6
100
AcDbText
 10
53.77479111963672
 20
-0.9585481156726141
 30
0.0
 40
0.5
  1
7.0000
100
AcDbAttributeDefinition
  3

  2
WAF1
 70
     8
280
     0
  0
ATTDEF
  5
100
330
F1
100
AcDbEntity
  8
AM_6
100
AcDbText
 10
53.77479111963672
 20
-1.458548115672614
 30
0.0
 40
0.5
  1
13.843
100
AcDbAttributeDefinition
  3

  2
BL
 70
     8
280
     0
  0
ATTDEF
  5
101
330
F1
100
AcDbEntity
  8
AM_6
100
AcDbText
 10
53.77479111963672
 20
-1.958548115672614
 30
0.0
 40
0.5
  1
5.080
100
AcDbAttributeDefinition
  3

  2
TL
 70
     8
280
     0
  0
ATTDEF
  5
102
330
F1
100
AcDbEntity
  8
AM_6
100
AcDbText
 10
53.77479111963672
 20
-2.458548115672614
 30
0.0
 40
0.5
  1
baldor
100
AcDbAttributeDefinition
  3

  2
COMPANY
 70
     8
280
     0
  0
ELLIPSE
  5
103
330
F1
100
AcDbEntity
  8
AM_9
100
AcDbEllipse
 10
37.34938018227344
 20
0.0000000000000058
 30
0.0
 11
-4.692312313253165E-16
 21
-2.55437585025611
 31
0.0
210
0.0
220
0.0
230
1.0
 40
0.7071067811865476
 41
0.0
 42
6.283185307179586
  0
LINE
  5
104
330
F1
100
AcDbEntity
  8
AM_9
100
AcDbLine
 10
44.38857049250459
 20
2.020725942163696
 30
0.0
 11
43.518944544607
 21
2.020725942163696
 31
0.0
  0
LINE
  5
105
330
F1
100
AcDbEntity
  8
AM_9
100
AcDbLine
 10
44.38857049250459
 20
-2.020725942163685
 30
0.0
 11
43.518944544607
 21
-2.020725942163685
 31
0.0
  0
LINE
  5
106
330
F1
100
AcDbEntity
  8
AM_9
100
AcDbLine
 10
43.445850238498
 20
-1.055412460742367
 30
0.0
 11
43.518944544607
 21
-2.020725942163685
 31
0.0
  0
LWPOLYLINE
  5
107
330
F1
100
AcDbEntity
  8
AM_9
100
AcDbPolyline
 90
        3
 70
     0
 43
0.0
 10
43.41635636485402
 20
0.0000000000000059
 10
43.44343437738298
 20
-1.010362971081839
 10
43.445850238498
 20
-1.055412460742367
  0
LWPOLYLINE
  5
108
330
F1
100
AcDbEntity
  8
AM_9
100
AcDbPolyline
 90
        3
 70
     0
 43
0.0
 10
43.44813163375822
 20
1.096392406151973
 10
43.4324442526859
 20
0.7756181668409041
 10
43.41635636485402
 20
0.0000000000000059
  0
LWPOLYLINE
  5
109
330
F1
100
AcDbEntity
  8
AM_9
100
AcDbPolyline
 90
        3
 70
     0
 43
0.0
 10
43.518944544607
 20
2.020725942163696
 10
43.47822146463466
 20
1.546688894797469
 10
43.44813163375822
 20
1.096392406151973
  0
LWPOLYLINE
  5
10A
330
F1
100
AcDbEntity
  8
AM_9
100
AcDbPolyline
 90
        3
 70
     0
 43
0.0
 10
42.17891949777756
 20
3.031088913245542
 10
42.82471594384474
 20
2.525907427704619
 10
43.518944544607
 20
2.020725942163696
  0
LWPOLYLINE
  5
10B
330
F1
100
AcDbEntity
  8
AM_9
100
AcDbPolyline
 90
        3
 70
     0
 43
0.0
 10
43.518944544607
 20
-2.020725942163685
 10
42.82773708744048
 20
-2.523635995714036
 10
42.17891949777756
 20
-3.03108891324553
  0
LWPOLYLINE
  5
10C
330
F1
100
AcDbEntity
  8
AM_9
100
AcDbPolyline
 90
        3
 70
     0
 43
0.0
 10
43.66747522438715
 20
-2.682631185199011
 10
43.84536222619039
 20
-2.525907427704607
 10
44.38857049250459
 20
-2.020725942163685
  0
LWPOLYLINE
  5
10D
330
F1
100
AcDbEntity
  8
AM_9
100
AcDbPolyline
 90
        3
 70
     0
 43
0.0
 10
44.38857049250459
 20
-2.020725942163685
 10
44.46384144081405
 20
-1.014905835062981
 10
44.49115867225757
 20
0.0000000000000059
  0
LWPOLYLINE
  5
10E
330
F1
100
AcDbEntity
  8
AM_9
100
AcDbPolyline
 90
        3
 70
     0
 43
0.0
 10
44.38857049250459
 20
2.020725942163696
 10
43.84790493195698
 20
2.523635995714048
 10
43.66751556791662
 20
2.682596126444216
  0
LWPOLYLINE
  5
10F
330
F1
100
AcDbEntity
  8
AM_9
100
AcDbPolyline
 90
        4
 70
     0
 43
0.0
 10
44.49115867225757
 20
0.0000000000000059
 10
44.47516386021017
 20
0.7733444473987373
 10
44.42929357247694
 20
1.546688894797469
 10
44.38857049250459
 20
2.020725942163696
  0
LWPOLYLINE
  5
110
330
F1
100
AcDbEntity
  8
AM_9
100
AcDbPolyline
 90
        3
 70
     0
 43
0.0
 10
42.17891949777756
 20
-3.03108891324553
 10
41.58727907676828
 20
-3.536270398786452
 10
41.04407081045408
 20
-4.041451884327374
  0
LWPOLYLINE
  5
111
330
F1
100
AcDbEntity
  8
AM_9
100
AcDbPolyline
 90
        3
 70
     0
 43
0.0
 10
41.04407081045408
 20
4.041451884327386
 10
41.58473637100169
 20
3.538541830777036
 10
42.17891949777756
 20
3.031088913245542
  0
LINE
  5
112
330
F1
100
AcDbEntity
  8
AM_9
100
AcDbLine
 10
37.46378275394454
 20
-2.802418772605759
 30
0.0
 11
40.87613594695208
 21
-2.953306140068648
 31
0.0
  0
LINE
  5
113
330
F1
100
AcDbEntity
  8
AM_9
100
AcDbLine
 10
40.87613594695208
 20
2.95330614006866
 30
0.0
 11
37.46378275394454
 21
2.802418772605771
 31
0.0
  0
ELLIPSE
  5
114
330
F1
100
AcDbEntity
  8
AM_9
100
AcDbEllipse
 10
42.01628493810472
 20
-0.0000000000000395
 30
0.0
 11
2.143131898507818E-16
 21
3.499999999999917
 31
0.0
210
0.0
220
0.0
230
1.0
 40
0.7071067811865434
 41
3.850326533439286
 42
5.574451427330111
  0
ELLIPSE
  5
115
330
F1
100
AcDbEntity
  8
AM_9
100
AcDbEllipse
 10
42.73274185655718
 20
-0.0000000000000286
 30
0.0
 11
1.522711690942056E-16
 21
2.486776909068356
 31
0.0
210
0.0
220
0.0
230
1.0
 40
0.707106781186559
 41
5.408504105743053
 42
5.984242208656091
  0
ELLIPSE
  5
116
330
F1
100
AcDbEntity
  8
AM_9
100
AcDbEllipse
 10
42.73274185655713
 20
0.0000000000001164
 30
0.0
 11
1.522711690942113E-16
 21
2.48677690906845
 31
0.0
210
0.0
220
0.0
230
1.0
 40
0.7071067811865667
 41
3.440535752113306
 42
3.928051556792449
  0
ELLIPSE
  5
117
330
F1
100
AcDbEntity
  8
AM_9
100
AcDbEllipse
 10
42.73274185655602
 20
0.0000000000010427
 30
0.0
 11
1.522711690943265E-16
 21
2.486776909070331
 31
0.0
210
0.0
220
0.0
230
1.0
 40
0.7071067811865489
 41
4.104713885223578
 42
5.173391342836048
  0
LWPOLYLINE
  5
118
330
F1
100
AcDbEntity
  8
AM_9
100
AcDbPolyline
 90
       11
 70
     0
 43
0.0
 10
43.23274185655724
 20
2.193883690254877
 10
43.28399869070179
 20
2.19168443922466
 10
43.41928706436139
 20
2.16493883644827
 10
43.54885456690873
 20
2.111445986075879
 10
43.67911911667159
 20
2.030331256706042
 10
43.82411749866316
 20
1.906075099641165
 10
43.962953124724
 20
1.74884300137556
 10
44.09265665392655
 20
1.559598687538184
 10
44.20965959211023
 20
1.340278326906682
 10
44.31017621127589
 20
1.09429618454607
 10
44.32582562045055
 20
1.048786308855653
  0
LWPOLYLINE
  5
119
330
F1
100
AcDbEntity
  8
AM_9
100
AcDbPolyline
 90
        4
 70
     0
 43
0.0
 10
42.99237301774119
 20
-2.14599402431682
 10
42.98093355936623
 20
-2.141366500860647
 10
42.85121744442794
 20
-2.074182182917628
 10
42.78352049759781
 20
-2.028247822488823
  0
LWPOLYLINE
  5
11A
330
F1
100
AcDbEntity
  8
AM_9
100
AcDbPolyline
 90
       12
 70
     0
 43
0.0
 10
44.30661686181021
 20
-1.104312650326794
 10
44.27318207567754
 20
-1.193088107292867
 10
44.16641389965422
 20
-1.42798985568821
 10
44.04561372585857
 20
-1.633757986497893
 10
43.91537271941837
 20
-1.807413064017881
 10
43.78076576209315
 20
-1.947194386400068
 10
43.64641474481394
 20
-2.05331500738719
 10
43.51553311408937
 20
-2.127778439189025
 10
43.38827417516267
 20
-2.173724895086444
 10
43.25884658390903
 20
-2.193312992130964
 10
43.11163028077092
 20
-2.181637391874738
 10
42.99237301774119
 20
-2.14599402431682
  0
LWPOLYLINE
  5
11B
330
F1
100
AcDbEntity
  8
AM_9
100
AcDbPolyline
 90
        3
 70
     0
 43
0.0
 10
43.0303627023288
 20
2.159851091405244
 10
43.1343346505988
 20
2.185790084287418
 10
43.23274185655724
 20
2.193883690254877
  0
LWPOLYLINE
  5
11C
330
F1
100
AcDbEntity
  8
AM_9
100
AcDbPolyline
 90
        4
 70
     0
 43
0.0
 10
42.77961543141889
 20
2.025364934571538
 10
42.87831951298784
 20
2.090461750095092
 10
43.00732593594875
 20
2.151725656925999
 10
43.0303627023288
 20
2.159851091405244
  0
ELLIPSE
  5
11D
330
F1
100
AcDbEntity
  8
AM_9
100
AcDbEllipse
 10
43.53157809528736
 20
-0.0000000000000002
 30
0.0
 11
1.400736253841406E-16
 21
2.287575903218222
 31
0.0
210
0.0
220
0.0
230
1.0
 40
0.7071067811865486
 41
2.656480407116014
 42
6.283185307179586
  0
ELLIPSE
  5
11E
330
F1
100
AcDbEntity
  8
AM_9
100
AcDbEllipse
 10
45.08476475681802
 20
0.0000000000001892
 30
0.0
 11
2.027916041956505E-16
 21
3.311838226937627
 31
0.0
210
0.0
220
0.0
230
1.0
 40
0.7071067811865376
 41
2.714107740349196
 42
6.768297553653342
  0
ELLIPSE
  5
11F
330
F1
100
AcDbEntity
  8
AM_9
100
AcDbEllipse
 10
45.08476475679412
 20
-0.0000000000083298
 30
0.0
 11
2.027916041950909E-16
 21
3.311838226928488
 31
0.0
210
0.0
220
0.0
230
1.0
 40
0.707106781183668
 41
-3.629065406752068
 42
-3.592356611865678
  0
ELLIPSE
  5
120
330
F1
100
AcDbEntity
  8
AM_9
100
AcDbEllipse
 10
45.65988962590146
 20
0.0000000000989053
 30
0.0
 11
2.036609237995427E-16
 21
3.326035293463216
 31
0.0
210
0.0
220
0.0
230
1.0
 40
0.707106781210956
 41
3.579974428603483
 42
5.844803532140653
  0
ELLIPSE
  5
121
330
F1
100
AcDbEntity
  8
AM_9
100
AcDbEllipse
 10
46.92245027893245
 20
-0.0000000000020983
 30
0.0
 11
1.572521564387136E-16
 21
2.568122605606754
 31
0.0
210
0.0
220
0.0
230
1.0
 40
0.7071067811865144
 41
3.57997442854457
 42
5.822115253120342
  0
ELLIPSE
  5
122
330
F1
100
AcDbEntity
  8
AM_9
100
AcDbEllipse
 10
40.94148263070106
 20
0.0000000000000231
 30
0.0
 11
2.143131898507841E-16
 21
3.499999999999956
 31
0.0
210
0.0
220
0.0
230
1.0
 40
0.7071067811865398
 41
0.0
 42
6.283185307179586
  0
ELLIPSE
  5
123
330
F1
100
AcDbEntity
  8
AM_9
100
AcDbEllipse
 10
40.9414826307011
 20
0.0000000000000118
 30
0.0
 11
1.809263597659736E-16
 21
2.954751686640451
 31
0.0
210
0.0
220
0.0
230
1.0
 40
0.7071067811865464
 41
0.0
 42
6.283185307179586
  0
ELLIPSE
  5
124
330
F1
100
AcDbEntity
  8
AM_9
100
AcDbEllipse
 10
37.52574140347613
 20
0.0000000000000031
 30
0.0
 11
1.716825172003264E-16
 21
2.803788281157611
 31
0.0
210
0.0
220
0.0
230
1.0
 40
0.7071067811865435
 41
0.0
 42
6.283185307179586
  0
LINE
  5
125
330
F1
100
AcDbEntity
  8
AM_4
100
AcDbLine
 10
43.25372180518111
 20
-3.031088913245529
 30
0.0
 11
43.66747522438715
 21
-2.682631185199011
 31
0.0
  0
LINE
  5
126
330
F1
100
AcDbEntity
  8
AM_4
100
AcDbLine
 10
43.66751556791662
 20
2.682596126444216
 30
0.0
 11
43.25372180518111
 21
3.031088913245541
 31
0.0
  0
LWPOLYLINE
  5
127
330
F1
100
AcDbEntity
  8
AM_4
100
AcDbPolyline
 90
        3
 70
     0
 43
0.0
 10
41.91369675835168
 20
-4.041451884327374
 10
42.60490421551819
 20
-3.538541830777023
 10
43.25372180518111
 20
-3.031088913245529
  0
LWPOLYLINE
  5
128
330
F1
100
AcDbEntity
  8
AM_4
100
AcDbPolyline
 90
        3
 70
     0
 43
0.0
 10
43.25372180518111
 20
3.031088913245541
 10
42.60792535911393
 20
3.536270398786464
 10
41.91369675835168
 20
4.041451884327386
  0
LWPOLYLINE
  5
129
330
F1
100
AcDbEntity
  8
AM_4
100
AcDbPolyline
 90
        3
 70
     0
 43
0.0
 10
39.70404576362464
 20
-3.031088913245529
 10
39.11240534261537
 20
-2.525907427704607
 10
38.56919707630117
 20
-2.020725942163685
  0
LWPOLYLINE
  5
12A
330
F1
100
AcDbEntity
  8
AM_4
100
AcDbPolyline
 90
        3
 70
     0
 43
0.0
 10
41.04407081045408
 20
-4.041451884327374
 10
40.35286335328757
 20
-3.538541830777023
 10
39.70404576362464
 20
-3.031088913245529
  0
LINE
  5
12B
330
F1
100
AcDbEntity
  8
AM_4
100
AcDbLine
 10
41.91369675835168
 20
-4.041451884327374
 30
0.0
 11
41.04407081045408
 21
-4.041451884327374
 31
0.0
  0
LWPOLYLINE
  5
12C
330
F1
100
AcDbEntity
  8
AM_4
100
AcDbPolyline
 90
        3
 70
     0
 43
0.0
 10
40.7788480710282
 20
-3.031088913245529
 10
41.37048849203747
 20
-3.536270398786452
 10
41.91369675835168
 20
-4.041451884327374
  0
LWPOLYLINE
  5
12D
330
F1
100
AcDbEntity
  8
AM_4
100
AcDbPolyline
 90
        3
 70
     0
 43
0.0
 10
39.43882302419876
 20
-2.020725942163685
 10
40.13003048136528
 20
-2.523635995714036
 10
40.7788480710282
 20
-3.031088913245529
  0
LWPOLYLINE
  5
12E
330
F1
100
AcDbEntity
  8
AM_4
100
AcDbPolyline
 90
        4
 70
     0
 43
0.0
 10
38.46660889654819
 20
0.0000000000000062
 10
38.48260370859559
 20
0.7733444473987374
 10
38.52847399632882
 20
1.546688894797469
 10
38.56919707630117
 20
2.020725942163696
  0
LWPOLYLINE
  5
12F
330
F1
100
AcDbEntity
  8
AM_4
100
AcDbPolyline
 90
        3
 70
     0
 43
0.0
 10
38.56919707630117
 20
-2.020725942163685
 10
38.49392612799171
 20
-1.014905835062981
 10
38.46660889654819
 20
0.0000000000000062
  0
LINE
  5
130
330
F1
100
AcDbEntity
  8
AM_4
100
AcDbLine
 10
39.43882302419876
 20
-2.020725942163685
 30
0.0
 11
38.56919707630117
 21
-2.020725942163685
 31
0.0
  0
LWPOLYLINE
  5
131
330
F1
100
AcDbEntity
  8
AM_4
100
AcDbPolyline
 90
        3
 70
     0
 43
0.0
 10
39.54141120395174
 20
0.0000000000000062
 10
39.51433319142279
 20
-1.010362971081839
 10
39.43882302419876
 20
-2.020725942163685
  0
LWPOLYLINE
  5
132
330
F1
100
AcDbEntity
  8
AM_4
100
AcDbPolyline
 90
        4
 70
     0
 43
0.0
 10
39.43882302419876
 20
2.020725942163696
 10
39.47954610417111
 20
1.546688894797469
 10
39.52532331611985
 20
0.7756181668409046
 10
39.54141120395174
 20
0.0000000000000062
  0
LINE
  5
133
330
F1
100
AcDbEntity
  8
AM_4
100
AcDbLine
 10
41.91369675835168
 20
4.041451884327386
 30
0.0
 11
41.04407081045408
 21
4.041451884327386
 31
0.0
  0
LWPOLYLINE
  5
134
330
F1
100
AcDbEntity
  8
AM_4
100
AcDbPolyline
 90
        3
 70
     0
 43
0.0
 10
39.70404576362464
 20
3.031088913245541
 10
40.34984220969183
 20
3.536270398786464
 10
41.04407081045408
 20
4.041451884327386
  0
LWPOLYLINE
  5
135
330
F1
100
AcDbEntity
  8
AM_4
100
AcDbPolyline
 90
        3
 70
     0
 43
0.0
 10
38.56919707630117
 20
2.020725942163696
 10
39.10986263684877
 20
2.523635995714048
 10
39.70404576362464
 20
3.031088913245541
  0
LINE
  5
136
330
F1
100
AcDbEntity
  8
AM_4
100
AcDbLine
 10
39.43882302419876
 20
2.020725942163696
 30
0.0
 11
38.56919707630117
 21
2.020725942163696
 31
0.0
  0
LWPOLYLINE
  5
137
330
F1
100
AcDbEntity
  8
AM_4
100
AcDbPolyline
 90
        3
 70
     0
 43
0.0
 10
40.7788480710282
 20
3.031088913245541
 10
40.13305162496102
 20
2.525907427704619
 10
39.43882302419876
 20
2.020725942163696
  0
LWPOLYLINE
  5
138
330
F1
100
AcDbEntity
  8
AM_4
100
AcDbPolyline
 90
        3
 70
     0
 43
0.0
 10
41.91369675835168
 20
4.041451884327386
 10
41.37303119780407
 20
3.538541830777035
 10
40.7788480710282
 20
3.031088913245541
  0
ELLIPSE
  5
139
330
F1
100
AcDbEntity
  8
AM_4
100
AcDbEllipse
 10
42.01628493810473
 20
-0.000000000000016
 30
0.0
 11
2.143131898507888E-16
 21
3.500000000000032
 31
0.0
210
0.0
220
0.0
230
1.0
 40
0.707106781186557
 41
5.574451427330118
 42
10.13351184061886
  0
ELLIPSE
  5
13A
330
F1
100
AcDbEntity
  8
AM_4
100
AcDbEllipse
 10
42.73274185655676
 20
0.0000000000000173
 30
0.0
 11
1.522711690942027E-16
 21
2.48677690906831
 31
0.0
210
0.0
220
0.0
230
1.0
 40
0.7071067811865721
 41
5.984242208655868
 42
9.723721059293101
  0
LINE
  5
13B
330
F1
100
AcDbEntity
  8
AM_4
100
AcDbLine
 10
42.77729727755038
 20
-2.023641373606679
 30
0.0
 11
43.99275463268944
 21
-2.929726987111131
 31
0.0
  0
LINE
  5
13C
330
F1
100
AcDbEntity
  8
AM_4
100
AcDbLine
 10
43.99275463268944
 20
2.929726987111144
 30
0.0
 11
42.77729727755038
 21
2.023641373606691
 31
0.0
  0
ELLIPSE
  5
13D
330
F1
100
AcDbEntity
  8
AM_4
100
AcDbEllipse
 10
43.53157809528735
 20
0.000000000000006
 30
0.0
 11
1.400736253841408E-16
 21
2.287575903218226
 31
0.0
210
0.0
220
0.0
230
1.0
 40
0.7071067811865475
 41
0.4851122464737747
 42
2.656480407116019
  0
LWPOLYLINE
  5
13E
330
F1
100
AcDbEntity
  8
AM_4
100
AcDbPolyline
 90
        7
 70
     0
 43
0.0
 10
45.38360099554829
 20
3.405530439901167
 10
45.16673681299638
 20
3.394836340526387
 10
44.86591148445431
 20
3.344075510167631
 10
44.57417981753115
 20
3.252999823617982
 10
44.29411535476607
 20
3.123075334241673
 10
44.02805475965566
 20
2.955584246763205
 10
43.95639106280233
 20
2.902123705186933
  0
LWPOLYLINE
  5
13F
330
F1
100
AcDbEntity
  8
AM_4
100
AcDbPolyline
 90
       11
 70
     0
 43
0.0
 10
43.98644339749132
 20
-2.925007358027322
 10
44.1726470416794
 20
-3.052361922348725
 10
44.46437923892059
 20
-3.207297270686456
 10
44.76652344729806
 20
-3.317832226027104
 10
45.07403621085354
 20
-3.383699575783696
 10
45.38239856049574
 20
-3.405530111711358
 10
45.6876799017932
 20
-3.384469140671313
 10
45.98620240629855
 20
-3.321955946638084
 10
46.27482618841582
 20
-3.219572194655704
 10
46.55110220851969
 20
-3.078723708958506
 10
46.68985731925405
 20
-2.990190168244602
  0
LWPOLYLINE
  5
140
330
F1
100
AcDbEntity
  8
AM_4
100
AcDbPolyline
 90
        6
 70
     0
 43
0.0
 10
46.6741630191345
 20
3.00085153059604
 10
46.51210020543412
 20
3.101366547719519
 10
46.21683608365235
 20
3.243639167613603
 10
45.91265320898311
 20
3.341318804320238
 10
45.60445933023877
 20
3.394438060563288
 10
45.38360099554829
 20
3.405530439901167
  0
ELLIPSE
  5
141
330
F1
100
AcDbEntity
  8
AM_4
100
AcDbEllipse
 10
45.08476475681818
 20
0.0000000000000102
 30
0.0
 11
2.027916041956631E-16
 21
3.311838226937833
 31
0.0
210
0.0
220
0.0
230
1.0
 40
0.7071067811865471
 41
0.4998677645426248
 42
2.654119900421305
  0
ELLIPSE
  5
142
330
F1
100
AcDbEntity
  8
AM_4
100
AcDbEllipse
 10
45.0847647569462
 20
0.0000000000056239
 30
0.0
 11
2.027916041952550E-16
 21
3.311838226931168
 31
0.0
210
0.0
220
0.0
230
1.0
 40
0.707106781204928
 41
0.4851122465122115
 42
0.4998677645804802
  0
ELLIPSE
  5
143
330
F1
100
AcDbEntity
  8
AM_4
100
AcDbEllipse
 10
47.13785935423881
 20
0.0000000000000064
 30
0.0
 11
-3.872094701371913E-16
 21
-2.107870178878142
 31
0.0
210
0.0
220
0.0
230
1.0
 40
0.7071067811865464
 41
0.0
 42
6.283185307179586
  0
LWPOLYLINE
  5
144
330
F1
100
AcDbEntity
  8
AM_4
100
AcDbPolyline
 90
        3
 70
     0
 43
0.0
 10
47.84665038845847
 20
2.212055049340043
 10
47.79619066267671
 20
2.251939530782892
 10
47.73518936737504
 20
2.296657593539202
  0
LWPOLYLINE
  5
145
330
F1
100
AcDbEntity
  8
AM_4
100
AcDbPolyline
 90
       18
 70
     0
 43
0.0
 10
47.70295197740244
 20
-2.318817199062297
 10
47.82265802478933
 20
-2.231356209324262
 10
48.02931646340387
 20
-2.043052360787685
 10
48.21654548154583
 20
-1.82057752890541
 10
48.38097826011125
 20
-1.56718987831655
 10
48.51951509449705
 20
-1.287198339369197
 10
48.629654695867
 20
-0.98563004593373
 10
48.70958605083376
 20
-0.6679071084051033
 10
48.75817460526758
 20
-0.3394107293164184
 10
48.77479111963672
 20
-0.0053695344906907
 10
48.75917826134894
 20
0.3290475168446789
 10
48.71140583034813
 20
0.6586837636886278
 10
48.63185056290709
 20
0.9784418451853696
 10
48.52116981027859
 20
1.283320278492377
 10
48.38033972566704
 20
1.568313202830654
 10
48.21084834369019
 20
1.828251086744981
 10
48.01501100807003
 20
2.057819414987615
 10
47.84665038845847
 20
2.212055049340043
  0
ELLIPSE
  5
146
330
F1
100
AcDbEntity
  8
AM_4
100
AcDbEllipse
 10
45.65988962612357
 20
-0.0000000000000431
 30
0.0
 11
2.036609237928339E-16
 21
3.326035293353652
 31
0.0
210
0.0
220
0.0
230
1.0
 40
0.7071067811865581
 41
5.844803532225531
 42
9.863159735723446
  0
ELLIPSE
  5
147
330
F1
100
AcDbEntity
  8
AM_4
100
AcDbEllipse
 10
46.92245027893333
 20
-0.0000000000001057
 30
0.0
 11
1.572521564385740E-16
 21
2.568122605604474
 31
0.0
210
0.0
220
0.0
230
1.0
 40
0.7071067811865389
 41
5.844803532225625
 42
9.863159735723379
  0
LINE
  5
148
330
F1
100
AcDbEntity
  8
AM_4
100
AcDbLine
 10
47.69326976477416
 20
2.32528027513075
 30
0.0
 11
46.65819586318445
 21
3.011524545263596
 31
0.0
  0
LINE
  5
149
330
F1
100
AcDbEntity
  8
AM_4
100
AcDbLine
 10
46.65819586318445
 20
-3.011524545263583
 30
0.0
 11
47.69326976477416
 21
-2.325280275130737
 31
0.0
  0
ELLIPSE
  5
14A
330
F1
100
AcDbEntity
  8
AM_4
100
AcDbEllipse
 10
46.92245027897593
 20
-0.0000000000365419
 30
0.0
 11
1.572521564410554E-16
 21
2.568122605644998
 31
0.0
210
0.0
220
0.0
230
1.0
 40
0.7071067811773123
 41
-0.4610700540370187
 42
-0.4383817749317114
  0
ENDBLK
  5
F4
330
F1
100
AcDbEntity
  8
0
100
AcDbBlockEnd
  0
BLOCK
  5
14D
330
14B
100
AcDbEntity
  8
0
100
AcDbBlockBegin
  2
4_125692__0_in_125692_4
 70
     2
 10
0.0
 20
0.0
 30
0.0
  3
4_125692__0_in_125692_4
  1

  0
ATTDEF
  5
14F
330
14B
100
AcDbEntity
  8
AM_6
100
AcDbText
 10
108.2
 20
31.46
 30
0.0
 40
0.5
  1
P2B-VSC -Metric - Body
100
AcDbAttributeDefinition
  3

  2
NN
 70
     8
280
     0
  0
ATTDEF
  5
150
330
14B
100
AcDbEntity
  8
AM_6
100
AcDbText
 10
108.2
 20
30.96
 30
0.0
 40
0.5
  1
VSC Intermediate Duty Pillow Blocks
100
AcDbAttributeDefinition
  3

  2
NT
 70
     8
280
     0
  0
ATTDEF
  5
151
330
14B
100
AcDbEntity
  8
AM_6
100
AcDbText
 10
108.2
 20
30.46
 30
0.0
 40
0.5
  1
125692+
100
AcDbAttributeDefinition
  3

  2
NB
 70
     8
280
     0
  0
ATTDEF
  5
152
330
14B
100
AcDbEntity
  8
AM_6
100
AcDbText
 10
108.2
 20
29.96
 30
0.0
 40
0.5
  1
$PN.
100
AcDbAttributeDefinition
  3

  2
NBSYN
 70
     8
280
     0
  0
ATTDEF
  5
153
330
14B
100
AcDbEntity
  8
AM_6
100
AcDbText
 10
108.2
 20
29.46
 30
0.0
 40
0.5
  1
125692+
100
AcDbAttributeDefinition
  3

  2
LINA
 70
     8
280
     0
  0
ATTDEF
  5
154
330
14B
100
AcDbEntity
  8
AM_6
100
AcDbText
 10
108.2
 20
28.96
 30
0.0
 40
0.5
  1
210
100
AcDbAttributeDefinition
  3

  2
RS
 70
     8
280
     0
  0
ATTDEF
  5
155
330
14B
100
AcDbEntity
  8
AM_6
100
AcDbText
 10
108.2
 20
28.46
 30
0.0
 40
0.5
  1
50
100
AcDbAttributeDefinition
  3

  2
SS
 70
     8
280
     0
  0
ATTDEF
  5
156
330
14B
100
AcDbEntity
  8
AM_6
100
AcDbText
 10
108.2
 20
27.96
 30
0.0
 40
0.5
  1
125692+
100
AcDbAttributeDefinition
  3

  2
PN
 70
     8
280
     0
  0
ATTDEF
  5
157
330
14B
100
AcDbEntity
  8
AM_6
100
AcDbText
 10
108.2
 20
27.46
 30
0.0
 40
0.5
  1
P2B-VSC-50M
100
AcDbAttributeDefinition
  3

  2
DESCRIPTION
 70
     8
280
     0
  0
ATTDEF
  5
158
330
14B
100
AcDbEntity
  8
AM_6
100
AcDbText
 10
108.2
 20
26.96
 30
0.0
 40
0.5
  1
RE-LUBE
100
AcDbAttributeDefinition
  3

  2
LF
 70
     8
280
     0
  0
ATTDEF
  5
159
330
14B
100
AcDbEntity
  8
AM_6
100
AcDbText
 10
108.2
 20
26.46
 30
0.0
 40
0.5
  1
49.3
100
AcDbAttributeDefinition
  3

  2
A
 70
     8
280
     0
  0
ATTDEF
  5
15A
330
14B
100
AcDbEntity
  8
AM_6
100
AcDbText
 10
108.2
 20
25.96
 30
0.0
 40
0.5
  1
206.4
100
AcDbAttributeDefinition
  3

  2
B
 70
     8
280
     0
  0
ATTDEF
  5
15B
330
14B
100
AcDbEntity
  8
AM_6
100
AcDbText
 10
108.2
 20
25.46
 30
0.0
 40
0.5
  1
57.2
100
AcDbAttributeDefinition
  3

  2
C
 70
     8
280
     0
  0
ATTDEF
  5
15C
330
14B
100
AcDbEntity
  8
AM_6
100
AcDbText
 10
108.2
 20
24.96
 30
0.0
 40
0.5
  1
152.4
100
AcDbAttributeDefinition
  3

  2
DMIN
 70
     8
280
     0
  0
ATTDEF
  5
15D
330
14B
100
AcDbEntity
  8
AM_6
100
AcDbText
 10
108.2
 20
24.46
 30
0.0
 40
0.5
  1
169.7
100
AcDbAttributeDefinition
  3

  2
DMAX
 70
     8
280
     0
  0
ATTDEF
  5
15E
330
14B
100
AcDbEntity
  8
AM_6
100
AcDbText
 10
108.2
 20
23.96
 30
0.0
 40
0.5
  1
M16
100
AcDbAttributeDefinition
  3

  2
F
 70
     8
280
     0
  0
ATTDEF
  5
15F
330
14B
100
AcDbEntity
  8
AM_6
100
AcDbText
 10
108.2
 20
23.46
 30
0.0
 40
0.5
  1
25.9
100
AcDbAttributeDefinition
  3

  2
G
 70
     8
280
     0
  0
ATTDEF
  5
160
330
14B
100
AcDbEntity
  8
AM_6
100
AcDbText
 10
108.2
 20
22.96
 30
0.0
 40
0.5
  1
19.1
100
AcDbAttributeDefinition
  3

  2
H
 70
     8
280
     0
  0
ATTDEF
  5
161
330
14B
100
AcDbEntity
  8
AM_6
100
AcDbText
 10
108.2
 20
22.46
 30
0.0
 40
0.5
  1
115.1
100
AcDbAttributeDefinition
  3

  2
J
 70
     8
280
     0
  0
ATTDEF
  5
162
330
14B
100
AcDbEntity
  8
AM_6
100
AcDbText
 10
108.2
 20
21.96
 30
0.0
 40
0.5
  1
61.7
100
AcDbAttributeDefinition
  3

  2
L
 70
     8
280
     0
  0
ATTDEF
  5
163
330
14B
100
AcDbEntity
  8
AM_6
100
AcDbText
 10
108.2
 20
21.46
 30
0.0
 40
0.5
  1
57.2
100
AcDbAttributeDefinition
  3

  2
M
 70
     8
280
     0
  0
ATTDEF
  5
164
330
14B
100
AcDbEntity
  8
AM_6
100
AcDbText
 10
108.2
 20
20.96
 30
0.0
 40
0.5
  1
19.1
100
AcDbAttributeDefinition
  3

  2
R
 70
     8
280
     0
  0
ATTDEF
  5
165
330
14B
100
AcDbEntity
  8
AM_6
100
AcDbText
 10
108.2
 20
20.46
 30
0.0
 40
0.5
  1
30.2
100
AcDbAttributeDefinition
  3

  2
S
 70
     8
280
     0
  0
ATTDEF
  5
166
330
14B
100
AcDbEntity
  8
AM_6
100
AcDbText
 10
108.2
 20
19.96
 30
0.0
 40
0.5
  1
93.7
100
AcDbAttributeDefinition
  3

  2
U
 70
     8
280
     0
  0
ATTDEF
  5
167
330
14B
100
AcDbEntity
  8
AM_6
100
AcDbText
 10
108.2
 20
19.46
 30
0.0
 40
0.5
  1
187.5
100
AcDbAttributeDefinition
  3

  2
V
 70
     8
280
     0
  0
ATTDEF
  5
168
330
14B
100
AcDbEntity
  8
AM_6
100
AcDbText
 10
108.2
 20
18.96
 30
0.0
 40
0.5
  1
20.6
100
AcDbAttributeDefinition
  3

  2
W
 70
     8
280
     0
  0
ATTDEF
  5
169
330
14B
100
AcDbEntity
  8
AM_6
100
AcDbText
 10
108.2
 20
18.46
 30
0.0
 40
0.5
  1
3.0
100
AcDbAttributeDefinition
  3

  2
X
 70
     8
280
     0
  0
ATTDEF
  5
16A
330
14B
100
AcDbEntity
  8
AM_6
100
AcDbText
 10
108.2
 20
17.96
 30
0.0
 40
0.5
  1
baldor
100
AcDbAttributeDefinition
  3

  2
COMPANY
 70
     8
280
     0
  0
LINE
  5
16B
330
14B
100
AcDbEntity
  8
AM_9
100
AcDbLine
 10
-45.0
 20
-25.33333333333334
 30
0.0
 11
-44.99999999999996
 21
25.33333333333334
 31
0.0
  0
LINE
  5
16C
330
14B
100
AcDbEntity
  8
AM_9
100
AcDbLine
 10
-43.49999999999999
 20
-23.83333333333334
 30
0.0
 11
-43.49999999999996
 21
23.83333333333333
 31
0.0
  0
LINE
  5
16D
330
14B
100
AcDbEntity
  8
AM_9
100
AcDbLine
 10
44.99999999999996
 20
-25.33333333333334
 30
0.0
 11
45.0
 21
25.33333333333334
 31
0.0
  0
LINE
  5
16E
330
14B
100
AcDbEntity
  8
AM_9
100
AcDbLine
 10
43.49999999999996
 20
-23.83333333333333
 30
0.0
 11
43.49999999999999
 21
23.83333333333334
 31
0.0
  0
LINE
  5
16F
330
14B
100
AcDbEntity
  8
AM_9
100
AcDbLine
 10
-30.84999999999999
 20
-23.83333333333334
 30
0.0
 11
30.84999999999999
 21
-23.83333333333333
 31
0.0
  0
LINE
  5
170
330
14B
100
AcDbEntity
  8
AM_7
100
AcDbLine
 10
-95.325
 20
-20.60000000000001
 30
0.0
 11
-92.175
 21
-20.60000000000001
 31
0.0
  0
LINE
  5
171
330
14B
100
AcDbEntity
  8
AM_7
100
AcDbLine
 10
-93.75
 20
-22.17500000000001
 30
0.0
 11
-93.75
 21
-19.02500000000001
 31
0.0
  0
LINE
  5
172
330
14B
100
AcDbEntity
  8
AM_7
100
AcDbLine
 10
92.175
 20
-20.59999999999999
 30
0.0
 11
95.325
 21
-20.59999999999999
 31
0.0
  0
LINE
  5
173
330
14B
100
AcDbEntity
  8
AM_7
100
AcDbLine
 10
93.75
 20
-22.17499999999999
 30
0.0
 11
93.75
 21
-19.025
 31
0.0
  0
LINE
  5
174
330
14B
100
AcDbEntity
  8
AM_7
100
AcDbLine
 10
0.0
 20
31.46
 30
0.0
 11
0.0
 21
-32.665
 31
0.0
  0
LINE
  5
175
330
14B
100
AcDbEntity
  8
AM_7
100
AcDbLine
 10
67.80000000000001
 20
0.0000000000000027
 30
0.0
 11
93.25000000000003
 21
0.0000000000000426
 31
0.0
  0
LINE
  5
176
330
14B
100
AcDbEntity
  8
AM_7
100
AcDbLine
 10
84.85000000000002
 20
-8.399999999999958
 30
0.0
 11
84.85000000000002
 21
8.400000000000043
 31
0.0
  0
LINE
  5
177
330
14B
100
AcDbEntity
  8
AM_7
100
AcDbLine
 10
-93.25000000000003
 20
0.0000000000000009
 30
0.0
 11
-67.80000000000001
 21
0.0000000000000133
 31
0.0
  0
LINE
  5
178
330
14B
100
AcDbEntity
  8
AM_7
100
AcDbLine
 10
-76.20000000000005
 20
-8.400000000000016
 30
0.0
 11
-76.20000000000005
 21
8.400000000000045
 31
0.0
  0
LINE
  5
179
330
14B
100
AcDbEntity
  8
AM_7
100
AcDbLine
 10
-84.85
 20
-8.40000000000003
 30
0.0
 11
-84.85
 21
8.40000000000003
 31
0.0
  0
LINE
  5
17A
330
14B
100
AcDbEntity
  8
AM_7
100
AcDbLine
 10
76.20000000000005
 20
-8.400000000000027
 30
0.0
 11
76.20000000000005
 21
8.400000000000034
 31
0.0
  0
LINE
  5
17B
330
14B
100
AcDbEntity
  8
AM_4
100
AcDbLine
 10
96.84444444444445
 20
28.60000000000001
 30
0.0
 11
46.50000000000004
 21
28.6
 31
0.0
  0
LINE
  5
17C
330
14B
100
AcDbEntity
  8
AM_4
100
AcDbLine
 10
103.2
 20
-22.24444444444444
 30
0.0
 11
103.2
 21
22.24444444444445
 31
0.0
  0
LINE
  5
17D
330
14B
100
AcDbEntity
  8
AM_4
100
AcDbLine
 10
103.2
 20
22.24444444444445
 30
0.0
 11
96.84444444444445
 21
28.60000000000001
 31
0.0
  0
LINE
  5
17E
330
14B
100
AcDbEntity
  8
AM_4
100
AcDbLine
 10
-46.49999999999984
 20
28.6
 30
0.0
 11
-96.84444444444445
 21
28.6
 31
0.0
  0
LINE
  5
17F
330
14B
100
AcDbEntity
  8
AM_4
100
AcDbLine
 10
-103.2
 20
22.24444444444444
 30
0.0
 11
-103.2
 21
-22.24444444444445
 31
0.0
  0
LINE
  5
180
330
14B
100
AcDbEntity
  8
AM_4
100
AcDbLine
 10
-96.84444444444445
 20
28.6
 30
0.0
 11
-103.2
 21
22.24444444444444
 31
0.0
  0
LINE
  5
181
330
14B
100
AcDbEntity
  8
AM_4
100
AcDbLine
 10
96.84444444444445
 20
-28.6
 30
0.0
 11
103.2
 21
-22.24444444444444
 31
0.0
  0
LWPOLYLINE
  5
182
330
14B
100
AcDbEntity
  8
AM_4
100
AcDbPolyline
 90
        9
 70
     0
 43
0.0
 10
103.2
 20
0.0000000000000081
 10
103.1999815113178
 20
0.0260486908526717
 10
103.1660160590272
 20
1.116268661863499
 10
103.0665559286949
 20
2.208979424243768
 10
102.8987834740121
 20
3.311180319497398
 10
102.6612503207767
 20
4.413826232491703
 10
102.2454339301557
 20
5.841350732629253
 10
101.9888052212664
 20
6.556207408821878
 10
101.7
 20
7.266360849833982
  0
LINE
  5
183
330
14B
100
AcDbEntity
  8
AM_4
100
AcDbLine
 10
-103.2
 20
-22.24444444444445
 30
0.0
 11
-96.84444444444445
 21
-28.60000000000001
 31
0.0
  0
LWPOLYLINE
  5
184
330
14B
100
AcDbEntity
  8
AM_4
100
AcDbPolyline
 90
       10
 70
     0
 43
0.0
 10
-101.7
 20
7.266360849833949
 10
-101.983608342096
 20
6.569693262491278
 10
-102.2375897347153
 20
5.864658832125198
 10
-102.4650044010433
 20
5.141376679232244
 10
-102.6612503207767
 20
4.41382623249164
 10
-102.8952308697486
 20
3.330420732932919
 10
-103.0624387864176
 20
2.242671052783113
 10
-103.1648645403017
 20
1.134985501373299
 10
-103.1999815113178
 20
0.0260486908520359
 10
-103.2
 20
0.000000000000021
  0
CIRCLE
  5
185
330
14B
100
AcDbEntity
  8
AM_4
100
AcDbCircle
 10
-93.75
 20
-20.60000000000001
 30
0.0
 40
1.5
  0
LINE
  5
186
330
14B
100
AcDbEntity
  8
AM_4
100
AcDbLine
 10
-76.20000000000002
 20
8.000000000000014
 30
0.0
 11
-84.85000000000001
 21
8.000000000000009
 31
0.0
  0
ARC
  5
187
330
14B
100
AcDbEntity
  8
AM_4
100
AcDbCircle
 10
-76.20000000000002
 20
0.0000000000000071
 30
0.0
 40
8.0
100
AcDbArc
 50
270.0
 51
90.0
  0
LINE
  5
188
330
14B
100
AcDbEntity
  8
AM_4
100
AcDbLine
 10
-84.85000000000001
 20
-7.999999999999998
 30
0.0
 11
-76.2
 21
-7.999999999999993
 31
0.0
  0
ARC
  5
189
330
14B
100
AcDbEntity
  8
AM_4
100
AcDbCircle
 10
-84.85000000000002
 20
0.0000000000000036
 30
0.0
 40
8.000000000000005
100
AcDbArc
 50
90.0
 51
270.0
  0
LINE
  5
18A
330
14B
100
AcDbEntity
  8
AM_4
100
AcDbLine
 10
-84.85000000000001
 20
18.35000000000001
 30
0.0
 11
-72.10399999999996
 21
18.35000000000001
 31
0.0
  0
ARC
  5
18B
330
14B
100
AcDbEntity
  8
AM_4
100
AcDbCircle
 10
-84.85
 20
-0.0000000000000178
 30
0.0
 40
18.35000000000003
100
AcDbArc
 50
90.0
 51
156.6724570906788
  0
LINE
  5
18C
330
14B
100
AcDbEntity
  8
AM_4
100
AcDbLine
 10
-101.7
 20
-23.74444444444443
 30
0.0
 11
-101.7
 21
7.26636084983394
 31
0.0
  0
LINE
  5
18D
330
14B
100
AcDbEntity
  8
AM_4
100
AcDbLine
 10
-46.5
 20
-28.6
 30
0.0
 11
-96.84444444444445
 21
-28.60000000000001
 31
0.0
  0
ARC
  5
18E
330
14B
100
AcDbEntity
  8
AM_4
100
AcDbCircle
 10
-72.10400000000001
 20
20.35000000000004
 30
0.0
 40
2.000000000000032
100
AcDbArc
 50
270.0
 51
0.0
  0
LINE
  5
18F
330
14B
100
AcDbEntity
  8
AM_4
100
AcDbLine
 10
96.84444444444445
 20
-28.6
 30
0.0
 11
46.49999999999995
 21
-28.59999999999999
 31
0.0
  0
CIRCLE
  5
190
330
14B
100
AcDbEntity
  8
AM_4
100
AcDbCircle
 10
93.75
 20
-20.59999999999999
 30
0.0
 40
1.5
  0
LINE
  5
191
330
14B
100
AcDbEntity
  8
AM_4
100
AcDbLine
 10
84.85000000000001
 20
8.000000000000012
 30
0.0
 11
76.20000000000002
 21
8.000000000000005
 31
0.0
  0
ARC
  5
192
330
14B
100
AcDbEntity
  8
AM_4
100
AcDbCircle
 10
84.85000000000002
 20
0.0000000000000036
 30
0.0
 40
7.999999999999998
100
AcDbArc
 50
270.0
 51
90.0
  0
LINE
  5
193
330
14B
100
AcDbEntity
  8
AM_4
100
AcDbLine
 10
76.20000000000002
 20
-7.999999999999995
 30
0.0
 11
84.85
 21
-7.999999999999995
 31
0.0
  0
ARC
  5
194
330
14B
100
AcDbEntity
  8
AM_4
100
AcDbCircle
 10
76.20000000000002
 20
0.0000000000000044
 30
0.0
 40
8.0
100
AcDbArc
 50
90.0
 51
270.0
  0
ARC
  5
195
330
14B
100
AcDbEntity
  8
AM_4
100
AcDbCircle
 10
72.10399999999996
 20
20.34999999999998
 30
0.0
 40
1.999999999999957
100
AcDbArc
 50
180.0
 51
270.0
  0
LINE
  5
196
330
14B
100
AcDbEntity
  8
AM_4
100
AcDbLine
 10
101.7
 20
-23.74444444444443
 30
0.0
 11
101.7
 21
7.266360849833974
 31
0.0
  0
ARC
  5
197
330
14B
100
AcDbEntity
  8
AM_4
100
AcDbCircle
 10
84.85000000000001
 20
0.0000000000000107
 30
0.0
 40
18.35
100
AcDbArc
 50
23.32754290932131
 51
90.0
  0
LINE
  5
198
330
14B
100
AcDbEntity
  8
AM_4
100
AcDbLine
 10
72.10399999999997
 20
18.35000000000002
 30
0.0
 11
84.85
 21
18.35000000000001
 31
0.0
  0
LWPOLYLINE
  5
199
330
14B
100
AcDbEntity
  8
AM_4
100
AcDbPolyline
 90
       30
 70
     0
 43
0.0
 10
70.104
 20
17.30783880211509
 10
68.61871957427765
 20
16.71067584230391
 10
67.1911372702973
 20
15.98633454915085
 10
65.83211785139007
 20
15.14032759726604
 10
64.55200427593213
 20
14.17909361038629
 10
63.36053898118649
 20
13.10994815956068
 10
62.26678973747253
 20
11.94102808723769
 10
61.27908063695879
 20
10.68122958098094
 10
60.40492874229523
 20
9.340140468110155
 10
59.6509868772276
 20
7.927967246546045
 10
59.02299299459158
 20
6.455457407198216
 10
58.52572650702713
 20
4.933817639069851
 10
58.16297191276232
 20
3.374628539587623
 10
57.93748999329672
 20
1.78975647926271
 10
57.85099680218718
 20
0.1912632914460982
 10
57.90415060484403
 20
-1.408685525506351
 10
58.09654686873394
 20
-2.997913395022121
 10
58.42672134211664
 20
-4.564325333412172
 10
58.89216119788492
 20
-6.095999999999968
 10
59.48932415769609
 20
-7.581280425722326
 10
60.21366545084913
 20
-9.008862729702656
 10
61.05967240273395
 20
-10.36788214860991
 10
62.0209063896137
 20
-11.64799572406783
 10
63.09005184043931
 20
-12.83946101881349
 10
64.25897191276229
 20
-13.93321026252745
 10
65.51877041901905
 20
-14.92091936304119
 10
66.85985953188982
 20
-15.79507125770475
 10
68.27203275345393
 20
-16.54901312277239
 10
69.74454259280178
 20
-17.17700700540841
 10
70.10399999999998
 20
-17.30783880211507
  0
LINE
  5
19A
330
14B
100
AcDbEntity
  8
AM_4
100
AcDbLine
 10
70.104
 20
17.30783880211508
 30
0.0
 11
70.104
 21
28.6
 31
0.0
  0
LINE
  5
19B
330
14B
100
AcDbEntity
  8
AM_4
100
AcDbLine
 10
70.10400000000003
 20
-28.6
 30
0.0
 11
70.104
 21
-17.30783880211507
 31
0.0
  0
LWPOLYLINE
  5
19C
330
14B
100
AcDbEntity
  8
AM_4
100
AcDbPolyline
 90
       30
 70
     0
 43
0.0
 10
-70.104
 20
-17.30783880211508
 10
-68.61871957427765
 20
-16.71067584230391
 10
-67.1911372702973
 20
-15.98633454915085
 10
-65.83211785139007
 20
-15.14032759726604
 10
-64.55200427593213
 20
-14.17909361038628
 10
-63.36053898118649
 20
-13.10994815956068
 10
-62.26678973747253
 20
-11.9410280872377
 10
-61.27908063695879
 20
-10.68122958098094
 10
-60.40492874229523
 20
-9.340140468110155
 10
-59.6509868772276
 20
-7.927967246546046
 10
-59.02299299459158
 20
-6.455457407198215
 10
-58.52572650702713
 20
-4.933817639069851
 10
-58.16297191276232
 20
-3.374628539587623
 10
-57.93748999329672
 20
-1.78975647926271
 10
-57.85099680218718
 20
-0.1912632914460983
 10
-57.90415060484403
 20
1.408685525506351
 10
-58.09654686873393
 20
2.99791339502212
 10
-58.42672134211664
 20
4.564325333412172
 10
-58.89216119788492
 20
6.095999999999968
 10
-59.48932415769608
 20
7.581280425722325
 10
-60.21366545084913
 20
9.008862729702656
 10
-61.05967240273394
 20
10.36788214860991
 10
-62.0209063896137
 20
11.64799572406783
 10
-63.09005184043929
 20
12.83946101881349
 10
-64.25897191276229
 20
13.93321026252745
 10
-65.51877041901905
 20
14.92091936304119
 10
-66.85985953188982
 20
15.79507125770475
 10
-68.27203275345393
 20
16.5490131227724
 10
-69.74454259280176
 20
17.17700700540841
 10
-70.104
 20
17.30783880211508
  0
LINE
  5
19D
330
14B
100
AcDbEntity
  8
AM_4
100
AcDbLine
 10
-70.10399999999986
 20
-28.6
 30
0.0
 11
-70.104
 21
-17.30783880211508
 31
0.0
  0
LINE
  5
19E
330
14B
100
AcDbEntity
  8
AM_4
100
AcDbLine
 10
-70.104
 20
17.30783880211507
 30
0.0
 11
-70.10399999999997
 21
28.6
 31
0.0
  0
LINE
  5
19F
330
14B
100
AcDbEntity
  8
AM_4
100
AcDbLine
 10
30.84999999999999
 20
-23.83333333333333
 30
0.0
 11
43.49999999999996
 21
-23.83333333333333
 31
0.0
  0
LINE
  5
1A0
330
14B
100
AcDbEntity
  8
AM_4
100
AcDbLine
 10
-43.49999999999999
 20
-23.83333333333334
 30
0.0
 11
-30.84999999999999
 21
-23.83333333333334
 31
0.0
  0
LWPOLYLINE
  5
1A1
330
14B
100
AcDbEntity
  8
AM_4
100
AcDbPolyline
 90
        3
 70
     0
 43
0.0
 10
44.17134026136456
 20
-23.99195260681647
 10
43.86101089539396
 20
-23.87742429310903
 10
43.49999999999996
 20
-23.83333333333333
  0
LWPOLYLINE
  5
1A2
330
14B
100
AcDbEntity
  8
AM_4
100
AcDbPolyline
 90
        4
 70
     0
 43
0.0
 10
44.96232824873974
 20
-24.99927331935735
 10
44.79373329943526
 20
-24.57421927738899
 10
44.53492341768276
 20
-24.24714769971657
 10
44.17134026136456
 20
-23.99195260681647
  0
LWPOLYLINE
  5
1A3
330
14B
100
AcDbEntity
  8
AM_4
100
AcDbPolyline
 90
        4
 70
     0
 43
0.0
 10
-44.17134026136458
 20
-23.99195260681647
 10
-44.53159888271168
 20
-24.24400250876809
 10
-44.78929843629002
 20
-24.56671116943502
 10
-44.96232824873977
 20
-24.99927331935731
  0
LWPOLYLINE
  5
1A4
330
14B
100
AcDbEntity
  8
AM_4
100
AcDbPolyline
 90
        3
 70
     0
 43
0.0
 10
-43.49999999999999
 20
-23.83333333333334
 10
-43.85988390403178
 20
-23.87714530439654
 10
-44.17134026136458
 20
-23.99195260681647
  0
LINE
  5
1A5
330
14B
100
AcDbEntity
  8
AM_4
100
AcDbLine
 10
43.49999999999999
 20
23.83333333333334
 30
0.0
 11
-43.49999999999996
 21
23.83333333333334
 31
0.0
  0
LWPOLYLINE
  5
1A6
330
14B
100
AcDbEntity
  8
AM_4
100
AcDbPolyline
 90
        3
 70
     0
 43
0.0
 10
-44.17134026136456
 20
23.99195260681648
 10
-43.86101089539396
 20
23.87742429310904
 10
-43.49999999999996
 20
23.83333333333334
  0
LWPOLYLINE
  5
1A7
330
14B
100
AcDbEntity
  8
AM_4
100
AcDbPolyline
 90
        4
 70
     0
 43
0.0
 10
-44.96232824873974
 20
24.99927331935737
 10
-44.7937332994354
 20
24.57421927738925
 10
-44.53492341768285
 20
24.24714769971668
 10
-44.17134026136456
 20
23.99195260681648
  0
LWPOLYLINE
  5
1A8
330
14B
100
AcDbEntity
  8
AM_4
100
AcDbPolyline
 90
        4
 70
     0
 43
0.0
 10
44.17134026136458
 20
23.99195260681648
 10
44.53159888271168
 20
24.2440025087681
 10
44.78929843629002
 20
24.56671116943503
 10
44.96232824873977
 20
24.99927331935731
  0
LWPOLYLINE
  5
1A9
330
14B
100
AcDbEntity
  8
AM_4
100
AcDbPolyline
 90
        3
 70
     0
 43
0.0
 10
43.49999999999999
 20
23.83333333333334
 10
43.85988390403178
 20
23.87714530439655
 10
44.17134026136458
 20
23.99195260681648
  0
LWPOLYLINE
  5
1AA
330
14B
100
AcDbEntity
  8
AM_4
100
AcDbPolyline
 90
       37
 70
     0
 43
0.0
 10
-45.0
 20
-24.81645833333333
 10
-44.82876141412854
 20
-24.42698110792973
 10
-44.31634888554936
 20
-24.04046803938423
 10
-43.46666218300808
 20
-23.65986072553144
 10
-42.28616793536588
 20
-23.28805581784675
 10
-40.78385041664926
 20
-22.92788297617958
 10
-38.97114317029975
 20
-22.58208333333333
 10
-36.86184199300466
 20
-22.25328863338959
 10
-34.47199994035404
 20
-21.94400120254661
 10
-31.81980515339467
 20
-21.65657490490595
 10
-28.92544243589431
 20
-21.3931972281454
 10
-25.81093963579712
 20
-21.1558726354169
 10
-22.50000000000005
 20
-20.94640731017162
 10
-19.01782177833153
 20
-20.7663954100133
 10
-15.39090644965516
 20
-20.6172069341963
 10
-11.64685702961351
 20
-20.49997729710405
 10
-7.814167995011946
 20
-20.41559868706002
 10
-3.922008423644704
 20
-20.36471327623584
 10
-0.000000000000091
 20
-20.34770833333333
 10
3.922008423644523
 20
-20.36471327623584
 10
7.814167995011768
 20
-20.41559868706002
 10
11.64685702961333
 20
-20.49997729710405
 10
15.39090644965499
 20
-20.6172069341963
 10
19.01782177833137
 20
-20.76639541001329
 10
22.49999999999989
 20
-20.94640731017161
 10
25.81093963579697
 20
-21.15587263541689
 10
28.92544243589417
 20
-21.39319722814538
 10
31.81980515339455
 20
-21.65657490490593
 10
34.47199994035392
 20
-21.94400120254659
 10
36.86184199300455
 20
-22.25328863338958
 10
38.97114317029966
 20
-22.58208333333332
 10
40.78385041664919
 20
-22.92788297617956
 10
42.28616793536582
 20
-23.28805581784673
 10
43.46666218300803
 20
-23.65986072553142
 10
44.31634888554933
 20
-24.04046803938422
 10
44.82876141412853
 20
-24.42698110792971
 10
45.0
 20
-24.81645833333331
  0
LINE
  5
1AB
330
14B
100
AcDbEntity
  8
AM_4
100
AcDbLine
 10
45.0
 20
-24.81645833333333
 30
0.0
 11
44.96232824873975
 21
-24.99927331935735
 31
0.0
  0
LWPOLYLINE
  5
1AC
330
14B
100
AcDbEntity
  8
AM_4
100
AcDbPolyline
 90
       37
 70
     0
 43
0.0
 10
45.0
 20
24.81645833333333
 10
44.82876141412854
 20
24.42698110792973
 10
44.31634888554936
 20
24.04046803938423
 10
43.46666218300808
 20
23.65986072553144
 10
42.28616793536588
 20
23.28805581784675
 10
40.78385041664925
 20
22.92788297617958
 10
38.97114317029975
 20
22.58208333333333
 10
36.86184199300465
 20
22.25328863338959
 10
34.47199994035403
 20
21.94400120254661
 10
31.81980515339467
 20
21.65657490490595
 10
28.92544243589431
 20
21.3931972281454
 10
25.81093963579712
 20
21.1558726354169
 10
22.50000000000005
 20
20.94640731017162
 10
19.01782177833153
 20
20.7663954100133
 10
15.39090644965516
 20
20.61720693419631
 10
11.6468570296135
 20
20.49997729710406
 10
7.814167995011942
 20
20.41559868706003
 10
3.922008423644698
 20
20.36471327623584
 10
0.0000000000000854
 20
20.34770833333333
 10
-3.922008423644528
 20
20.36471327623584
 10
-7.814167995011773
 20
20.41559868706002
 10
-11.64685702961334
 20
20.49997729710405
 10
-15.390906449655
 20
20.6172069341963
 10
-19.01782177833137
 20
20.7663954100133
 10
-22.4999999999999
 20
20.94640731017162
 10
-25.81093963579698
 20
21.15587263541689
 10
-28.92544243589417
 20
21.39319722814539
 10
-31.81980515339455
 20
21.65657490490594
 10
-34.47199994035392
 20
21.9440012025466
 10
-36.86184199300455
 20
22.25328863338958
 10
-38.97114317029966
 20
22.58208333333332
 10
-40.78385041664919
 20
22.92788297617956
 10
-42.28616793536582
 20
23.28805581784673
 10
-43.46666218300803
 20
23.65986072553142
 10
-44.31634888554933
 20
24.04046803938422
 10
-44.82876141412853
 20
24.42698110792971
 10
-45.0
 20
24.81645833333331
  0
LINE
  5
1AD
330
14B
100
AcDbEntity
  8
AM_4
100
AcDbLine
 10
-45.0
 20
24.81645833333333
 30
0.0
 11
-44.96232824873974
 21
24.99927331935736
 31
0.0
  0
LWPOLYLINE
  5
1AE
330
14B
100
AcDbEntity
  8
AM_4
100
AcDbPolyline
 90
        4
 70
     0
 43
0.0
 10
-44.96232824873977
 20
-24.99927331935731
 10
-44.98587889690472
 20
-25.12799482322576
 10
-44.99812110946602
 20
-25.25827907714291
 10
-45.0
 20
-25.33333333333334
  0
LINE
  5
1AF
330
14B
100
AcDbEntity
  8
AM_4
100
AcDbLine
 10
-44.96232824873977
 20
-24.99927331935731
 30
0.0
 11
-45.0
 21
-24.81645833333333
 31
0.0
  0
LWPOLYLINE
  5
1B0
330
14B
100
AcDbEntity
  8
AM_4
100
AcDbPolyline
 90
        4
 70
     0
 43
0.0
 10
44.99999999999996
 20
-25.33333333333285
 10
44.99429204713753
 20
-25.20259971921136
 10
44.97721162951819
 20
-25.07286106683246
 10
44.96232824873974
 20
-24.99927331935735
  0
LINE
  5
1B1
330
14B
100
AcDbEntity
  8
AM_4
100
AcDbLine
 10
44.99999999999998
 20
-25.33333333333309
 30
0.0
 11
44.99999999999996
 21
-27.09999999999999
 31
0.0
  0
LWPOLYLINE
  5
1B2
330
14B
100
AcDbEntity
  8
AM_4
100
AcDbPolyline
 90
       19
 70
     0
 43
0.0
 10
44.99999999999996
 20
-27.09999999999999
 10
45.00570795286234
 20
-27.23073361412148
 10
45.02278837048165
 20
-27.36047226650039
 10
45.05111126056635
 20
-27.48822856765377
 10
45.09046106882109
 20
-27.61303021498849
 10
45.14053831944498
 20
-27.73392739261104
 10
45.2009618943233
 20
-27.84999999999999
 10
45.27127193356647
 20
-27.96036465452656
 10
45.35093333532149
 20
-28.0641814145298
 10
45.43933982822013
 20
-28.16066017177981
 10
45.53581858547015
 20
-28.24906666467846
 10
45.63963534547339
 20
-28.32872806643348
 10
45.74999999999995
 20
-28.39903810567665
 10
45.8660726073889
 20
-28.45946168055497
 10
45.98696978501145
 20
-28.50953893117885
 10
46.11177143234617
 20
-28.54888873943359
 10
46.23952773349956
 20
-28.5772116295183
 10
46.36926638587846
 20
-28.59429204713761
 10
46.49999999999995
 20
-28.59999999999999
  0
LINE
  5
1B3
330
14B
100
AcDbEntity
  8
AM_4
100
AcDbLine
 10
70.10400000000003
 20
-28.6
 30
0.0
 11
55.93956665632294
 21
-23.33292877906996
 31
0.0
  0
LINE
  5
1B4
330
14B
100
AcDbEntity
  8
AM_4
100
AcDbLine
 10
-55.93956665632293
 20
-23.33292877906995
 30
0.0
 11
-70.10399999999986
 21
-28.6
 31
0.0
  0
LWPOLYLINE
  5
1B5
330
14B
100
AcDbEntity
  8
AM_4
100
AcDbPolyline
 90
       19
 70
     0
 43
0.0
 10
-46.49999997764826
 20
-28.6
 10
-46.36926636361183
 20
-28.59429204518954
 10
-46.23952771148743
 20
-28.57721162563697
 10
-46.11177141075609
 20
-28.54888873364855
 10
-45.98696976400772
 20
-28.50953892353412
 10
-45.86607258713139
 20
-28.45946167110872
 10
-45.74999998064283
 20
-28.39903809450079
 10
-45.63963532716395
 20
-28.32872805361306
 10
-45.53581856834776
 20
-28.24906665031104
 10
-45.43933981241511
 20
-28.16066015597475
 10
-45.35093332095411
 20
-28.06418139740738
 10
-45.27127192074608
 20
-27.96036463621709
 10
-45.20096188314747
 20
-27.84999998064282
 10
-45.14053830999877
 20
-27.73392737235349
 10
-45.09046106117639
 20
-27.61303019398474
 10
-45.05111125478134
 20
-27.48822854606366
 10
-45.02278836660035
 20
-27.36047224448823
 10
-45.0057079509143
 20
-27.2307335918548
 10
-45.0
 20
-27.1
  0
LINE
  5
1B6
330
14B
100
AcDbEntity
  8
AM_4
100
AcDbLine
 10
-45.0
 20
-27.1
 30
0.0
 11
-45.0
 21
-25.33333333333334
 31
0.0
  0
LWPOLYLINE
  5
1B7
330
14B
100
AcDbEntity
  8
AM_4
100
AcDbPolyline
 90
       32
 70
     0
 43
0.0
 10
55.93956665632295
 20
-23.33292877906996
 10
54.42467668809274
 20
-22.85441434110077
 10
52.49558206774788
 20
-22.39083224262702
 10
50.16696437016837
 20
-21.94571062333662
 10
47.45654578209057
 20
-21.52243712752416
 10
44.38495422556528
 20
-21.12423312207229
 10
40.97556636701531
 20
-20.75412917990466
 10
37.25432970668892
 20
-20.41494201549602
 10
33.24956510251534
 20
-20.10925304797435
 10
28.99175123127528
 20
-19.83938875496251
 10
24.5132926274672
 20
-19.60740296667886
 10
19.84827306523333
 20
-19.41506123504907
 10
15.03219616025807
 20
-19.26382739678997
 10
10.10171516581504
 20
-19.15485243272819
 10
5.094354019377779
 20
-19.08896570814112
 10
0.0482217627979927
 20
-19.06666866078637
 10
-4.998277490513784
 20
-19.08813098465762
 10
-10.00673683408028
 20
-19.15318933851092
 10
-14.93903886810654
 20
-19.26134858899014
 10
-19.7576457959082
 20
-19.41178557889078
 10
-24.42588510921029
 20
-19.60335539188335
 10
-28.90822868807862
 20
-19.83460006601799
 10
-33.17056319136494
 20
-20.10375968969516
 10
-37.18044967983132
 20
-20.40878579565566
 10
-40.90737049606486
 20
-20.74735695105332
 10
-44.32296152227769
 20
-21.11689642496074
 10
-47.4012280483701
 20
-21.51459179884742
 10
-50.11874260737037
 20
-21.93741637078307
 10
-52.45482327260437
 20
-22.38215219046678
 10
-54.39169105964557
 20
-22.84541454977195
 10
-55.91460523512188
 20
-23.3236777424188
 10
-55.93956665632294
 20
-23.33292877906995
  0
LINE
  5
1B8
330
14B
100
AcDbEntity
  8
AM_4
100
AcDbLine
 10
55.93956665632294
 20
-23.33292877906996
 30
0.0
 11
55.93956665632294
 21
23.33292877906996
 31
0.0
  0
LINE
  5
1B9
330
14B
100
AcDbEntity
  8
AM_4
100
AcDbLine
 10
-55.93956665632293
 20
-23.33292877906995
 30
0.0
 11
-55.93956665632294
 21
23.33292877906996
 31
0.0
  0
LWPOLYLINE
  5
1BA
330
14B
100
AcDbEntity
  8
AM_4
100
AcDbPolyline
 90
        4
 70
     0
 43
0.0
 10
44.96232824873977
 20
24.99927331935731
 10
44.98587889690472
 20
25.12799482322577
 10
44.99812110946602
 20
25.25827907714292
 10
45.0
 20
25.33333333333334
  0
LINE
  5
1BB
330
14B
100
AcDbEntity
  8
AM_4
100
AcDbLine
 10
44.96232824873977
 20
24.99927331935731
 30
0.0
 11
45.0
 21
24.81645833333333
 31
0.0
  0
LWPOLYLINE
  5
1BC
330
14B
100
AcDbEntity
  8
AM_4
100
AcDbPolyline
 90
        4
 70
     0
 43
0.0
 10
-44.99999999999996
 20
25.33333333333334
 10
-44.99429204713758
 20
25.20259971921186
 10
-44.97721162951827
 20
25.07286106683295
 10
-44.96232824873974
 20
24.99927331935737
  0
LINE
  5
1BD
330
14B
100
AcDbEntity
  8
AM_4
100
AcDbLine
 10
-44.99999999999996
 20
25.33333333333334
 30
0.0
 11
-45.0
 21
27.09999999999999
 31
0.0
  0
LWPOLYLINE
  5
1BE
330
14B
100
AcDbEntity
  8
AM_4
100
AcDbPolyline
 90
       19
 70
     0
 43
0.0
 10
-44.99999999999996
 20
27.1
 10
-45.00570795286234
 20
27.23073361412149
 10
-45.02278837048165
 20
27.3604722665004
 10
-45.05111126056636
 20
27.48822856765378
 10
-45.09046106882109
 20
27.6130302149885
 10
-45.14053831944499
 20
27.73392739261105
 10
-45.2009618943233
 20
27.85
 10
-45.27127193356647
 20
27.96036465452657
 10
-45.35093333532149
 20
28.06418141452981
 10
-45.43933982822013
 20
28.16066017177982
 10
-45.53581858547015
 20
28.24906666467847
 10
-45.63963534547339
 20
28.32872806643349
 10
-45.74999999999996
 20
28.39903810567666
 10
-45.86607260738891
 20
28.45946168055498
 10
-45.98696978501145
 20
28.50953893117886
 10
-46.11177143234617
 20
28.5488887394336
 10
-46.23952773349956
 20
28.57721162951831
 10
-46.36926638587847
 20
28.59429204713762
 10
-46.49999999999996
 20
28.6
  0
LINE
  5
1BF
330
14B
100
AcDbEntity
  8
AM_4
100
AcDbLine
 10
-70.10399999999997
 20
28.6
 30
0.0
 11
-55.93956665632294
 21
23.33292877906996
 31
0.0
  0
LWPOLYLINE
  5
1C0
330
14B
100
AcDbEntity
  8
AM_4
100
AcDbPolyline
 90
       32
 70
     0
 43
0.0
 10
-55.93956665632294
 20
23.33292877906996
 10
-54.42467668809272
 20
22.85441434110076
 10
-52.49558206774786
 20
22.39083224262701
 10
-50.16696437016832
 20
21.94571062333662
 10
-47.45654578209052
 20
21.52243712752416
 10
-44.38495422556522
 20
21.12423312207229
 10
-40.97556636701525
 20
20.75412917990466
 10
-37.25432970668886
 20
20.41494201549602
 10
-33.24956510251527
 20
20.10925304797435
 10
-28.99175123127521
 20
19.83938875496251
 10
-24.51329262746713
 20
19.60740296667886
 10
-19.84827306523325
 20
19.41506123504907
 10
-15.03219616025799
 20
19.26382739678997
 10
-10.10171516581497
 20
19.15485243272819
 10
-5.094354019377703
 20
19.08896570814112
 10
-0.0482217627979154
 20
19.06666866078638
 10
4.99827749051386
 20
19.08813098465763
 10
10.00673683408036
 20
19.15318933851093
 10
14.93903886810661
 20
19.26134858899015
 10
19.75764579590827
 20
19.41178557889078
 10
24.42588510921036
 20
19.60335539188337
 10
28.90822868807869
 20
19.834600066018
 10
33.17056319136501
 20
20.10375968969517
 10
37.18044967983138
 20
20.40878579565566
 10
40.90737049606491
 20
20.74735695105333
 10
44.32296152227776
 20
21.11689642496075
 10
47.40122804837016
 20
21.51459179884743
 10
50.11874260737043
 20
21.93741637078308
 10
52.45482327260441
 20
22.38215219046679
 10
54.39169105964562
 20
22.84541454977197
 10
55.9146052351219
 20
23.32367774241881
 10
55.93956665632294
 20
23.33292877906995
  0
LINE
  5
1C1
330
14B
100
AcDbEntity
  8
AM_4
100
AcDbLine
 10
55.93956665632294
 20
23.33292877906996
 30
0.0
 11
70.104
 21
28.6
 31
0.0
  0
LWPOLYLINE
  5
1C2
330
14B
100
AcDbEntity
  8
AM_4
100
AcDbPolyline
 90
       19
 70
     0
 43
0.0
 10
46.50000010950071
 20
28.6
 10
46.36926649496255
 20
28.59429205668124
 10
46.23952784133676
 20
28.57721164853292
 10
46.11177153811579
 20
28.54888876777448
 10
45.98696988790851
 20
28.50953896863032
 10
45.86607270663031
 20
28.45946172683199
 10
45.7500000948304
 20
28.39903816042703
 10
45.63963543517117
 20
28.32872812924053
 10
45.53581866935261
 20
28.24906673506418
 10
45.43933990564889
 20
28.16066024920854
 10
45.35093340570725
 20
28.06418149841224
 10
45.27127199637355
 20
27.96036474422432
 10
45.20096194907371
 20
27.85000009483042
 10
45.14053836572203
 20
27.73392749185242
 10
45.09046110627259
 20
27.61303031788554
 10
45.05111128890727
 20
27.48822867342338
 10
45.02278838949629
 20
27.36047237433758
 10
45.005707962406
 20
27.23073372320555
 10
45.00000000000001
 20
27.10000010950075
  0
LINE
  5
1C3
330
14B
100
AcDbEntity
  8
AM_4
100
AcDbLine
 10
45.0
 20
27.10000002235176
 30
0.0
 11
45.0
 21
25.33333333333334
 31
0.0
  0
ENDBLK
  5
14E
330
14B
100
AcDbEntity
  8
0
100
AcDbBlockEnd
  0
ENDSEC
  0
SECTION
  2
ENTITIES
  0
INSERT
  5
6F
330
1F
100
AcDbEntity
  8
0
100
AcDbBlockReference
  2
1_125692_4
 10
0.0
 20
0.0
 30
0.0
  0
POINT
  5
1C5
330
1F
100
AcDbEntity
  8
ConnectionPoints
100
AcDbPoint
 10
40.9414826307011
 20
0.000000000000006
 30
98.14148263070109
  0
POINT
  5
1C6
330
1F
100
AcDbEntity
  8
ConnectionPoints
100
AcDbPoint
 10
0.0
 20
-30.2
 30
57.2
  0
POINT
  5
1C7
330
1F
100
AcDbEntity
  8
ConnectionPoints
100
AcDbPoint
 10
40.9414826307011
 20
0.000000000000006
 30
98.14148263070109
  0
ENDSEC
  0
SECTION
  2
OBJECTS
  0
DICTIONARY
  5
C
330
0
100
AcDbDictionary
281
     1
  3
ACAD_DETAILVIEWSTYLE
350
1CF
  3
ACAD_GROUP
350
D
  3
ACAD_LAYOUT
350
1A
  3
ACAD_MATERIAL
350
43
  3
ACAD_MLEADERSTYLE
350
6B
  3
ACAD_MLINESTYLE
350
17
  3
ACAD_PLOTSETTINGS
350
19
  3
ACAD_PLOTSTYLENAME
350
E
  3
ACAD_SCALELIST
350
47
  3
ACAD_SECTIONVIEWSTYLE
350
1D0
  3
ACAD_TABLESTYLE
350
69
  3
ACAD_VISUALSTYLE
350
2A
  3
ACDB_RECOMPOSE_DATA
350
1CC
  3
AcDbVariableDictionary
350
1C8
  0
SUN
  5
6D
330
29
100
AcDbSun
 90
        1
290
     0
 63
     7
421
 16777215
 40
1.0
291
     1
 91
  2455826
 92
 54000000
292
     0
 70
     2
 71
   256
280
     1
  0
DICTIONARY
  5
1CF
102
{ACAD_REACTORS
330
C
102
}
330
C
100
AcDbDictionary
281
     1
  0
DICTIONARY
  5
D
102
{ACAD_REACTORS
330
C
102
}
330
C
100
AcDbDictionary
281
     1
  0
DICTIONARY
  5
1A
102
{ACAD_REACTORS
330
C
102
}
330
C
100
AcDbDictionary
281
     1
  3
Layout1
350
1E
  3
Layout2
350
26
  3
Model
350
22
  0
DICTIONARY
  5
43
102
{ACAD_REACTORS
330
C
102
}
330
C
100
AcDbDictionary
281
     1
  3
ByBlock
350
45
  3
ByLayer
350
44
  3
Global
350
46
  0
DICTIONARY
  5
6B
102
{ACAD_REACTORS
330
C
102
}
330
C
100
AcDbDictionary
281
     1
  3
Standard
350
6C
  0
DICTIONARY
  5
17
102
{ACAD_REACTORS
330
C
102
}
330
C
100
AcDbDictionary
281
     1
  3
Standard
350
18
  0
DICTIONARY
  5
19
102
{ACAD_REACTORS
330
C
102
}
330
C
100
AcDbDictionary
281
     1
  0
ACDBDICTIONARYWDFLT
  5
E
102
{ACAD_REACTORS
330
C
102
}
330
C
100
AcDbDictionary
281
     1
  3
Normal
350
F
100
AcDbDictionaryWithDefault
340
F
  0
DICTIONARY
  5
47
102
{ACAD_REACTORS
330
C
102
}
330
C
100
AcDbDictionary
281
     1
  3
A0
350
48
  3
A1
350
49
  3
A2
350
4A
  3
A3
350
4B
  3
A4
350
4C
  3
A5
350
4D
  3
A6
350
4E
  3
A7
350
4F
  3
A8
350
50
  3
A9
350
51
  3
B0
350
52
  3
B1
350
53
  3
B2
350
54
  3
B3
350
55
  3
B4
350
56
  3
B5
350
57
  3
B6
350
58
  3
B7
350
59
  3
B8
350
5A
  3
B9
350
5B
  3
C0
350
5C
  3
C1
350
5D
  3
C2
350
5E
  3
C3
350
5F
  3
C4
350
60
  3
C5
350
61
  3
C6
350
62
  3
C7
350
63
  3
C8
350
64
  3
C9
350
65
  3
D0
350
66
  3
D1
350
67
  3
D2
350
68
  0
DICTIONARY
  5
1D0
102
{ACAD_REACTORS
330
C
102
}
330
C
100
AcDbDictionary
281
     1
  0
DICTIONARY
  5
69
102
{ACAD_REACTORS
330
C
102
}
330
C
100
AcDbDictionary
281
     1
  3
Standard
350
6A
  0
DICTIONARY
  5
2A
102
{ACAD_REACTORS
330
C
102
}
330
C
100
AcDbDictionary
281
     1
  3
2dWireframe
350
2F
  3
Basic
350
32
  3
Brighten
350
36
  3
ColorChange
350
3A
  3
Conceptual
350
34
  3
Dim
350
35
  3
EdgeColorOff
350
3D
  3
Facepattern
350
39
  3
Flat
350
2B
  3
FlatWithEdges
350
2C
  3
Gouraud
350
2D
  3
GouraudWithEdges
350
2E
  3
Hidden
350
31
  3
JitterOff
350
3B
  3
Linepattern
350
38
  3
OverhangOff
350
3C
  3
Realistic
350
33
  3
Shaded
350
42
  3
Shaded with edges
350
41
  3
Shades of Gray
350
3E
  3
Sketchy
350
3F
  3
Thicken
350
37
  3
Wireframe
350
30
  3
X-Ray
350
40
  0
XRECORD
  5
1CC
102
{ACAD_REACTORS
330
C
102
}
330
C
100
AcDbXrecord
280
     1
 90
        1
330
6A
  0
DICTIONARY
  5
1C8
102
{ACAD_REACTORS
330
C
102
}
330
C
100
AcDbDictionary
281
     1
  3
CANNOSCALE
350
1C9
  3
CMLEADERSTYLE
350
1CE
  3
CTABLESTYLE
350
1CD
  0
LAYOUT
  5
1E
102
{ACAD_REACTORS
330
1A
102
}
330
1A
100
AcDbPlotSettings
  1

  2
none_device
  4

  6

 40
0.0
 41
0.0
 42
0.0
 43
0.0
 44
0.0
 45
0.0
 46
0.0
 47
0.0
 48
0.0
 49
0.0
140
0.0
141
0.0
142
1.0
143
1.0
 70
   688
 72
     1
 73
     0
 74
     5
  7

 75
    16
 76
     0
 77
     2
 78
   300
147
1.0
148
0.0
149
0.0
100
AcDbLayout
  1
Layout1
 70
     1
 71
     1
 10
0.0
 20
0.0
 11
420.0
 21
297.0
 12
0.0
 22
0.0
 32
0.0
 14
1.000000000000000E+20
 24
1.000000000000000E+20
 34
1.000000000000000E+20
 15
-1.000000000000000E+20
 25
-1.000000000000000E+20
 35
-1.000000000000000E+20
146
0.0
 13
0.0
 23
0.0
 33
0.0
 16
1.0
 26
0.0
 36
0.0
 17
0.0
 27
1.0
 37
0.0
 76
     0
330
1B
  0
LAYOUT
  5
26
102
{ACAD_REACTORS
330
1A
102
}
330
1A
100
AcDbPlotSettings
  1

  2
none_device
  4

  6

 40
0.0
 41
0.0
 42
0.0
 43
0.0
 44
0.0
 45
0.0
 46
0.0
 47
0.0
 48
0.0
 49
0.0
140
0.0
141
0.0
142
1.0
143
1.0
 70
   688
 72
     1
 73
     0
 74
     5
  7

 75
    16
 76
     0
 77
     2
 78
   300
147
1.0
148
0.0
149
0.0
100
AcDbLayout
  1
Layout2
 70
     1
 71
     2
 10
0.0
 20
0.0
 11
0.0
 21
0.0
 12
0.0
 22
0.0
 32
0.0
 14
0.0
 24
0.0
 34
0.0
 15
0.0
 25
0.0
 35
0.0
146
0.0
 13
0.0
 23
0.0
 33
0.0
 16
1.0
 26
0.0
 36
0.0
 17
0.0
 27
1.0
 37
0.0
 76
     0
330
23
  0
LAYOUT
  5
22
102
{ACAD_REACTORS
330
1A
102
}
330
1A
100
AcDbPlotSettings
  1

  2
none_device
  4
Letter_(8.50_x_11.00_Inches)
  6

 40
6.35
 41
6.35
 42
6.35000508
 43
6.35000508
 44
215.9
 45
279.4
 46
0.0
 47
0.0
 48
0.0
 49
0.0
140
0.0
141
0.0
142
1.0
143
1.0
 70
  1712
 72
     1
 73
     0
 74
     0
  7

 75
     0
 76
     0
 77
     2
 78
   300
147
1.0
148
0.0
149
0.0
100
AcDbLayout
  1
Model
 70
     1
 71
     0
 10
0.0
 20
0.0
 11
420.0
 21
297.0
 12
0.0
 22
0.0
 32
0.0
 14
1.000000000000000E+20
 24
1.000000000000000E+20
 34
1.000000000000000E+20
 15
-1.000000000000000E+20
 25
-1.000000000000000E+20
 35
-1.000000000000000E+20
146
0.0
 13
0.0
 23
0.0
 33
0.0
 16
1.0
 26
0.0
 36
0.0
 17
0.0
 27
1.0
 37
0.0
 76
     0
330
1F
331
29
  0
MATERIAL
  5
45
102
{ACAD_REACTORS
330
43
102
}
330
43
100
AcDbMaterial
  1
ByBlock
 72
     1
 94
      127
  0
MATERIAL
  5
44
102
{ACAD_REACTORS
330
43
102
}
330
43
100
AcDbMaterial
  1
ByLayer
 72
     1
 94
      127
  0
MATERIAL
  5
46
102
{ACAD_REACTORS
330
43
102
}
330
43
100
AcDbMaterial
  1
Global
 72
     1
 94
      127
  0
MLEADERSTYLE
  5
6C
102
{ACAD_REACTORS
330
6B
102
}
330
6B
100
AcDbMLeaderStyle
179
     2
170
     2
171
     1
172
     0
 90
        2
 40
0.0
 41
0.0
173
     1
 91
-1056964608
340
14
 92
       -2
290
     1
 42
2.0
291
     1
 43
8.0
  3
Standard
341
0
 44
4.0
300

342
11
174
     1
178
     6
175
     1
176
     0
 93
-1056964608
 45
4.0
292
     0
297
     0
 46
4.0
343
0
 94
-1056964608
 47
1.0
 49
1.0
140
1.0
293
     1
141
0.0
294
     1
177
     0
142
1.0
295
     0
296
     0
143
3.75
271
     0
272
     9
273
     9
298
     0
  0
MLINESTYLE
  5
18
102
{ACAD_REACTORS
330
17
102
}
330
17
100
AcDbMlineStyle
  2
Standard
 70
     0
  3

 62
   256
 51
90.0
 52
90.0
 71
     2
 49
0.5
 62
   256
  6
BYLAYER
 49
-0.5
 62
   256
  6
BYLAYER
  0
ACDBPLACEHOLDER
  5
F
102
{ACAD_REACTORS
330
E
102
}
330
E
  0
SCALE
  5
48
102
{ACAD_REACTORS
330
47
102
}
330
47
100
AcDbScale
 70
     0
300
1:1
140
1.0
141
1.0
290
     1
  0
SCALE
  5
49
102
{ACAD_REACTORS
330
47
102
}
330
47
100
AcDbScale
 70
     0
300
1:2
140
1.0
141
2.0
290
     0
  0
SCALE
  5
4A
102
{ACAD_REACTORS
330
47
102
}
330
47
100
AcDbScale
 70
     0
300
1:4
140
1.0
141
4.0
290
     0
  0
SCALE
  5
4B
102
{ACAD_REACTORS
330
47
102
}
330
47
100
AcDbScale
 70
     0
300
1:5
140
1.0
141
5.0
290
     0
  0
SCALE
  5
4C
102
{ACAD_REACTORS
330
47
102
}
330
47
100
AcDbScale
 70
     0
300
1:8
140
1.0
141
8.0
290
     0
  0
SCALE
  5
4D
102
{ACAD_REACTORS
330
47
102
}
330
47
100
AcDbScale
 70
     0
300
1:10
140
1.0
141
10.0
290
     0
  0
SCALE
  5
4E
102
{ACAD_REACTORS
330
47
102
}
330
47
100
AcDbScale
 70
     0
300
1:16
140
1.0
141
16.0
290
     0
  0
SCALE
  5
4F
102
{ACAD_REACTORS
330
47
102
}
330
47
100
AcDbScale
 70
     0
300
1:20
140
1.0
141
20.0
290
     0
  0
SCALE
  5
50
102
{ACAD_REACTORS
330
47
102
}
330
47
100
AcDbScale
 70
     0
300
1:30
140
1.0
141
30.0
290
     0
  0
SCALE
  5
51
102
{ACAD_REACTORS
330
47
102
}
330
47
100
AcDbScale
 70
     0
300
1:40
140
1.0
141
40.0
290
     0
  0
SCALE
  5
52
102
{ACAD_REACTORS
330
47
102
}
330
47
100
AcDbScale
 70
     0
300
1:50
140
1.0
141
50.0
290
     0
  0
SCALE
  5
53
102
{ACAD_REACTORS
330
47
102
}
330
47
100
AcDbScale
 70
     0
300
1:100
140
1.0
141
100.0
290
     0
  0
SCALE
  5
54
102
{ACAD_REACTORS
330
47
102
}
330
47
100
AcDbScale
 70
     0
300
2:1
140
2.0
141
1.0
290
     0
  0
SCALE
  5
55
102
{ACAD_REACTORS
330
47
102
}
330
47
100
AcDbScale
 70
     0
300
4:1
140
4.0
141
1.0
290
     0
  0
SCALE
  5
56
102
{ACAD_REACTORS
330
47
102
}
330
47
100
AcDbScale
 70
     0
300
8:1
140
8.0
141
1.0
290
     0
  0
SCALE
  5
57
102
{ACAD_REACTORS
330
47
102
}
330
47
100
AcDbScale
 70
     0
300
10:1
140
10.0
141
1.0
290
     0
  0
SCALE
  5
58
102
{ACAD_REACTORS
330
47
102
}
330
47
100
AcDbScale
 70
     0
300
100:1
140
100.0
141
1.0
290
     0
  0
SCALE
  5
59
102
{ACAD_REACTORS
330
47
102
}
330
47
100
AcDbScale
 70
     0
300
1/128" = 1'-0"
140
0.0078125
141
12.0
290
     0
  0
SCALE
  5
5A
102
{ACAD_REACTORS
330
47
102
}
330
47
100
AcDbScale
 70
     0
300
1/64" = 1'-0"
140
0.015625
141
12.0
290
     0
  0
SCALE
  5
5B
102
{ACAD_REACTORS
330
47
102
}
330
47
100
AcDbScale
 70
     0
300
1/32" = 1'-0"
140
0.03125
141
12.0
290
     0
  0
SCALE
  5
5C
102
{ACAD_REACTORS
330
47
102
}
330
47
100
AcDbScale
 70
     0
300
1/16" = 1'-0"
140
0.0625
141
12.0
290
     0
  0
SCALE
  5
5D
102
{ACAD_REACTORS
330
47
102
}
330
47
100
AcDbScale
 70
     0
300
3/32" = 1'-0"
140
0.09375
141
12.0
290
     0
  0
SCALE
  5
5E
102
{ACAD_REACTORS
330
47
102
}
330
47
100
AcDbScale
 70
     0
300
1/8" = 1'-0"
140
0.125
141
12.0
290
     0
  0
SCALE
  5
5F
102
{ACAD_REACTORS
330
47
102
}
330
47
100
AcDbScale
 70
     0
300
3/16" = 1'-0"
140
0.1875
141
12.0
290
     0
  0
SCALE
  5
60
102
{ACAD_REACTORS
330
47
102
}
330
47
100
AcDbScale
 70
     0
300
1/4" = 1'-0"
140
0.25
141
12.0
290
     0
  0
SCALE
  5
61
102
{ACAD_REACTORS
330
47
102
}
330
47
100
AcDbScale
 70
     0
300
3/8" = 1'-0"
140
0.375
141
12.0
290
     0
  0
SCALE
  5
62
102
{ACAD_REACTORS
330
47
102
}
330
47
100
AcDbScale
 70
     0
300
1/2" = 1'-0"
140
0.5
141
12.0
290
     0
  0
SCALE
  5
63
102
{ACAD_REACTORS
330
47
102
}
330
47
100
AcDbScale
 70
     0
300
3/4" = 1'-0"
140
0.75
141
12.0
290
     0
  0
SCALE
  5
64
102
{ACAD_REACTORS
330
47
102
}
330
47
100
AcDbScale
 70
     0
300
1" = 1'-0"
140
1.0
141
12.0
290
     0
  0
SCALE
  5
65
102
{ACAD_REACTORS
330
47
102
}
330
47
100
AcDbScale
 70
     0
300
1-1/2" = 1'-0"
140
1.5
141
12.0
290
     0
  0
SCALE
  5
66
102
{ACAD_REACTORS
330
47
102
}
330
47
100
AcDbScale
 70
     0
300
3" = 1'-0"
140
3.0
141
12.0
290
     0
  0
SCALE
  5
67
102
{ACAD_REACTORS
330
47
102
}
330
47
100
AcDbScale
 70
     0
300
6" = 1'-0"
140
6.0
141
12.0
290
     0
  0
SCALE
  5
68
102
{ACAD_REACTORS
330
47
102
}
330
47
100
AcDbScale
 70
     0
300
1'-0" = 1'-0"
140
12.0
141
12.0
290
     0
  0
TABLESTYLE
  5
6A
102
{ACAD_REACTORS
330
69
102
}
102
{ACAD_XDICTIONARY
360
1CA
102
}
330
69
100
AcDbTableStyle
  3
Standard
 70
     0
 71
     0
 40
0.06
 41
0.06
280
     0
281
     0
  7
Standard
140
4.5
170
     2
 62
     0
 63
   257
283
     0
 90
        4
 91
        0
  1

274
    -2
284
     1
 64
     0
275
    -2
285
     1
 65
     0
276
    -2
286
     1
 66
     0
277
    -2
287
     1
 67
     0
278
    -2
288
     1
 68
     0
279
    -2
289
     1
 69
     0
  7
Standard
140
6.0
170
     5
 62
     0
 63
   257
283
     0
 90
        4
 91
        0
  1

274
    -2
284
     1
 64
     0
275
    -2
285
     1
 65
     0
276
    -2
286
     1
 66
     0
277
    -2
287
     1
 67
     0
278
    -2
288
     1
 68
     0
279
    -2
289
     1
 69
     0
  7
Standard
140
4.5
170
     5
 62
     0
 63
   257
283
     0
 90
        4
 91
        0
  1

274
    -2
284
     1
 64
     0
275
    -2
285
     1
 65
     0
276
    -2
286
     1
 66
     0
277
    -2
287
     1
 67
     0
278
    -2
288
     1
 68
     0
279
    -2
289
     1
 69
     0
  0
VISUALSTYLE
  5
2F
102
{ACAD_REACTORS
330
2A
102
}
330
2A
100
AcDbVisualStyle
  2
2dWireframe
 70
     4
177
     3
291
     0
 70
    58
 90
        0
176
     1
 90
        2
176
     1
 90
        0
176
     1
 90
        0
176
     1
 40
0.6
176
     1
 40
30.0
176
     1
 62
     7
420
 16777215
176
     1
 90
        1
176
     1
 90
        4
176
     1
 62
     7
176
     1
 62
   257
176
     1
 90
        1
176
     1
 90
        1
176
     1
 40
1.0
176
     1
 90
        0
176
     1
 62
   257
176
     1
 40
1.0
176
     1
 90
        1
176
     1
 90
        6
176
     1
 90
        2
176
     1
 62
     7
176
     1
 90
        5
176
     1
 90
        0
176
     1
 90
        0
176
     1
290
     0
176
     1
 90
        1
176
     1
 40
0.0
176
     1
 90
        0
176
     1
290
     1
176
     1
290
     1
176
     1
290
     0
176
     1
290
     0
176
     1
290
     0
176
     1
290
     0
176
     1
290
     0
176
     1
290
     0
176
     1
290
     0
176
     1
 90
       50
176
     1
 40
0.0
176
     1
 40
1.0
176
     1
 90
        0
176
     1
 62
    18
420
        0
176
     1
 90
       50
176
     1
 90
        3
176
     1
 62
     5
420
      255
176
     1
290
     0
176
     1
 90
       50
176
     1
 90
       50
176
     1
 90
       50
176
     1
290
     0
176
     1
 90
       50
176
     1
 62
   256
176
     0
 40
1.0
176
     0
 90
        2
176
     1
  1
strokes_ogs.tif
176
     1
290
     0
176
     1
 40
1.0
176
     1
 40
1.0
176
     1
  0
VISUALSTYLE
  5
32
102
{ACAD_REACTORS
330
2A
102
}
330
2A
100
AcDbVisualStyle
  2
Basic
 70
     7
177
     3
291
     1
 70
    58
 90
        1
176
     1
 90
        0
176
     1
 90
        1
176
     1
 90
        0
176
     1
 40
0.6
176
     1
 40
30.0
176
     1
 62
     7
420
 16777215
176
     1
 90
        0
176
     1
 90
        4
176
     1
 62
     7
176
     1
 62
   257
176
     1
 90
        1
176
     1
 90
        1
176
     1
 40
1.0
176
     1
 90
        8
176
     1
 62
     7
176
     1
 40
1.0
176
     1
 90
        1
176
     1
 90
        6
176
     1
 90
        2
176
     1
 62
     7
176
     1
 90
        5
176
     1
 90
        0
176
     1
 90
        0
176
     1
290
     0
176
     1
 90
        1
176
     1
 40
0.0
176
     1
 90
        0
176
     1
290
     0
176
     1
290
     1
176
     1
290
     1
176
     1
290
     0
176
     1
290
     0
176
     1
290
     0
176
     1
290
     0
176
     1
290
     0
176
     1
290
     0
176
     1
 90
       50
176
     1
 40
0.0
176
     1
 40
1.0
176
     1
 90
        0
176
     1
 62
    18
420
        0
176
     1
 90
       50
176
     1
 90
        3
176
     1
 62
     5
420
      255
176
     1
290
     0
176
     1
 90
       50
176
     1
 90
       50
176
     1
 90
       50
176
     1
290
     0
176
     1
 90
       50
176
     1
 62
   256
176
     0
 40
1.0
176
     0
 90
        2
176
     1
  1
strokes_ogs.tif
176
     1
290
     0
176
     1
 40
1.0
176
     1
 40
1.0
176
     1
  0
VISUALSTYLE
  5
36
102
{ACAD_REACTORS
330
2A
102
}
330
2A
100
AcDbVisualStyle
  2
Brighten
 70
    12
177
     3
291
     1
 70
    58
 90
        2
176
     1
 90
        2
176
     1
 90
        0
176
     1
 90
        0
176
     1
 40
0.6
176
     1
 40
30.0
176
     1
 62
     7
420
 16777215
176
     1
 90
        1
176
     1
 90
        4
176
     1
 62
     7
176
     1
 62
   257
176
     1
 90
        1
176
     1
 90
        1
176
     1
 40
1.0
176
     1
 90
        8
176
     1
 62
     7
176
     1
 40
1.0
176
     1
 90
        1
176
     1
 90
        6
176
     1
 90
        2
176
     1
 62
     7
176
     1
 90
        5
176
     1
 90
        0
176
     1
 90
        0
176
     1
290
     0
176
     1
 90
        1
176
     1
 40
50.0
176
     1
 90
        0
176
     1
290
     0
176
     1
290
     1
176
     1
290
     1
176
     1
290
     0
176
     1
290
     0
176
     1
290
     0
176
     1
290
     0
176
     1
290
     0
176
     1
290
     0
176
     1
 90
       50
176
     1
 40
0.0
176
     1
 40
1.0
176
     1
 90
        0
176
     1
 62
    18
420
        0
176
     1
 90
       50
176
     1
 90
        3
176
     1
 62
     5
420
      255
176
     1
290
     0
176
     1
 90
       50
176
     1
 90
       50
176
     1
 90
       50
176
     1
290
     0
176
     1
 90
       50
176
     1
 62
   256
176
     0
 40
1.0
176
     0
 90
        2
176
     1
  1
strokes_ogs.tif
176
     1
290
     0
176
     1
 40
1.0
176
     1
 40
1.0
176
     1
  0
VISUALSTYLE
  5
3A
102
{ACAD_REACTORS
330
2A
102
}
330
2A
100
AcDbVisualStyle
  2
ColorChange
 70
    16
177
     3
291
     1
 70
    58
 90
        2
176
     1
 90
        2
176
     1
 90
        3
176
     1
 90
        0
176
     1
 40
0.6
176
     1
 40
30.0
176
     1
 62
     8
420
  8421504
176
     1
 90
        1
176
     1
 90
        4
176
     1
 62
     7
176
     1
 62
   257
176
     1
 90
        1
176
     1
 90
        1
176
     1
 40
1.0
176
     1
 90
        8
176
     1
 62
     8
420
  8421504
176
     1
 40
1.0
176
     1
 90
        1
176
     1
 90
        6
176
     1
 90
        2
176
     1
 62
     7
176
     1
 90
        5
176
     1
 90
        0
176
     1
 90
        0
176
     1
290
     0
176
     1
 90
        1
176
     1
 40
0.0
176
     1
 90
        0
176
     1
290
     0
176
     1
290
     1
176
     1
290
     1
176
     1
290
     0
176
     1
290
     0
176
     1
290
     0
176
     1
290
     0
176
     1
290
     0
176
     1
290
     0
176
     1
 90
       50
176
     1
 40
0.0
176
     1
 40
1.0
176
     1
 90
        0
176
     1
 62
    18
420
        0
176
     1
 90
       50
176
     1
 90
        3
176
     1
 62
     5
420
      255
176
     1
290
     0
176
     1
 90
       50
176
     1
 90
       50
176
     1
 90
       50
176
     1
290
     0
176
     1
 90
       50
176
     1
 62
   256
176
     0
 40
1.0
176
     0
 90
        2
176
     1
  1
strokes_ogs.tif
176
     1
290
     0
176
     1
 40
1.0
176
     1
 40
1.0
176
     1
  0
VISUALSTYLE
  5
34
102
{ACAD_REACTORS
330
2A
102
}
330
2A
100
AcDbVisualStyle
  2
Conceptual
 70
     9
177
     3
291
     0
 70
    58
 90
        3
176
     1
 90
        2
176
     1
 90
        0
176
     1
 90
        0
176
     1
 40
0.6
176
     1
 40
30.0
176
     1
 62
     7
420
 16777215
176
     1
 90
        2
176
     1
 90
        2
176
     1
 62
     7
176
     1
 62
   257
176
     1
 90
        1
176
     1
 90
        1
176
     1
 40
179.0
176
     1
 90
        8
176
     1
 62
     7
176
     1
 40
1.0
176
     1
 90
        1
176
     1
 90
        6
176
     1
 90
        2
176
     1
 62
     7
176
     1
 90
        3
176
     1
 90
        0
176
     1
 90
        0
176
     1
290
     0
176
     1
 90
        1
176
     1
 40
0.0
176
     1
 90
        0
176
     1
290
     0
176
     1
290
     1
176
     1
290
     1
176
     1
290
     0
176
     1
290
     0
176
     1
290
     0
176
     1
290
     0
176
     1
290
     0
176
     1
290
     0
176
     1
 90
       50
176
     1
 40
0.0
176
     1
 40
1.0
176
     1
 90
        0
176
     1
 62
    18
420
        0
176
     1
 90
       50
176
     1
 90
        3
176
     1
 62
     5
420
      255
176
     1
290
     0
176
     1
 90
       50
176
     1
 90
       50
176
     1
 90
       50
176
     1
290
     0
176
     1
 90
       50
176
     1
 62
   256
176
     0
 40
1.0
176
     0
 90
        2
176
     1
  1
strokes_ogs.tif
176
     1
290
     0
176
     1
 40
1.0
176
     1
 40
1.0
176
     1
  0
VISUALSTYLE
  5
35
102
{ACAD_REACTORS
330
2A
102
}
330
2A
100
AcDbVisualStyle
  2
Dim
 70
    11
177
     3
291
     1
 70
    58
 90
        2
176
     1
 90
        2
176
     1
 90
        0
176
     1
 90
        0
176
     1
 40
0.6
176
     1
 40
30.0
176
     1
 62
     7
420
 16777215
176
     1
 90
        1
176
     1
 90
        4
176
     1
 62
     7
176
     1
 62
   257
176
     1
 90
        1
176
     1
 90
        1
176
     1
 40
1.0
176
     1
 90
        8
176
     1
 62
     7
176
     1
 40
1.0
176
     1
 90
        1
176
     1
 90
        6
176
     1
 90
        2
176
     1
 62
     7
176
     1
 90
        5
176
     1
 90
        0
176
     1
 90
        0
176
     1
290
     0
176
     1
 90
        1
176
     1
 40
-50.0
176
     1
 90
        0
176
     1
290
     0
176
     1
290
     1
176
     1
290
     1
176
     1
290
     0
176
     1
290
     0
176
     1
290
     0
176
     1
290
     0
176
     1
290
     0
176
     1
290
     0
176
     1
 90
       50
176
     1
 40
0.0
176
     1
 40
1.0
176
     1
 90
        0
176
     1
 62
    18
420
        0
176
     1
 90
       50
176
     1
 90
        3
176
     1
 62
     5
420
      255
176
     1
290
     0
176
     1
 90
       50
176
     1
 90
       50
176
     1
 90
       50
176
     1
290
     0
176
     1
 90
       50
176
     1
 62
   256
176
     0
 40
1.0
176
     0
 90
        2
176
     1
  1
strokes_ogs.tif
176
     1
290
     0
176
     1
 40
1.0
176
     1
 40
1.0
176
     1
  0
VISUALSTYLE
  5
3D
102
{ACAD_REACTORS
330
2A
102
}
330
2A
100
AcDbVisualStyle
  2
EdgeColorOff
 70
    22
177
     3
291
     1
 70
    58
 90
        2
176
     0
 90
        2
176
     0
 90
        0
176
     0
 90
        0
176
     0
 40
0.6
176
     0
 40
30.0
176
     0
 62
     7
420
 16777215
176
     0
 90
        1
176
     0
 90
        4
176
     0
 62
     7
176
     0
 62
   257
176
     0
 90
        1
176
     0
 90
        1
176
     0
 40
1.0
176
     0
 90
        8
176
     2
 62
     7
176
     0
 40
1.0
176
     0
 90
        1
176
     0
 90
        6
176
     0
 90
        2
176
     0
 62
     7
176
     0
 90
        5
176
     0
 90
        0
176
     0
 90
        0
176
     0
290
     0
176
     0
 90
        1
176
     0
 40
0.0
176
     0
 90
        0
176
     0
290
     0
176
     0
290
     1
176
     0
290
     1
176
     0
290
     0
176
     0
290
     0
176
     0
290
     0
176
     0
290
     0
176
     0
290
     0
176
     0
290
     0
176
     0
 90
       50
176
     0
 40
0.0
176
     0
 40
1.0
176
     0
 90
        0
176
     0
 62
    18
420
        0
176
     0
 90
       50
176
     0
 90
        3
176
     0
 62
     5
420
      255
176
     0
290
     0
176
     0
 90
       50
176
     0
 90
       50
176
     0
 90
       50
176
     0
290
     0
176
     0
 90
       50
176
     0
 62
   256
176
     0
 40
1.0
176
     0
 90
        2
176
     0
  1
strokes_ogs.tif
176
     0
290
     0
176
     0
 40
1.0
176
     0
 40
1.0
176
     0
  0
VISUALSTYLE
  5
39
102
{ACAD_REACTORS
330
2A
102
}
330
2A
100
AcDbVisualStyle
  2
Facepattern
 70
    15
177
     3
291
     1
 70
    58
 90
        2
176
     1
 90
        2
176
     1
 90
        0
176
     1
 90
        0
176
     1
 40
0.6
176
     1
 40
30.0
176
     1
 62
     7
420
 16777215
176
     1
 90
        1
176
     1
 90
        4
176
     1
 62
     7
176
     1
 62
   257
176
     1
 90
        1
176
     1
 90
        1
176
     1
 40
1.0
176
     1
 90
        8
176
     1
 62
     7
176
     1
 40
1.0
176
     1
 90
        1
176
     1
 90
        6
176
     1
 90
        2
176
     1
 62
     7
176
     1
 90
        5
176
     1
 90
        0
176
     1
 90
        0
176
     1
290
     0
176
     1
 90
        1
176
     1
 40
0.0
176
     1
 90
        0
176
     1
290
     0
176
     1
290
     1
176
     1
290
     1
176
     1
290
     0
176
     1
290
     0
176
     1
290
     0
176
     1
290
     0
176
     1
290
     0
176
     1
290
     0
176
     1
 90
       50
176
     1
 40
0.0
176
     1
 40
1.0
176
     1
 90
        0
176
     1
 62
    18
420
        0
176
     1
 90
       50
176
     1
 90
        3
176
     1
 62
     5
420
      255
176
     1
290
     0
176
     1
 90
       50
176
     1
 90
       50
176
     1
 90
       50
176
     1
290
     0
176
     1
 90
       50
176
     1
 62
   256
176
     0
 40
1.0
176
     0
 90
        2
176
     1
  1
strokes_ogs.tif
176
     1
290
     0
176
     1
 40
1.0
176
     1
 40
1.0
176
     1
  0
VISUALSTYLE
  5
2B
102
{ACAD_REACTORS
330
2A
102
}
330
2A
100
AcDbVisualStyle
  2
Flat
 70
     0
177
     3
291
     1
 70
    58
 90
        2
176
     1
 90
        1
176
     1
 90
        1
176
     1
 90
        2
176
     1
 40
0.6
176
     1
 40
30.0
176
     1
 62
     7
420
 16777215
176
     1
 90
        0
176
     1
 90
        0
176
     1
 62
     7
176
     1
 62
   257
176
     1
 90
        1
176
     1
 90
        1
176
     1
 40
1.0
176
     1
 90
        8
176
     1
 62
     7
176
     1
 40
1.0
176
     1
 90
        1
176
     1
 90
        6
176
     1
 90
        2
176
     1
 62
     7
176
     1
 90
        5
176
     1
 90
        0
176
     1
 90
        0
176
     1
290
     0
176
     1
 90
       13
176
     1
 40
0.0
176
     1
 90
        0
176
     1
290
     0
176
     1
290
     1
176
     1
290
     1
176
     1
290
     0
176
     1
290
     0
176
     1
290
     0
176
     1
290
     0
176
     1
290
     0
176
     1
290
     0
176
     1
 90
       50
176
     1
 40
0.0
176
     1
 40
1.0
176
     1
 90
        0
176
     1
 62
    18
420
        0
176
     1
 90
       50
176
     1
 90
        3
176
     1
 62
     5
420
      255
176
     1
290
     0
176
     1
 90
       50
176
     1
 90
       50
176
     1
 90
       50
176
     1
290
     0
176
     1
 90
       50
176
     1
 62
   256
176
     0
 40
1.0
176
     0
 90
        2
176
     1
  1
strokes_ogs.tif
176
     1
290
     0
176
     1
 40
1.0
176
     1
 40
1.0
176
     1
  0
VISUALSTYLE
  5
2C
102
{ACAD_REACTORS
330
2A
102
}
330
2A
100
AcDbVisualStyle
  2
FlatWithEdges
 70
     1
177
     3
291
     1
 70
    58
 90
        2
176
     1
 90
        1
176
     1
 90
        1
176
     1
 90
        2
176
     1
 40
0.6
176
     1
 40
30.0
176
     1
 62
     7
420
 16777215
176
     1
 90
        1
176
     1
 90
        0
176
     1
 62
     7
176
     1
 62
   257
176
     1
 90
        1
176
     1
 90
        1
176
     1
 40
1.0
176
     1
 90
        0
176
     1
 62
   257
176
     1
 40
1.0
176
     1
 90
        1
176
     1
 90
        6
176
     1
 90
        2
176
     1
 62
     7
176
     1
 90
        5
176
     1
 90
        0
176
     1
 90
        0
176
     1
290
     0
176
     1
 90
       13
176
     1
 40
0.0
176
     1
 90
        0
176
     1
290
     0
176
     1
290
     1
176
     1
290
     1
176
     1
290
     0
176
     1
290
     0
176
     1
290
     0
176
     1
290
     0
176
     1
290
     0
176
     1
290
     0
176
     1
 90
       50
176
     1
 40
0.0
176
     1
 40
1.0
176
     1
 90
        0
176
     1
 62
    18
420
        0
176
     1
 90
       50
176
     1
 90
        3
176
     1
 62
     5
420
      255
176
     1
290
     0
176
     1
 90
       50
176
     1
 90
       50
176
     1
 90
       50
176
     1
290
     0
176
     1
 90
       50
176
     1
 62
   256
176
     0
 40
1.0
176
     0
 90
        2
176
     1
  1
strokes_ogs.tif
176
     1
290
     0
176
     1
 40
1.0
176
     1
 40
1.0
176
     1
  0
VISUALSTYLE
  5
2D
102
{ACAD_REACTORS
330
2A
102
}
330
2A
100
AcDbVisualStyle
  2
Gouraud
 70
     2
177
     3
291
     1
 70
    58
 90
        2
176
     1
 90
        2
176
     1
 90
        1
176
     1
 90
        2
176
     1
 40
0.6
176
     1
 40
30.0
176
     1
 62
     7
420
 16777215
176
     1
 90
        0
176
     1
 90
        0
176
     1
 62
     7
176
     1
 62
   257
176
     1
 90
        1
176
     1
 90
        1
176
     1
 40
1.0
176
     1
 90
        0
176
     1
 62
     7
176
     1
 40
1.0
176
     1
 90
        1
176
     1
 90
        6
176
     1
 90
        2
176
     1
 62
     7
176
     1
 90
        5
176
     1
 90
        0
176
     1
 90
        0
176
     1
290
     0
176
     1
 90
       13
176
     1
 40
0.0
176
     1
 90
        0
176
     1
290
     0
176
     1
290
     1
176
     1
290
     1
176
     1
290
     0
176
     1
290
     0
176
     1
290
     0
176
     1
290
     0
176
     1
290
     0
176
     1
290
     0
176
     1
 90
       50
176
     1
 40
0.0
176
     1
 40
1.0
176
     1
 90
        0
176
     1
 62
    18
420
        0
176
     1
 90
       50
176
     1
 90
        3
176
     1
 62
     5
420
      255
176
     1
290
     0
176
     1
 90
       50
176
     1
 90
       50
176
     1
 90
       50
176
     1
290
     0
176
     1
 90
       50
176
     1
 62
   256
176
     0
 40
1.0
176
     0
 90
        2
176
     1
  1
strokes_ogs.tif
176
     1
290
     0
176
     1
 40
1.0
176
     1
 40
1.0
176
     1
  0
VISUALSTYLE
  5
2E
102
{ACAD_REACTORS
330
2A
102
}
330
2A
100
AcDbVisualStyle
  2
GouraudWithEdges
 70
     3
177
     3
291
     1
 70
    58
 90
        2
176
     1
 90
        2
176
     1
 90
        1
176
     1
 90
        2
176
     1
 40
0.6
176
     1
 40
30.0
176
     1
 62
     7
420
 16777215
176
     1
 90
        1
176
     1
 90
        0
176
     1
 62
     7
176
     1
 62
   257
176
     1
 90
        1
176
     1
 90
        1
176
     1
 40
1.0
176
     1
 90
        0
176
     1
 62
   257
176
     1
 40
1.0
176
     1
 90
        1
176
     1
 90
        6
176
     1
 90
        2
176
     1
 62
     7
176
     1
 90
        5
176
     1
 90
        0
176
     1
 90
        0
176
     1
290
     0
176
     1
 90
       13
176
     1
 40
0.0
176
     1
 90
        0
176
     1
290
     0
176
     1
290
     1
176
     1
290
     1
176
     1
290
     0
176
     1
290
     0
176
     1
290
     0
176
     1
290
     0
176
     1
290
     0
176
     1
290
     0
176
     1
 90
       50
176
     1
 40
0.0
176
     1
 40
1.0
176
     1
 90
        0
176
     1
 62
    18
420
        0
176
     1
 90
       50
176
     1
 90
        3
176
     1
 62
     5
420
      255
176
     1
290
     0
176
     1
 90
       50
176
     1
 90
       50
176
     1
 90
       50
176
     1
290
     0
176
     1
 90
       50
176
     1
 62
   256
176
     0
 40
1.0
176
     0
 90
        2
176
     1
  1
strokes_ogs.tif
176
     1
290
     0
176
     1
 40
1.0
176
     1
 40
1.0
176
     1
  0
VISUALSTYLE
  5
31
102
{ACAD_REACTORS
330
2A
102
}
330
2A
100
AcDbVisualStyle
  2
Hidden
 70
     6
177
     3
291
     0
 70
    58
 90
        1
176
     1
 90
        2
176
     1
 90
        2
176
     1
 90
        0
176
     1
 40
0.6
176
     1
 40
30.0
176
     1
 62
     7
420
 16777215
176
     1
 90
        2
176
     1
 90
        2
176
     1
 62
     7
176
     1
 62
   257
176
     1
 90
        2
176
     1
 90
        1
176
     1
 40
40.0
176
     1
 90
        0
176
     1
 62
   257
176
     1
 40
1.0
176
     1
 90
        1
176
     1
 90
        6
176
     1
 90
        2
176
     1
 62
     7
176
     1
 90
        3
176
     1
 90
        0
176
     1
 90
        0
176
     1
290
     0
176
     1
 90
        1
176
     1
 40
0.0
176
     1
 90
        0
176
     1
290
     0
176
     1
290
     1
176
     1
290
     1
176
     1
290
     0
176
     1
290
     0
176
     1
290
     0
176
     1
290
     0
176
     1
290
     0
176
     1
290
     0
176
     1
 90
       50
176
     1
 40
0.0
176
     1
 40
1.0
176
     1
 90
        0
176
     1
 62
    18
420
        0
176
     1
 90
       50
176
     1
 90
        3
176
     1
 62
     5
420
      255
176
     1
290
     0
176
     1
 90
       50
176
     1
 90
       50
176
     1
 90
       50
176
     1
290
     0
176
     1
 90
       50
176
     1
 62
   256
176
     0
 40
1.0
176
     0
 90
        2
176
     1
  1
strokes_ogs.tif
176
     1
290
     0
176
     1
 40
1.0
176
     1
 40
1.0
176
     1
  0
VISUALSTYLE
  5
3B
102
{ACAD_REACTORS
330
2A
102
}
330
2A
100
AcDbVisualStyle
  2
JitterOff
 70
    20
177
     3
291
     1
 70
    58
 90
        2
176
     0
 90
        2
176
     0
 90
        0
176
     0
 90
        0
176
     0
 40
0.6
176
     0
 40
30.0
176
     0
 62
     7
420
 16777215
176
     0
 90
        1
176
     0
 90
        4
176
     0
 62
     7
176
     0
 62
   257
176
     0
 90
        1
176
     0
 90
        1
176
     0
 40
1.0
176
     0
 90
       10
176
     2
 62
     7
176
     0
 40
1.0
176
     0
 90
        1
176
     0
 90
        6
176
     0
 90
        2
176
     0
 62
     7
176
     0
 90
        5
176
     0
 90
        0
176
     0
 90
        0
176
     0
290
     0
176
     0
 90
        1
176
     0
 40
0.0
176
     0
 90
        0
176
     0
290
     0
176
     0
290
     1
176
     0
290
     1
176
     0
290
     0
176
     0
290
     0
176
     0
290
     0
176
     0
290
     0
176
     0
290
     0
176
     0
290
     0
176
     0
 90
       50
176
     0
 40
0.0
176
     0
 40
1.0
176
     0
 90
        0
176
     0
 62
    18
420
        0
176
     0
 90
       50
176
     0
 90
        3
176
     0
 62
     5
420
      255
176
     0
290
     0
176
     0
 90
       50
176
     0
 90
       50
176
     0
 90
       50
176
     0
290
     0
176
     0
 90
       50
176
     0
 62
   256
176
     0
 40
1.0
176
     0
 90
        2
176
     0
  1
strokes_ogs.tif
176
     0
290
     0
176
     0
 40
1.0
176
     0
 40
1.0
176
     0
  0
VISUALSTYLE
  5
38
102
{ACAD_REACTORS
330
2A
102
}
330
2A
100
AcDbVisualStyle
  2
Linepattern
 70
    14
177
     3
291
     1
 70
    58
 90
        2
176
     1
 90
        2
176
     1
 90
        0
176
     1
 90
        0
176
     1
 40
0.6
176
     1
 40
30.0
176
     1
 62
     7
420
 16777215
176
     1
 90
        1
176
     1
 90
        4
176
     1
 62
     7
176
     1
 62
   257
176
     1
 90
        7
176
     1
 90
        7
176
     1
 40
1.0
176
     1
 90
        8
176
     1
 62
     7
176
     1
 40
1.0
176
     1
 90
        1
176
     1
 90
        6
176
     1
 90
        2
176
     1
 62
     7
176
     1
 90
        5
176
     1
 90
        0
176
     1
 90
        0
176
     1
290
     0
176
     1
 90
        1
176
     1
 40
0.0
176
     1
 90
        0
176
     1
290
     0
176
     1
290
     1
176
     1
290
     1
176
     1
290
     0
176
     1
290
     0
176
     1
290
     0
176
     1
290
     0
176
     1
290
     0
176
     1
290
     0
176
     1
 90
       50
176
     1
 40
0.0
176
     1
 40
1.0
176
     1
 90
        0
176
     1
 62
    18
420
        0
176
     1
 90
       50
176
     1
 90
        3
176
     1
 62
     5
420
      255
176
     1
290
     0
176
     1
 90
       50
176
     1
 90
       50
176
     1
 90
       50
176
     1
290
     0
176
     1
 90
       50
176
     1
 62
   256
176
     0
 40
1.0
176
     0
 90
        2
176
     1
  1
strokes_ogs.tif
176
     1
290
     0
176
     1
 40
1.0
176
     1
 40
1.0
176
     1
  0
VISUALSTYLE
  5
3C
102
{ACAD_REACTORS
330
2A
102
}
330
2A
100
AcDbVisualStyle
  2
OverhangOff
 70
    21
177
     3
291
     1
 70
    58
 90
        2
176
     0
 90
        2
176
     0
 90
        0
176
     0
 90
        0
176
     0
 40
0.6
176
     0
 40
30.0
176
     0
 62
     7
420
 16777215
176
     0
 90
        1
176
     0
 90
        4
176
     0
 62
     7
176
     0
 62
   257
176
     0
 90
        1
176
     0
 90
        1
176
     0
 40
1.0
176
     0
 90
        9
176
     2
 62
     7
176
     0
 40
1.0
176
     0
 90
        1
176
     0
 90
        6
176
     0
 90
        2
176
     0
 62
     7
176
     0
 90
        5
176
     0
 90
        0
176
     0
 90
        0
176
     0
290
     0
176
     0
 90
        1
176
     0
 40
0.0
176
     0
 90
        0
176
     0
290
     0
176
     0
290
     1
176
     0
290
     1
176
     0
290
     0
176
     0
290
     0
176
     0
290
     0
176
     0
290
     0
176
     0
290
     0
176
     0
290
     0
176
     0
 90
       50
176
     0
 40
0.0
176
     0
 40
1.0
176
     0
 90
        0
176
     0
 62
    18
420
        0
176
     0
 90
       50
176
     0
 90
        3
176
     0
 62
     5
420
      255
176
     0
290
     0
176
     0
 90
       50
176
     0
 90
       50
176
     0
 90
       50
176
     0
290
     0
176
     0
 90
       50
176
     0
 62
   256
176
     0
 40
1.0
176
     0
 90
        2
176
     0
  1
strokes_ogs.tif
176
     0
290
     0
176
     0
 40
1.0
176
     0
 40
1.0
176
     0
  0
VISUALSTYLE
  5
33
102
{ACAD_REACTORS
330
2A
102
}
330
2A
100
AcDbVisualStyle
  2
Realistic
 70
     8
177
     3
291
     0
 70
    58
 90
        2
176
     1
 90
        3
176
     1
 90
        0
176
     1
 90
        2
176
     1
 40
0.6
176
     1
 40
30.0
176
     1
 62
     7
420
 16777215
176
     1
 90
        0
176
     1
 90
        0
176
     1
 62
     7
176
     1
 62
   257
176
     1
 90
        1
176
     1
 90
        1
176
     1
 40
1.0
176
     1
 90
        8
176
     1
 62
   257
176
     1
 40
1.0
176
     1
 90
        1
176
     1
 90
        6
176
     1
 90
        2
176
     1
 62
     7
176
     1
 90
        3
176
     1
 90
        0
176
     1
 90
        0
176
     1
290
     0
176
     1
 90
       13
176
     1
 40
0.0
176
     1
 90
        0
176
     1
290
     0
176
     1
290
     1
176
     1
290
     1
176
     1
290
     0
176
     1
290
     0
176
     1
290
     0
176
     1
290
     0
176
     1
290
     0
176
     1
290
     0
176
     1
 90
       50
176
     1
 40
0.0
176
     1
 40
1.0
176
     1
 90
        0
176
     1
 62
    18
420
        0
176
     1
 90
       50
176
     1
 90
        3
176
     1
 62
     5
420
      255
176
     1
290
     0
176
     1
 90
       50
176
     1
 90
       50
176
     1
 90
       50
176
     1
290
     0
176
     1
 90
       50
176
     1
 62
   256
176
     0
 40
1.0
176
     0
 90
        2
176
     1
  1
strokes_ogs.tif
176
     1
290
     0
176
     1
 40
1.0
176
     1
 40
1.0
176
     1
  0
VISUALSTYLE
  5
42
102
{ACAD_REACTORS
330
2A
102
}
330
2A
100
AcDbVisualStyle
  2
Shaded
 70
    27
177
     3
291
     0
 70
    58
 90
        2
176
     1
 90
        2
176
     1
 90
        1
176
     1
 90
        2
176
     1
 40
0.6
176
     1
 40
30.0
176
     1
 62
     7
420
 16777215
176
     1
 90
        0
176
     1
 90
        4
176
     1
 62
     7
176
     1
 62
   257
176
     1
 90
        1
176
     1
 90
        1
176
     1
 40
1.0
176
     1
 90
        8
176
     1
 62
   257
176
     1
 40
1.0
176
     1
 90
        1
176
     1
 90
        6
176
     1
 90
        2
176
     1
 62
     8
420
  7895160
176
     1
 90
        3
176
     1
 90
        0
176
     1
 90
        0
176
     1
290
     0
176
     1
 90
        5
176
     1
 40
0.0
176
     1
 90
        0
176
     1
290
     0
176
     1
290
     1
176
     1
290
     1
176
     1
290
     0
176
     1
290
     0
176
     1
290
     0
176
     1
290
     0
176
     1
290
     0
176
     1
290
     0
176
     1
 90
       50
176
     1
 40
0.0
176
     1
 40
1.0
176
     1
 90
        0
176
     1
 62
    18
420
        0
176
     1
 90
       50
176
     1
 90
        3
176
     1
 62
     5
420
      255
176
     1
290
     0
176
     1
 90
       50
176
     1
 90
       50
176
     1
 90
       50
176
     1
290
     0
176
     1
 90
       50
176
     1
 62
   256
176
     0
 40
1.0
176
     0
 90
        2
176
     1
  1
strokes_ogs.tif
176
     1
290
     0
176
     1
 40
1.0
176
     1
 40
1.0
176
     1
  0
VISUALSTYLE
  5
41
102
{ACAD_REACTORS
330
2A
102
}
330
2A
100
AcDbVisualStyle
  2
Shaded with edges
 70
    26
177
     3
291
     0
 70
    58
 90
        2
176
     1
 90
        2
176
     1
 90
        1
176
     1
 90
        2
176
     1
 40
0.6
176
     1
 40
30.0
176
     1
 62
     7
420
 16777215
176
     1
 90
        1
176
     1
 90
       10
176
     1
 62
     7
176
     1
 62
   257
176
     1
 90
        2
176
     1
 90
        1
176
     1
 40
1.0
176
     1
 90
        8
176
     1
 62
   257
176
     1
 40
1.0
176
     1
 90
        1
176
     1
 90
        6
176
     1
 90
        2
176
     1
 62
     7
176
     1
 90
        3
176
     1
 90
        0
176
     1
 90
        0
176
     1
290
     0
176
     1
 90
        5
176
     1
 40
0.0
176
     1
 90
        0
176
     1
290
     0
176
     1
290
     1
176
     1
290
     1
176
     1
290
     0
176
     1
290
     0
176
     1
290
     0
176
     1
290
     0
176
     1
290
     0
176
     1
290
     0
176
     1
 90
       50
176
     1
 40
0.0
176
     1
 40
1.0
176
     1
 90
        0
176
     1
 62
    18
420
        0
176
     1
 90
       50
176
     1
 90
        3
176
     1
 62
     5
420
      255
176
     1
290
     0
176
     1
 90
       50
176
     1
 90
       50
176
     1
 90
       50
176
     1
290
     0
176
     1
 90
       50
176
     1
 62
   256
176
     0
 40
1.0
176
     0
 90
        2
176
     1
  1
strokes_ogs.tif
176
     1
290
     0
176
     1
 40
1.0
176
     1
 40
1.0
176
     1
  0
VISUALSTYLE
  5
3E
102
{ACAD_REACTORS
330
2A
102
}
330
2A
100
AcDbVisualStyle
  2
Shades of Gray
 70
    23
177
     3
291
     0
 70
    58
 90
        2
176
     1
 90
        2
176
     1
 90
        3
176
     1
 90
        0
176
     1
 40
0.6
176
     1
 40
30.0
176
     1
 62
     7
420
 16777215
176
     1
 90
        2
176
     1
 90
        2
176
     1
 62
     7
176
     1
 62
     7
176
     1
 90
        1
176
     1
 90
        1
176
     1
 40
40.0
176
     1
 90
        8
176
     1
 62
     7
176
     1
 40
1.0
176
     1
 90
        1
176
     1
 90
        6
176
     1
 90
        2
176
     1
 62
     7
176
     1
 90
        3
176
     1
 90
        0
176
     1
 90
        0
176
     1
290
     0
176
     1
 90
        1
176
     1
 40
0.0
176
     1
 90
        0
176
     1
290
     0
176
     1
290
     1
176
     1
290
     1
176
     1
290
     0
176
     1
290
     0
176
     1
290
     0
176
     1
290
     0
176
     1
290
     0
176
     1
290
     0
176
     1
 90
       50
176
     1
 40
0.0
176
     1
 40
1.0
176
     1
 90
        0
176
     1
 62
    18
420
        0
176
     1
 90
       50
176
     1
 90
        3
176
     1
 62
     5
420
      255
176
     1
290
     0
176
     1
 90
       50
176
     1
 90
       50
176
     1
 90
       50
176
     1
290
     0
176
     1
 90
       50
176
     1
 62
   256
176
     0
 40
1.0
176
     0
 90
        2
176
     1
  1
strokes_ogs.tif
176
     1
290
     0
176
     1
 40
1.0
176
     1
 40
1.0
176
     1
  0
VISUALSTYLE
  5
3F
102
{ACAD_REACTORS
330
2A
102
}
330
2A
100
AcDbVisualStyle
  2
Sketchy
 70
    24
177
     3
291
     0
 70
    58
 90
        1
176
     1
 90
        2
176
     1
 90
        2
176
     1
 90
        0
176
     1
 40
0.6
176
     1
 40
30.0
176
     1
 62
     7
420
 16777215
176
     1
 90
        2
176
     1
 90
        2
176
     1
 62
     7
176
     1
 62
     7
176
     1
 90
        1
176
     1
 90
        1
176
     1
 40
40.0
176
     1
 90
       11
176
     1
 62
     7
176
     1
 40
1.0
176
     1
 90
        1
176
     1
 90
        6
176
     1
 90
        2
176
     1
 62
     7
176
     1
 90
        6
176
     1
 90
        0
176
     1
 90
        0
176
     1
290
     0
176
     1
 90
        1
176
     1
 40
0.0
176
     1
 90
        0
176
     1
290
     0
176
     1
290
     1
176
     1
290
     1
176
     1
290
     0
176
     1
290
     0
176
     1
290
     0
176
     1
290
     0
176
     1
290
     0
176
     1
290
     0
176
     1
 90
       50
176
     1
 40
0.0
176
     1
 40
1.0
176
     1
 90
        0
176
     1
 62
    18
420
        0
176
     1
 90
       50
176
     1
 90
        3
176
     1
 62
     5
420
      255
176
     1
290
     0
176
     1
 90
       50
176
     1
 90
       50
176
     1
 90
       50
176
     1
290
     0
176
     1
 90
       50
176
     1
 62
   256
176
     0
 40
1.0
176
     0
 90
        2
176
     1
  1
strokes_ogs.tif
176
     1
290
     0
176
     1
 40
1.0
176
     1
 40
1.0
176
     1
  0
VISUALSTYLE
  5
37
102
{ACAD_REACTORS
330
2A
102
}
330
2A
100
AcDbVisualStyle
  2
Thicken
 70
    13
177
     3
291
     1
 70
    58
 90
        2
176
     1
 90
        2
176
     1
 90
        0
176
     1
 90
        0
176
     1
 40
0.6
176
     1
 40
30.0
176
     1
 62
     7
420
 16777215
176
     1
 90
        1
176
     1
 90
        4
176
     1
 62
     7
176
     1
 62
   257
176
     1
 90
        1
176
     1
 90
        1
176
     1
 40
1.0
176
     1
 90
       12
176
     1
 62
     7
176
     1
 40
1.0
176
     1
 90
        1
176
     1
 90
        6
176
     1
 90
        2
176
     1
 62
     7
176
     1
 90
        5
176
     1
 90
        0
176
     1
 90
        0
176
     1
290
     0
176
     1
 90
        1
176
     1
 40
0.0
176
     1
 90
        0
176
     1
290
     0
176
     1
290
     1
176
     1
290
     1
176
     1
290
     0
176
     1
290
     0
176
     1
290
     0
176
     1
290
     0
176
     1
290
     0
176
     1
290
     0
176
     1
 90
       50
176
     1
 40
0.0
176
     1
 40
1.0
176
     1
 90
        0
176
     1
 62
    18
420
        0
176
     1
 90
       50
176
     1
 90
        3
176
     1
 62
     5
420
      255
176
     1
290
     0
176
     1
 90
       50
176
     1
 90
       50
176
     1
 90
       50
176
     1
290
     0
176
     1
 90
       50
176
     1
 62
   256
176
     0
 40
1.0
176
     0
 90
        2
176
     1
  1
strokes_ogs.tif
176
     1
290
     0
176
     1
 40
1.0
176
     1
 40
1.0
176
     1
  0
VISUALSTYLE
  5
30
102
{ACAD_REACTORS
330
2A
102
}
330
2A
100
AcDbVisualStyle
  2
Wireframe
 70
     5
177
     3
291
     0
 70
    58
 90
        0
176
     1
 90
        2
176
     1
 90
        0
176
     1
 90
        0
176
     1
 40
0.6
176
     1
 40
30.0
176
     1
 62
     7
420
 16777215
176
     1
 90
        1
176
     1
 90
        4
176
     1
 62
     7
176
     1
 62
   257
176
     1
 90
        1
176
     1
 90
        1
176
     1
 40
1.0
176
     1
 90
        0
176
     1
 62
   257
176
     1
 40
1.0
176
     1
 90
        1
176
     1
 90
        6
176
     1
 90
        2
176
     1
 62
     7
176
     1
 90
        3
176
     1
 90
        0
176
     1
 90
        0
176
     1
290
     0
176
     1
 90
        1
176
     1
 40
0.0
176
     1
 90
        0
176
     1
290
     0
176
     1
290
     1
176
     1
290
     1
176
     1
290
     0
176
     1
290
     0
176
     1
290
     0
176
     1
290
     0
176
     1
290
     0
176
     1
290
     0
176
     1
 90
       50
176
     1
 40
0.0
176
     1
 40
1.0
176
     1
 90
        0
176
     1
 62
    18
420
        0
176
     1
 90
       50
176
     1
 90
        3
176
     1
 62
     5
420
      255
176
     1
290
     0
176
     1
 90
       50
176
     1
 90
       50
176
     1
 90
       50
176
     1
290
     0
176
     1
 90
       50
176
     1
 62
   256
176
     0
 40
1.0
176
     0
 90
        2
176
     1
  1
strokes_ogs.tif
176
     1
290
     0
176
     1
 40
1.0
176
     1
 40
1.0
176
     1
  0
VISUALSTYLE
  5
40
102
{ACAD_REACTORS
330
2A
102
}
330
2A
100
AcDbVisualStyle
  2
X-Ray
 70
    25
177
     3
291
     0
 70
    58
 90
        2
176
     1
 90
        2
176
     1
 90
        1
176
     1
 90
        1
176
     1
 40
0.5
176
     1
 40
30.0
176
     1
 62
     7
420
 16777215
176
     1
 90
        1
176
     1
 90
        0
176
     1
 62
     7
176
     1
 62
   257
176
     1
 90
        1
176
     1
 90
        1
176
     1
 40
1.0
176
     1
 90
        8
176
     1
 62
     7
176
     1
 40
1.0
176
     1
 90
        1
176
     1
 90
        6
176
     1
 90
        2
176
     1
 62
     7
176
     1
 90
        3
176
     1
 90
        0
176
     1
 90
        0
176
     1
290
     0
176
     1
 90
       13
176
     1
 40
0.0
176
     1
 90
        0
176
     1
290
     0
176
     1
290
     1
176
     1
290
     1
176
     1
290
     0
176
     1
290
     0
176
     1
290
     0
176
     1
290
     0
176
     1
290
     0
176
     1
290
     0
176
     1
 90
       50
176
     1
 40
0.0
176
     1
 40
1.0
176
     1
 90
        0
176
     1
 62
    18
420
        0
176
     1
 90
       50
176
     1
 90
        3
176
     1
 62
     5
420
      255
176
     1
290
     0
176
     1
 90
       50
176
     1
 90
       50
176
     1
 90
       50
176
     1
290
     0
176
     1
 90
       50
176
     1
 62
   256
176
     0
 40
1.0
176
     0
 90
        2
176
     1
  1
strokes_ogs.tif
176
     1
290
     0
176
     1
 40
1.0
176
     1
 40
1.0
176
     1
  0
DICTIONARYVAR
  5
1C9
102
{ACAD_REACTORS
330
1C8
102
}
330
1C8
100
DictionaryVariables
280
     0
  1
1:1
  0
DICTIONARYVAR
  5
1CE
102
{ACAD_REACTORS
330
1C8
102
}
330
1C8
100
DictionaryVariables
280
     0
  1
Standard
  0
DICTIONARYVAR
  5
1CD
102
{ACAD_REACTORS
330
1C8
102
}
330
1C8
100
DictionaryVariables
280
     0
  1
Standard
  0
DICTIONARY
  5
1CA
330
6A
100
AcDbDictionary
280
     1
281
     1
  3
ACAD_ROUNDTRIP_2008_TABLESTYLE_CELLSTYLEMAP
360
1CB
  0
CELLSTYLEMAP
  5
1CB
102
{ACAD_REACTORS
330
1CA
102
}
330
1CA
100
AcDbCellStyleMap
 90
        3
300
CELLSTYLE
  1
TABLEFORMAT_BEGIN
 90
        5
170
     1
 91
        0
 92
    32768
 62
   257
 93
        1
300
CONTENTFORMAT
  1
CONTENTFORMAT_BEGIN
 90
        0
 91
        0
 92
        4
 93
        0
300

 40
0.0
140
1.0
 94
        5
 62
     0
340
11
144
6.0
309
CONTENTFORMAT_END
171
     1
301
MARGIN
  1
CELLMARGIN_BEGIN
 40
1.5
 40
1.5
 40
1.5
 40
1.5
 40
1.5
 40
1.5
309
CELLMARGIN_END
 94
        6
 95
        1
302
GRIDFORMAT
  1
GRIDFORMAT_BEGIN
 90
        0
 91
        1
 62
     0
 92
       -2
340
14
 93
        0
 40
0.045
309
GRIDFORMAT_END
 95
        2
302
GRIDFORMAT
  1
GRIDFORMAT_BEGIN
 90
        0
 91
        1
 62
     0
 92
       -2
340
14
 93
        0
 40
0.045
309
GRIDFORMAT_END
 95
        4
302
GRIDFORMAT
  1
GRIDFORMAT_BEGIN
 90
        0
 91
        1
 62
     0
 92
       -2
340
14
 93
        0
 40
0.045
309
GRIDFORMAT_END
 95
        8
302
GRIDFORMAT
  1
GRIDFORMAT_BEGIN
 90
        0
 91
        1
 62
     0
 92
       -2
340
14
 93
        0
 40
0.045
309
GRIDFORMAT_END
 95
       16
302
GRIDFORMAT
  1
GRIDFORMAT_BEGIN
 90
        0
 91
        1
 62
     0
 92
       -2
340
14
 93
        0
 40
0.045
309
GRIDFORMAT_END
 95
       32
302
GRIDFORMAT
  1
GRIDFORMAT_BEGIN
 90
        0
 91
        1
 62
     0
 92
       -2
340
14
 93
        0
 40
0.045
309
GRIDFORMAT_END
309
TABLEFORMAT_END
  1
CELLSTYLE_BEGIN
 90
        1
 91
        1
300
_TITLE
309
CELLSTYLE_END
300
CELLSTYLE
  1
TABLEFORMAT_BEGIN
 90
        5
170
     1
 91
        0
 92
        0
 62
   257
 93
        1
300
CONTENTFORMAT
  1
CONTENTFORMAT_BEGIN
 90
        0
 91
        0
 92
        4
 93
        0
300

 40
0.0
140
1.0
 94
        5
 62
     0
340
11
144
4.5
309
CONTENTFORMAT_END
171
     1
301
MARGIN
  1
CELLMARGIN_BEGIN
 40
1.5
 40
1.5
 40
1.5
 40
1.5
 40
1.5
 40
1.5
309
CELLMARGIN_END
 94
        6
 95
        1
302
GRIDFORMAT
  1
GRIDFORMAT_BEGIN
 90
        0
 91
        1
 62
     0
 92
       -2
340
14
 93
        0
 40
0.045
309
GRIDFORMAT_END
 95
        2
302
GRIDFORMAT
  1
GRIDFORMAT_BEGIN
 90
        0
 91
        1
 62
     0
 92
       -2
340
14
 93
        0
 40
0.045
309
GRIDFORMAT_END
 95
        4
302
GRIDFORMAT
  1
GRIDFORMAT_BEGIN
 90
        0
 91
        1
 62
     0
 92
       -2
340
14
 93
        0
 40
0.045
309
GRIDFORMAT_END
 95
        8
302
GRIDFORMAT
  1
GRIDFORMAT_BEGIN
 90
        0
 91
        1
 62
     0
 92
       -2
340
14
 93
        0
 40
0.045
309
GRIDFORMAT_END
 95
       16
302
GRIDFORMAT
  1
GRIDFORMAT_BEGIN
 90
        0
 91
        1
 62
     0
 92
       -2
340
14
 93
        0
 40
0.045
309
GRIDFORMAT_END
 95
       32
302
GRIDFORMAT
  1
GRIDFORMAT_BEGIN
 90
        0
 91
        1
 62
     0
 92
       -2
340
14
 93
        0
 40
0.045
309
GRIDFORMAT_END
309
TABLEFORMAT_END
  1
CELLSTYLE_BEGIN
 90
        2
 91
        1
300
_HEADER
309
CELLSTYLE_END
300
CELLSTYLE
  1
TABLEFORMAT_BEGIN
 90
        5
170
     1
 91
        0
 92
        0
 62
   257
 93
        1
300
CONTENTFORMAT
  1
CONTENTFORMAT_BEGIN
 90
        0
 91
        0
 92
        4
 93
        0
300

 40
0.0
140
1.0
 94
        2
 62
     0
340
11
144
4.5
309
CONTENTFORMAT_END
171
     1
301
MARGIN
  1
CELLMARGIN_BEGIN
 40
1.5
 40
1.5
 40
1.5
 40
1.5
 40
1.5
 40
1.5
309
CELLMARGIN_END
 94
        6
 95
        1
302
GRIDFORMAT
  1
GRIDFORMAT_BEGIN
 90
        0
 91
        1
 62
     0
 92
       -2
340
14
 93
        0
 40
0.045
309
GRIDFORMAT_END
 95
        2
302
GRIDFORMAT
  1
GRIDFORMAT_BEGIN
 90
        0
 91
        1
 62
     0
 92
       -2
340
14
 93
        0
 40
0.045
309
GRIDFORMAT_END
 95
        4
302
GRIDFORMAT
  1
GRIDFORMAT_BEGIN
 90
        0
 91
        1
 62
     0
 92
       -2
340
14
 93
        0
 40
0.045
309
GRIDFORMAT_END
 95
        8
302
GRIDFORMAT
  1
GRIDFORMAT_BEGIN
 90
        0
 91
        1
 62
     0
 92
       -2
340
14
 93
        0
 40
0.045
309
GRIDFORMAT_END
 95
       16
302
GRIDFORMAT
  1
GRIDFORMAT_BEGIN
 90
        0
 91
        1
 62
     0
 92
       -2
340
14
 93
        0
 40
0.045
309
GRIDFORMAT_END
 95
       32
302
GRIDFORMAT
  1
GRIDFORMAT_BEGIN
 90
        0
 91
        1
 62
     0
 92
       -2
340
14
 93
        0
 40
0.045
309
GRIDFORMAT_END
309
TABLEFORMAT_END
  1
CELLSTYLE_BEGIN
 90
        3
 91
        2
300
_DATA
309
CELLSTYLE_END
  0
ENDSEC
  0
EOF