0
SECTION
  2
HEADER
  9
$ACADVER
  1
AC1027
  9
$ACADMAINTVER
 70
     8
  9
$DWGCODEPAGE
  3
ANSI_1252
  9
$REQUIREDVERSIONS
160
                 0
  9
$COMMENTS
  1
File was created by Cadenas
  9
$CUSTOMPROPERTYTAG
  1
NN
  9
$CUSTOMPROPERTY
  1
Eccentric Collar Two-Bolt Flange Metric Bore
  9
$CUSTOMPROPERTYTAG
  1
NT
  9
$CUSTOMPROPERTY
  1
Eccentric Collar 2 Bolt Flange Bearings -(Normal Duty)
  9
$CUSTOMPROPERTYTAG
  1
NB
  9
$CUSTOMPROPERTY
  1
125677
  9
$CUSTOMPROPERTYTAG
  1
NBSYN
  9
$CUSTOMPROPERTY
  1
$PN.
  9
$CUSTOMPROPERTYTAG
  1
LINA
  9
$CUSTOMPROPERTY
  1
125677
  9
$CUSTOMPROPERTYTAG
  1
SERIES
  9
$CUSTOMPROPERTY
  1
203
  9
$CUSTOMPROPERTYTAG
  1
SS
  9
$CUSTOMPROPERTY
  1
17
  9
$CUSTOMPROPERTYTAG
  1
PN
  9
$CUSTOMPROPERTY
  1
125677
  9
$CUSTOMPROPERTYTAG
  1
DESCRIPTION
  9
$CUSTOMPROPERTY
  1
F2B-SXR-17M
  9
$CUSTOMPROPERTYTAG
  1
W
  9
$CUSTOMPROPERTY
  1
0.4
  9
$CUSTOMPROPERTYTAG
  1
A
  9
$CUSTOMPROPERTY
  1
37.3
  9
$CUSTOMPROPERTYTAG
  1
B
  9
$CUSTOMPROPERTY
  1
98.6
  9
$CUSTOMPROPERTYTAG
  1
C
  9
$CUSTOMPROPERTY
  1
36.8
  9
$CUSTOMPROPERTYTAG
  1
D
  9
$CUSTOMPROPERTY
  1
76.2
  9
$CUSTOMPROPERTYTAG
  1
F
  9
$CUSTOMPROPERTY
  1
M10
  9
$CUSTOMPROPERTYTAG
  1
H
  9
$CUSTOMPROPERTY
  1
9.7
  9
$CUSTOMPROPERTYTAG
  1
J
  9
$CUSTOMPROPERTY
  1
15.5
  9
$CUSTOMPROPERTYTAG
  1
L
  9
$CUSTOMPROPERTY
  1
28.7
  9
$CUSTOMPROPERTYTAG
  1
M
  9
$CUSTOMPROPERTY
  1
54.1
  9
$CUSTOMPROPERTYTAG
  1
N
  9
$CUSTOMPROPERTY
  1
28.7
  9
$CUSTOMPROPERTYTAG
  1
COMPANY
  9
$CUSTOMPROPERTY
  1
baldor
  9
$INSBASE
 10
0.0
 20
0.0
 30
0.0
  9
$EXTMIN
 10
1.000000000000000E+20
 20
1.000000000000000E+20
 30
1.000000000000000E+20
  9
$EXTMAX
 10
-1.000000000000000E+20
 20
-1.000000000000000E+20
 30
-1.000000000000000E+20
  9
$LIMMIN
 10
0.0
 20
0.0
  9
$LIMMAX
 10
420.0
 20
297.0
  9
$ORTHOMODE
 70
     0
  9
$REGENMODE
 70
     1
  9
$FILLMODE
 70
     1
  9
$QTEXTMODE
 70
     0
  9
$MIRRTEXT
 70
     1
  9
$LTSCALE
 40
1.0
  9
$ATTMODE
 70
     1
  9
$TEXTSIZE
 40
2.5
  9
$TRACEWID
 40
1.0
  9
$TEXTSTYLE
  7
Standard
  9
$CLAYER
  8
0
  9
$CELTYPE
  6
ByLayer
  9
$CECOLOR
 62
   256
  9
$CELTSCALE
 40
1.0
  9
$DISPSILH
 70
     0
  9
$DIMSCALE
 40
1.0
  9
$DIMASZ
 40
2.5
  9
$DIMEXO
 40
0.625
  9
$DIMDLI
 40
3.75
  9
$DIMRND
 40
0.0
  9
$DIMDLE
 40
0.0
  9
$DIMEXE
 40
1.25
  9
$DIMTP
 40
0.0
  9
$DIMTM
 40
0.0
  9
$DIMTXT
 40
2.5
  9
$DIMCEN
 40
2.5
  9
$DIMTSZ
 40
0.0
  9
$DIMTOL
 70
     0
  9
$DIMLIM
 70
     0
  9
$DIMTIH
 70
     0
  9
$DIMTOH
 70
     0
  9
$DIMSE1
 70
     0
  9
$DIMSE2
 70
     0
  9
$DIMTAD
 70
     1
  9
$DIMZIN
 70
     8
  9
$DIMBLK
  1

  9
$DIMASO
 70
     1
  9
$DIMSHO
 70
     1
  9
$DIMPOST
  1

  9
$DIMAPOST
  1

  9
$DIMALT
 70
     0
  9
$DIMALTD
 70
     3
  9
$DIMALTF
 40
0.03937007874016
  9
$DIMLFAC
 40
1.0
  9
$DIMTOFL
 70
     1
  9
$DIMTVP
 40
0.0
  9
$DIMTIX
 70
     0
  9
$DIMSOXD
 70
     0
  9
$DIMSAH
 70
     0
  9
$DIMBLK1
  1

  9
$DIMBLK2
  1

  9
$DIMSTYLE
  2
ISO-25
  9
$DIMCLRD
 70
     0
  9
$DIMCLRE
 70
     0
  9
$DIMCLRT
 70
     0
  9
$DIMTFAC
 40
1.0
  9
$DIMGAP
 40
0.625
  9
$DIMJUST
 70
     0
  9
$DIMSD1
 70
     0
  9
$DIMSD2
 70
     0
  9
$DIMTOLJ
 70
     0
  9
$DIMTZIN
 70
     8
  9
$DIMALTZ
 70
     0
  9
$DIMALTTZ
 70
     0
  9
$DIMUPT
 70
     0
  9
$DIMDEC
 70
     2
  9
$DIMTDEC
 70
     2
  9
$DIMALTU
 70
     2
  9
$DIMALTTD
 70
     3
  9
$DIMTXSTY
  7
Standard
  9
$DIMAUNIT
 70
     0
  9
$DIMADEC
 70
     0
  9
$DIMALTRND
 40
0.0
  9
$DIMAZIN
 70
     0
  9
$DIMDSEP
 70
    44
  9
$DIMATFIT
 70
     3
  9
$DIMFRAC
 70
     0
  9
$DIMLDRBLK
  1

  9
$DIMLUNIT
 70
     2
  9
$DIMLWD
 70
    -2
  9
$DIMLWE
 70
    -2
  9
$DIMTMOVE
 70
     0
  9
$DIMFXL
 40
1.0
  9
$DIMFXLON
 70
     0
  9
$DIMJOGANG
 40
0.7853981633974483
  9
$DIMTFILL
 70
     0
  9
$DIMTFILLCLR
 70
     0
  9
$DIMARCSYM
 70
     0
  9
$DIMLTYPE
  6

  9
$DIMLTEX1
  6

  9
$DIMLTEX2
  6

  9
$DIMTXTDIRECTION
 70
     0
  9
$LUNITS
 70
     2
  9
$LUPREC
 70
     4
  9
$SKETCHINC
 40
1.0
  9
$FILLETRAD
 40
10.0
  9
$AUNITS
 70
     0
  9
$AUPREC
 70
     0
  9
$MENU
  1
.
  9
$ELEVATION
 40
0.0
  9
$PELEVATION
 40
0.0
  9
$THICKNESS
 40
0.0
  9
$LIMCHECK
 70
     0
  9
$CHAMFERA
 40
0.0
  9
$CHAMFERB
 40
0.0
  9
$CHAMFERC
 40
0.0
  9
$CHAMFERD
 40
0.0
  9
$SKPOLY
 70
     0
  9
$TDCREATE
 40
2458168.986908669
  9
$TDUCREATE
 40
2458168.945242002
  9
$TDUPDATE
 40
2458168.986908854
  9
$TDUUPDATE
 40
2458168.945242187
  9
$TDINDWG
 40
0.0000000116
  9
$TDUSRTIMER
 40
0.0000000116
  9
$USRTIMER
 70
     1
  9
$ANGBASE
 50
0.0
  9
$ANGDIR
 70
     0
  9
$PDMODE
 70
     0
  9
$PDSIZE
 40
0.0
  9
$PLINEWID
 40
0.0
  9
$SPLFRAME
 70
     0
  9
$SPLINETYPE
 70
     6
  9
$SPLINESEGS
 70
     8
  9
$HANDSEED
  5
1BA
  9
$SURFTAB1
 70
     6
  9
$SURFTAB2
 70
     6
  9
$SURFTYPE
 70
     6
  9
$SURFU
 70
     6
  9
$SURFV
 70
     6
  9
$UCSBASE
  2

  9
$UCSNAME
  2

  9
$UCSORG
 10
0.0
 20
0.0
 30
0.0
  9
$UCSXDIR
 10
1.0
 20
0.0
 30
0.0
  9
$UCSYDIR
 10
0.0
 20
1.0
 30
0.0
  9
$UCSORTHOREF
  2

  9
$UCSORTHOVIEW
 70
     0
  9
$UCSORGTOP
 10
0.0
 20
0.0
 30
0.0
  9
$UCSORGBOTTOM
 10
0.0
 20
0.0
 30
0.0
  9
$UCSORGLEFT
 10
0.0
 20
0.0
 30
0.0
  9
$UCSORGRIGHT
 10
0.0
 20
0.0
 30
0.0
  9
$UCSORGFRONT
 10
0.0
 20
0.0
 30
0.0
  9
$UCSORGBACK
 10
0.0
 20
0.0
 30
0.0
  9
$PUCSBASE
  2

  9
$PUCSNAME
  2

  9
$PUCSORG
 10
0.0
 20
0.0
 30
0.0
  9
$PUCSXDIR
 10
1.0
 20
0.0
 30
0.0
  9
$PUCSYDIR
 10
0.0
 20
1.0
 30
0.0
  9
$PUCSORTHOREF
  2

  9
$PUCSORTHOVIEW
 70
     0
  9
$PUCSORGTOP
 10
0.0
 20
0.0
 30
0.0
  9
$PUCSORGBOTTOM
 10
0.0
 20
0.0
 30
0.0
  9
$PUCSORGLEFT
 10
0.0
 20
0.0
 30
0.0
  9
$PUCSORGRIGHT
 10
0.0
 20
0.0
 30
0.0
  9
$PUCSORGFRONT
 10
0.0
 20
0.0
 30
0.0
  9
$PUCSORGBACK
 10
0.0
 20
0.0
 30
0.0
  9
$USERI1
 70
     0
  9
$USERI2
 70
     0
  9
$USERI3
 70
     0
  9
$USERI4
 70
     0
  9
$USERI5
 70
     0
  9
$USERR1
 40
0.0
  9
$USERR2
 40
0.0
  9
$USERR3
 40
0.0
  9
$USERR4
 40
0.0
  9
$USERR5
 40
0.0
  9
$WORLDVIEW
 70
     1
  9
$SHADEDGE
 70
     3
  9
$SHADEDIF
 70
    70
  9
$TILEMODE
 70
     1
  9
$MAXACTVP
 70
    64
  9
$PINSBASE
 10
0.0
 20
0.0
 30
0.0
  9
$PLIMCHECK
 70
     0
  9
$PEXTMIN
 10
1.000000000000000E+20
 20
1.000000000000000E+20
 30
1.000000000000000E+20
  9
$PEXTMAX
 10
-1.000000000000000E+20
 20
-1.000000000000000E+20
 30
-1.000000000000000E+20
  9
$PLIMMIN
 10
0.0
 20
0.0
  9
$PLIMMAX
 10
420.0
 20
297.0
  9
$UNITMODE
 70
     0
  9
$VISRETAIN
 70
     1
  9
$PLINEGEN
 70
     0
  9
$PSLTSCALE
 70
     1
  9
$TREEDEPTH
 70
  3020
  9
$CMLSTYLE
  2
Standard
  9
$CMLJUST
 70
     0
  9
$CMLSCALE
 40
20.0
  9
$PROXYGRAPHICS
 70
     1
  9
$MEASUREMENT
 70
     1
  9
$CELWEIGHT
370
    -1
  9
$ENDCAPS
280
     0
  9
$JOINSTYLE
280
     0
  9
$LWDISPLAY
290
     0
  9
$INSUNITS
 70
     4
  9
$HYPERLINKBASE
  1

  9
$STYLESHEET
  1

  9
$XEDIT
290
     1
  9
$CEPSNTYPE
380
     0
  9
$PSTYLEMODE
290
     1
  9
$FINGERPRINTGUID
  2
{4BF67CB5-0863-42F6-8A35-7E27C481D72D}
  9
$VERSIONGUID
  2
{FAEB1C32-E019-11D5-929B-00C0DF256EC4}
  9
$EXTNAMES
290
     1
  9
$PSVPSCALE
 40
0.0
  9
$OLESTARTUP
290
     0
  9
$SORTENTS
280
   127
  9
$INDEXCTL
280
     0
  9
$HIDETEXT
280
     1
  9
$XCLIPFRAME
280
     2
  9
$HALOGAP
280
     0
  9
$OBSCOLOR
 70
   257
  9
$OBSLTYPE
280
     0
  9
$INTERSECTIONDISPLAY
280
     0
  9
$INTERSECTIONCOLOR
 70
   257
  9
$DIMASSOC
280
     2
  9
$PROJECTNAME
  1

  9
$CAMERADISPLAY
290
     0
  9
$LENSLENGTH
 40
50.0
  9
$CAMERAHEIGHT
 40
0.0
  9
$STEPSPERSEC
 40
2.0
  9
$STEPSIZE
 40
6.0
  9
$3DDWFPREC
 40
2.0
  9
$PSOLWIDTH
 40
5.0
  9
$PSOLHEIGHT
 40
80.0
  9
$LOFTANG1
 40
1.570796326794897
  9
$LOFTANG2
 40
1.570796326794897
  9
$LOFTMAG1
 40
0.0
  9
$LOFTMAG2
 40
0.0
  9
$LOFTPARAM
 70
     7
  9
$LOFTNORMALS
280
     1
  9
$LATITUDE
 40
37.795
  9
$LONGITUDE
 40
-122.394
  9
$NORTHDIRECTION
 40
0.0
  9
$TIMEZONE
 70
 -8000
  9
$LIGHTGLYPHDISPLAY
280
     1
  9
$TILEMODELIGHTSYNCH
280
     1
  9
$CMATERIAL
347
44
  9
$SOLIDHIST
280
     0
  9
$SHOWHIST
280
     1
  9
$DWFFRAME
280
     2
  9
$DGNFRAME
280
     2
  9
$REALWORLDSCALE
290
     1
  9
$INTERFERECOLOR
 62
   256
  9
$CSHADOW
280
     0
  9
$SHADOWPLANELOCATION
 40
0.0
  0
ENDSEC
  0
SECTION
  2
CLASSES
  0
CLASS
  1
ACDBDICTIONARYWDFLT
  2
AcDbDictionaryWithDefault
  3
ObjectDBX Classes
 90
        0
 91
        4
280
     0
281
     0
  0
CLASS
  1
VISUALSTYLE
  2
AcDbVisualStyle
  3
ObjectDBX Classes
 90
     4095
 91
        4
280
     0
281
     0
  0
CLASS
  1
MATERIAL
  2
AcDbMaterial
  3
ObjectDBX Classes
 90
     1153
 91
        4
280
     0
281
     0
  0
CLASS
  1
SCALE
  2
AcDbScale
  3
ObjectDBX Classes
 90
     1153
 91
        4
280
     0
281
     0
  0
CLASS
  1
TABLESTYLE
  2
AcDbTableStyle
  3
ObjectDBX Classes
 90
     4095
 91
        4
280
     0
281
     0
  0
CLASS
  1
MLEADERSTYLE
  2
AcDbMLeaderStyle
  3
ACDB_MLEADERSTYLE_CLASS
 90
     4095
 91
        4
280
     0
281
     0
  0
CLASS
  1
SUN
  2
AcDbSun
  3
SCENEOE
 90
     1153
 91
        4
280
     0
281
     0
  0
CLASS
  1
DICTIONARYVAR
  2
AcDbDictionaryVar
  3
ObjectDBX Classes
 90
        0
 91
        4
280
     0
281
     0
  0
CLASS
  1
CELLSTYLEMAP
  2
AcDbCellStyleMap
  3
ObjectDBX Classes
 90
     1152
 91
        4
280
     0
281
     0
  0
ENDSEC
  0
SECTION
  2
TABLES
  0
TABLE
  2
VPORT
  5
8
330
0
100
AcDbSymbolTable
 70
     1
  0
VPORT
  5
29
330
8
100
AcDbSymbolTableRecord
100
AcDbViewportTableRecord
  2
*Active
 70
     0
 10
0.0
 20
0.0
 11
1.0
 21
1.0
 12
-18.15000000000003
 22
0.0
 13
0.0
 23
0.0
 14
10.0
 24
10.0
 15
10.0
 25
10.0
 16
0.0
 26
0.0
 36
1.0
 17
0.0
 27
0.0
 37
0.0
 40
100.572
 41
0.4161257606490871
 42
50.0
 43
0.0
 44
0.0
 50
0.0
 51
0.0
 71
     0
 72
   100
 73
     1
 74
     3
 75
     0
 76
     0
 77
     0
 78
     0
281
     0
 65
     1
110
0.0
120
0.0
130
0.0
111
1.0
121
0.0
131
0.0
112
0.0
122
1.0
132
0.0
 79
     0
146
0.0
348
2F
 60
     3
 61
     5
292
     1
282
     1
141
0.0
142
0.0
 63
   250
361
6D
  0
ENDTAB
  0
TABLE
  2
LTYPE
  5
5
330
0
100
AcDbSymbolTable
 70
     3
  0
LTYPE
  5
14
330
5
100
AcDbSymbolTableRecord
100
AcDbLinetypeTableRecord
  2
ByBlock
 70
     0
  3

 72
    65
 73
     0
 40
0.0
  0
LTYPE
  5
15
330
5
100
AcDbSymbolTableRecord
100
AcDbLinetypeTableRecord
  2
ByLayer
 70
     0
  3

 72
    65
 73
     0
 40
0.0
  0
LTYPE
  5
16
330
5
100
AcDbSymbolTableRecord
100
AcDbLinetypeTableRecord
  2
Continuous
 70
     0
  3
Solid line
 72
    65
 73
     0
 40
0.0
  0
LTYPE
  5
9A
330
5
100
AcDbSymbolTableRecord
100
AcDbLinetypeTableRecord
  2
Dashed
 70
     0
  3

 72
    65
 73
     2
 40
2.0
 49
1.0
 74
     0
 49
-1.0
 74
     0
  0
LTYPE
  5
12C
330
5
100
AcDbSymbolTableRecord
100
AcDbLinetypeTableRecord
  2
Center
 70
     0
  3

 72
    65
 73
     4
 40
1.5
 49
0.45
 74
     0
 49
-0.5
 74
     0
 49
0.05
 74
     0
 49
-0.5
 74
     0
  0
ENDTAB
  0
TABLE
  2
LAYER
  5
2
330
0
100
AcDbSymbolTable
 70
     6
  0
LAYER
  5
10
330
2
100
AcDbSymbolTableRecord
100
AcDbLayerTableRecord
  2
0
 70
     0
 62
     7
  6
Continuous
370
    -3
390
F
347
46
348
0
  0
LAYER
  5
72
330
2
100
AcDbSymbolTableRecord
100
AcDbLayerTableRecord
  2
AM_6
 70
     0
 62
    -2
  6
Continuous
370
    35
390
F
347
46
348
0
  0
LAYER
  5
9B
330
2
100
AcDbSymbolTableRecord
100
AcDbLayerTableRecord
  2
AM_9
 70
     0
 62
     6
  6
Dashed
370
    25
390
F
347
46
348
0
  0
LAYER
  5
C1
330
2
100
AcDbSymbolTableRecord
100
AcDbLayerTableRecord
  2
AM_4
 70
     0
 62
     7
  6
Continuous
370
    50
390
F
347
46
348
0
  0
LAYER
  5
12D
330
2
100
AcDbSymbolTableRecord
100
AcDbLayerTableRecord
  2
AM_7
 70
     0
 62
     7
  6
Center
370
    25
390
F
347
46
348
0
  0
LAYER
  5
1AA
330
2
100
AcDbSymbolTableRecord
100
AcDbLayerTableRecord
  2
ConnectionPoints
 70
     0
 62
     7
  6
Continuous
370
    50
390
F
347
46
348
0
  0
ENDTAB
  0
TABLE
  2
STYLE
  5
3
330
0
100
AcDbSymbolTable
 70
     1
  0
STYLE
  5
11
330
3
100
AcDbSymbolTableRecord
100
AcDbTextStyleTableRecord
  2
Standard
 70
     0
 40
0.0
 41
1.0
 50
0.0
 71
     0
 42
2.5
  3
txt
  4

  0
ENDTAB
  0
TABLE
  2
VIEW
  5
6
330
0
100
AcDbSymbolTable
 70
     0
  0
ENDTAB
  0
TABLE
  2
UCS
  5
7
330
0
100
AcDbSymbolTable
 70
     0
  0
ENDTAB
  0
TABLE
  2
APPID
  5
9
330
0
100
AcDbSymbolTable
 70
     1
  0
APPID
  5
12
330
9
100
AcDbSymbolTableRecord
100
AcDbRegAppTableRecord
  2
ACAD
 70
     0
  0
ENDTAB
  0
TABLE
  2
DIMSTYLE
  5
A
330
0
100
AcDbSymbolTable
 70
     1
100
AcDbDimStyleTable
  0
DIMSTYLE
105
27
330
A
100
AcDbSymbolTableRecord
100
AcDbDimStyleTableRecord
  2
ISO-25
 70
     0
 41
2.5
 42
0.625
 43
3.75
 44
1.25
 73
     0
 74
     0
 77
     1
 78
     8
140
2.5
141
2.5
143
0.03937007874016
147
0.625
171
     3
172
     1
178
     0
271
     2
272
     2
274
     3
278
    44
283
     0
284
     8
340
11
  0
ENDTAB
  0
TABLE
  2
BLOCK_RECORD
  5
1
330
0
100
AcDbSymbolTable
 70
     5
  0
BLOCK_RECORD
  5
1F
330
1
100
AcDbSymbolTableRecord
100
AcDbBlockTableRecord
  2
*Model_Space
340
22
 70
     0
280
     1
281
     0
  0
BLOCK_RECORD
  5
1B
330
1
100
AcDbSymbolTableRecord
100
AcDbBlockTableRecord
  2
*Paper_Space
340
1E
 70
     0
280
     1
281
     0
  0
BLOCK_RECORD
  5
23
330
1
100
AcDbSymbolTableRecord
100
AcDbBlockTableRecord
  2
*Paper_Space0
340
26
 70
     0
280
     1
281
     0
  0
BLOCK_RECORD
  5
6E
330
1
100
AcDbSymbolTableRecord
100
AcDbBlockTableRecord
  2
1_125677_2
340
0
102
{BLKREFS
331
6F
102
}
 70
     0
280
     1
281
     0
  0
BLOCK_RECORD
  5
88
330
1
100
AcDbSymbolTableRecord
100
AcDbBlockTableRecord
  2
2_405020c_M_0_in_125677_2
340
0
102
{BLKREFS
331
89
102
}
 70
     0
280
     1
281
     0
  0
BLOCK_RECORD
  5
E9
330
1
100
AcDbSymbolTableRecord
100
AcDbBlockTableRecord
  2
3_125625_0_in_125677_2
340
0
102
{BLKREFS
331
EA
102
}
 70
     0
280
     1
281
     0
  0
BLOCK_RECORD
  5
14B
330
1
100
AcDbSymbolTableRecord
100
AcDbBlockTableRecord
  2
4_125677H_0_in_125677_2
340
0
102
{BLKREFS
331
14C
102
}
 70
     0
280
     1
281
     0
  0
ENDTAB
  0
ENDSEC
  0
SECTION
  2
BLOCKS
  0
BLOCK
  5
20
330
1F
100
AcDbEntity
  8
0
100
AcDbBlockBegin
  2
*Model_Space
 70
     0
 10
0.0
 20
0.0
 30
0.0
  3
*Model_Space
  1

  0
ENDBLK
  5
21
330
1F
100
AcDbEntity
  8
0
100
AcDbBlockEnd
  0
BLOCK
  5
1C
330
1B
100
AcDbEntity
 67
     1
  8
0
100
AcDbBlockBegin
  2
*Paper_Space
 70
     0
 10
0.0
 20
0.0
 30
0.0
  3
*Paper_Space
  1

  0
ENDBLK
  5
1D
330
1B
100
AcDbEntity
 67
     1
  8
0
100
AcDbBlockEnd
  0
BLOCK
  5
24
330
23
100
AcDbEntity
  8
0
100
AcDbBlockBegin
  2
*Paper_Space0
 70
     0
 10
0.0
 20
0.0
 30
0.0
  3
*Paper_Space0
  1

  0
ENDBLK
  5
25
330
23
100
AcDbEntity
  8
0
100
AcDbBlockEnd
  0
BLOCK
  5
70
330
6E
100
AcDbEntity
  8
0
100
AcDbBlockBegin
  2
1_125677_2
 70
     2
 10
0.0
 20
0.0
 30
0.0
  3
1_125677_2
  1

  0
ATTDEF
  5
73
330
6E
100
AcDbEntity
  8
AM_6
100
AcDbText
 10
7.365000000000006
 20
49.3
 30
0.0
 40
0.5
  1
Eccentric Collar Two-Bolt Flange Metric Bore
100
AcDbAttributeDefinition
  3

  2
NN
 70
     8
280
     0
  0
ATTDEF
  5
74
330
6E
100
AcDbEntity
  8
AM_6
100
AcDbText
 10
7.365000000000006
 20
48.8
 30
0.0
 40
0.5
  1
Eccentric Collar 2 Bolt Flange Bearings -(Normal Duty)
100
AcDbAttributeDefinition
  3

  2
NT
 70
     8
280
     0
  0
ATTDEF
  5
75
330
6E
100
AcDbEntity
  8
AM_6
100
AcDbText
 10
7.365000000000006
 20
48.3
 30
0.0
 40
0.5
  1
125677
100
AcDbAttributeDefinition
  3

  2
NB
 70
     8
280
     0
  0
ATTDEF
  5
76
330
6E
100
AcDbEntity
  8
AM_6
100
AcDbText
 10
7.365000000000006
 20
47.8
 30
0.0
 40
0.5
  1
$PN.
100
AcDbAttributeDefinition
  3

  2
NBSYN
 70
     8
280
     0
  0
ATTDEF
  5
77
330
6E
100
AcDbEntity
  8
AM_6
100
AcDbText
 10
7.365000000000006
 20
47.3
 30
0.0
 40
0.5
  1
125677
100
AcDbAttributeDefinition
  3

  2
LINA
 70
     8
280
     0
  0
ATTDEF
  5
78
330
6E
100
AcDbEntity
  8
AM_6
100
AcDbText
 10
7.365000000000006
 20
46.8
 30
0.0
 40
0.5
  1
203
100
AcDbAttributeDefinition
  3

  2
SERIES
 70
     8
280
     0
  0
ATTDEF
  5
79
330
6E
100
AcDbEntity
  8
AM_6
100
AcDbText
 10
7.365000000000006
 20
46.3
 30
0.0
 40
0.5
  1
17
100
AcDbAttributeDefinition
  3

  2
SS
 70
     8
280
     0
  0
ATTDEF
  5
7A
330
6E
100
AcDbEntity
  8
AM_6
100
AcDbText
 10
7.365000000000006
 20
45.8
 30
0.0
 40
0.5
  1
125677
100
AcDbAttributeDefinition
  3

  2
PN
 70
     8
280
     0
  0
ATTDEF
  5
7B
330
6E
100
AcDbEntity
  8
AM_6
100
AcDbText
 10
7.365000000000006
 20
45.3
 30
0.0
 40
0.5
  1
F2B-SXR-17M
100
AcDbAttributeDefinition
  3

  2
DESCRIPTION
 70
     8
280
     0
  0
ATTDEF
  5
7C
330
6E
100
AcDbEntity
  8
AM_6
100
AcDbText
 10
7.365000000000006
 20
44.8
 30
0.0
 40
0.5
  1
0.4
100
AcDbAttributeDefinition
  3

  2
W
 70
     8
280
     0
  0
ATTDEF
  5
7D
330
6E
100
AcDbEntity
  8
AM_6
100
AcDbText
 10
7.365000000000006
 20
44.3
 30
0.0
 40
0.5
  1
37.3
100
AcDbAttributeDefinition
  3

  2
A
 70
     8
280
     0
  0
ATTDEF
  5
7E
330
6E
100
AcDbEntity
  8
AM_6
100
AcDbText
 10
7.365000000000006
 20
43.8
 30
0.0
 40
0.5
  1
98.6
100
AcDbAttributeDefinition
  3

  2
B
 70
     8
280
     0
  0
ATTDEF
  5
7F
330
6E
100
AcDbEntity
  8
AM_6
100
AcDbText
 10
7.365000000000006
 20
43.3
 30
0.0
 40
0.5
  1
36.8
100
AcDbAttributeDefinition
  3

  2
C
 70
     8
280
     0
  0
ATTDEF
  5
80
330
6E
100
AcDbEntity
  8
AM_6
100
AcDbText
 10
7.365000000000006
 20
42.8
 30
0.0
 40
0.5
  1
76.2
100
AcDbAttributeDefinition
  3

  2
D
 70
     8
280
     0
  0
ATTDEF
  5
81
330
6E
100
AcDbEntity
  8
AM_6
100
AcDbText
 10
7.365000000000006
 20
42.3
 30
0.0
 40
0.5
  1
M10
100
AcDbAttributeDefinition
  3

  2
F
 70
     8
280
     0
  0
ATTDEF
  5
82
330
6E
100
AcDbEntity
  8
AM_6
100
AcDbText
 10
7.365000000000006
 20
41.8
 30
0.0
 40
0.5
  1
9.7
100
AcDbAttributeDefinition
  3

  2
H
 70
     8
280
     0
  0
ATTDEF
  5
83
330
6E
100
AcDbEntity
  8
AM_6
100
AcDbText
 10
7.365000000000006
 20
41.3
 30
0.0
 40
0.5
  1
15.5
100
AcDbAttributeDefinition
  3

  2
J
 70
     8
280
     0
  0
ATTDEF
  5
84
330
6E
100
AcDbEntity
  8
AM_6
100
AcDbText
 10
7.365000000000006
 20
40.8
 30
0.0
 40
0.5
  1
28.7
100
AcDbAttributeDefinition
  3

  2
L
 70
     8
280
     0
  0
ATTDEF
  5
85
330
6E
100
AcDbEntity
  8
AM_6
100
AcDbText
 10
7.365000000000006
 20
40.3
 30
0.0
 40
0.5
  1
54.1
100
AcDbAttributeDefinition
  3

  2
M
 70
     8
280
     0
  0
ATTDEF
  5
86
330
6E
100
AcDbEntity
  8
AM_6
100
AcDbText
 10
7.365000000000006
 20
39.8
 30
0.0
 40
0.5
  1
28.7
100
AcDbAttributeDefinition
  3

  2
N
 70
     8
280
     0
  0
ATTDEF
  5
87
330
6E
100
AcDbEntity
  8
AM_6
100
AcDbText
 10
7.365000000000006
 20
39.3
 30
0.0
 40
0.5
  1
baldor
100
AcDbAttributeDefinition
  3

  2
COMPANY
 70
     8
280
     0
  0
INSERT
  5
89
330
6E
100
AcDbEntity
  8
0
100
AcDbBlockReference
  2
2_405020c_M_0_in_125677_2
 10
0.0
 20
0.0
 30
0.0
  0
INSERT
  5
EA
330
6E
100
AcDbEntity
  8
0
100
AcDbBlockReference
  2
3_125625_0_in_125677_2
 10
0.0
 20
0.0
 30
0.0
  0
INSERT
  5
14C
330
6E
100
AcDbEntity
  8
0
100
AcDbBlockReference
  2
4_125677H_0_in_125677_2
 10
0.0
 20
0.0
 30
0.0
  0
ENDBLK
  5
71
330
6E
100
AcDbEntity
  8
0
100
AcDbBlockEnd
  0
BLOCK
  5
8A
330
88
100
AcDbEntity
  8
0
100
AcDbBlockBegin
  2
2_405020c_M_0_in_125677_2
 70
     2
 10
0.0
 20
0.0
 30
0.0
  3
2_405020c_M_0_in_125677_2
  1

  0
ATTDEF
  5
8C
330
88
100
AcDbEntity
  8
AM_6
100
AcDbText
 10
-6.458548115672617
 20
29.79689399604836
 30
0.0
 40
0.5
  1
405020C -Metric
100
AcDbAttributeDefinition
  3

  2
NN
 70
     8
280
     0
  0
ATTDEF
  5
8D
330
88
100
AcDbEntity
  8
AM_6
100
AcDbText
 10
-6.458548115672617
 20
29.29689399604836
 30
0.0
 40
0.5
  1
Grease fitting
100
AcDbAttributeDefinition
  3

  2
NT
 70
     8
280
     0
  0
ATTDEF
  5
8E
330
88
100
AcDbEntity
  8
AM_6
100
AcDbText
 10
-6.458548115672617
 20
28.79689399604836
 30
0.0
 40
0.5
  1
405020c-M
100
AcDbAttributeDefinition
  3

  2
NB
 70
     8
280
     0
  0
ATTDEF
  5
8F
330
88
100
AcDbEntity
  8
AM_6
100
AcDbText
 10
-6.458548115672617
 20
28.29689399604836
 30
0.0
 40
0.5
  1
$MN.-M
100
AcDbAttributeDefinition
  3

  2
NBSYN
 70
     8
280
     0
  0
ATTDEF
  5
90
330
88
100
AcDbEntity
  8
AM_6
100
AcDbText
 10
-6.458548115672617
 20
27.79689399604836
 30
0.0
 40
0.5
  1
405020c
100
AcDbAttributeDefinition
  3

  2
LINA
 70
     8
280
     0
  0
ATTDEF
  5
91
330
88
100
AcDbEntity
  8
AM_6
100
AcDbText
 10
-6.458548115672617
 20
27.29689399604836
 30
0.0
 40
0.5
  1
405020c
100
AcDbAttributeDefinition
  3

  2
MN
 70
     8
280
     0
  0
ATTDEF
  5
92
330
88
100
AcDbEntity
  8
AM_6
100
AcDbText
 10
-6.458548115672617
 20
26.79689399604836
 30
0.0
 40
0.5
  1
5.842
100
AcDbAttributeDefinition
  3

  2
NDR
 70
     8
280
     0
  0
ATTDEF
  5
93
330
88
100
AcDbEntity
  8
AM_6
100
AcDbText
 10
-6.458548115672617
 20
26.29689399604836
 30
0.0
 40
0.5
  1
5.359
100
AcDbAttributeDefinition
  3

  2
KDR
 70
     8
280
     0
  0
ATTDEF
  5
94
330
88
100
AcDbEntity
  8
AM_6
100
AcDbText
 10
-6.458548115672617
 20
25.79689399604836
 30
0.0
 40
0.5
  1
4.000
100
AcDbAttributeDefinition
  3

  2
BZE
 70
     8
280
     0
  0
ATTDEF
  5
95
330
88
100
AcDbEntity
  8
AM_6
100
AcDbText
 10
-6.458548115672617
 20
25.29689399604836
 30
0.0
 40
0.5
  1
7
100
AcDbAttributeDefinition
  3

  2
WAF
 70
     8
280
     0
  0
ATTDEF
  5
96
330
88
100
AcDbEntity
  8
AM_6
100
AcDbText
 10
-6.458548115672617
 20
24.79689399604836
 30
0.0
 40
0.5
  1
7.0000
100
AcDbAttributeDefinition
  3

  2
WAF1
 70
     8
280
     0
  0
ATTDEF
  5
97
330
88
100
AcDbEntity
  8
AM_6
100
AcDbText
 10
-6.458548115672617
 20
24.29689399604836
 30
0.0
 40
0.5
  1
13.843
100
AcDbAttributeDefinition
  3

  2
BL
 70
     8
280
     0
  0
ATTDEF
  5
98
330
88
100
AcDbEntity
  8
AM_6
100
AcDbText
 10
-6.458548115672617
 20
23.79689399604836
 30
0.0
 40
0.5
  1
5.080
100
AcDbAttributeDefinition
  3

  2
TL
 70
     8
280
     0
  0
ATTDEF
  5
99
330
88
100
AcDbEntity
  8
AM_6
100
AcDbText
 10
-6.458548115672617
 20
23.29689399604836
 30
0.0
 40
0.5
  1
baldor
100
AcDbAttributeDefinition
  3

  2
COMPANY
 70
     8
280
     0
  0
ELLIPSE
  5
9C
330
88
100
AcDbEntity
  8
AM_9
100
AcDbEllipse
 10
-15.5
 20
18.37270546077047
 30
0.0
 11
2.554375850256109
 21
0.0
 31
0.0
210
0.0
220
0.0
230
1.0
 40
0.7071067811865477
 41
0.0
 42
6.283185307179586
  0
LINE
  5
9D
330
88
100
AcDbEntity
  8
AM_9
100
AcDbLine
 10
-17.52072594216369
 20
25.41189577100162
 30
0.0
 11
-17.52072594216369
 21
24.54226982310403
 31
0.0
  0
LINE
  5
9E
330
88
100
AcDbEntity
  8
AM_9
100
AcDbLine
 10
-13.47927405783631
 20
25.41189577100162
 30
0.0
 11
-13.47927405783631
 21
24.54226982310403
 31
0.0
  0
LINE
  5
9F
330
88
100
AcDbEntity
  8
AM_9
100
AcDbLine
 10
-14.34610329055552
 20
24.47479125925844
 30
0.0
 11
-13.47927405783631
 21
24.54226982310403
 31
0.0
  0
LWPOLYLINE
  5
A0
330
88
100
AcDbEntity
  8
AM_9
100
AcDbPolyline
 90
        3
 70
     0
 43
0.0
 10
-15.5
 20
24.43968164335104
 10
-14.48963702891815
 20
24.46675965588
 10
-14.34610329055552
 20
24.47479125925844
  0
LWPOLYLINE
  5
A1
330
88
100
AcDbEntity
  8
AM_9
100
AcDbPolyline
 90
        3
 70
     0
 43
0.0
 10
-16.60749166927613
 20
24.47208844866541
 10
-16.27561816684089
 20
24.45576953118293
 10
-15.5
 20
24.43968164335104
  0
LWPOLYLINE
  5
A2
330
88
100
AcDbEntity
  8
AM_9
100
AcDbPolyline
 90
        3
 70
     0
 43
0.0
 10
-17.52072594216369
 20
24.54226982310403
 10
-17.04668889479746
 20
24.50154674313168
 10
-16.60749166927613
 20
24.47208844866541
  0
LWPOLYLINE
  5
A3
330
88
100
AcDbEntity
  8
AM_9
100
AcDbPolyline
 90
        3
 70
     0
 43
0.0
 10
-18.53108891324553
 20
23.20224477627458
 10
-18.02590742770461
 20
23.84804122234177
 10
-17.52072594216369
 20
24.54226982310403
  0
LWPOLYLINE
  5
A4
330
88
100
AcDbEntity
  8
AM_9
100
AcDbPolyline
 90
        3
 70
     0
 43
0.0
 10
-13.47927405783631
 20
24.54226982310403
 10
-12.97636400428595
 20
23.85106236593751
 10
-12.46891108675446
 20
23.20224477627458
  0
LWPOLYLINE
  5
A5
330
88
100
AcDbEntity
  8
AM_9
100
AcDbPolyline
 90
        3
 70
     0
 43
0.0
 10
-17.52072594216369
 20
25.41189577100162
 10
-18.02363599571404
 20
24.87123021045401
 10
-18.18259612644421
 20
24.69084084641364
  0
LWPOLYLINE
  5
A6
330
88
100
AcDbEntity
  8
AM_9
100
AcDbPolyline
 90
        4
 70
     0
 43
0.0
 10
-15.59909358002885
 20
25.51421821900542
 10
-16.27334444739873
 20
25.49848913870719
 10
-17.04668889479746
 20
25.45261885097397
 10
-17.52072594216369
 20
25.41189577100162
  0
LINE
  5
A7
330
88
100
AcDbEntity
  8
AM_9
100
AcDbLine
 10
-15.5
 20
25.5144839507546
 30
0.0
 11
-15.58086487514992
 21
25.51430698007867
 31
0.0
  0
LWPOLYLINE
  5
A8
330
88
100
AcDbEntity
  8
AM_9
100
AcDbPolyline
 90
        3
 70
     0
 43
0.0
 10
-12.81736881480098
 20
24.69080050288417
 10
-12.97409257229539
 20
24.86868750468741
 10
-13.47927405783631
 20
25.41189577100162
  0
LWPOLYLINE
  5
A9
330
88
100
AcDbEntity
  8
AM_9
100
AcDbPolyline
 90
        3
 70
     0
 43
0.0
 10
-13.47927405783631
 20
25.41189577100162
 10
-14.48509416493701
 20
25.48716671931107
 10
-15.5
 20
25.5144839507546
  0
LWPOLYLINE
  5
AA
330
88
100
AcDbEntity
  8
AM_9
100
AcDbPolyline
 90
        3
 70
     0
 43
0.0
 10
-12.46891108675446
 20
23.20224477627458
 10
-11.96372960121354
 20
22.61060435526531
 10
-11.45854811567262
 20
22.0673960889511
  0
LWPOLYLINE
  5
AB
330
88
100
AcDbEntity
  8
AM_9
100
AcDbPolyline
 90
        3
 70
     0
 43
0.0
 10
-19.54145188432738
 20
22.0673960889511
 10
-19.03854183077702
 20
22.60806164949872
 10
-18.53108891324553
 20
23.20224477627458
  0
LINE
  5
AC
330
88
100
AcDbEntity
  8
AM_9
100
AcDbLine
 10
-12.69758122739423
 20
18.48710803244156
 30
0.0
 11
-12.54669155988805
 21
21.89951324146743
 31
0.0
  0
LINE
  5
AD
330
88
100
AcDbEntity
  8
AM_9
100
AcDbLine
 10
-18.45330844011194
 20
21.89951324146743
 30
0.0
 11
-18.30241877260576
 21
18.48710803244156
 31
0.0
  0
ELLIPSE
  5
AE
330
88
100
AcDbEntity
  8
AM_9
100
AcDbEllipse
 10
-15.50000000000001
 20
23.03961021660166
 30
0.0
 11
-3.500000000000028
 21
5.215406460709360E-8
 31
0.0
210
0.0
220
0.0
230
1.0
 40
0.7071067811865475
 41
3.850326550048992
 42
5.574451443939775
  0
ELLIPSE
  5
AF
330
88
100
AcDbEntity
  8
AM_9
100
AcDbEllipse
 10
-15.49999999999997
 20
23.75606713505423
 30
0.0
 11
-2.486776909068356
 21
3.045423381884110E-16
 31
0.0
210
0.0
220
0.0
230
1.0
 40
0.7071067811865507
 41
5.364627360532731
 42
5.984242208656105
  0
ELLIPSE
  5
B0
330
88
100
AcDbEntity
  8
AM_9
100
AcDbEllipse
 10
-15.49999999999999
 20
23.75606713505428
 30
0.0
 11
-2.486776909068313
 21
3.045423381884058E-16
 31
0.0
210
0.0
220
0.0
230
1.0
 40
0.7071067811865442
 41
3.440535752113256
 42
4.12298416552164
  0
ELLIPSE
  5
B1
330
88
100
AcDbEntity
  8
AM_9
100
AcDbEllipse
 10
-15.50000000000069
 20
23.7560671350472
 30
0.0
 11
-2.486776909070139
 21
3.045423381886295E-16
 31
0.0
210
0.0
220
0.0
230
1.0
 40
0.7071067811887379
 41
4.31693292202038
 42
5.176238255401612
  0
LWPOLYLINE
  5
B2
330
88
100
AcDbEntity
  8
AM_9
100
AcDbPolyline
 90
       13
 70
     0
 43
0.0
 10
-17.69388369025487
 20
24.25606713505426
 10
-17.69248886908387
 20
24.29688264680323
 10
-17.67471969154844
 20
24.40769619045446
 10
-17.63946067241651
 20
24.51244167298253
 10
-17.58707634737051
 20
24.6162925640734
 10
-17.51682919763896
 20
24.72055666002921
 10
-17.41846918719288
 20
24.83476195334535
 10
-17.29910407354991
 20
24.94571114872263
 10
-17.15907434298266
 20
25.0518373722419
 10
-16.99909956345798
 20
25.15131584740219
 10
-16.8204487332997
 20
25.24217574051944
 10
-16.62504218240486
 20
25.32244135605017
 10
-16.42189229459954
 20
25.38846407200206
  0
LWPOLYLINE
  5
B3
330
88
100
AcDbEntity
  8
AM_9
100
AcDbPolyline
 90
        4
 70
     0
 43
0.0
 10
-13.35605537280836
 20
24.01056782662902
 10
-13.37303755775778
 20
23.97152037472769
 10
-13.43018355920329
 20
23.86759544125837
 10
-13.47723829067347
 20
23.79944411993619
  0
LWPOLYLINE
  5
B4
330
88
100
AcDbEntity
  8
AM_9
100
AcDbPolyline
 90
       16
 70
     0
 43
0.0
 10
-14.62883548165052
 20
25.40248941233895
 10
-14.55415547543741
 20
25.38151356923256
 10
-14.34621464674852
 20
25.31173560426965
 10
-14.15359620248638
 20
25.23010355156003
 10
-13.97855414487178
 20
25.13856226246003
 10
-13.82289340223287
 20
25.03930508027121
 10
-13.68792619136801
 20
24.93472343281194
 10
-13.57442469710014
 20
24.82734656077652
 10
-13.48235143318887
 20
24.71947843242665
 10
-13.41096413095947
 20
24.61294506681941
 10
-13.35894037660536
 20
24.50861613976661
 10
-13.32476646231801
 20
24.40564076588046
 10
-13.30774546819562
 20
24.300179646831
 10
-13.3104600390144
 20
24.18401072338744
 10
-13.33317355868307
 20
24.07574232785205
 10
-13.35605537280836
 20
24.01056782662902
  0
LWPOLYLINE
  5
B5
330
88
100
AcDbEntity
  8
AM_9
100
AcDbPolyline
 90
        4
 70
     0
 43
0.0
 10
-17.62459801191799
 20
23.96649248055124
 10
-17.65496747551033
 20
24.03955456865933
 10
-17.68316052189927
 20
24.14275859855978
 10
-17.69388369025487
 20
24.25606713505426
  0
LWPOLYLINE
  5
B6
330
88
100
AcDbEntity
  8
AM_9
100
AcDbPolyline
 90
        4
 70
     0
 43
0.0
 10
-17.52640967979028
 20
23.80435185957146
 10
-17.54489929990049
 20
23.83012171341896
 10
-17.60934503016063
 20
23.93591528074835
 10
-17.62459801191799
 20
23.96649248055124
  0
ELLIPSE
  5
B7
330
88
100
AcDbEntity
  8
AM_9
100
AcDbEllipse
 10
-15.5
 20
24.55490337378438
 30
0.0
 11
-2.287575903218217
 21
2.801472507682805E-16
 31
0.0
210
0.0
220
0.0
230
1.0
 40
0.7071067811865487
 41
2.656480407116015
 42
6.283185307179586
  0
ELLIPSE
  5
B8
330
88
100
AcDbEntity
  8
AM_9
100
AcDbEllipse
 10
-15.50000000000005
 20
26.10809003531509
 30
0.0
 11
-3.311838226937759
 21
4.055832083913172E-16
 31
0.0
210
0.0
220
0.0
230
1.0
 40
0.7071067811865447
 41
2.687019319447521
 42
6.675524642529389
  0
ELLIPSE
  5
B9
330
88
100
AcDbEntity
  8
AM_9
100
AcDbEllipse
 10
-15.49999999999935
 20
26.1080900353134
 30
0.0
 11
-3.311838226938526
 21
4.055832083914112E-16
 31
0.0
210
0.0
220
0.0
230
1.0
 40
0.7071067811862876
 41
0.4009459137807792
 42
0.4851122464731683
  0
ELLIPSE
  5
BA
330
88
100
AcDbEntity
  8
AM_9
100
AcDbEllipse
 10
-15.50000000000473
 20
26.10809003511389
 30
0.0
 11
-3.311838226943056
 21
4.055832083919660E-16
 31
0.0
210
0.0
220
0.0
230
1.0
 40
0.7071067811581642
 41
-3.627395055467268
 42
-3.619026236798729
  0
ELLIPSE
  5
BB
330
88
100
AcDbEntity
  8
AM_9
100
AcDbEllipse
 10
-15.5
 20
26.68321490462074
 30
0.0
 11
-3.326035293353598
 21
4.073218475856612E-16
 31
0.0
210
0.0
220
0.0
230
1.0
 40
0.7071067811865481
 41
3.5799744285438
 42
5.840209256339216
  0
ELLIPSE
  5
BC
330
88
100
AcDbEntity
  8
AM_9
100
AcDbEllipse
 10
-15.50000000000018
 20
27.9457755574302
 30
0.0
 11
-2.568122605604578
 21
3.826800922618219E-8
 31
0.0
210
0.0
220
0.0
230
1.0
 40
0.7071067811865476
 41
3.590897571056857
 42
3.687927907813412
  0
ELLIPSE
  5
BD
330
88
100
AcDbEntity
  8
AM_9
100
AcDbEllipse
 10
-15.5
 20
27.94577555743028
 30
0.0
 11
-2.568122605604367
 21
3.145043128771349E-16
 31
0.0
210
0.0
220
0.0
230
1.0
 40
0.7071067811865477
 41
3.699350670398307
 42
5.844803532225574
  0
ELLIPSE
  5
BE
330
88
100
AcDbEntity
  8
AM_9
100
AcDbEllipse
 10
-15.5
 20
21.96480790919811
 30
0.0
 11
-3.499999999999996
 21
4.286263797015732E-16
 31
0.0
210
0.0
220
0.0
230
1.0
 40
0.7071067811865448
 41
0.0
 42
6.283185307179586
  0
ELLIPSE
  5
BF
330
88
100
AcDbEntity
  8
AM_9
100
AcDbEllipse
 10
-15.5
 20
21.96480790919812
 30
0.0
 11
-2.954751686640449
 21
3.618527195319469E-16
 31
0.0
210
0.0
220
0.0
230
1.0
 40
0.7071067811865479
 41
0.0
 42
6.283185307179586
  0
ELLIPSE
  5
C0
330
88
100
AcDbEntity
  8
AM_9
100
AcDbEllipse
 10
-15.49999999999999
 20
18.54906668197314
 30
0.0
 11
-2.803788281157612
 21
3.433650344006529E-16
 31
0.0
210
0.0
220
0.0
230
1.0
 40
0.7071067811865281
 41
0.0
 42
6.283185307179586
  0
LINE
  5
C2
330
88
100
AcDbEntity
  8
AM_4
100
AcDbLine
 10
-18.18259612644421
 20
24.69084084641364
 30
0.0
 11
-18.53108891324553
 21
24.27704708367814
 31
0.0
  0
LINE
  5
C3
330
88
100
AcDbEntity
  8
AM_4
100
AcDbLine
 10
-12.46891108675446
 20
24.27704708367814
 30
0.0
 11
-12.81736881480098
 21
24.69080050288417
 31
0.0
  0
LWPOLYLINE
  5
C4
330
88
100
AcDbEntity
  8
AM_4
100
AcDbPolyline
 90
        3
 70
     0
 43
0.0
 10
-11.45854811567262
 20
22.9370220368487
 10
-11.96145816922297
 20
23.62822949401522
 10
-12.46891108675446
 20
24.27704708367814
  0
LWPOLYLINE
  5
C5
330
88
100
AcDbEntity
  8
AM_4
100
AcDbPolyline
 90
        3
 70
     0
 43
0.0
 10
-18.53108891324553
 20
24.27704708367814
 10
-19.03627039878646
 20
23.63125063761095
 10
-19.54145188432738
 20
22.9370220368487
  0
LWPOLYLINE
  5
C6
330
88
100
AcDbEntity
  8
AM_4
100
AcDbPolyline
 90
        3
 70
     0
 43
0.0
 10
-12.46891108675446
 20
20.72737104212166
 10
-12.97409257229539
 20
20.13573062111239
 10
-13.47927405783631
 20
19.59252235479818
  0
LWPOLYLINE
  5
C7
330
88
100
AcDbEntity
  8
AM_4
100
AcDbPolyline
 90
        3
 70
     0
 43
0.0
 10
-11.45854811567262
 20
22.0673960889511
 10
-11.96145816922297
 20
21.37618863178459
 10
-12.46891108675446
 20
20.72737104212166
  0
LINE
  5
C8
330
88
100
AcDbEntity
  8
AM_4
100
AcDbLine
 10
-11.45854811567262
 20
22.9370220368487
 30
0.0
 11
-11.45854811567262
 21
22.0673960889511
 31
0.0
  0
LWPOLYLINE
  5
C9
330
88
100
AcDbEntity
  8
AM_4
100
AcDbPolyline
 90
        3
 70
     0
 43
0.0
 10
-12.46891108675446
 20
21.80217334952522
 10
-11.96372960121354
 20
22.3938137705345
 10
-11.45854811567262
 20
22.9370220368487
  0
LWPOLYLINE
  5
CA
330
88
100
AcDbEntity
  8
AM_4
100
AcDbPolyline
 90
        4
 70
     0
 43
0.0
 10
-15.5
 20
19.48993417504521
 10
-16.27334444739873
 20
19.50592898709261
 10
-17.04668889479746
 20
19.55179927482584
 10
-17.52072594216369
 20
19.59252235479818
  0
LWPOLYLINE
  5
CB
330
88
100
AcDbEntity
  8
AM_4
100
AcDbPolyline
 90
        3
 70
     0
 43
0.0
 10
-13.47927405783631
 20
19.59252235479818
 10
-14.48509416493701
 20
19.51725140648874
 10
-15.5
 20
19.48993417504521
  0
LINE
  5
CC
330
88
100
AcDbEntity
  8
AM_4
100
AcDbLine
 10
-13.47927405783631
 20
20.46214830269578
 30
0.0
 11
-13.47927405783631
 21
19.59252235479818
 31
0.0
  0
LWPOLYLINE
  5
CD
330
88
100
AcDbEntity
  8
AM_4
100
AcDbPolyline
 90
        4
 70
     0
 43
0.0
 10
-17.52072594216369
 20
20.46214830269578
 10
-17.04668889479746
 20
20.50287138266813
 10
-16.27561816684089
 20
20.54864859461687
 10
-15.5
 20
20.56473648244876
  0
LWPOLYLINE
  5
CE
330
88
100
AcDbEntity
  8
AM_4
100
AcDbPolyline
 90
        3
 70
     0
 43
0.0
 10
-15.5
 20
20.56473648244876
 10
-14.48963702891815
 20
20.5376584699198
 10
-13.47927405783631
 20
20.46214830269578
  0
LWPOLYLINE
  5
CF
330
88
100
AcDbEntity
  8
AM_4
100
AcDbPolyline
 90
        3
 70
     0
 43
0.0
 10
-13.47927405783631
 20
20.46214830269578
 10
-12.97636400428595
 20
21.15335575986229
 10
-12.46891108675446
 20
21.80217334952522
  0
LINE
  5
D0
330
88
100
AcDbEntity
  8
AM_4
100
AcDbLine
 10
-19.54145188432738
 20
22.9370220368487
 30
0.0
 11
-19.54145188432738
 21
22.0673960889511
 31
0.0
  0
LWPOLYLINE
  5
D1
330
88
100
AcDbEntity
  8
AM_4
100
AcDbPolyline
 90
        3
 70
     0
 43
0.0
 10
-18.53108891324553
 20
20.72737104212166
 10
-19.03627039878646
 20
21.37316748818885
 10
-19.54145188432738
 20
22.0673960889511
  0
LWPOLYLINE
  5
D2
330
88
100
AcDbEntity
  8
AM_4
100
AcDbPolyline
 90
        3
 70
     0
 43
0.0
 10
-17.52072594216369
 20
19.59252235479818
 10
-18.02363599571404
 20
20.1331879153458
 10
-18.53108891324553
 20
20.72737104212166
  0
LINE
  5
D3
330
88
100
AcDbEntity
  8
AM_4
100
AcDbLine
 10
-17.52072594216369
 20
20.46214830269578
 30
0.0
 11
-17.52072594216369
 21
19.59252235479818
 31
0.0
  0
LWPOLYLINE
  5
D4
330
88
100
AcDbEntity
  8
AM_4
100
AcDbPolyline
 90
        3
 70
     0
 43
0.0
 10
-18.53108891324553
 20
21.80217334952522
 10
-18.02590742770461
 20
21.15637690345804
 10
-17.52072594216369
 20
20.46214830269578
  0
LWPOLYLINE
  5
D5
330
88
100
AcDbEntity
  8
AM_4
100
AcDbPolyline
 90
        3
 70
     0
 43
0.0
 10
-19.54145188432738
 20
22.9370220368487
 10
-19.03854183077702
 20
22.39635647630109
 10
-18.53108891324553
 20
21.80217334952522
  0
ELLIPSE
  5
D6
330
88
100
AcDbEntity
  8
AM_4
100
AcDbEllipse
 10
-15.5
 20
23.03961021660171
 30
0.0
 11
-3.500000000000014
 21
5.215406460709339E-8
 31
0.0
210
0.0
220
0.0
230
1.0
 40
0.7071067811865523
 41
5.574451443939793
 42
10.13351185722856
  0
ELLIPSE
  5
D7
330
88
100
AcDbEntity
  8
AM_4
100
AcDbEllipse
 10
-15.49999999999995
 20
23.75606713505409
 30
0.0
 11
-2.486776909068375
 21
3.045423381884134E-16
 31
0.0
210
0.0
220
0.0
230
1.0
 40
0.707106781186558
 41
5.984242208656037
 42
9.723721059292942
  0
LINE
  5
D8
330
88
100
AcDbEntity
  8
AM_4
100
AcDbLine
 10
-13.47635862639331
 20
23.8006225560474
 30
0.0
 11
-12.57027301288886
 21
25.01607991118645
 31
0.0
  0
LINE
  5
D9
330
88
100
AcDbEntity
  8
AM_4
100
AcDbLine
 10
-18.42972698711113
 20
25.01607991118645
 30
0.0
 11
-17.52364137360668
 21
23.8006225560474
 31
0.0
  0
ELLIPSE
  5
DA
330
88
100
AcDbEntity
  8
AM_4
100
AcDbEllipse
 10
-15.5
 20
24.55490337378438
 30
0.0
 11
-2.287575903218219
 21
2.801472507682807E-16
 31
0.0
210
0.0
220
0.0
230
1.0
 40
0.7071067811865481
 41
0.4851122464737809
 42
2.656480407116012
  0
LWPOLYLINE
  5
DB
330
88
100
AcDbEntity
  8
AM_4
100
AcDbPolyline
 90
        8
 70
     0
 43
0.0
 10
-18.90553043990116
 20
26.4069262740453
 10
-18.89872933081932
 20
26.23392663513249
 10
-18.86636849633494
 20
25.99290228077659
 10
-18.80796406263098
 20
25.75659008624775
 10
-18.72417128090641
 20
25.52645122685393
 10
-18.61560428507484
 20
25.30382449283508
 10
-18.48285380125921
 20
25.09001376877026
 10
-18.41403178902252
 20
24.99524304094956
  0
LWPOLYLINE
  5
DC
330
88
100
AcDbEntity
  8
AM_4
100
AcDbPolyline
 90
       13
 70
     0
 43
0.0
 10
-12.57169362940925
 20
25.01417604717485
 10
-12.45211424700079
 20
25.18878773605292
 10
-12.3250400146887
 20
25.41825414900175
 10
-12.22560038212647
 20
25.65508680425417
 10
-12.15411501175144
 20
25.89683856808519
 10
-12.11053766567143
 20
26.14121788466829
 10
-12.09456787653439
 20
26.38611452201768
 10
-12.10574568216718
 20
26.62960295036513
 10
-12.14349869598767
 20
26.86980322896286
 10
-12.20715699588732
 20
27.10496357159241
 10
-12.29607455521467
 20
27.3336701678084
 10
-12.40964464948557
 20
27.55459688959496
 10
-12.49896554897557
 20
27.6972168249616
  0
LWPOLYLINE
  5
DD
330
88
100
AcDbEntity
  8
AM_4
100
AcDbPolyline
 90
        6
 70
     0
 43
0.0
 10
-18.59324527379411
 20
27.54960364135587
 10
-18.69760613542866
 20
27.34758266209175
 10
-18.79132948017996
 20
27.10954702021913
 10
-18.85708204581332
 20
26.86707585661313
 10
-18.89497084826709
 20
26.62242470269196
 10
-18.90553043990116
 20
26.4069262740453
  0
LWPOLYLINE
  5
DE
330
88
100
AcDbEntity
  8
AM_4
100
AcDbPolyline
 90
        3
 70
     0
 43
0.0
 10
-18.50347245415314
 20
27.69359138093761
 10
-18.57614721526524
 20
27.57876375105005
 10
-18.59324527379411
 20
27.54960364135587
  0
ELLIPSE
  5
DF
330
88
100
AcDbEntity
  8
AM_4
100
AcDbEllipse
 10
-15.5
 20
26.10809003531518
 30
0.0
 11
-3.311838226937805
 21
4.055832083913229E-16
 31
0.0
210
0.0
220
0.0
230
1.0
 40
0.7071067811865477
 41
0.4935318157425836
 42
2.655790251652216
  0
ELLIPSE
  5
E0
330
88
100
AcDbEntity
  8
AM_4
100
AcDbEllipse
 10
-15.49999999957421
 20
26.108090035275
 30
0.0
 11
-3.311838227420155
 21
4.055832084503937E-16
 31
0.0
210
0.0
220
0.0
230
1.0
 40
0.7071067811580983
 41
0.4851122464152482
 42
0.4935318156833544
  0
ELLIPSE
  5
E1
330
88
100
AcDbEntity
  8
AM_4
100
AcDbEllipse
 10
-15.5
 20
28.16118463273584
 30
0.0
 11
2.107870178878143
 21
0.0
 31
0.0
210
0.0
220
0.0
230
1.0
 40
0.7071067811865478
 41
0.0
 42
6.283185307179586
  0
LWPOLYLINE
  5
E2
330
88
100
AcDbEntity
  8
AM_4
100
AcDbPolyline
 90
       23
 70
     0
 43
0.0
 10
-13.18837742201614
 20
28.73690319327523
 10
-13.22801216039152
 20
28.7927931437042
 10
-13.36898354645755
 20
28.96309894000343
 10
-13.53255484155056
 20
29.12185395880199
 10
-13.71725723922316
 20
29.26727952500245
 10
-13.92117217315242
 20
29.39765283628669
 10
-14.14199995056785
 20
29.51143782278298
 10
-14.37718971792557
 20
29.60736996419033
 10
-14.62405066232976
 20
29.68447274066585
 10
-14.8798354604882
 20
29.74203914492423
 10
-15.14189669546472
 20
29.77960938596457
 10
-15.40760762879644
 20
29.79689399604836
 10
-15.67436230592802
 20
29.79374853701725
 10
-15.93956631142596
 20
29.77015869107975
 10
-16.20061260998627
 20
29.72623895047521
 10
-16.45495419585951
 20
29.66222019834903
 10
-16.70005581706705
 20
29.57845132099549
 10
-16.93337794298898
 20
29.47541529894342
 10
-17.1523466260346
 20
29.35377350947218
 10
-17.3542685996006
 20
29.214497065478
 10
-17.53651724302566
 20
29.05888610605857
 10
-17.69657512122025
 20
28.88867731191924
 10
-17.82462156391811
 20
28.71758789478608
  0
ELLIPSE
  5
E3
330
88
100
AcDbEntity
  8
AM_4
100
AcDbEllipse
 10
-15.50000000008487
 20
27.94577555740173
 30
0.0
 11
-2.568122605698354
 21
3.145043128886450E-16
 31
0.0
210
0.0
220
0.0
230
1.0
 40
0.7071067811865469
 41
3.579974428544009
 42
3.590897551970993
  0
ELLIPSE
  5
E4
330
88
100
AcDbEntity
  8
AM_4
100
AcDbEllipse
 10
-15.49999999999998
 20
26.68321490462078
 30
0.0
 11
-3.326035293353613
 21
4.073218475856629E-16
 31
0.0
210
0.0
220
0.0
230
1.0
 40
0.7071067811865441
 41
5.844803532225594
 42
9.863159735723375
  0
ELLIPSE
  5
E5
330
88
100
AcDbEntity
  8
AM_4
100
AcDbEllipse
 10
-15.50000000000006
 20
27.94577555743033
 30
0.0
 11
-2.5681226056043
 21
3.145043128771266E-16
 31
0.0
210
0.0
220
0.0
230
1.0
 40
0.7071067811865455
 41
5.844803532225592
 42
9.863159735723352
  0
LINE
  5
E6
330
88
100
AcDbEntity
  8
AM_4
100
AcDbLine
 10
-17.82528027513074
 20
28.71659504327118
 30
0.0
 11
-18.51152454526359
 21
27.68152114168147
 31
0.0
  0
LINE
  5
E7
330
88
100
AcDbEntity
  8
AM_4
100
AcDbLine
 10
-12.48847545473641
 20
27.68152114168147
 30
0.0
 11
-13.17471972486925
 21
28.71659504327117
 31
0.0
  0
ELLIPSE
  5
E8
330
88
100
AcDbEntity
  8
AM_4
100
AcDbEllipse
 10
-15.50000000062496
 20
26.68321490415521
 30
0.0
 11
-3.326035292663089
 21
4.073218475010982E-16
 31
0.0
210
0.0
220
0.0
230
1.0
 40
0.7071067812728784
 41
-0.4429760510524678
 42
-0.4383817751660679
  0
ENDBLK
  5
8B
330
88
100
AcDbEntity
  8
0
100
AcDbBlockEnd
  0
BLOCK
  5
EB
330
E9
100
AcDbEntity
  8
0
100
AcDbBlockBegin
  2
3_125625_0_in_125677_2
 70
     2
 10
0.0
 20
0.0
 30
0.0
  3
3_125625_0_in_125677_2
  1

  0
ATTDEF
  5
ED
330
E9
100
AcDbEntity
  8
AM_6
100
AcDbText
 10
7.365000000000006
 20
19.99994806403087
 30
0.0
 40
0.5
  1
Eccentric Collar Insert Metric Bore
100
AcDbAttributeDefinition
  3

  2
NN
 70
     8
280
     0
  0
ATTDEF
  5
EE
330
E9
100
AcDbEntity
  8
AM_6
100
AcDbText
 10
7.365000000000006
 20
19.49994806403087
 30
0.0
 40
0.5
  1
SXR Normal Duty Bearing Inserts
100
AcDbAttributeDefinition
  3

  2
NT
 70
     8
280
     0
  0
ATTDEF
  5
EF
330
E9
100
AcDbEntity
  8
AM_6
100
AcDbText
 10
7.365000000000006
 20
18.99994806403087
 30
0.0
 40
0.5
  1
125625
100
AcDbAttributeDefinition
  3

  2
NB
 70
     8
280
     0
  0
ATTDEF
  5
F0
330
E9
100
AcDbEntity
  8
AM_6
100
AcDbText
 10
7.365000000000006
 20
18.49994806403087
 30
0.0
 40
0.5
  1
$PN.
100
AcDbAttributeDefinition
  3

  2
NBSYN
 70
     8
280
     0
  0
ATTDEF
  5
F1
330
E9
100
AcDbEntity
  8
AM_6
100
AcDbText
 10
7.365000000000006
 20
17.99994806403087
 30
0.0
 40
0.5
  1
125625
100
AcDbAttributeDefinition
  3

  2
LINA
 70
     8
280
     0
  0
ATTDEF
  5
F2
330
E9
100
AcDbEntity
  8
AM_6
100
AcDbText
 10
7.365000000000006
 20
17.49994806403087
 30
0.0
 40
0.5
  1
203
100
AcDbAttributeDefinition
  3

  2
SERIES
 70
     8
280
     0
  0
ATTDEF
  5
F3
330
E9
100
AcDbEntity
  8
AM_6
100
AcDbText
 10
7.365000000000006
 20
16.99994806403087
 30
0.0
 40
0.5
  1
17
100
AcDbAttributeDefinition
  3

  2
SS
 70
     8
280
     0
  0
ATTDEF
  5
F4
330
E9
100
AcDbEntity
  8
AM_6
100
AcDbText
 10
7.365000000000006
 20
16.49994806403087
 30
0.0
 40
0.5
  1
125625
100
AcDbAttributeDefinition
  3

  2
PN
 70
     8
280
     0
  0
ATTDEF
  5
F5
330
E9
100
AcDbEntity
  8
AM_6
100
AcDbText
 10
7.365000000000006
 20
15.99994806403087
 30
0.0
 40
0.5
  1
INS-SXR-17M
100
AcDbAttributeDefinition
  3

  2
DESCRIPTION
 70
     8
280
     0
  0
ATTDEF
  5
F6
330
E9
100
AcDbEntity
  8
AM_6
100
AcDbText
 10
7.365000000000006
 20
15.49994806403087
 30
0.0
 40
0.5
  1
0.1
100
AcDbAttributeDefinition
  3

  2
WEIGHT
 70
     8
280
     0
  0
ATTDEF
  5
F7
330
E9
100
AcDbEntity
  8
AM_6
100
AcDbText
 10
7.365000000000006
 20
14.99994806403087
 30
0.0
 40
0.5
  1
37.3
100
AcDbAttributeDefinition
  3

  2
A
 70
     8
280
     0
  0
ATTDEF
  5
F8
330
E9
100
AcDbEntity
  8
AM_6
100
AcDbText
 10
7.365000000000006
 20
14.49994806403087
 30
0.0
 40
0.5
  1
13.0
100
AcDbAttributeDefinition
  3

  2
C
 70
     8
280
     0
  0
ATTDEF
  5
F9
330
E9
100
AcDbEntity
  8
AM_6
100
AcDbText
 10
7.365000000000006
 20
13.99994806403087
 30
0.0
 40
0.5
  1
40.000
100
AcDbAttributeDefinition
  3

  2
D
 70
     8
280
     0
  0
ATTDEF
  5
FA
330
E9
100
AcDbEntity
  8
AM_6
100
AcDbText
 10
7.365000000000006
 20
13.49994806403087
 30
0.0
 40
0.5
  1
3.8
100
AcDbAttributeDefinition
  3

  2
J
 70
     8
280
     0
  0
ATTDEF
  5
FB
330
E9
100
AcDbEntity
  8
AM_6
100
AcDbText
 10
7.365000000000006
 20
12.99994806403087
 30
0.0
 40
0.5
  1
28.7
100
AcDbAttributeDefinition
  3

  2
L
 70
     8
280
     0
  0
ATTDEF
  5
FC
330
E9
100
AcDbEntity
  8
AM_6
100
AcDbText
 10
7.365000000000006
 20
12.49994806403087
 30
0.0
 40
0.5
  1
M6 x 1
100
AcDbAttributeDefinition
  3

  2
N
 70
     8
280
     0
  0
ATTDEF
  5
FD
330
E9
100
AcDbEntity
  8
AM_6
100
AcDbText
 10
7.365000000000006
 20
11.99994806403087
 30
0.0
 40
0.5
  1
14.0
100
AcDbAttributeDefinition
  3

  2
W
 70
     8
280
     0
  0
ATTDEF
  5
FE
330
E9
100
AcDbEntity
  8
AM_6
100
AcDbText
 10
7.365000000000006
 20
11.49994806403087
 30
0.0
 40
0.5
  1
23.3
100
AcDbAttributeDefinition
  3

  2
Y
 70
     8
280
     0
  0
ATTDEF
  5
FF
330
E9
100
AcDbEntity
  8
AM_6
100
AcDbText
 10
7.365000000000006
 20
10.99994806403087
 30
0.0
 40
0.5
  1
24.4
100
AcDbAttributeDefinition
  3

  2
Z
 70
     8
280
     0
  0
ATTDEF
  5
100
330
E9
100
AcDbEntity
  8
AM_6
100
AcDbText
 10
7.365000000000006
 20
10.49994806403087
 30
0.0
 40
0.5
  1
baldor
100
AcDbAttributeDefinition
  3

  2
COMPANY
 70
     8
280
     0
  0
ARC
  5
101
330
E9
100
AcDbEntity
  8
AM_9
100
AcDbCircle
 10
-9.69999999999999
 20
-18.20770182554893
 30
0.0
 40
2.000000000000003
100
AcDbArc
 50
212.4383347367911
 51
351.1388266911504
  0
LINE
  5
102
330
E9
100
AcDbEntity
  8
AM_9
100
AcDbLine
 10
-27.6161519488915
 20
-8.500000000000002
 30
0.0
 11
0.2400000000000076
 21
-8.500000000000002
 31
0.0
  0
LINE
  5
103
330
E9
100
AcDbEntity
  8
AM_9
100
AcDbLine
 10
0.2400000000000076
 20
8.500000000000002
 30
0.0
 11
-27.6161519488915
 21
8.500000000000002
 31
0.0
  0
LINE
  5
104
330
E9
100
AcDbEntity
  8
AM_9
100
AcDbLine
 10
-36.54
 20
-8.500000000000002
 30
0.0
 11
-27.9838474751085
 21
-8.500000000000002
 31
0.0
  0
LINE
  5
105
330
E9
100
AcDbEntity
  8
AM_9
100
AcDbLine
 10
-27.9838474751085
 20
8.500000000000002
 30
0.0
 11
-36.54
 21
8.500000000000002
 31
0.0
  0
LINE
  5
106
330
E9
100
AcDbEntity
  8
AM_9
100
AcDbLine
 10
-27.6161519488915
 20
8.5
 30
0.0
 11
-27.79999971199999
 21
8.683847763108503
 31
0.0
  0
LINE
  5
107
330
E9
100
AcDbEntity
  8
AM_9
100
AcDbLine
 10
-27.79999971199999
 20
-8.683847763108503
 30
0.0
 11
-27.6161519488915
 21
-8.5
 31
0.0
  0
LINE
  5
108
330
E9
100
AcDbEntity
  8
AM_9
100
AcDbLine
 10
-27.6161519488915
 20
8.5
 30
0.0
 11
-27.6161519488915
 21
-8.5
 31
0.0
  0
LINE
  5
109
330
E9
100
AcDbEntity
  8
AM_9
100
AcDbLine
 10
-27.9838474751085
 20
-8.500000000000002
 30
0.0
 11
-27.79999971199999
 21
-8.683847763108504
 31
0.0
  0
LINE
  5
10A
330
E9
100
AcDbEntity
  8
AM_9
100
AcDbLine
 10
-27.79999971199999
 20
8.683847763108504
 30
0.0
 11
-27.9838474751085
 21
8.500000000000002
 31
0.0
  0
LINE
  5
10B
330
E9
100
AcDbEntity
  8
AM_9
100
AcDbLine
 10
-27.79999971199999
 20
8.683847763108504
 30
0.0
 11
-27.79999971199999
 21
-8.683847763108504
 31
0.0
  0
LINE
  5
10C
330
E9
100
AcDbEntity
  8
AM_9
100
AcDbLine
 10
-27.9838474751085
 20
8.500000000000002
 30
0.0
 11
-27.9838474751085
 21
-8.500000000000002
 31
0.0
  0
LINE
  5
10D
330
E9
100
AcDbEntity
  8
AM_9
100
AcDbLine
 10
0.2400000000000076
 20
-8.500000000000002
 30
0.0
 11
0.5000000000000039
 21
-8.76
 31
0.0
  0
LINE
  5
10E
330
E9
100
AcDbEntity
  8
AM_9
100
AcDbLine
 10
0.5000000000000039
 20
8.76
 30
0.0
 11
0.2400000000000076
 21
8.500000000000002
 31
0.0
  0
LINE
  5
10F
330
E9
100
AcDbEntity
  8
AM_9
100
AcDbLine
 10
-36.54
 20
8.500000000000002
 30
0.0
 11
-36.8
 21
8.76
 31
0.0
  0
LINE
  5
110
330
E9
100
AcDbEntity
  8
AM_9
100
AcDbLine
 10
-36.8
 20
-8.76
 30
0.0
 11
-36.54
 21
-8.500000000000002
 31
0.0
  0
LINE
  5
111
330
E9
100
AcDbEntity
  8
AM_9
100
AcDbLine
 10
-36.54
 20
8.500000000000002
 30
0.0
 11
-36.54
 21
-8.500000000000002
 31
0.0
  0
LWPOLYLINE
  5
112
330
E9
100
AcDbEntity
  8
AM_9
100
AcDbPolyline
 90
       20
 70
     0
 43
0.0
 10
-34.758499856
 20
2.199961883371427
 10
-34.72614526699356
 20
1.813557087887049
 10
-34.62638320169783
 20
1.42232155315004
 10
-34.4682401821966
 20
1.060047290061507
 10
-34.24772769381949
 20
0.7163515466884682
 10
-33.97553820641826
 20
0.4123122657586054
 10
-33.64849614109532
 20
0.1490316293893223
 10
-33.28512599324121
 20
-0.0544364433120678
 10
-32.88013600096703
 20
-0.1963890330180774
 10
-32.48012818920419
 20
-0.2618989677938937
 10
-32.06223953959856
 20
-0.2567673863142486
 10
-31.67652820135913
 20
-0.1849933407350513
 10
-31.29758192593259
 20
-0.0465123890338775
 10
-30.95129968603383
 20
0.149169460643962
 10
-30.63264271160899
 20
0.4045599401812571
 10
-30.35650588623254
 20
0.7108025425937984
 10
-30.12813888727941
 20
1.066856941533143
 10
-29.96610130287862
 20
1.44443432476527
 10
-29.86764348243692
 20
1.852616859396144
 10
-29.84149986406254
 20
2.200154205084337
  0
LINE
  5
113
330
E9
100
AcDbEntity
  8
AM_9
100
AcDbLine
 10
-29.841499856
 20
2.199731935738805
 30
0.0
 11
-29.841499856
 21
3.631983784604419
 31
0.0
  0
LINE
  5
114
330
E9
100
AcDbEntity
  8
AM_9
100
AcDbLine
 10
-34.758499856
 20
3.63198378460442
 30
0.0
 11
-34.758499856
 21
2.199961883371427
 31
0.0
  0
LWPOLYLINE
  5
115
330
E9
100
AcDbEntity
  8
AM_9
100
AcDbPolyline
 90
        4
 70
     0
 43
0.0
 10
-34.63650304249785
 20
2.929813220227158
 10
-34.64834158238236
 20
2.8947671243686
 10
-34.73007993073004
 20
2.557882223869301
 10
-34.758499856
 20
2.199961883371427
  0
LWPOLYLINE
  5
116
330
E9
100
AcDbEntity
  8
AM_9
100
AcDbPolyline
 90
        4
 70
     0
 43
0.0
 10
-29.84149986406254
 20
2.200154205084337
 10
-29.84186544950081
 20
2.240886691770525
 10
-29.8836172944764
 20
2.634513902728216
 10
-29.95904445324194
 20
2.916862208016934
  0
LINE
  5
117
330
E9
100
AcDbEntity
  8
AM_9
100
AcDbLine
 10
-6.999999999999996
 20
-12.2
 30
0.0
 11
0.0000000000000023
 21
-12.2
 31
0.0
  0
LINE
  5
118
330
E9
100
AcDbEntity
  8
AM_9
100
AcDbLine
 10
0.0000000000000017
 20
12.2
 30
0.0
 11
-6.999999999999996
 21
12.2
 31
0.0
  0
LINE
  5
119
330
E9
100
AcDbEntity
  8
AM_9
100
AcDbLine
 10
-21.29999999999999
 20
-12.2
 30
0.0
 11
-20.0
 21
-12.2
 31
0.0
  0
LINE
  5
11A
330
E9
100
AcDbEntity
  8
AM_9
100
AcDbLine
 10
-20.0
 20
12.2
 30
0.0
 11
-21.29999999999999
 21
12.2
 31
0.0
  0
LINE
  5
11B
330
E9
100
AcDbEntity
  8
AM_9
100
AcDbLine
 10
-6.999999999999996
 20
18.53941746657645
 30
0.0
 11
-6.999999999999996
 21
-18.53941746657645
 31
0.0
  0
ARC
  5
11C
330
E9
100
AcDbEntity
  8
AM_9
100
AcDbCircle
 10
-7.519999999999994
 20
-18.53941746657646
 30
0.0
 40
0.519999999999996
100
AcDbArc
 50
287.8774202365666
 51
0.0
  0
ARC
  5
11D
330
E9
100
AcDbEntity
  8
AM_9
100
AcDbCircle
 10
-7.52
 20
18.53941746657645
 30
0.0
 40
0.5200000000000049
100
AcDbArc
 50
0.0
 51
72.12257976343287
  0
LINE
  5
11E
330
E9
100
AcDbEntity
  8
AM_9
100
AcDbLine
 10
-19.99999999999999
 20
18.53941746657645
 30
0.0
 11
-19.99999999999999
 21
-18.53941746657645
 31
0.0
  0
ARC
  5
11F
330
E9
100
AcDbEntity
  8
AM_9
100
AcDbCircle
 10
-19.47999999999999
 20
-18.53941746657645
 30
0.0
 40
0.5200000000000067
100
AcDbArc
 50
180.0
 51
252.1225833418094
  0
ARC
  5
120
330
E9
100
AcDbEntity
  8
AM_9
100
AcDbCircle
 10
-19.47999999999999
 20
18.53941746657645
 30
0.0
 40
0.5200000000000073
100
AcDbArc
 50
107.8774166581905
 51
180.0
  0
LINE
  5
121
330
E9
100
AcDbEntity
  8
AM_9
100
AcDbLine
 10
-18.06
 20
-19.04761920000001
 30
0.0
 11
-16.54
 21
-19.04761920000001
 31
0.0
  0
LINE
  5
122
330
E9
100
AcDbEntity
  8
AM_9
100
AcDbLine
 10
-16.54
 20
19.04761920000001
 30
0.0
 11
-18.06
 21
19.04761920000001
 31
0.0
  0
ARC
  5
123
330
E9
100
AcDbEntity
  8
AM_9
100
AcDbCircle
 10
-13.49999999996874
 20
-0.0000000001125535
 30
0.0
 40
20.00000000011663
100
AcDbArc
 50
103.1793519279527
 51
107.8774166581752
  0
ARC
  5
124
330
E9
100
AcDbEntity
  8
AM_9
100
AcDbCircle
 10
-13.49999999995276
 20
0.0000000001699689
 30
0.0
 40
20.00000000017612
100
AcDbArc
 50
252.1225833418316
 51
256.8206480720403
  0
LINE
  5
125
330
E9
100
AcDbEntity
  8
AM_9
100
AcDbLine
 10
-19.63963039014374
 20
19.03430951393877
 30
0.0
 11
-19.63963039014374
 21
-19.03430951393871
 31
0.0
  0
LINE
  5
126
330
E9
100
AcDbEntity
  8
AM_9
100
AcDbLine
 10
-18.06
 20
19.47322264033349
 30
0.0
 11
-18.06
 21
-19.47322264033343
 31
0.0
  0
ARC
  5
127
330
E9
100
AcDbEntity
  8
AM_9
100
AcDbCircle
 10
-13.50000000000004
 20
0.0000000000007354
 30
0.0
 40
20.00000000000071
100
AcDbArc
 50
261.2571526865007
 51
287.8774167512262
  0
ARC
  5
128
330
E9
100
AcDbEntity
  8
AM_9
100
AcDbCircle
 10
-13.5000000000001
 20
-0.0000000000016023
 30
0.0
 40
20.00000000000156
100
AcDbArc
 50
72.1225832487744
 51
98.74284731349876
  0
LINE
  5
129
330
E9
100
AcDbEntity
  8
AM_9
100
AcDbLine
 10
-16.53999999999999
 20
19.76760987069503
 30
0.0
 11
-16.53999999999999
 21
-19.76760987069503
 31
0.0
  0
LINE
  5
12A
330
E9
100
AcDbEntity
  8
AM_9
100
AcDbLine
 10
-7.360369578948036
 20
19.03430950396923
 30
0.0
 11
-7.360369578948036
 21
-19.03430950396922
 31
0.0
  0
ELLIPSE
  5
12B
330
E9
100
AcDbEntity
  8
AM_9
100
AcDbEllipse
 10
-9.565180352253126
 20
-18.85369023249641
 30
0.0
 11
-1.84038939468915
 21
-0.3840945862813806
 31
0.0
210
0.0
220
0.0
230
1.0
 40
0.253715005130846
 41
0.0
 42
6.283185307179586
  0
LINE
  5
12E
330
E9
100
AcDbEntity
  8
AM_7
100
AcDbLine
 10
-38.66499999999999
 20
0.0
 30
0.0
 11
2.365000000000006
 21
0.0
 31
0.0
  0
ELLIPSE
  5
12F
330
E9
100
AcDbEntity
  8
AM_4
100
AcDbEllipse
 10
-32.299999856
 20
3.63198378460442
 30
0.0
 11
2.458500000000001
 21
0.0
 31
0.0
210
0.0
220
0.0
230
1.0
 40
0.965925826289068
 41
0.0
 42
3.141592653589793
  0
LWPOLYLINE
  5
130
330
E9
100
AcDbEntity
  8
AM_4
100
AcDbPolyline
 90
       17
 70
     0
 43
0.0
 10
-29.95904445324194
 20
2.916862208016934
 10
-29.98634797173429
 20
2.992490012885437
 10
-30.15256499976338
 20
3.334227313803717
 10
-30.3740188316684
 20
3.640068993220205
 10
-30.65357300648364
 20
3.912186729314272
 10
-30.9806100174674
 20
4.137223586981475
 10
-31.35665618668418
 20
4.312992040488904
 10
-31.74783424317636
 20
4.424834484891667
 10
-32.16855975471456
 20
4.477538256444928
 10
-32.56502460179239
 20
4.467938304707594
 10
-32.96537240804948
 20
4.399064822913272
 10
-33.33221271700805
 20
4.278092252662407
 10
-33.6806537660668
 20
4.100930738421878
 10
-33.99381105888062
 20
3.872276070299917
 10
-34.26827360495827
 20
3.589607829462656
 10
-34.48708233738384
 20
3.265313719029385
 10
-34.63650304249785
 20
2.929813220227158
  0
LINE
  5
131
330
E9
100
AcDbEntity
  8
AM_4
100
AcDbLine
 10
-26.59999999999999
 20
-11.619047712
 30
0.0
 11
-26.0
 21
-11.619047712
 31
0.0
  0
LINE
  5
132
330
E9
100
AcDbEntity
  8
AM_4
100
AcDbLine
 10
-26.0
 20
11.619047712
 30
0.0
 11
-26.59999999999999
 21
11.619047712
 31
0.0
  0
ELLIPSE
  5
133
330
E9
100
AcDbEntity
  8
AM_4
100
AcDbEllipse
 10
-32.299999856
 20
3.631983784604422
 30
0.0
 11
2.458500000000001
 21
0.0
 31
0.0
210
0.0
220
0.0
230
1.0
 40
0.9659258262890691
 41
3.141592653589793
 42
6.283185307179586
  0
LINE
  5
134
330
E9
100
AcDbEntity
  8
AM_4
100
AcDbLine
 10
0.5000000000000039
 20
11.94
 30
0.0
 11
0.2400000000000041
 21
12.2
 31
0.0
  0
LINE
  5
135
330
E9
100
AcDbEntity
  8
AM_4
100
AcDbLine
 10
0.2400000000000041
 20
-12.2
 30
0.0
 11
0.5000000000000039
 21
-11.94
 31
0.0
  0
LINE
  5
136
330
E9
100
AcDbEntity
  8
AM_4
100
AcDbLine
 10
0.5000000000000039
 20
11.94
 30
0.0
 11
0.5000000000000039
 21
-11.94
 31
0.0
  0
LINE
  5
137
330
E9
100
AcDbEntity
  8
AM_4
100
AcDbLine
 10
-26.0
 20
-11.94
 30
0.0
 11
-25.74
 21
-12.2
 31
0.0
  0
LINE
  5
138
330
E9
100
AcDbEntity
  8
AM_4
100
AcDbLine
 10
-25.74
 20
12.2
 30
0.0
 11
-26.0
 21
11.94
 31
0.0
  0
LINE
  5
139
330
E9
100
AcDbEntity
  8
AM_4
100
AcDbLine
 10
-26.0
 20
11.94
 30
0.0
 11
-26.0
 21
-11.94
 31
0.0
  0
LINE
  5
13A
330
E9
100
AcDbEntity
  8
AM_4
100
AcDbLine
 10
0.0000000000000023
 20
-12.2
 30
0.0
 11
0.2400000000000041
 21
-12.2
 31
0.0
  0
LINE
  5
13B
330
E9
100
AcDbEntity
  8
AM_4
100
AcDbLine
 10
0.2400000000000041
 20
12.2
 30
0.0
 11
0.0000000000000017
 21
12.2
 31
0.0
  0
LINE
  5
13C
330
E9
100
AcDbEntity
  8
AM_4
100
AcDbLine
 10
0.2400000000000041
 20
12.2
 30
0.0
 11
0.2400000000000041
 21
-12.2
 31
0.0
  0
LINE
  5
13D
330
E9
100
AcDbEntity
  8
AM_4
100
AcDbLine
 10
-25.74
 20
-12.2
 30
0.0
 11
-21.29999999999999
 21
-12.2
 31
0.0
  0
LINE
  5
13E
330
E9
100
AcDbEntity
  8
AM_4
100
AcDbLine
 10
-21.29999999999999
 20
12.2
 30
0.0
 11
-25.74
 21
12.2
 31
0.0
  0
LINE
  5
13F
330
E9
100
AcDbEntity
  8
AM_4
100
AcDbLine
 10
-25.74
 20
12.2
 30
0.0
 11
-25.74
 21
-12.2
 31
0.0
  0
LINE
  5
140
330
E9
100
AcDbEntity
  8
AM_4
100
AcDbLine
 10
-36.8
 20
13.6
 30
0.0
 11
-36.8
 21
-13.6
 31
0.0
  0
ARC
  5
141
330
E9
100
AcDbEntity
  8
AM_4
100
AcDbCircle
 10
-36.04999999999999
 20
-13.59999999999999
 30
0.0
 40
0.7500000000000071
100
AcDbArc
 50
179.9999991462263
 51
270.0
  0
ARC
  5
142
330
E9
100
AcDbEntity
  8
AM_4
100
AcDbCircle
 10
-36.04999999999999
 20
13.59999999999999
 30
0.0
 40
0.7500000000000124
100
AcDbArc
 50
90.0
 51
179.9999991462263
  0
LWPOLYLINE
  5
143
330
E9
100
AcDbEntity
  8
AM_4
100
AcDbPolyline
 90
       39
 70
     0
 43
0.0
 10
-30.38712046599846
 20
5.464042423682959
 10
-30.11111698313891
 20
5.20224347517945
 10
-29.88018895766325
 20
4.902930721907292
 10
-29.68454749374858
 20
4.528293620905145
 10
-29.56350503143936
 20
4.122922377901724
 10
-29.52483322052778
 20
3.73460852555193
 10
-29.55612329484766
 20
3.34276669830757
 10
-29.65119581928725
 20
2.976102480867919
 10
-29.80504106817822
 20
2.626961611751129
 10
-30.0200312519216
 20
2.294502168858684
 10
-30.28420492046913
 20
1.997190417879867
 10
-30.61663269529934
 20
1.72255591204016
 10
-30.98775868656594
 20
1.501286639586723
 10
-31.42240357140766
 20
1.32731850956723
 10
-31.8793608817212
 20
1.224179537474279
 10
-32.37011385790817
 20
1.195319148417886
 10
-32.85893627106129
 20
1.247335474201101
 10
-33.33840422541823
 20
1.382470733248505
 10
-33.78779625409707
 20
1.596387680855372
 10
-34.18614436712053
 20
1.879855961813443
 10
-34.5274892034646
 20
2.227653631475692
 10
-34.78311227390705
 20
2.606031828551605
 10
-34.96438773264416
 20
3.021622114135265
 10
-35.05529490825059
 20
3.419595606753392
 10
-35.07279634887002
 20
3.82406013076534
 10
-35.02089078627048
 20
4.195472928328888
 10
-34.90647645824186
 20
4.550984533794229
 10
-34.73207937659978
 20
4.883466790470668
 10
-34.50535155029038
 20
5.184110144289432
 10
-34.21257512343893
 20
5.464075609485388
 10
-33.87709657427231
 20
5.697461121829432
 10
-33.47390138073335
 20
5.894333705648203
 10
-33.04187194345254
 20
6.030146763737195
 10
-32.56329057106061
 20
6.105057308001625
 10
-32.07762419333548
 20
6.108308201321639
 10
-31.58636366348685
 20
6.036430776784241
 10
-31.11544645881559
 20
5.890264403866381
 10
-30.7334689799334
 20
5.703477881432154
 10
-30.3871204658094
 20
5.464042423708436
  0
LINE
  5
144
330
E9
100
AcDbEntity
  8
AM_4
100
AcDbLine
 10
-36.05
 20
-14.35
 30
0.0
 11
-27.34999999999999
 21
-14.35
 31
0.0
  0
LINE
  5
145
330
E9
100
AcDbEntity
  8
AM_4
100
AcDbLine
 10
-27.34999999999999
 20
14.35
 30
0.0
 11
-36.05
 21
14.35
 31
0.0
  0
LINE
  5
146
330
E9
100
AcDbEntity
  8
AM_4
100
AcDbLine
 10
-36.05
 20
14.35
 30
0.0
 11
-36.05
 21
-14.35
 31
0.0
  0
LINE
  5
147
330
E9
100
AcDbEntity
  8
AM_4
100
AcDbLine
 10
-26.59999999999999
 20
13.6
 30
0.0
 11
-26.59999999999999
 21
-13.6
 31
0.0
  0
ARC
  5
148
330
E9
100
AcDbEntity
  8
AM_4
100
AcDbCircle
 10
-27.34999999999999
 20
-13.6
 30
0.0
 40
0.7500000000000018
100
AcDbArc
 50
270.0
 51
0.0
  0
ARC
  5
149
330
E9
100
AcDbEntity
  8
AM_4
100
AcDbCircle
 10
-27.34999999999999
 20
13.6
 30
0.0
 40
0.75
100
AcDbArc
 50
0.0
 51
90.0
  0
LINE
  5
14A
330
E9
100
AcDbEntity
  8
AM_4
100
AcDbLine
 10
-27.34999999999999
 20
14.35
 30
0.0
 11
-27.34999999999999
 21
-14.35
 31
0.0
  0
ENDBLK
  5
EC
330
E9
100
AcDbEntity
  8
0
100
AcDbBlockEnd
  0
BLOCK
  5
14D
330
14B
100
AcDbEntity
  8
0
100
AcDbBlockBegin
  2
4_125677H_0_in_125677_2
 70
     2
 10
0.0
 20
0.0
 30
0.0
  3
4_125677H_0_in_125677_2
  1

  0
ATTDEF
  5
14F
330
14B
100
AcDbEntity
  8
AM_6
100
AcDbText
 10
5.485
 20
49.3
 30
0.0
 40
0.5
  1
F2B-SXR housing -Metric
100
AcDbAttributeDefinition
  3

  2
NN
 70
     8
280
     0
  0
ATTDEF
  5
150
330
14B
100
AcDbEntity
  8
AM_6
100
AcDbText
 10
5.485
 20
48.8
 30
0.0
 40
0.5
  1
Eccentric Collar 2 Bolt Flange Bearings -(Normal Duty)
100
AcDbAttributeDefinition
  3

  2
NT
 70
     8
280
     0
  0
ATTDEF
  5
151
330
14B
100
AcDbEntity
  8
AM_6
100
AcDbText
 10
5.485
 20
48.3
 30
0.0
 40
0.5
  1
125677H
100
AcDbAttributeDefinition
  3

  2
NB
 70
     8
280
     0
  0
ATTDEF
  5
152
330
14B
100
AcDbEntity
  8
AM_6
100
AcDbText
 10
5.485
 20
47.8
 30
0.0
 40
0.5
  1
$PN.H
100
AcDbAttributeDefinition
  3

  2
NBSYN
 70
     8
280
     0
  0
ATTDEF
  5
153
330
14B
100
AcDbEntity
  8
AM_6
100
AcDbText
 10
5.485
 20
47.3
 30
0.0
 40
0.5
  1
125677
100
AcDbAttributeDefinition
  3

  2
LINA
 70
     8
280
     0
  0
ATTDEF
  5
154
330
14B
100
AcDbEntity
  8
AM_6
100
AcDbText
 10
5.485
 20
46.8
 30
0.0
 40
0.5
  1
203
100
AcDbAttributeDefinition
  3

  2
SERIES
 70
     8
280
     0
  0
ATTDEF
  5
155
330
14B
100
AcDbEntity
  8
AM_6
100
AcDbText
 10
5.485
 20
46.3
 30
0.0
 40
0.5
  1
17
100
AcDbAttributeDefinition
  3

  2
SS
 70
     8
280
     0
  0
ATTDEF
  5
156
330
14B
100
AcDbEntity
  8
AM_6
100
AcDbText
 10
5.485
 20
45.8
 30
0.0
 40
0.5
  1
125677
100
AcDbAttributeDefinition
  3

  2
PN
 70
     8
280
     0
  0
ATTDEF
  5
157
330
14B
100
AcDbEntity
  8
AM_6
100
AcDbText
 10
5.485
 20
45.3
 30
0.0
 40
0.5
  1
F2B-SXR-17M
100
AcDbAttributeDefinition
  3

  2
DESCRIPTION
 70
     8
280
     0
  0
ATTDEF
  5
158
330
14B
100
AcDbEntity
  8
AM_6
100
AcDbText
 10
5.485
 20
44.8
 30
0.0
 40
0.5
  1
0.4
100
AcDbAttributeDefinition
  3

  2
W
 70
     8
280
     0
  0
ATTDEF
  5
159
330
14B
100
AcDbEntity
  8
AM_6
100
AcDbText
 10
5.485
 20
44.3
 30
0.0
 40
0.5
  1
37.3
100
AcDbAttributeDefinition
  3

  2
A
 70
     8
280
     0
  0
ATTDEF
  5
15A
330
14B
100
AcDbEntity
  8
AM_6
100
AcDbText
 10
5.485
 20
43.8
 30
0.0
 40
0.5
  1
98.6
100
AcDbAttributeDefinition
  3

  2
B
 70
     8
280
     0
  0
ATTDEF
  5
15B
330
14B
100
AcDbEntity
  8
AM_6
100
AcDbText
 10
5.485
 20
43.3
 30
0.0
 40
0.5
  1
36.8
100
AcDbAttributeDefinition
  3

  2
C
 70
     8
280
     0
  0
ATTDEF
  5
15C
330
14B
100
AcDbEntity
  8
AM_6
100
AcDbText
 10
5.485
 20
42.8
 30
0.0
 40
0.5
  1
76.2
100
AcDbAttributeDefinition
  3

  2
D
 70
     8
280
     0
  0
ATTDEF
  5
15D
330
14B
100
AcDbEntity
  8
AM_6
100
AcDbText
 10
5.485
 20
42.3
 30
0.0
 40
0.5
  1
M10
100
AcDbAttributeDefinition
  3

  2
F
 70
     8
280
     0
  0
ATTDEF
  5
15E
330
14B
100
AcDbEntity
  8
AM_6
100
AcDbText
 10
5.485
 20
41.8
 30
0.0
 40
0.5
  1
9.7
100
AcDbAttributeDefinition
  3

  2
H
 70
     8
280
     0
  0
ATTDEF
  5
15F
330
14B
100
AcDbEntity
  8
AM_6
100
AcDbText
 10
5.485
 20
41.3
 30
0.0
 40
0.5
  1
15.5
100
AcDbAttributeDefinition
  3

  2
J
 70
     8
280
     0
  0
ATTDEF
  5
160
330
14B
100
AcDbEntity
  8
AM_6
100
AcDbText
 10
5.485
 20
40.8
 30
0.0
 40
0.5
  1
28.7
100
AcDbAttributeDefinition
  3

  2
L
 70
     8
280
     0
  0
ATTDEF
  5
161
330
14B
100
AcDbEntity
  8
AM_6
100
AcDbText
 10
5.485
 20
40.3
 30
0.0
 40
0.5
  1
54.1
100
AcDbAttributeDefinition
  3

  2
M
 70
     8
280
     0
  0
ATTDEF
  5
162
330
14B
100
AcDbEntity
  8
AM_6
100
AcDbText
 10
5.485
 20
39.8
 30
0.0
 40
0.5
  1
28.7
100
AcDbAttributeDefinition
  3

  2
N
 70
     8
280
     0
  0
ATTDEF
  5
163
330
14B
100
AcDbEntity
  8
AM_6
100
AcDbText
 10
5.485
 20
39.3
 30
0.0
 40
0.5
  1
1000
100
AcDbAttributeDefinition
  3

  2
CAPS
 70
     8
280
     0
  0
ATTDEF
  5
164
330
14B
100
AcDbEntity
  8
AM_6
100
AcDbText
 10
5.485
 20
38.8
 30
0.0
 40
0.5
  1
2158
100
AcDbAttributeDefinition
  3

  2
CAPD
 70
     8
280
     0
  0
ATTDEF
  5
165
330
14B
100
AcDbEntity
  8
AM_6
100
AcDbText
 10
5.485
 20
38.3
 30
0.0
 40
0.5
  1
baldor
100
AcDbAttributeDefinition
  3

  2
COMPANY
 70
     8
280
     0
  0
LINE
  5
166
330
14B
100
AcDbEntity
  8
AM_9
100
AcDbLine
 10
-8.730000000000002
 20
26.01097546292918
 30
0.0
 11
-8.730000000000002
 21
11.25308398950132
 31
0.0
  0
LINE
  5
167
330
14B
100
AcDbEntity
  8
AM_9
100
AcDbLine
 10
-13.845
 20
20.84811539431687
 30
0.0
 11
0.0
 21
20.84811539431687
 31
0.0
  0
LINE
  5
168
330
14B
100
AcDbEntity
  8
AM_9
100
AcDbLine
 10
-13.845
 20
17.9148329124878
 30
0.0
 11
-0.0000000000000007
 21
17.9148329124878
 31
0.0
  0
LINE
  5
169
330
14B
100
AcDbEntity
  8
AM_9
100
AcDbLine
 10
0.0
 20
20.85
 30
0.0
 11
-13.845
 21
20.85
 31
0.0
  0
LINE
  5
16A
330
14B
100
AcDbEntity
  8
AM_9
100
AcDbLine
 10
-9.700000000000001
 20
-43.1
 30
0.0
 11
0.0
 21
-43.1
 31
0.0
  0
LINE
  5
16B
330
14B
100
AcDbEntity
  8
AM_9
100
AcDbLine
 10
0.0
 20
-33.1
 30
0.0
 11
-9.700000000000001
 21
-33.1
 31
0.0
  0
LINE
  5
16C
330
14B
100
AcDbEntity
  8
AM_9
100
AcDbLine
 10
-9.700000000000001
 20
33.1
 30
0.0
 11
0.0
 21
33.1
 31
0.0
  0
LINE
  5
16D
330
14B
100
AcDbEntity
  8
AM_9
100
AcDbLine
 10
0.0
 20
43.1
 30
0.0
 11
-9.700000000000001
 21
43.1
 31
0.0
  0
LINE
  5
16E
330
14B
100
AcDbEntity
  8
AM_9
100
AcDbLine
 10
-21.29999999999999
 20
26.52683947743864
 30
0.0
 11
-9.700000000000005
 21
26.52683947743864
 31
0.0
  0
LINE
  5
16F
330
14B
100
AcDbEntity
  8
AM_9
100
AcDbLine
 10
-21.29999999999999
 20
25.78289070165246
 30
0.0
 11
-9.700000000000001
 21
25.78289070165246
 31
0.0
  0
LINE
  5
170
330
14B
100
AcDbEntity
  8
AM_9
100
AcDbLine
 10
-13.845
 20
-20.85
 30
0.0
 11
-13.845
 21
-17.06023131808878
 31
0.0
  0
LINE
  5
171
330
14B
100
AcDbEntity
  8
AM_9
100
AcDbLine
 10
-13.845
 20
-20.84811539431687
 30
0.0
 11
0.0
 21
-20.84811539431687
 31
0.0
  0
LINE
  5
172
330
14B
100
AcDbEntity
  8
AM_9
100
AcDbLine
 10
-13.845
 20
-17.9148329124878
 30
0.0
 11
0.0000000000000007
 21
-17.9148329124878
 31
0.0
  0
LINE
  5
173
330
14B
100
AcDbEntity
  8
AM_9
100
AcDbLine
 10
-13.845
 20
-20.85
 30
0.0
 11
0.0
 21
-20.85
 31
0.0
  0
LINE
  5
174
330
14B
100
AcDbEntity
  8
AM_9
100
AcDbLine
 10
-9.700000000000003
 20
22.32384050879883
 30
0.0
 11
-9.7
 21
28.95901494524843
 31
0.0
  0
LINE
  5
175
330
14B
100
AcDbEntity
  8
AM_9
100
AcDbLine
 10
-9.700000000000001
 20
28.95446596830718
 30
0.0
 11
-8.73
 21
28.95446596830718
 31
0.0
  0
LINE
  5
176
330
14B
100
AcDbEntity
  8
AM_9
100
AcDbLine
 10
-13.36560300149779
 20
28.95901494524843
 30
0.0
 11
-17.63043228527088
 21
28.95901494524843
 31
0.0
  0
LINE
  5
177
330
14B
100
AcDbEntity
  8
AM_9
100
AcDbLine
 10
-0.0000000000000006
 20
17.06023131808878
 30
0.0
 11
-13.845
 21
17.06023131808878
 31
0.0
  0
LINE
  5
178
330
14B
100
AcDbEntity
  8
AM_9
100
AcDbLine
 10
-13.845
 20
19.99351379991786
 30
0.0
 11
0.0
 21
19.99351379991786
 31
0.0
  0
LINE
  5
179
330
14B
100
AcDbEntity
  8
AM_9
100
AcDbLine
 10
0.0000000000000006
 20
-17.06023131808878
 30
0.0
 11
-13.845
 21
-17.06023131808878
 31
0.0
  0
LINE
  5
17A
330
14B
100
AcDbEntity
  8
AM_9
100
AcDbLine
 10
-13.845
 20
-19.99351379991786
 30
0.0
 11
0.0
 21
-19.99351379991786
 31
0.0
  0
LINE
  5
17B
330
14B
100
AcDbEntity
  8
AM_9
100
AcDbLine
 10
-21.29999999999999
 20
-20.0
 30
0.0
 11
-13.845
 21
-20.0
 31
0.0
  0
LINE
  5
17C
330
14B
100
AcDbEntity
  8
AM_9
100
AcDbLine
 10
-13.845
 20
20.0
 30
0.0
 11
-21.29999999999999
 21
20.0
 31
0.0
  0
LINE
  5
17D
330
14B
100
AcDbEntity
  8
AM_9
100
AcDbLine
 10
-13.845
 20
20.85
 30
0.0
 11
-13.845
 21
17.06023131808878
 31
0.0
  0
ELLIPSE
  5
17E
330
14B
100
AcDbEntity
  8
AM_9
100
AcDbEllipse
 10
-15.49999999999958
 20
21.96480790919764
 30
0.0
 11
5.080000000000801
 21
0.0
 31
0.0
210
0.0
220
0.0
230
1.0
 40
0.7071067811865476
 41
-4.258783930507394
 42
-4.112950060944957
  0
ELLIPSE
  5
17F
330
14B
100
AcDbEntity
  8
AM_9
100
AcDbEllipse
 10
-15.49999999999996
 20
21.96480790919805
 30
0.0
 11
5.080000000000108
 21
0.0
 31
0.0
210
0.0
220
0.0
230
1.0
 40
0.7071067811865476
 41
1.570796326794897
 42
2.024401376672174
  0
ELLIPSE
  5
180
330
14B
100
AcDbEntity
  8
AM_9
100
AcDbEllipse
 10
-15.49999999999997
 20
21.96480790919816
 30
0.0
 11
5.079999999999659
 21
0.0
 31
0.0
210
0.0
220
0.0
230
1.0
 40
0.7071067811865891
 41
1.387273595894575
 42
1.570796326794897
  0
ELLIPSE
  5
181
330
14B
100
AcDbEntity
  8
AM_9
100
AcDbEllipse
 10
-15.50000000000006
 20
21.96480790919801
 30
0.0
 11
5.080000000000181
 21
0.0
 31
0.0
210
0.0
220
0.0
230
1.0
 40
0.7071067811865471
 41
1.117518440143479
 42
1.387273595894575
  0
ELLIPSE
  5
182
330
14B
100
AcDbEntity
  8
AM_9
100
AcDbEllipse
 10
-15.49999999999984
 20
21.96480790919831
 30
0.0
 11
5.079999999999695
 21
0.0
 31
0.0
210
0.0
220
0.0
230
1.0
 40
0.7071067811865478
 41
0.9713574073551516
 42
1.11751844014348
  0
ELLIPSE
  5
183
330
14B
100
AcDbEntity
  8
AM_9
100
AcDbEllipse
 10
-15.49999999999999
 20
21.92888688471385
 30
0.0
 11
5.080000000000004
 21
0.0
 31
0.0
210
0.0
220
0.0
230
1.0
 40
0.7071067811865481
 41
1.657282837325173
 42
3.141592653589793
  0
ELLIPSE
  5
184
330
14B
100
AcDbEntity
  8
AM_9
100
AcDbEllipse
 10
-15.49999999999994
 20
21.92888688471094
 30
0.0
 11
5.080000000002006
 21
0.0
 31
0.0
210
0.0
220
0.0
230
1.0
 40
0.7071067811868409
 41
1.5423443980879
 42
1.611382236052261
  0
ELLIPSE
  5
185
330
14B
100
AcDbEntity
  8
AM_9
100
AcDbEllipse
 10
-15.49999999999998
 20
21.92888688471386
 30
0.0
 11
5.079999999999986
 21
0.0
 31
0.0
210
0.0
220
0.0
230
1.0
 40
0.7071067811865478
 41
0.0
 42
1.479373180472048
  0
LINE
  5
186
330
14B
100
AcDbEntity
  8
AM_9
100
AcDbLine
 10
-21.29999999999999
 20
25.89165910472589
 30
0.0
 11
-9.700000000000005
 21
25.89165910472589
 31
0.0
  0
LINE
  5
187
330
14B
100
AcDbEntity
  8
AM_9
100
AcDbLine
 10
-8.730000000000002
 20
22.32384050879883
 30
0.0
 11
-9.700000000000003
 21
22.32384050879883
 31
0.0
  0
LINE
  5
188
330
14B
100
AcDbEntity
  8
AM_9
100
AcDbLine
 10
-8.730000000000002
 20
11.25308398950132
 30
0.0
 11
-0.0000000000000015
 21
11.25308398950131
 31
0.0
  0
LINE
  5
189
330
14B
100
AcDbEntity
  8
AM_9
100
AcDbLine
 10
-9.700000000000001
 20
27.04999999999999
 30
0.0
 11
-21.29999999999999
 21
27.04999999999999
 31
0.0
  0
LINE
  5
18A
330
14B
100
AcDbEntity
  8
AM_9
100
AcDbLine
 10
-18.15778920558388
 20
28.21506616946226
 30
0.0
 11
-12.84221079441612
 21
28.21506616946226
 31
0.0
  0
LINE
  5
18B
330
14B
100
AcDbEntity
  8
AM_7
100
AcDbLine
 10
0.4850000000000001
 20
38.1
 30
0.0
 11
-10.185
 21
38.1
 31
0.0
  0
LINE
  5
18C
330
14B
100
AcDbEntity
  8
AM_7
100
AcDbLine
 10
0.4850000000000001
 20
-38.1
 30
0.0
 11
-10.185
 21
-38.1
 31
0.0
  0
LINE
  5
18D
330
14B
100
AcDbEntity
  8
AM_4
100
AcDbLine
 10
-9.700000000000001
 20
-49.29999999999998
 30
0.0
 11
0.0
 21
-49.29999999999998
 31
0.0
  0
LINE
  5
18E
330
14B
100
AcDbEntity
  8
AM_4
100
AcDbLine
 10
-9.700000000000001
 20
-49.29999999999998
 30
0.0
 11
-9.7
 21
-22.32384050879884
 31
0.0
  0
LINE
  5
18F
330
14B
100
AcDbEntity
  8
AM_4
100
AcDbLine
 10
-9.7
 20
28.95901494524843
 30
0.0
 11
-9.700000000000001
 21
49.3
 31
0.0
  0
LINE
  5
190
330
14B
100
AcDbEntity
  8
AM_4
100
AcDbLine
 10
0.0
 20
49.3
 30
0.0
 11
-9.700000000000001
 21
49.3
 31
0.0
  0
LINE
  5
191
330
14B
100
AcDbEntity
  8
AM_4
100
AcDbLine
 10
-8.73
 20
40.69776416836784
 30
0.0
 11
-9.700000000000001
 21
40.69776416836784
 31
0.0
  0
LINE
  5
192
330
14B
100
AcDbEntity
  8
AM_4
100
AcDbLine
 10
-8.73
 20
-40.69776416836785
 30
0.0
 11
-9.700000000000001
 21
-40.69776416836785
 31
0.0
  0
LINE
  5
193
330
14B
100
AcDbEntity
  8
AM_4
100
AcDbLine
 10
-21.29999999999999
 20
-27.05
 30
0.0
 11
-21.29999999999999
 21
28.95901494524843
 31
0.0
  0
LINE
  5
194
330
14B
100
AcDbEntity
  8
AM_4
100
AcDbLine
 10
-17.63043228527088
 20
28.95901494524843
 30
0.0
 11
-21.29999999999999
 21
28.95901494524843
 31
0.0
  0
LINE
  5
195
330
14B
100
AcDbEntity
  8
AM_4
100
AcDbLine
 10
-8.73
 20
28.95901494524843
 30
0.0
 11
-13.36560300149779
 21
28.95901494524843
 31
0.0
  0
LINE
  5
196
330
14B
100
AcDbEntity
  8
AM_4
100
AcDbLine
 10
-8.729999999999999
 20
26.01097546292918
 30
0.0
 11
-8.73
 21
42.75931758530184
 31
0.0
  0
LINE
  5
197
330
14B
100
AcDbEntity
  8
AM_4
100
AcDbLine
 10
-8.73
 20
42.75931758530184
 30
0.0
 11
0.0000000000000006
 21
42.75931758530184
 31
0.0
  0
LINE
  5
198
330
14B
100
AcDbEntity
  8
AM_4
100
AcDbLine
 10
-8.73
 20
-42.75931758530184
 30
0.0
 11
-8.729999999999999
 21
-11.25308398950136
 31
0.0
  0
LINE
  5
199
330
14B
100
AcDbEntity
  8
AM_4
100
AcDbLine
 10
-8.73
 20
-42.75931758530184
 30
0.0
 11
0.0000000000000006
 21
-42.75931758530185
 31
0.0
  0
ELLIPSE
  5
19A
330
14B
100
AcDbEntity
  8
AM_4
100
AcDbEllipse
 10
-15.49999999999999
 20
21.96480790919813
 30
0.0
 11
5.080000000000002
 21
0.0
 31
0.0
210
0.0
220
0.0
230
1.0
 40
0.707106781186547
 41
2.170235246234638
 42
3.141592653589793
  0
LINE
  5
19B
330
14B
100
AcDbEntity
  8
AM_4
100
AcDbLine
 10
-10.42
 20
21.92888688471385
 30
0.0
 11
-10.42
 21
21.96480790919813
 31
0.0
  0
LINE
  5
19C
330
14B
100
AcDbEntity
  8
AM_4
100
AcDbLine
 10
-20.58
 20
21.96480790919813
 30
0.0
 11
-20.58
 21
21.92888688471385
 31
0.0
  0
ELLIPSE
  5
19D
330
14B
100
AcDbEntity
  8
AM_4
100
AcDbEllipse
 10
-15.5
 20
21.96480790919813
 30
0.0
 11
5.080000000000002
 21
0.0
 31
0.0
210
0.0
220
0.0
230
1.0
 40
0.7071067811865477
 41
3.141592653589793
 42
7.25454271453474
  0
ELLIPSE
  5
19E
330
14B
100
AcDbEntity
  8
AM_4
100
AcDbEllipse
 10
-15.49999999999999
 20
21.92888688471386
 30
0.0
 11
5.080000000000013
 21
0.0
 31
0.0
210
0.0
220
0.0
230
1.0
 40
0.7071067811865476
 41
3.141592653589793
 42
6.283185307179586
  0
LINE
  5
19F
330
14B
100
AcDbEntity
  8
AM_4
100
AcDbLine
 10
-8.729999999999999
 20
-22.32384050879883
 30
0.0
 11
-9.7
 21
-22.32384050879884
 31
0.0
  0
LINE
  5
1A0
330
14B
100
AcDbEntity
  8
AM_4
100
AcDbLine
 10
-8.729999999999999
 20
-11.25308398950136
 30
0.0
 11
0.0000000000000015
 21
-11.25308398950136
 31
0.0
  0
LINE
  5
1A1
330
14B
100
AcDbEntity
  8
AM_4
100
AcDbLine
 10
-21.29999999999999
 20
7.830995649362574
 30
0.0
 11
0.0000000000000016
 21
7.830995649362574
 31
0.0
  0
LINE
  5
1A2
330
14B
100
AcDbEntity
  8
AM_4
100
AcDbLine
 10
-21.29999999999999
 20
-27.05
 30
0.0
 11
-9.700000000000001
 21
-27.05
 31
0.0
  0
LINE
  5
1A3
330
14B
100
AcDbEntity
  8
AM_4
100
AcDbLine
 10
-21.29999999999999
 20
10.36237845951416
 30
0.0
 11
0.0000000000000016
 21
10.36237845951416
 31
0.0
  0
LINE
  5
1A4
330
14B
100
AcDbEntity
  8
AM_4
100
AcDbLine
 10
0.0
 20
-49.29999999999998
 30
0.0
 11
0.0
 21
49.3
 31
0.0
  0
LINE
  5
1A5
330
14B
100
AcDbEntity
  8
AM_4
100
AcDbLine
 10
0.0000000000000011
 20
26.01097546292918
 30
0.0
 11
-8.729999999999999
 21
26.01097546292918
 31
0.0
  0
LINE
  5
1A6
330
14B
100
AcDbEntity
  8
AM_4
100
AcDbLine
 10
-12.84221079441612
 20
28.21506616946226
 30
0.0
 11
-8.730000000000002
 21
28.21506616946226
 31
0.0
  0
LINE
  5
1A7
330
14B
100
AcDbEntity
  8
AM_4
100
AcDbLine
 10
-21.29999999999999
 20
28.21506616946226
 30
0.0
 11
-18.15778920558388
 21
28.21506616946226
 31
0.0
  0
LINE
  5
1A8
330
14B
100
AcDbEntity
  8
AM_4
100
AcDbLine
 10
-21.29999999999999
 20
15.64270759996545
 30
0.0
 11
0.0000000000000017
 21
15.64270759996545
 31
0.0
  0
LINE
  5
1A9
330
14B
100
AcDbEntity
  8
AM_4
100
AcDbLine
 10
-21.29999999999999
 20
12.05060515153778
 30
0.0
 11
0.0000000000000017
 21
12.05060515153778
 31
0.0
  0
ENDBLK
  5
14E
330
14B
100
AcDbEntity
  8
0
100
AcDbBlockEnd
  0
ENDSEC
  0
SECTION
  2
ENTITIES
  0
INSERT
  5
6F
330
1F
100
AcDbEntity
  8
0
100
AcDbBlockReference
  2
1_125677_2
 10
0.0
 20
0.0
 30
0.0
  0
POINT
  5
1AB
330
1F
100
AcDbEntity
  8
ConnectionPoints
100
AcDbPoint
 10
-13.5
 20
0.0
 30
0.0000000000000008
  0
POINT
  5
1AC
330
1F
100
AcDbEntity
  8
ConnectionPoints
100
AcDbPoint
 10
-36.8
 20
0.0
 30
0.0000000000000023
  0
POINT
  5
1AD
330
1F
100
AcDbEntity
  8
ConnectionPoints
100
AcDbPoint
 10
-15.5
 20
21.96480790919813
 30
21.96480790919813
  0
POINT
  5
1AE
330
1F
100
AcDbEntity
  8
ConnectionPoints
100
AcDbPoint
 10
-15.49999999999999
 20
19.12723843109611
 30
19.12723843109611
  0
POINT
  5
1AF
330
1F
100
AcDbEntity
  8
ConnectionPoints
100
AcDbPoint
 10
-36.8
 20
0.0
 30
0.0000000000000023
  0
POINT
  5
1B0
330
1F
100
AcDbEntity
  8
ConnectionPoints
100
AcDbPoint
 10
0.0
 20
0.0
 30
0.0
  0
ENDSEC
  0
SECTION
  2
OBJECTS
  0
DICTIONARY
  5
C
330
0
100
AcDbDictionary
281
     1
  3
ACAD_DETAILVIEWSTYLE
350
1B8
  3
ACAD_GROUP
350
D
  3
ACAD_LAYOUT
350
1A
  3
ACAD_MATERIAL
350
43
  3
ACAD_MLEADERSTYLE
350
6B
  3
ACAD_MLINESTYLE
350
17
  3
ACAD_PLOTSETTINGS
350
19
  3
ACAD_PLOTSTYLENAME
350
E
  3
ACAD_SCALELIST
350
47
  3
ACAD_SECTIONVIEWSTYLE
350
1B9
  3
ACAD_TABLESTYLE
350
69
  3
ACAD_VISUALSTYLE
350
2A
  3
ACDB_RECOMPOSE_DATA
350
1B5
  3
AcDbVariableDictionary
350
1B1
  0
SUN
  5
6D
330
29
100
AcDbSun
 90
        1
290
     0
 63
     7
421
 16777215
 40
1.0
291
     1
 91
  2455826
 92
 54000000
292
     0
 70
     2
 71
   256
280
     1
  0
DICTIONARY
  5
1B8
102
{ACAD_REACTORS
330
C
102
}
330
C
100
AcDbDictionary
281
     1
  0
DICTIONARY
  5
D
102
{ACAD_REACTORS
330
C
102
}
330
C
100
AcDbDictionary
281
     1
  0
DICTIONARY
  5
1A
102
{ACAD_REACTORS
330
C
102
}
330
C
100
AcDbDictionary
281
     1
  3
Layout1
350
1E
  3
Layout2
350
26
  3
Model
350
22
  0
DICTIONARY
  5
43
102
{ACAD_REACTORS
330
C
102
}
330
C
100
AcDbDictionary
281
     1
  3
ByBlock
350
45
  3
ByLayer
350
44
  3
Global
350
46
  0
DICTIONARY
  5
6B
102
{ACAD_REACTORS
330
C
102
}
330
C
100
AcDbDictionary
281
     1
  3
Standard
350
6C
  0
DICTIONARY
  5
17
102
{ACAD_REACTORS
330
C
102
}
330
C
100
AcDbDictionary
281
     1
  3
Standard
350
18
  0
DICTIONARY
  5
19
102
{ACAD_REACTORS
330
C
102
}
330
C
100
AcDbDictionary
281
     1
  0
ACDBDICTIONARYWDFLT
  5
E
102
{ACAD_REACTORS
330
C
102
}
330
C
100
AcDbDictionary
281
     1
  3
Normal
350
F
100
AcDbDictionaryWithDefault
340
F
  0
DICTIONARY
  5
47
102
{ACAD_REACTORS
330
C
102
}
330
C
100
AcDbDictionary
281
     1
  3
A0
350
48
  3
A1
350
49
  3
A2
350
4A
  3
A3
350
4B
  3
A4
350
4C
  3
A5
350
4D
  3
A6
350
4E
  3
A7
350
4F
  3
A8
350
50
  3
A9
350
51
  3
B0
350
52
  3
B1
350
53
  3
B2
350
54
  3
B3
350
55
  3
B4
350
56
  3
B5
350
57
  3
B6
350
58
  3
B7
350
59
  3
B8
350
5A
  3
B9
350
5B
  3
C0
350
5C
  3
C1
350
5D
  3
C2
350
5E
  3
C3
350
5F
  3
C4
350
60
  3
C5
350
61
  3
C6
350
62
  3
C7
350
63
  3
C8
350
64
  3
C9
350
65
  3
D0
350
66
  3
D1
350
67
  3
D2
350
68
  0
DICTIONARY
  5
1B9
102
{ACAD_REACTORS
330
C
102
}
330
C
100
AcDbDictionary
281
     1
  0
DICTIONARY
  5
69
102
{ACAD_REACTORS
330
C
102
}
330
C
100
AcDbDictionary
281
     1
  3
Standard
350
6A
  0
DICTIONARY
  5
2A
102
{ACAD_REACTORS
330
C
102
}
330
C
100
AcDbDictionary
281
     1
  3
2dWireframe
350
2F
  3
Basic
350
32
  3
Brighten
350
36
  3
ColorChange
350
3A
  3
Conceptual
350
34
  3
Dim
350
35
  3
EdgeColorOff
350
3D
  3
Facepattern
350
39
  3
Flat
350
2B
  3
FlatWithEdges
350
2C
  3
Gouraud
350
2D
  3
GouraudWithEdges
350
2E
  3
Hidden
350
31
  3
JitterOff
350
3B
  3
Linepattern
350
38
  3
OverhangOff
350
3C
  3
Realistic
350
33
  3
Shaded
350
42
  3
Shaded with edges
350
41
  3
Shades of Gray
350
3E
  3
Sketchy
350
3F
  3
Thicken
350
37
  3
Wireframe
350
30
  3
X-Ray
350
40
  0
XRECORD
  5
1B5
102
{ACAD_REACTORS
330
C
102
}
330
C
100
AcDbXrecord
280
     1
 90
        1
330
6A
  0
DICTIONARY
  5
1B1
102
{ACAD_REACTORS
330
C
102
}
330
C
100
AcDbDictionary
281
     1
  3
CANNOSCALE
350
1B2
  3
CMLEADERSTYLE
350
1B7
  3
CTABLESTYLE
350
1B6
  0
LAYOUT
  5
1E
102
{ACAD_REACTORS
330
1A
102
}
330
1A
100
AcDbPlotSettings
  1

  2
none_device
  4

  6

 40
0.0
 41
0.0
 42
0.0
 43
0.0
 44
0.0
 45
0.0
 46
0.0
 47
0.0
 48
0.0
 49
0.0
140
0.0
141
0.0
142
1.0
143
1.0
 70
   688
 72
     1
 73
     0
 74
     5
  7

 75
    16
 76
     0
 77
     2
 78
   300
147
1.0
148
0.0
149
0.0
100
AcDbLayout
  1
Layout1
 70
     1
 71
     1
 10
0.0
 20
0.0
 11
420.0
 21
297.0
 12
0.0
 22
0.0
 32
0.0
 14
1.000000000000000E+20
 24
1.000000000000000E+20
 34
1.000000000000000E+20
 15
-1.000000000000000E+20
 25
-1.000000000000000E+20
 35
-1.000000000000000E+20
146
0.0
 13
0.0
 23
0.0
 33
0.0
 16
1.0
 26
0.0
 36
0.0
 17
0.0
 27
1.0
 37
0.0
 76
     0
330
1B
  0
LAYOUT
  5
26
102
{ACAD_REACTORS
330
1A
102
}
330
1A
100
AcDbPlotSettings
  1

  2
none_device
  4

  6

 40
0.0
 41
0.0
 42
0.0
 43
0.0
 44
0.0
 45
0.0
 46
0.0
 47
0.0
 48
0.0
 49
0.0
140
0.0
141
0.0
142
1.0
143
1.0
 70
   688
 72
     1
 73
     0
 74
     5
  7

 75
    16
 76
     0
 77
     2
 78
   300
147
1.0
148
0.0
149
0.0
100
AcDbLayout
  1
Layout2
 70
     1
 71
     2
 10
0.0
 20
0.0
 11
0.0
 21
0.0
 12
0.0
 22
0.0
 32
0.0
 14
0.0
 24
0.0
 34
0.0
 15
0.0
 25
0.0
 35
0.0
146
0.0
 13
0.0
 23
0.0
 33
0.0
 16
1.0
 26
0.0
 36
0.0
 17
0.0
 27
1.0
 37
0.0
 76
     0
330
23
  0
LAYOUT
  5
22
102
{ACAD_REACTORS
330
1A
102
}
330
1A
100
AcDbPlotSettings
  1

  2
none_device
  4
Letter_(8.50_x_11.00_Inches)
  6

 40
6.35
 41
6.35
 42
6.35000508
 43
6.35000508
 44
215.9
 45
279.4
 46
0.0
 47
0.0
 48
0.0
 49
0.0
140
0.0
141
0.0
142
1.0
143
1.0
 70
  1712
 72
     1
 73
     0
 74
     0
  7

 75
     0
 76
     0
 77
     2
 78
   300
147
1.0
148
0.0
149
0.0
100
AcDbLayout
  1
Model
 70
     1
 71
     0
 10
0.0
 20
0.0
 11
420.0
 21
297.0
 12
0.0
 22
0.0
 32
0.0
 14
1.000000000000000E+20
 24
1.000000000000000E+20
 34
1.000000000000000E+20
 15
-1.000000000000000E+20
 25
-1.000000000000000E+20
 35
-1.000000000000000E+20
146
0.0
 13
0.0
 23
0.0
 33
0.0
 16
1.0
 26
0.0
 36
0.0
 17
0.0
 27
1.0
 37
0.0
 76
     0
330
1F
331
29
  0
MATERIAL
  5
45
102
{ACAD_REACTORS
330
43
102
}
330
43
100
AcDbMaterial
  1
ByBlock
 72
     1
 94
      127
  0
MATERIAL
  5
44
102
{ACAD_REACTORS
330
43
102
}
330
43
100
AcDbMaterial
  1
ByLayer
 72
     1
 94
      127
  0
MATERIAL
  5
46
102
{ACAD_REACTORS
330
43
102
}
330
43
100
AcDbMaterial
  1
Global
 72
     1
 94
      127
  0
MLEADERSTYLE
  5
6C
102
{ACAD_REACTORS
330
6B
102
}
330
6B
100
AcDbMLeaderStyle
179
     2
170
     2
171
     1
172
     0
 90
        2
 40
0.0
 41
0.0
173
     1
 91
-1056964608
340
14
 92
       -2
290
     1
 42
2.0
291
     1
 43
8.0
  3
Standard
341
0
 44
4.0
300

342
11
174
     1
178
     6
175
     1
176
     0
 93
-1056964608
 45
4.0
292
     0
297
     0
 46
4.0
343
0
 94
-1056964608
 47
1.0
 49
1.0
140
1.0
293
     1
141
0.0
294
     1
177
     0
142
1.0
295
     0
296
     0
143
3.75
271
     0
272
     9
273
     9
298
     0
  0
MLINESTYLE
  5
18
102
{ACAD_REACTORS
330
17
102
}
330
17
100
AcDbMlineStyle
  2
Standard
 70
     0
  3

 62
   256
 51
90.0
 52
90.0
 71
     2
 49
0.5
 62
   256
  6
BYLAYER
 49
-0.5
 62
   256
  6
BYLAYER
  0
ACDBPLACEHOLDER
  5
F
102
{ACAD_REACTORS
330
E
102
}
330
E
  0
SCALE
  5
48
102
{ACAD_REACTORS
330
47
102
}
330
47
100
AcDbScale
 70
     0
300
1:1
140
1.0
141
1.0
290
     1
  0
SCALE
  5
49
102
{ACAD_REACTORS
330
47
102
}
330
47
100
AcDbScale
 70
     0
300
1:2
140
1.0
141
2.0
290
     0
  0
SCALE
  5
4A
102
{ACAD_REACTORS
330
47
102
}
330
47
100
AcDbScale
 70
     0
300
1:4
140
1.0
141
4.0
290
     0
  0
SCALE
  5
4B
102
{ACAD_REACTORS
330
47
102
}
330
47
100
AcDbScale
 70
     0
300
1:5
140
1.0
141
5.0
290
     0
  0
SCALE
  5
4C
102
{ACAD_REACTORS
330
47
102
}
330
47
100
AcDbScale
 70
     0
300
1:8
140
1.0
141
8.0
290
     0
  0
SCALE
  5
4D
102
{ACAD_REACTORS
330
47
102
}
330
47
100
AcDbScale
 70
     0
300
1:10
140
1.0
141
10.0
290
     0
  0
SCALE
  5
4E
102
{ACAD_REACTORS
330
47
102
}
330
47
100
AcDbScale
 70
     0
300
1:16
140
1.0
141
16.0
290
     0
  0
SCALE
  5
4F
102
{ACAD_REACTORS
330
47
102
}
330
47
100
AcDbScale
 70
     0
300
1:20
140
1.0
141
20.0
290
     0
  0
SCALE
  5
50
102
{ACAD_REACTORS
330
47
102
}
330
47
100
AcDbScale
 70
     0
300
1:30
140
1.0
141
30.0
290
     0
  0
SCALE
  5
51
102
{ACAD_REACTORS
330
47
102
}
330
47
100
AcDbScale
 70
     0
300
1:40
140
1.0
141
40.0
290
     0
  0
SCALE
  5
52
102
{ACAD_REACTORS
330
47
102
}
330
47
100
AcDbScale
 70
     0
300
1:50
140
1.0
141
50.0
290
     0
  0
SCALE
  5
53
102
{ACAD_REACTORS
330
47
102
}
330
47
100
AcDbScale
 70
     0
300
1:100
140
1.0
141
100.0
290
     0
  0
SCALE
  5
54
102
{ACAD_REACTORS
330
47
102
}
330
47
100
AcDbScale
 70
     0
300
2:1
140
2.0
141
1.0
290
     0
  0
SCALE
  5
55
102
{ACAD_REACTORS
330
47
102
}
330
47
100
AcDbScale
 70
     0
300
4:1
140
4.0
141
1.0
290
     0
  0
SCALE
  5
56
102
{ACAD_REACTORS
330
47
102
}
330
47
100
AcDbScale
 70
     0
300
8:1
140
8.0
141
1.0
290
     0
  0
SCALE
  5
57
102
{ACAD_REACTORS
330
47
102
}
330
47
100
AcDbScale
 70
     0
300
10:1
140
10.0
141
1.0
290
     0
  0
SCALE
  5
58
102
{ACAD_REACTORS
330
47
102
}
330
47
100
AcDbScale
 70
     0
300
100:1
140
100.0
141
1.0
290
     0
  0
SCALE
  5
59
102
{ACAD_REACTORS
330
47
102
}
330
47
100
AcDbScale
 70
     0
300
1/128" = 1'-0"
140
0.0078125
141
12.0
290
     0
  0
SCALE
  5
5A
102
{ACAD_REACTORS
330
47
102
}
330
47
100
AcDbScale
 70
     0
300
1/64" = 1'-0"
140
0.015625
141
12.0
290
     0
  0
SCALE
  5
5B
102
{ACAD_REACTORS
330
47
102
}
330
47
100
AcDbScale
 70
     0
300
1/32" = 1'-0"
140
0.03125
141
12.0
290
     0
  0
SCALE
  5
5C
102
{ACAD_REACTORS
330
47
102
}
330
47
100
AcDbScale
 70
     0
300
1/16" = 1'-0"
140
0.0625
141
12.0
290
     0
  0
SCALE
  5
5D
102
{ACAD_REACTORS
330
47
102
}
330
47
100
AcDbScale
 70
     0
300
3/32" = 1'-0"
140
0.09375
141
12.0
290
     0
  0
SCALE
  5
5E
102
{ACAD_REACTORS
330
47
102
}
330
47
100
AcDbScale
 70
     0
300
1/8" = 1'-0"
140
0.125
141
12.0
290
     0
  0
SCALE
  5
5F
102
{ACAD_REACTORS
330
47
102
}
330
47
100
AcDbScale
 70
     0
300
3/16" = 1'-0"
140
0.1875
141
12.0
290
     0
  0
SCALE
  5
60
102
{ACAD_REACTORS
330
47
102
}
330
47
100
AcDbScale
 70
     0
300
1/4" = 1'-0"
140
0.25
141
12.0
290
     0
  0
SCALE
  5
61
102
{ACAD_REACTORS
330
47
102
}
330
47
100
AcDbScale
 70
     0
300
3/8" = 1'-0"
140
0.375
141
12.0
290
     0
  0
SCALE
  5
62
102
{ACAD_REACTORS
330
47
102
}
330
47
100
AcDbScale
 70
     0
300
1/2" = 1'-0"
140
0.5
141
12.0
290
     0
  0
SCALE
  5
63
102
{ACAD_REACTORS
330
47
102
}
330
47
100
AcDbScale
 70
     0
300
3/4" = 1'-0"
140
0.75
141
12.0
290
     0
  0
SCALE
  5
64
102
{ACAD_REACTORS
330
47
102
}
330
47
100
AcDbScale
 70
     0
300
1" = 1'-0"
140
1.0
141
12.0
290
     0
  0
SCALE
  5
65
102
{ACAD_REACTORS
330
47
102
}
330
47
100
AcDbScale
 70
     0
300
1-1/2" = 1'-0"
140
1.5
141
12.0
290
     0
  0
SCALE
  5
66
102
{ACAD_REACTORS
330
47
102
}
330
47
100
AcDbScale
 70
     0
300
3" = 1'-0"
140
3.0
141
12.0
290
     0
  0
SCALE
  5
67
102
{ACAD_REACTORS
330
47
102
}
330
47
100
AcDbScale
 70
     0
300
6" = 1'-0"
140
6.0
141
12.0
290
     0
  0
SCALE
  5
68
102
{ACAD_REACTORS
330
47
102
}
330
47
100
AcDbScale
 70
     0
300
1'-0" = 1'-0"
140
12.0
141
12.0
290
     0
  0
TABLESTYLE
  5
6A
102
{ACAD_REACTORS
330
69
102
}
102
{ACAD_XDICTIONARY
360
1B3
102
}
330
69
100
AcDbTableStyle
  3
Standard
 70
     0
 71
     0
 40
0.06
 41
0.06
280
     0
281
     0
  7
Standard
140
4.5
170
     2
 62
     0
 63
   257
283
     0
 90
        4
 91
        0
  1

274
    -2
284
     1
 64
     0
275
    -2
285
     1
 65
     0
276
    -2
286
     1
 66
     0
277
    -2
287
     1
 67
     0
278
    -2
288
     1
 68
     0
279
    -2
289
     1
 69
     0
  7
Standard
140
6.0
170
     5
 62
     0
 63
   257
283
     0
 90
        4
 91
        0
  1

274
    -2
284
     1
 64
     0
275
    -2
285
     1
 65
     0
276
    -2
286
     1
 66
     0
277
    -2
287
     1
 67
     0
278
    -2
288
     1
 68
     0
279
    -2
289
     1
 69
     0
  7
Standard
140
4.5
170
     5
 62
     0
 63
   257
283
     0
 90
        4
 91
        0
  1

274
    -2
284
     1
 64
     0
275
    -2
285
     1
 65
     0
276
    -2
286
     1
 66
     0
277
    -2
287
     1
 67
     0
278
    -2
288
     1
 68
     0
279
    -2
289
     1
 69
     0
  0
VISUALSTYLE
  5
2F
102
{ACAD_REACTORS
330
2A
102
}
330
2A
100
AcDbVisualStyle
  2
2dWireframe
 70
     4
177
     3
291
     0
 70
    58
 90
        0
176
     1
 90
        2
176
     1
 90
        0
176
     1
 90
        0
176
     1
 40
0.6
176
     1
 40
30.0
176
     1
 62
     7
420
 16777215
176
     1
 90
        1
176
     1
 90
        4
176
     1
 62
     7
176
     1
 62
   257
176
     1
 90
        1
176
     1
 90
        1
176
     1
 40
1.0
176
     1
 90
        0
176
     1
 62
   257
176
     1
 40
1.0
176
     1
 90
        1
176
     1
 90
        6
176
     1
 90
        2
176
     1
 62
     7
176
     1
 90
        5
176
     1
 90
        0
176
     1
 90
        0
176
     1
290
     0
176
     1
 90
        1
176
     1
 40
0.0
176
     1
 90
        0
176
     1
290
     1
176
     1
290
     1
176
     1
290
     0
176
     1
290
     0
176
     1
290
     0
176
     1
290
     0
176
     1
290
     0
176
     1
290
     0
176
     1
290
     0
176
     1
 90
       50
176
     1
 40
0.0
176
     1
 40
1.0
176
     1
 90
        0
176
     1
 62
    18
420
        0
176
     1
 90
       50
176
     1
 90
        3
176
     1
 62
     5
420
      255
176
     1
290
     0
176
     1
 90
       50
176
     1
 90
       50
176
     1
 90
       50
176
     1
290
     0
176
     1
 90
       50
176
     1
 62
   256
176
     0
 40
1.0
176
     0
 90
        2
176
     1
  1
strokes_ogs.tif
176
     1
290
     0
176
     1
 40
1.0
176
     1
 40
1.0
176
     1
  0
VISUALSTYLE
  5
32
102
{ACAD_REACTORS
330
2A
102
}
330
2A
100
AcDbVisualStyle
  2
Basic
 70
     7
177
     3
291
     1
 70
    58
 90
        1
176
     1
 90
        0
176
     1
 90
        1
176
     1
 90
        0
176
     1
 40
0.6
176
     1
 40
30.0
176
     1
 62
     7
420
 16777215
176
     1
 90
        0
176
     1
 90
        4
176
     1
 62
     7
176
     1
 62
   257
176
     1
 90
        1
176
     1
 90
        1
176
     1
 40
1.0
176
     1
 90
        8
176
     1
 62
     7
176
     1
 40
1.0
176
     1
 90
        1
176
     1
 90
        6
176
     1
 90
        2
176
     1
 62
     7
176
     1
 90
        5
176
     1
 90
        0
176
     1
 90
        0
176
     1
290
     0
176
     1
 90
        1
176
     1
 40
0.0
176
     1
 90
        0
176
     1
290
     0
176
     1
290
     1
176
     1
290
     1
176
     1
290
     0
176
     1
290
     0
176
     1
290
     0
176
     1
290
     0
176
     1
290
     0
176
     1
290
     0
176
     1
 90
       50
176
     1
 40
0.0
176
     1
 40
1.0
176
     1
 90
        0
176
     1
 62
    18
420
        0
176
     1
 90
       50
176
     1
 90
        3
176
     1
 62
     5
420
      255
176
     1
290
     0
176
     1
 90
       50
176
     1
 90
       50
176
     1
 90
       50
176
     1
290
     0
176
     1
 90
       50
176
     1
 62
   256
176
     0
 40
1.0
176
     0
 90
        2
176
     1
  1
strokes_ogs.tif
176
     1
290
     0
176
     1
 40
1.0
176
     1
 40
1.0
176
     1
  0
VISUALSTYLE
  5
36
102
{ACAD_REACTORS
330
2A
102
}
330
2A
100
AcDbVisualStyle
  2
Brighten
 70
    12
177
     3
291
     1
 70
    58
 90
        2
176
     1
 90
        2
176
     1
 90
        0
176
     1
 90
        0
176
     1
 40
0.6
176
     1
 40
30.0
176
     1
 62
     7
420
 16777215
176
     1
 90
        1
176
     1
 90
        4
176
     1
 62
     7
176
     1
 62
   257
176
     1
 90
        1
176
     1
 90
        1
176
     1
 40
1.0
176
     1
 90
        8
176
     1
 62
     7
176
     1
 40
1.0
176
     1
 90
        1
176
     1
 90
        6
176
     1
 90
        2
176
     1
 62
     7
176
     1
 90
        5
176
     1
 90
        0
176
     1
 90
        0
176
     1
290
     0
176
     1
 90
        1
176
     1
 40
50.0
176
     1
 90
        0
176
     1
290
     0
176
     1
290
     1
176
     1
290
     1
176
     1
290
     0
176
     1
290
     0
176
     1
290
     0
176
     1
290
     0
176
     1
290
     0
176
     1
290
     0
176
     1
 90
       50
176
     1
 40
0.0
176
     1
 40
1.0
176
     1
 90
        0
176
     1
 62
    18
420
        0
176
     1
 90
       50
176
     1
 90
        3
176
     1
 62
     5
420
      255
176
     1
290
     0
176
     1
 90
       50
176
     1
 90
       50
176
     1
 90
       50
176
     1
290
     0
176
     1
 90
       50
176
     1
 62
   256
176
     0
 40
1.0
176
     0
 90
        2
176
     1
  1
strokes_ogs.tif
176
     1
290
     0
176
     1
 40
1.0
176
     1
 40
1.0
176
     1
  0
VISUALSTYLE
  5
3A
102
{ACAD_REACTORS
330
2A
102
}
330
2A
100
AcDbVisualStyle
  2
ColorChange
 70
    16
177
     3
291
     1
 70
    58
 90
        2
176
     1
 90
        2
176
     1
 90
        3
176
     1
 90
        0
176
     1
 40
0.6
176
     1
 40
30.0
176
     1
 62
     8
420
  8421504
176
     1
 90
        1
176
     1
 90
        4
176
     1
 62
     7
176
     1
 62
   257
176
     1
 90
        1
176
     1
 90
        1
176
     1
 40
1.0
176
     1
 90
        8
176
     1
 62
     8
420
  8421504
176
     1
 40
1.0
176
     1
 90
        1
176
     1
 90
        6
176
     1
 90
        2
176
     1
 62
     7
176
     1
 90
        5
176
     1
 90
        0
176
     1
 90
        0
176
     1
290
     0
176
     1
 90
        1
176
     1
 40
0.0
176
     1
 90
        0
176
     1
290
     0
176
     1
290
     1
176
     1
290
     1
176
     1
290
     0
176
     1
290
     0
176
     1
290
     0
176
     1
290
     0
176
     1
290
     0
176
     1
290
     0
176
     1
 90
       50
176
     1
 40
0.0
176
     1
 40
1.0
176
     1
 90
        0
176
     1
 62
    18
420
        0
176
     1
 90
       50
176
     1
 90
        3
176
     1
 62
     5
420
      255
176
     1
290
     0
176
     1
 90
       50
176
     1
 90
       50
176
     1
 90
       50
176
     1
290
     0
176
     1
 90
       50
176
     1
 62
   256
176
     0
 40
1.0
176
     0
 90
        2
176
     1
  1
strokes_ogs.tif
176
     1
290
     0
176
     1
 40
1.0
176
     1
 40
1.0
176
     1
  0
VISUALSTYLE
  5
34
102
{ACAD_REACTORS
330
2A
102
}
330
2A
100
AcDbVisualStyle
  2
Conceptual
 70
     9
177
     3
291
     0
 70
    58
 90
        3
176
     1
 90
        2
176
     1
 90
        0
176
     1
 90
        0
176
     1
 40
0.6
176
     1
 40
30.0
176
     1
 62
     7
420
 16777215
176
     1
 90
        2
176
     1
 90
        2
176
     1
 62
     7
176
     1
 62
   257
176
     1
 90
        1
176
     1
 90
        1
176
     1
 40
179.0
176
     1
 90
        8
176
     1
 62
     7
176
     1
 40
1.0
176
     1
 90
        1
176
     1
 90
        6
176
     1
 90
        2
176
     1
 62
     7
176
     1
 90
        3
176
     1
 90
        0
176
     1
 90
        0
176
     1
290
     0
176
     1
 90
        1
176
     1
 40
0.0
176
     1
 90
        0
176
     1
290
     0
176
     1
290
     1
176
     1
290
     1
176
     1
290
     0
176
     1
290
     0
176
     1
290
     0
176
     1
290
     0
176
     1
290
     0
176
     1
290
     0
176
     1
 90
       50
176
     1
 40
0.0
176
     1
 40
1.0
176
     1
 90
        0
176
     1
 62
    18
420
        0
176
     1
 90
       50
176
     1
 90
        3
176
     1
 62
     5
420
      255
176
     1
290
     0
176
     1
 90
       50
176
     1
 90
       50
176
     1
 90
       50
176
     1
290
     0
176
     1
 90
       50
176
     1
 62
   256
176
     0
 40
1.0
176
     0
 90
        2
176
     1
  1
strokes_ogs.tif
176
     1
290
     0
176
     1
 40
1.0
176
     1
 40
1.0
176
     1
  0
VISUALSTYLE
  5
35
102
{ACAD_REACTORS
330
2A
102
}
330
2A
100
AcDbVisualStyle
  2
Dim
 70
    11
177
     3
291
     1
 70
    58
 90
        2
176
     1
 90
        2
176
     1
 90
        0
176
     1
 90
        0
176
     1
 40
0.6
176
     1
 40
30.0
176
     1
 62
     7
420
 16777215
176
     1
 90
        1
176
     1
 90
        4
176
     1
 62
     7
176
     1
 62
   257
176
     1
 90
        1
176
     1
 90
        1
176
     1
 40
1.0
176
     1
 90
        8
176
     1
 62
     7
176
     1
 40
1.0
176
     1
 90
        1
176
     1
 90
        6
176
     1
 90
        2
176
     1
 62
     7
176
     1
 90
        5
176
     1
 90
        0
176
     1
 90
        0
176
     1
290
     0
176
     1
 90
        1
176
     1
 40
-50.0
176
     1
 90
        0
176
     1
290
     0
176
     1
290
     1
176
     1
290
     1
176
     1
290
     0
176
     1
290
     0
176
     1
290
     0
176
     1
290
     0
176
     1
290
     0
176
     1
290
     0
176
     1
 90
       50
176
     1
 40
0.0
176
     1
 40
1.0
176
     1
 90
        0
176
     1
 62
    18
420
        0
176
     1
 90
       50
176
     1
 90
        3
176
     1
 62
     5
420
      255
176
     1
290
     0
176
     1
 90
       50
176
     1
 90
       50
176
     1
 90
       50
176
     1
290
     0
176
     1
 90
       50
176
     1
 62
   256
176
     0
 40
1.0
176
     0
 90
        2
176
     1
  1
strokes_ogs.tif
176
     1
290
     0
176
     1
 40
1.0
176
     1
 40
1.0
176
     1
  0
VISUALSTYLE
  5
3D
102
{ACAD_REACTORS
330
2A
102
}
330
2A
100
AcDbVisualStyle
  2
EdgeColorOff
 70
    22
177
     3
291
     1
 70
    58
 90
        2
176
     0
 90
        2
176
     0
 90
        0
176
     0
 90
        0
176
     0
 40
0.6
176
     0
 40
30.0
176
     0
 62
     7
420
 16777215
176
     0
 90
        1
176
     0
 90
        4
176
     0
 62
     7
176
     0
 62
   257
176
     0
 90
        1
176
     0
 90
        1
176
     0
 40
1.0
176
     0
 90
        8
176
     2
 62
     7
176
     0
 40
1.0
176
     0
 90
        1
176
     0
 90
        6
176
     0
 90
        2
176
     0
 62
     7
176
     0
 90
        5
176
     0
 90
        0
176
     0
 90
        0
176
     0
290
     0
176
     0
 90
        1
176
     0
 40
0.0
176
     0
 90
        0
176
     0
290
     0
176
     0
290
     1
176
     0
290
     1
176
     0
290
     0
176
     0
290
     0
176
     0
290
     0
176
     0
290
     0
176
     0
290
     0
176
     0
290
     0
176
     0
 90
       50
176
     0
 40
0.0
176
     0
 40
1.0
176
     0
 90
        0
176
     0
 62
    18
420
        0
176
     0
 90
       50
176
     0
 90
        3
176
     0
 62
     5
420
      255
176
     0
290
     0
176
     0
 90
       50
176
     0
 90
       50
176
     0
 90
       50
176
     0
290
     0
176
     0
 90
       50
176
     0
 62
   256
176
     0
 40
1.0
176
     0
 90
        2
176
     0
  1
strokes_ogs.tif
176
     0
290
     0
176
     0
 40
1.0
176
     0
 40
1.0
176
     0
  0
VISUALSTYLE
  5
39
102
{ACAD_REACTORS
330
2A
102
}
330
2A
100
AcDbVisualStyle
  2
Facepattern
 70
    15
177
     3
291
     1
 70
    58
 90
        2
176
     1
 90
        2
176
     1
 90
        0
176
     1
 90
        0
176
     1
 40
0.6
176
     1
 40
30.0
176
     1
 62
     7
420
 16777215
176
     1
 90
        1
176
     1
 90
        4
176
     1
 62
     7
176
     1
 62
   257
176
     1
 90
        1
176
     1
 90
        1
176
     1
 40
1.0
176
     1
 90
        8
176
     1
 62
     7
176
     1
 40
1.0
176
     1
 90
        1
176
     1
 90
        6
176
     1
 90
        2
176
     1
 62
     7
176
     1
 90
        5
176
     1
 90
        0
176
     1
 90
        0
176
     1
290
     0
176
     1
 90
        1
176
     1
 40
0.0
176
     1
 90
        0
176
     1
290
     0
176
     1
290
     1
176
     1
290
     1
176
     1
290
     0
176
     1
290
     0
176
     1
290
     0
176
     1
290
     0
176
     1
290
     0
176
     1
290
     0
176
     1
 90
       50
176
     1
 40
0.0
176
     1
 40
1.0
176
     1
 90
        0
176
     1
 62
    18
420
        0
176
     1
 90
       50
176
     1
 90
        3
176
     1
 62
     5
420
      255
176
     1
290
     0
176
     1
 90
       50
176
     1
 90
       50
176
     1
 90
       50
176
     1
290
     0
176
     1
 90
       50
176
     1
 62
   256
176
     0
 40
1.0
176
     0
 90
        2
176
     1
  1
strokes_ogs.tif
176
     1
290
     0
176
     1
 40
1.0
176
     1
 40
1.0
176
     1
  0
VISUALSTYLE
  5
2B
102
{ACAD_REACTORS
330
2A
102
}
330
2A
100
AcDbVisualStyle
  2
Flat
 70
     0
177
     3
291
     1
 70
    58
 90
        2
176
     1
 90
        1
176
     1
 90
        1
176
     1
 90
        2
176
     1
 40
0.6
176
     1
 40
30.0
176
     1
 62
     7
420
 16777215
176
     1
 90
        0
176
     1
 90
        0
176
     1
 62
     7
176
     1
 62
   257
176
     1
 90
        1
176
     1
 90
        1
176
     1
 40
1.0
176
     1
 90
        8
176
     1
 62
     7
176
     1
 40
1.0
176
     1
 90
        1
176
     1
 90
        6
176
     1
 90
        2
176
     1
 62
     7
176
     1
 90
        5
176
     1
 90
        0
176
     1
 90
        0
176
     1
290
     0
176
     1
 90
       13
176
     1
 40
0.0
176
     1
 90
        0
176
     1
290
     0
176
     1
290
     1
176
     1
290
     1
176
     1
290
     0
176
     1
290
     0
176
     1
290
     0
176
     1
290
     0
176
     1
290
     0
176
     1
290
     0
176
     1
 90
       50
176
     1
 40
0.0
176
     1
 40
1.0
176
     1
 90
        0
176
     1
 62
    18
420
        0
176
     1
 90
       50
176
     1
 90
        3
176
     1
 62
     5
420
      255
176
     1
290
     0
176
     1
 90
       50
176
     1
 90
       50
176
     1
 90
       50
176
     1
290
     0
176
     1
 90
       50
176
     1
 62
   256
176
     0
 40
1.0
176
     0
 90
        2
176
     1
  1
strokes_ogs.tif
176
     1
290
     0
176
     1
 40
1.0
176
     1
 40
1.0
176
     1
  0
VISUALSTYLE
  5
2C
102
{ACAD_REACTORS
330
2A
102
}
330
2A
100
AcDbVisualStyle
  2
FlatWithEdges
 70
     1
177
     3
291
     1
 70
    58
 90
        2
176
     1
 90
        1
176
     1
 90
        1
176
     1
 90
        2
176
     1
 40
0.6
176
     1
 40
30.0
176
     1
 62
     7
420
 16777215
176
     1
 90
        1
176
     1
 90
        0
176
     1
 62
     7
176
     1
 62
   257
176
     1
 90
        1
176
     1
 90
        1
176
     1
 40
1.0
176
     1
 90
        0
176
     1
 62
   257
176
     1
 40
1.0
176
     1
 90
        1
176
     1
 90
        6
176
     1
 90
        2
176
     1
 62
     7
176
     1
 90
        5
176
     1
 90
        0
176
     1
 90
        0
176
     1
290
     0
176
     1
 90
       13
176
     1
 40
0.0
176
     1
 90
        0
176
     1
290
     0
176
     1
290
     1
176
     1
290
     1
176
     1
290
     0
176
     1
290
     0
176
     1
290
     0
176
     1
290
     0
176
     1
290
     0
176
     1
290
     0
176
     1
 90
       50
176
     1
 40
0.0
176
     1
 40
1.0
176
     1
 90
        0
176
     1
 62
    18
420
        0
176
     1
 90
       50
176
     1
 90
        3
176
     1
 62
     5
420
      255
176
     1
290
     0
176
     1
 90
       50
176
     1
 90
       50
176
     1
 90
       50
176
     1
290
     0
176
     1
 90
       50
176
     1
 62
   256
176
     0
 40
1.0
176
     0
 90
        2
176
     1
  1
strokes_ogs.tif
176
     1
290
     0
176
     1
 40
1.0
176
     1
 40
1.0
176
     1
  0
VISUALSTYLE
  5
2D
102
{ACAD_REACTORS
330
2A
102
}
330
2A
100
AcDbVisualStyle
  2
Gouraud
 70
     2
177
     3
291
     1
 70
    58
 90
        2
176
     1
 90
        2
176
     1
 90
        1
176
     1
 90
        2
176
     1
 40
0.6
176
     1
 40
30.0
176
     1
 62
     7
420
 16777215
176
     1
 90
        0
176
     1
 90
        0
176
     1
 62
     7
176
     1
 62
   257
176
     1
 90
        1
176
     1
 90
        1
176
     1
 40
1.0
176
     1
 90
        0
176
     1
 62
     7
176
     1
 40
1.0
176
     1
 90
        1
176
     1
 90
        6
176
     1
 90
        2
176
     1
 62
     7
176
     1
 90
        5
176
     1
 90
        0
176
     1
 90
        0
176
     1
290
     0
176
     1
 90
       13
176
     1
 40
0.0
176
     1
 90
        0
176
     1
290
     0
176
     1
290
     1
176
     1
290
     1
176
     1
290
     0
176
     1
290
     0
176
     1
290
     0
176
     1
290
     0
176
     1
290
     0
176
     1
290
     0
176
     1
 90
       50
176
     1
 40
0.0
176
     1
 40
1.0
176
     1
 90
        0
176
     1
 62
    18
420
        0
176
     1
 90
       50
176
     1
 90
        3
176
     1
 62
     5
420
      255
176
     1
290
     0
176
     1
 90
       50
176
     1
 90
       50
176
     1
 90
       50
176
     1
290
     0
176
     1
 90
       50
176
     1
 62
   256
176
     0
 40
1.0
176
     0
 90
        2
176
     1
  1
strokes_ogs.tif
176
     1
290
     0
176
     1
 40
1.0
176
     1
 40
1.0
176
     1
  0
VISUALSTYLE
  5
2E
102
{ACAD_REACTORS
330
2A
102
}
330
2A
100
AcDbVisualStyle
  2
GouraudWithEdges
 70
     3
177
     3
291
     1
 70
    58
 90
        2
176
     1
 90
        2
176
     1
 90
        1
176
     1
 90
        2
176
     1
 40
0.6
176
     1
 40
30.0
176
     1
 62
     7
420
 16777215
176
     1
 90
        1
176
     1
 90
        0
176
     1
 62
     7
176
     1
 62
   257
176
     1
 90
        1
176
     1
 90
        1
176
     1
 40
1.0
176
     1
 90
        0
176
     1
 62
   257
176
     1
 40
1.0
176
     1
 90
        1
176
     1
 90
        6
176
     1
 90
        2
176
     1
 62
     7
176
     1
 90
        5
176
     1
 90
        0
176
     1
 90
        0
176
     1
290
     0
176
     1
 90
       13
176
     1
 40
0.0
176
     1
 90
        0
176
     1
290
     0
176
     1
290
     1
176
     1
290
     1
176
     1
290
     0
176
     1
290
     0
176
     1
290
     0
176
     1
290
     0
176
     1
290
     0
176
     1
290
     0
176
     1
 90
       50
176
     1
 40
0.0
176
     1
 40
1.0
176
     1
 90
        0
176
     1
 62
    18
420
        0
176
     1
 90
       50
176
     1
 90
        3
176
     1
 62
     5
420
      255
176
     1
290
     0
176
     1
 90
       50
176
     1
 90
       50
176
     1
 90
       50
176
     1
290
     0
176
     1
 90
       50
176
     1
 62
   256
176
     0
 40
1.0
176
     0
 90
        2
176
     1
  1
strokes_ogs.tif
176
     1
290
     0
176
     1
 40
1.0
176
     1
 40
1.0
176
     1
  0
VISUALSTYLE
  5
31
102
{ACAD_REACTORS
330
2A
102
}
330
2A
100
AcDbVisualStyle
  2
Hidden
 70
     6
177
     3
291
     0
 70
    58
 90
        1
176
     1
 90
        2
176
     1
 90
        2
176
     1
 90
        0
176
     1
 40
0.6
176
     1
 40
30.0
176
     1
 62
     7
420
 16777215
176
     1
 90
        2
176
     1
 90
        2
176
     1
 62
     7
176
     1
 62
   257
176
     1
 90
        2
176
     1
 90
        1
176
     1
 40
40.0
176
     1
 90
        0
176
     1
 62
   257
176
     1
 40
1.0
176
     1
 90
        1
176
     1
 90
        6
176
     1
 90
        2
176
     1
 62
     7
176
     1
 90
        3
176
     1
 90
        0
176
     1
 90
        0
176
     1
290
     0
176
     1
 90
        1
176
     1
 40
0.0
176
     1
 90
        0
176
     1
290
     0
176
     1
290
     1
176
     1
290
     1
176
     1
290
     0
176
     1
290
     0
176
     1
290
     0
176
     1
290
     0
176
     1
290
     0
176
     1
290
     0
176
     1
 90
       50
176
     1
 40
0.0
176
     1
 40
1.0
176
     1
 90
        0
176
     1
 62
    18
420
        0
176
     1
 90
       50
176
     1
 90
        3
176
     1
 62
     5
420
      255
176
     1
290
     0
176
     1
 90
       50
176
     1
 90
       50
176
     1
 90
       50
176
     1
290
     0
176
     1
 90
       50
176
     1
 62
   256
176
     0
 40
1.0
176
     0
 90
        2
176
     1
  1
strokes_ogs.tif
176
     1
290
     0
176
     1
 40
1.0
176
     1
 40
1.0
176
     1
  0
VISUALSTYLE
  5
3B
102
{ACAD_REACTORS
330
2A
102
}
330
2A
100
AcDbVisualStyle
  2
JitterOff
 70
    20
177
     3
291
     1
 70
    58
 90
        2
176
     0
 90
        2
176
     0
 90
        0
176
     0
 90
        0
176
     0
 40
0.6
176
     0
 40
30.0
176
     0
 62
     7
420
 16777215
176
     0
 90
        1
176
     0
 90
        4
176
     0
 62
     7
176
     0
 62
   257
176
     0
 90
        1
176
     0
 90
        1
176
     0
 40
1.0
176
     0
 90
       10
176
     2
 62
     7
176
     0
 40
1.0
176
     0
 90
        1
176
     0
 90
        6
176
     0
 90
        2
176
     0
 62
     7
176
     0
 90
        5
176
     0
 90
        0
176
     0
 90
        0
176
     0
290
     0
176
     0
 90
        1
176
     0
 40
0.0
176
     0
 90
        0
176
     0
290
     0
176
     0
290
     1
176
     0
290
     1
176
     0
290
     0
176
     0
290
     0
176
     0
290
     0
176
     0
290
     0
176
     0
290
     0
176
     0
290
     0
176
     0
 90
       50
176
     0
 40
0.0
176
     0
 40
1.0
176
     0
 90
        0
176
     0
 62
    18
420
        0
176
     0
 90
       50
176
     0
 90
        3
176
     0
 62
     5
420
      255
176
     0
290
     0
176
     0
 90
       50
176
     0
 90
       50
176
     0
 90
       50
176
     0
290
     0
176
     0
 90
       50
176
     0
 62
   256
176
     0
 40
1.0
176
     0
 90
        2
176
     0
  1
strokes_ogs.tif
176
     0
290
     0
176
     0
 40
1.0
176
     0
 40
1.0
176
     0
  0
VISUALSTYLE
  5
38
102
{ACAD_REACTORS
330
2A
102
}
330
2A
100
AcDbVisualStyle
  2
Linepattern
 70
    14
177
     3
291
     1
 70
    58
 90
        2
176
     1
 90
        2
176
     1
 90
        0
176
     1
 90
        0
176
     1
 40
0.6
176
     1
 40
30.0
176
     1
 62
     7
420
 16777215
176
     1
 90
        1
176
     1
 90
        4
176
     1
 62
     7
176
     1
 62
   257
176
     1
 90
        7
176
     1
 90
        7
176
     1
 40
1.0
176
     1
 90
        8
176
     1
 62
     7
176
     1
 40
1.0
176
     1
 90
        1
176
     1
 90
        6
176
     1
 90
        2
176
     1
 62
     7
176
     1
 90
        5
176
     1
 90
        0
176
     1
 90
        0
176
     1
290
     0
176
     1
 90
        1
176
     1
 40
0.0
176
     1
 90
        0
176
     1
290
     0
176
     1
290
     1
176
     1
290
     1
176
     1
290
     0
176
     1
290
     0
176
     1
290
     0
176
     1
290
     0
176
     1
290
     0
176
     1
290
     0
176
     1
 90
       50
176
     1
 40
0.0
176
     1
 40
1.0
176
     1
 90
        0
176
     1
 62
    18
420
        0
176
     1
 90
       50
176
     1
 90
        3
176
     1
 62
     5
420
      255
176
     1
290
     0
176
     1
 90
       50
176
     1
 90
       50
176
     1
 90
       50
176
     1
290
     0
176
     1
 90
       50
176
     1
 62
   256
176
     0
 40
1.0
176
     0
 90
        2
176
     1
  1
strokes_ogs.tif
176
     1
290
     0
176
     1
 40
1.0
176
     1
 40
1.0
176
     1
  0
VISUALSTYLE
  5
3C
102
{ACAD_REACTORS
330
2A
102
}
330
2A
100
AcDbVisualStyle
  2
OverhangOff
 70
    21
177
     3
291
     1
 70
    58
 90
        2
176
     0
 90
        2
176
     0
 90
        0
176
     0
 90
        0
176
     0
 40
0.6
176
     0
 40
30.0
176
     0
 62
     7
420
 16777215
176
     0
 90
        1
176
     0
 90
        4
176
     0
 62
     7
176
     0
 62
   257
176
     0
 90
        1
176
     0
 90
        1
176
     0
 40
1.0
176
     0
 90
        9
176
     2
 62
     7
176
     0
 40
1.0
176
     0
 90
        1
176
     0
 90
        6
176
     0
 90
        2
176
     0
 62
     7
176
     0
 90
        5
176
     0
 90
        0
176
     0
 90
        0
176
     0
290
     0
176
     0
 90
        1
176
     0
 40
0.0
176
     0
 90
        0
176
     0
290
     0
176
     0
290
     1
176
     0
290
     1
176
     0
290
     0
176
     0
290
     0
176
     0
290
     0
176
     0
290
     0
176
     0
290
     0
176
     0
290
     0
176
     0
 90
       50
176
     0
 40
0.0
176
     0
 40
1.0
176
     0
 90
        0
176
     0
 62
    18
420
        0
176
     0
 90
       50
176
     0
 90
        3
176
     0
 62
     5
420
      255
176
     0
290
     0
176
     0
 90
       50
176
     0
 90
       50
176
     0
 90
       50
176
     0
290
     0
176
     0
 90
       50
176
     0
 62
   256
176
     0
 40
1.0
176
     0
 90
        2
176
     0
  1
strokes_ogs.tif
176
     0
290
     0
176
     0
 40
1.0
176
     0
 40
1.0
176
     0
  0
VISUALSTYLE
  5
33
102
{ACAD_REACTORS
330
2A
102
}
330
2A
100
AcDbVisualStyle
  2
Realistic
 70
     8
177
     3
291
     0
 70
    58
 90
        2
176
     1
 90
        3
176
     1
 90
        0
176
     1
 90
        2
176
     1
 40
0.6
176
     1
 40
30.0
176
     1
 62
     7
420
 16777215
176
     1
 90
        0
176
     1
 90
        0
176
     1
 62
     7
176
     1
 62
   257
176
     1
 90
        1
176
     1
 90
        1
176
     1
 40
1.0
176
     1
 90
        8
176
     1
 62
   257
176
     1
 40
1.0
176
     1
 90
        1
176
     1
 90
        6
176
     1
 90
        2
176
     1
 62
     7
176
     1
 90
        3
176
     1
 90
        0
176
     1
 90
        0
176
     1
290
     0
176
     1
 90
       13
176
     1
 40
0.0
176
     1
 90
        0
176
     1
290
     0
176
     1
290
     1
176
     1
290
     1
176
     1
290
     0
176
     1
290
     0
176
     1
290
     0
176
     1
290
     0
176
     1
290
     0
176
     1
290
     0
176
     1
 90
       50
176
     1
 40
0.0
176
     1
 40
1.0
176
     1
 90
        0
176
     1
 62
    18
420
        0
176
     1
 90
       50
176
     1
 90
        3
176
     1
 62
     5
420
      255
176
     1
290
     0
176
     1
 90
       50
176
     1
 90
       50
176
     1
 90
       50
176
     1
290
     0
176
     1
 90
       50
176
     1
 62
   256
176
     0
 40
1.0
176
     0
 90
        2
176
     1
  1
strokes_ogs.tif
176
     1
290
     0
176
     1
 40
1.0
176
     1
 40
1.0
176
     1
  0
VISUALSTYLE
  5
42
102
{ACAD_REACTORS
330
2A
102
}
330
2A
100
AcDbVisualStyle
  2
Shaded
 70
    27
177
     3
291
     0
 70
    58
 90
        2
176
     1
 90
        2
176
     1
 90
        1
176
     1
 90
        2
176
     1
 40
0.6
176
     1
 40
30.0
176
     1
 62
     7
420
 16777215
176
     1
 90
        0
176
     1
 90
        4
176
     1
 62
     7
176
     1
 62
   257
176
     1
 90
        1
176
     1
 90
        1
176
     1
 40
1.0
176
     1
 90
        8
176
     1
 62
   257
176
     1
 40
1.0
176
     1
 90
        1
176
     1
 90
        6
176
     1
 90
        2
176
     1
 62
     8
420
  7895160
176
     1
 90
        3
176
     1
 90
        0
176
     1
 90
        0
176
     1
290
     0
176
     1
 90
        5
176
     1
 40
0.0
176
     1
 90
        0
176
     1
290
     0
176
     1
290
     1
176
     1
290
     1
176
     1
290
     0
176
     1
290
     0
176
     1
290
     0
176
     1
290
     0
176
     1
290
     0
176
     1
290
     0
176
     1
 90
       50
176
     1
 40
0.0
176
     1
 40
1.0
176
     1
 90
        0
176
     1
 62
    18
420
        0
176
     1
 90
       50
176
     1
 90
        3
176
     1
 62
     5
420
      255
176
     1
290
     0
176
     1
 90
       50
176
     1
 90
       50
176
     1
 90
       50
176
     1
290
     0
176
     1
 90
       50
176
     1
 62
   256
176
     0
 40
1.0
176
     0
 90
        2
176
     1
  1
strokes_ogs.tif
176
     1
290
     0
176
     1
 40
1.0
176
     1
 40
1.0
176
     1
  0
VISUALSTYLE
  5
41
102
{ACAD_REACTORS
330
2A
102
}
330
2A
100
AcDbVisualStyle
  2
Shaded with edges
 70
    26
177
     3
291
     0
 70
    58
 90
        2
176
     1
 90
        2
176
     1
 90
        1
176
     1
 90
        2
176
     1
 40
0.6
176
     1
 40
30.0
176
     1
 62
     7
420
 16777215
176
     1
 90
        1
176
     1
 90
       10
176
     1
 62
     7
176
     1
 62
   257
176
     1
 90
        2
176
     1
 90
        1
176
     1
 40
1.0
176
     1
 90
        8
176
     1
 62
   257
176
     1
 40
1.0
176
     1
 90
        1
176
     1
 90
        6
176
     1
 90
        2
176
     1
 62
     7
176
     1
 90
        3
176
     1
 90
        0
176
     1
 90
        0
176
     1
290
     0
176
     1
 90
        5
176
     1
 40
0.0
176
     1
 90
        0
176
     1
290
     0
176
     1
290
     1
176
     1
290
     1
176
     1
290
     0
176
     1
290
     0
176
     1
290
     0
176
     1
290
     0
176
     1
290
     0
176
     1
290
     0
176
     1
 90
       50
176
     1
 40
0.0
176
     1
 40
1.0
176
     1
 90
        0
176
     1
 62
    18
420
        0
176
     1
 90
       50
176
     1
 90
        3
176
     1
 62
     5
420
      255
176
     1
290
     0
176
     1
 90
       50
176
     1
 90
       50
176
     1
 90
       50
176
     1
290
     0
176
     1
 90
       50
176
     1
 62
   256
176
     0
 40
1.0
176
     0
 90
        2
176
     1
  1
strokes_ogs.tif
176
     1
290
     0
176
     1
 40
1.0
176
     1
 40
1.0
176
     1
  0
VISUALSTYLE
  5
3E
102
{ACAD_REACTORS
330
2A
102
}
330
2A
100
AcDbVisualStyle
  2
Shades of Gray
 70
    23
177
     3
291
     0
 70
    58
 90
        2
176
     1
 90
        2
176
     1
 90
        3
176
     1
 90
        0
176
     1
 40
0.6
176
     1
 40
30.0
176
     1
 62
     7
420
 16777215
176
     1
 90
        2
176
     1
 90
        2
176
     1
 62
     7
176
     1
 62
     7
176
     1
 90
        1
176
     1
 90
        1
176
     1
 40
40.0
176
     1
 90
        8
176
     1
 62
     7
176
     1
 40
1.0
176
     1
 90
        1
176
     1
 90
        6
176
     1
 90
        2
176
     1
 62
     7
176
     1
 90
        3
176
     1
 90
        0
176
     1
 90
        0
176
     1
290
     0
176
     1
 90
        1
176
     1
 40
0.0
176
     1
 90
        0
176
     1
290
     0
176
     1
290
     1
176
     1
290
     1
176
     1
290
     0
176
     1
290
     0
176
     1
290
     0
176
     1
290
     0
176
     1
290
     0
176
     1
290
     0
176
     1
 90
       50
176
     1
 40
0.0
176
     1
 40
1.0
176
     1
 90
        0
176
     1
 62
    18
420
        0
176
     1
 90
       50
176
     1
 90
        3
176
     1
 62
     5
420
      255
176
     1
290
     0
176
     1
 90
       50
176
     1
 90
       50
176
     1
 90
       50
176
     1
290
     0
176
     1
 90
       50
176
     1
 62
   256
176
     0
 40
1.0
176
     0
 90
        2
176
     1
  1
strokes_ogs.tif
176
     1
290
     0
176
     1
 40
1.0
176
     1
 40
1.0
176
     1
  0
VISUALSTYLE
  5
3F
102
{ACAD_REACTORS
330
2A
102
}
330
2A
100
AcDbVisualStyle
  2
Sketchy
 70
    24
177
     3
291
     0
 70
    58
 90
        1
176
     1
 90
        2
176
     1
 90
        2
176
     1
 90
        0
176
     1
 40
0.6
176
     1
 40
30.0
176
     1
 62
     7
420
 16777215
176
     1
 90
        2
176
     1
 90
        2
176
     1
 62
     7
176
     1
 62
     7
176
     1
 90
        1
176
     1
 90
        1
176
     1
 40
40.0
176
     1
 90
       11
176
     1
 62
     7
176
     1
 40
1.0
176
     1
 90
        1
176
     1
 90
        6
176
     1
 90
        2
176
     1
 62
     7
176
     1
 90
        6
176
     1
 90
        0
176
     1
 90
        0
176
     1
290
     0
176
     1
 90
        1
176
     1
 40
0.0
176
     1
 90
        0
176
     1
290
     0
176
     1
290
     1
176
     1
290
     1
176
     1
290
     0
176
     1
290
     0
176
     1
290
     0
176
     1
290
     0
176
     1
290
     0
176
     1
290
     0
176
     1
 90
       50
176
     1
 40
0.0
176
     1
 40
1.0
176
     1
 90
        0
176
     1
 62
    18
420
        0
176
     1
 90
       50
176
     1
 90
        3
176
     1
 62
     5
420
      255
176
     1
290
     0
176
     1
 90
       50
176
     1
 90
       50
176
     1
 90
       50
176
     1
290
     0
176
     1
 90
       50
176
     1
 62
   256
176
     0
 40
1.0
176
     0
 90
        2
176
     1
  1
strokes_ogs.tif
176
     1
290
     0
176
     1
 40
1.0
176
     1
 40
1.0
176
     1
  0
VISUALSTYLE
  5
37
102
{ACAD_REACTORS
330
2A
102
}
330
2A
100
AcDbVisualStyle
  2
Thicken
 70
    13
177
     3
291
     1
 70
    58
 90
        2
176
     1
 90
        2
176
     1
 90
        0
176
     1
 90
        0
176
     1
 40
0.6
176
     1
 40
30.0
176
     1
 62
     7
420
 16777215
176
     1
 90
        1
176
     1
 90
        4
176
     1
 62
     7
176
     1
 62
   257
176
     1
 90
        1
176
     1
 90
        1
176
     1
 40
1.0
176
     1
 90
       12
176
     1
 62
     7
176
     1
 40
1.0
176
     1
 90
        1
176
     1
 90
        6
176
     1
 90
        2
176
     1
 62
     7
176
     1
 90
        5
176
     1
 90
        0
176
     1
 90
        0
176
     1
290
     0
176
     1
 90
        1
176
     1
 40
0.0
176
     1
 90
        0
176
     1
290
     0
176
     1
290
     1
176
     1
290
     1
176
     1
290
     0
176
     1
290
     0
176
     1
290
     0
176
     1
290
     0
176
     1
290
     0
176
     1
290
     0
176
     1
 90
       50
176
     1
 40
0.0
176
     1
 40
1.0
176
     1
 90
        0
176
     1
 62
    18
420
        0
176
     1
 90
       50
176
     1
 90
        3
176
     1
 62
     5
420
      255
176
     1
290
     0
176
     1
 90
       50
176
     1
 90
       50
176
     1
 90
       50
176
     1
290
     0
176
     1
 90
       50
176
     1
 62
   256
176
     0
 40
1.0
176
     0
 90
        2
176
     1
  1
strokes_ogs.tif
176
     1
290
     0
176
     1
 40
1.0
176
     1
 40
1.0
176
     1
  0
VISUALSTYLE
  5
30
102
{ACAD_REACTORS
330
2A
102
}
330
2A
100
AcDbVisualStyle
  2
Wireframe
 70
     5
177
     3
291
     0
 70
    58
 90
        0
176
     1
 90
        2
176
     1
 90
        0
176
     1
 90
        0
176
     1
 40
0.6
176
     1
 40
30.0
176
     1
 62
     7
420
 16777215
176
     1
 90
        1
176
     1
 90
        4
176
     1
 62
     7
176
     1
 62
   257
176
     1
 90
        1
176
     1
 90
        1
176
     1
 40
1.0
176
     1
 90
        0
176
     1
 62
   257
176
     1
 40
1.0
176
     1
 90
        1
176
     1
 90
        6
176
     1
 90
        2
176
     1
 62
     7
176
     1
 90
        3
176
     1
 90
        0
176
     1
 90
        0
176
     1
290
     0
176
     1
 90
        1
176
     1
 40
0.0
176
     1
 90
        0
176
     1
290
     0
176
     1
290
     1
176
     1
290
     1
176
     1
290
     0
176
     1
290
     0
176
     1
290
     0
176
     1
290
     0
176
     1
290
     0
176
     1
290
     0
176
     1
 90
       50
176
     1
 40
0.0
176
     1
 40
1.0
176
     1
 90
        0
176
     1
 62
    18
420
        0
176
     1
 90
       50
176
     1
 90
        3
176
     1
 62
     5
420
      255
176
     1
290
     0
176
     1
 90
       50
176
     1
 90
       50
176
     1
 90
       50
176
     1
290
     0
176
     1
 90
       50
176
     1
 62
   256
176
     0
 40
1.0
176
     0
 90
        2
176
     1
  1
strokes_ogs.tif
176
     1
290
     0
176
     1
 40
1.0
176
     1
 40
1.0
176
     1
  0
VISUALSTYLE
  5
40
102
{ACAD_REACTORS
330
2A
102
}
330
2A
100
AcDbVisualStyle
  2
X-Ray
 70
    25
177
     3
291
     0
 70
    58
 90
        2
176
     1
 90
        2
176
     1
 90
        1
176
     1
 90
        1
176
     1
 40
0.5
176
     1
 40
30.0
176
     1
 62
     7
420
 16777215
176
     1
 90
        1
176
     1
 90
        0
176
     1
 62
     7
176
     1
 62
   257
176
     1
 90
        1
176
     1
 90
        1
176
     1
 40
1.0
176
     1
 90
        8
176
     1
 62
     7
176
     1
 40
1.0
176
     1
 90
        1
176
     1
 90
        6
176
     1
 90
        2
176
     1
 62
     7
176
     1
 90
        3
176
     1
 90
        0
176
     1
 90
        0
176
     1
290
     0
176
     1
 90
       13
176
     1
 40
0.0
176
     1
 90
        0
176
     1
290
     0
176
     1
290
     1
176
     1
290
     1
176
     1
290
     0
176
     1
290
     0
176
     1
290
     0
176
     1
290
     0
176
     1
290
     0
176
     1
290
     0
176
     1
 90
       50
176
     1
 40
0.0
176
     1
 40
1.0
176
     1
 90
        0
176
     1
 62
    18
420
        0
176
     1
 90
       50
176
     1
 90
        3
176
     1
 62
     5
420
      255
176
     1
290
     0
176
     1
 90
       50
176
     1
 90
       50
176
     1
 90
       50
176
     1
290
     0
176
     1
 90
       50
176
     1
 62
   256
176
     0
 40
1.0
176
     0
 90
        2
176
     1
  1
strokes_ogs.tif
176
     1
290
     0
176
     1
 40
1.0
176
     1
 40
1.0
176
     1
  0
DICTIONARYVAR
  5
1B2
102
{ACAD_REACTORS
330
1B1
102
}
330
1B1
100
DictionaryVariables
280
     0
  1
1:1
  0
DICTIONARYVAR
  5
1B7
102
{ACAD_REACTORS
330
1B1
102
}
330
1B1
100
DictionaryVariables
280
     0
  1
Standard
  0
DICTIONARYVAR
  5
1B6
102
{ACAD_REACTORS
330
1B1
102
}
330
1B1
100
DictionaryVariables
280
     0
  1
Standard
  0
DICTIONARY
  5
1B3
330
6A
100
AcDbDictionary
280
     1
281
     1
  3
ACAD_ROUNDTRIP_2008_TABLESTYLE_CELLSTYLEMAP
360
1B4
  0
CELLSTYLEMAP
  5
1B4
102
{ACAD_REACTORS
330
1B3
102
}
330
1B3
100
AcDbCellStyleMap
 90
        3
300
CELLSTYLE
  1
TABLEFORMAT_BEGIN
 90
        5
170
     1
 91
        0
 92
    32768
 62
   257
 93
        1
300
CONTENTFORMAT
  1
CONTENTFORMAT_BEGIN
 90
        0
 91
        0
 92
        4
 93
        0
300

 40
0.0
140
1.0
 94
        5
 62
     0
340
11
144
6.0
309
CONTENTFORMAT_END
171
     1
301
MARGIN
  1
CELLMARGIN_BEGIN
 40
1.5
 40
1.5
 40
1.5
 40
1.5
 40
1.5
 40
1.5
309
CELLMARGIN_END
 94
        6
 95
        1
302
GRIDFORMAT
  1
GRIDFORMAT_BEGIN
 90
        0
 91
        1
 62
     0
 92
       -2
340
14
 93
        0
 40
0.045
309
GRIDFORMAT_END
 95
        2
302
GRIDFORMAT
  1
GRIDFORMAT_BEGIN
 90
        0
 91
        1
 62
     0
 92
       -2
340
14
 93
        0
 40
0.045
309
GRIDFORMAT_END
 95
        4
302
GRIDFORMAT
  1
GRIDFORMAT_BEGIN
 90
        0
 91
        1
 62
     0
 92
       -2
340
14
 93
        0
 40
0.045
309
GRIDFORMAT_END
 95
        8
302
GRIDFORMAT
  1
GRIDFORMAT_BEGIN
 90
        0
 91
        1
 62
     0
 92
       -2
340
14
 93
        0
 40
0.045
309
GRIDFORMAT_END
 95
       16
302
GRIDFORMAT
  1
GRIDFORMAT_BEGIN
 90
        0
 91
        1
 62
     0
 92
       -2
340
14
 93
        0
 40
0.045
309
GRIDFORMAT_END
 95
       32
302
GRIDFORMAT
  1
GRIDFORMAT_BEGIN
 90
        0
 91
        1
 62
     0
 92
       -2
340
14
 93
        0
 40
0.045
309
GRIDFORMAT_END
309
TABLEFORMAT_END
  1
CELLSTYLE_BEGIN
 90
        1
 91
        1
300
_TITLE
309
CELLSTYLE_END
300
CELLSTYLE
  1
TABLEFORMAT_BEGIN
 90
        5
170
     1
 91
        0
 92
        0
 62
   257
 93
        1
300
CONTENTFORMAT
  1
CONTENTFORMAT_BEGIN
 90
        0
 91
        0
 92
        4
 93
        0
300

 40
0.0
140
1.0
 94
        5
 62
     0
340
11
144
4.5
309
CONTENTFORMAT_END
171
     1
301
MARGIN
  1
CELLMARGIN_BEGIN
 40
1.5
 40
1.5
 40
1.5
 40
1.5
 40
1.5
 40
1.5
309
CELLMARGIN_END
 94
        6
 95
        1
302
GRIDFORMAT
  1
GRIDFORMAT_BEGIN
 90
        0
 91
        1
 62
     0
 92
       -2
340
14
 93
        0
 40
0.045
309
GRIDFORMAT_END
 95
        2
302
GRIDFORMAT
  1
GRIDFORMAT_BEGIN
 90
        0
 91
        1
 62
     0
 92
       -2
340
14
 93
        0
 40
0.045
309
GRIDFORMAT_END
 95
        4
302
GRIDFORMAT
  1
GRIDFORMAT_BEGIN
 90
        0
 91
        1
 62
     0
 92
       -2
340
14
 93
        0
 40
0.045
309
GRIDFORMAT_END
 95
        8
302
GRIDFORMAT
  1
GRIDFORMAT_BEGIN
 90
        0
 91
        1
 62
     0
 92
       -2
340
14
 93
        0
 40
0.045
309
GRIDFORMAT_END
 95
       16
302
GRIDFORMAT
  1
GRIDFORMAT_BEGIN
 90
        0
 91
        1
 62
     0
 92
       -2
340
14
 93
        0
 40
0.045
309
GRIDFORMAT_END
 95
       32
302
GRIDFORMAT
  1
GRIDFORMAT_BEGIN
 90
        0
 91
        1
 62
     0
 92
       -2
340
14
 93
        0
 40
0.045
309
GRIDFORMAT_END
309
TABLEFORMAT_END
  1
CELLSTYLE_BEGIN
 90
        2
 91
        1
300
_HEADER
309
CELLSTYLE_END
300
CELLSTYLE
  1
TABLEFORMAT_BEGIN
 90
        5
170
     1
 91
        0
 92
        0
 62
   257
 93
        1
300
CONTENTFORMAT
  1
CONTENTFORMAT_BEGIN
 90
        0
 91
        0
 92
        4
 93
        0
300

 40
0.0
140
1.0
 94
        2
 62
     0
340
11
144
4.5
309
CONTENTFORMAT_END
171
     1
301
MARGIN
  1
CELLMARGIN_BEGIN
 40
1.5
 40
1.5
 40
1.5
 40
1.5
 40
1.5
 40
1.5
309
CELLMARGIN_END
 94
        6
 95
        1
302
GRIDFORMAT
  1
GRIDFORMAT_BEGIN
 90
        0
 91
        1
 62
     0
 92
       -2
340
14
 93
        0
 40
0.045
309
GRIDFORMAT_END
 95
        2
302
GRIDFORMAT
  1
GRIDFORMAT_BEGIN
 90
        0
 91
        1
 62
     0
 92
       -2
340
14
 93
        0
 40
0.045
309
GRIDFORMAT_END
 95
        4
302
GRIDFORMAT
  1
GRIDFORMAT_BEGIN
 90
        0
 91
        1
 62
     0
 92
       -2
340
14
 93
        0
 40
0.045
309
GRIDFORMAT_END
 95
        8
302
GRIDFORMAT
  1
GRIDFORMAT_BEGIN
 90
        0
 91
        1
 62
     0
 92
       -2
340
14
 93
        0
 40
0.045
309
GRIDFORMAT_END
 95
       16
302
GRIDFORMAT
  1
GRIDFORMAT_BEGIN
 90
        0
 91
        1
 62
     0
 92
       -2
340
14
 93
        0
 40
0.045
309
GRIDFORMAT_END
 95
       32
302
GRIDFORMAT
  1
GRIDFORMAT_BEGIN
 90
        0
 91
        1
 62
     0
 92
       -2
340
14
 93
        0
 40
0.045
309
GRIDFORMAT_END
309
TABLEFORMAT_END
  1
CELLSTYLE_BEGIN
 90
        3
 91
        2
300
_DATA
309
CELLSTYLE_END
  0
ENDSEC
  0
EOF