0
SECTION
  2
HEADER
  9
$ACADVER
  1
AC1027
  9
$ACADMAINTVER
 70
     8
  9
$DWGCODEPAGE
  3
ANSI_1252
  9
$REQUIREDVERSIONS
160
                 0
  9
$COMMENTS
  1
File was created by Cadenas
  9
$CUSTOMPROPERTYTAG
  1
NN
  9
$CUSTOMPROPERTY
  1
Eccentric Collar Four-Bolt Flange Metric Bore
  9
$CUSTOMPROPERTYTAG
  1
NT
  9
$CUSTOMPROPERTY
  1
SXR 4 Bolt Flange Bearings -(Normal Duty)
  9
$CUSTOMPROPERTYTAG
  1
NB
  9
$CUSTOMPROPERTY
  1
125676
  9
$CUSTOMPROPERTYTAG
  1
NBSYN
  9
$CUSTOMPROPERTY
  1
$PN.
  9
$CUSTOMPROPERTYTAG
  1
LINA
  9
$CUSTOMPROPERTY
  1
125676
  9
$CUSTOMPROPERTYTAG
  1
SERIES
  9
$CUSTOMPROPERTY
  1
215
  9
$CUSTOMPROPERTYTAG
  1
SS
  9
$CUSTOMPROPERTY
  1
75
  9
$CUSTOMPROPERTYTAG
  1
PN
  9
$CUSTOMPROPERTY
  1
125676
  9
$CUSTOMPROPERTYTAG
  1
DESCRIPTION
  9
$CUSTOMPROPERTY
  1
F4B-SXR-75M
  9
$CUSTOMPROPERTYTAG
  1
W
  9
$CUSTOMPROPERTY
  1
8.2
  9
$CUSTOMPROPERTYTAG
  1
A
  9
$CUSTOMPROPERTY
  1
76.7
  9
$CUSTOMPROPERTYTAG
  1
B
  9
$CUSTOMPROPERTY
  1
196.9
  9
$CUSTOMPROPERTYTAG
  1
C
  9
$CUSTOMPROPERTY
  1
90.9
  9
$CUSTOMPROPERTYTAG
  1
D
  9
$CUSTOMPROPERTY
  1
152.4
  9
$CUSTOMPROPERTYTAG
  1
F
  9
$CUSTOMPROPERTY
  1
M18
  9
$CUSTOMPROPERTYTAG
  1
H
  9
$CUSTOMPROPERTY
  1
25.4
  9
$CUSTOMPROPERTYTAG
  1
J
  9
$CUSTOMPROPERTY
  1
33.8
  9
$CUSTOMPROPERTYTAG
  1
L
  9
$CUSTOMPROPERTY
  1
101.6
  9
$CUSTOMPROPERTYTAG
  1
N
  9
$CUSTOMPROPERTY
  1
98.6
  9
$CUSTOMPROPERTYTAG
  1
COMPANY
  9
$CUSTOMPROPERTY
  1
baldor
  9
$INSBASE
 10
0.0
 20
0.0
 30
0.0
  9
$EXTMIN
 10
1.000000000000000E+20
 20
1.000000000000000E+20
 30
1.000000000000000E+20
  9
$EXTMAX
 10
-1.000000000000000E+20
 20
-1.000000000000000E+20
 30
-1.000000000000000E+20
  9
$LIMMIN
 10
0.0
 20
0.0
  9
$LIMMAX
 10
420.0
 20
297.0
  9
$ORTHOMODE
 70
     0
  9
$REGENMODE
 70
     1
  9
$FILLMODE
 70
     1
  9
$QTEXTMODE
 70
     0
  9
$MIRRTEXT
 70
     1
  9
$LTSCALE
 40
1.0
  9
$ATTMODE
 70
     1
  9
$TEXTSIZE
 40
2.5
  9
$TRACEWID
 40
1.0
  9
$TEXTSTYLE
  7
Standard
  9
$CLAYER
  8
0
  9
$CELTYPE
  6
ByLayer
  9
$CECOLOR
 62
   256
  9
$CELTSCALE
 40
1.0
  9
$DISPSILH
 70
     0
  9
$DIMSCALE
 40
1.0
  9
$DIMASZ
 40
2.5
  9
$DIMEXO
 40
0.625
  9
$DIMDLI
 40
3.75
  9
$DIMRND
 40
0.0
  9
$DIMDLE
 40
0.0
  9
$DIMEXE
 40
1.25
  9
$DIMTP
 40
0.0
  9
$DIMTM
 40
0.0
  9
$DIMTXT
 40
2.5
  9
$DIMCEN
 40
2.5
  9
$DIMTSZ
 40
0.0
  9
$DIMTOL
 70
     0
  9
$DIMLIM
 70
     0
  9
$DIMTIH
 70
     0
  9
$DIMTOH
 70
     0
  9
$DIMSE1
 70
     0
  9
$DIMSE2
 70
     0
  9
$DIMTAD
 70
     1
  9
$DIMZIN
 70
     8
  9
$DIMBLK
  1

  9
$DIMASO
 70
     1
  9
$DIMSHO
 70
     1
  9
$DIMPOST
  1

  9
$DIMAPOST
  1

  9
$DIMALT
 70
     0
  9
$DIMALTD
 70
     3
  9
$DIMALTF
 40
0.03937007874016
  9
$DIMLFAC
 40
1.0
  9
$DIMTOFL
 70
     1
  9
$DIMTVP
 40
0.0
  9
$DIMTIX
 70
     0
  9
$DIMSOXD
 70
     0
  9
$DIMSAH
 70
     0
  9
$DIMBLK1
  1

  9
$DIMBLK2
  1

  9
$DIMSTYLE
  2
ISO-25
  9
$DIMCLRD
 70
     0
  9
$DIMCLRE
 70
     0
  9
$DIMCLRT
 70
     0
  9
$DIMTFAC
 40
1.0
  9
$DIMGAP
 40
0.625
  9
$DIMJUST
 70
     0
  9
$DIMSD1
 70
     0
  9
$DIMSD2
 70
     0
  9
$DIMTOLJ
 70
     0
  9
$DIMTZIN
 70
     8
  9
$DIMALTZ
 70
     0
  9
$DIMALTTZ
 70
     0
  9
$DIMUPT
 70
     0
  9
$DIMDEC
 70
     2
  9
$DIMTDEC
 70
     2
  9
$DIMALTU
 70
     2
  9
$DIMALTTD
 70
     3
  9
$DIMTXSTY
  7
Standard
  9
$DIMAUNIT
 70
     0
  9
$DIMADEC
 70
     0
  9
$DIMALTRND
 40
0.0
  9
$DIMAZIN
 70
     0
  9
$DIMDSEP
 70
    44
  9
$DIMATFIT
 70
     3
  9
$DIMFRAC
 70
     0
  9
$DIMLDRBLK
  1

  9
$DIMLUNIT
 70
     2
  9
$DIMLWD
 70
    -2
  9
$DIMLWE
 70
    -2
  9
$DIMTMOVE
 70
     0
  9
$DIMFXL
 40
1.0
  9
$DIMFXLON
 70
     0
  9
$DIMJOGANG
 40
0.7853981633974483
  9
$DIMTFILL
 70
     0
  9
$DIMTFILLCLR
 70
     0
  9
$DIMARCSYM
 70
     0
  9
$DIMLTYPE
  6

  9
$DIMLTEX1
  6

  9
$DIMLTEX2
  6

  9
$DIMTXTDIRECTION
 70
     0
  9
$LUNITS
 70
     2
  9
$LUPREC
 70
     4
  9
$SKETCHINC
 40
1.0
  9
$FILLETRAD
 40
10.0
  9
$AUNITS
 70
     0
  9
$AUPREC
 70
     0
  9
$MENU
  1
.
  9
$ELEVATION
 40
0.0
  9
$PELEVATION
 40
0.0
  9
$THICKNESS
 40
0.0
  9
$LIMCHECK
 70
     0
  9
$CHAMFERA
 40
0.0
  9
$CHAMFERB
 40
0.0
  9
$CHAMFERC
 40
0.0
  9
$CHAMFERD
 40
0.0
  9
$SKPOLY
 70
     0
  9
$TDCREATE
 40
2458168.962277049
  9
$TDUCREATE
 40
2458168.920610382
  9
$TDUPDATE
 40
2458168.962277049
  9
$TDUUPDATE
 40
2458168.920610382
  9
$TDINDWG
 40
0.0000000116
  9
$TDUSRTIMER
 40
0.0000000116
  9
$USRTIMER
 70
     1
  9
$ANGBASE
 50
0.0
  9
$ANGDIR
 70
     0
  9
$PDMODE
 70
     0
  9
$PDSIZE
 40
0.0
  9
$PLINEWID
 40
0.0
  9
$SPLFRAME
 70
     0
  9
$SPLINETYPE
 70
     6
  9
$SPLINESEGS
 70
     8
  9
$HANDSEED
  5
187
  9
$SURFTAB1
 70
     6
  9
$SURFTAB2
 70
     6
  9
$SURFTYPE
 70
     6
  9
$SURFU
 70
     6
  9
$SURFV
 70
     6
  9
$UCSBASE
  2

  9
$UCSNAME
  2

  9
$UCSORG
 10
0.0
 20
0.0
 30
0.0
  9
$UCSXDIR
 10
1.0
 20
0.0
 30
0.0
  9
$UCSYDIR
 10
0.0
 20
1.0
 30
0.0
  9
$UCSORTHOREF
  2

  9
$UCSORTHOVIEW
 70
     0
  9
$UCSORGTOP
 10
0.0
 20
0.0
 30
0.0
  9
$UCSORGBOTTOM
 10
0.0
 20
0.0
 30
0.0
  9
$UCSORGLEFT
 10
0.0
 20
0.0
 30
0.0
  9
$UCSORGRIGHT
 10
0.0
 20
0.0
 30
0.0
  9
$UCSORGFRONT
 10
0.0
 20
0.0
 30
0.0
  9
$UCSORGBACK
 10
0.0
 20
0.0
 30
0.0
  9
$PUCSBASE
  2

  9
$PUCSNAME
  2

  9
$PUCSORG
 10
0.0
 20
0.0
 30
0.0
  9
$PUCSXDIR
 10
1.0
 20
0.0
 30
0.0
  9
$PUCSYDIR
 10
0.0
 20
1.0
 30
0.0
  9
$PUCSORTHOREF
  2

  9
$PUCSORTHOVIEW
 70
     0
  9
$PUCSORGTOP
 10
0.0
 20
0.0
 30
0.0
  9
$PUCSORGBOTTOM
 10
0.0
 20
0.0
 30
0.0
  9
$PUCSORGLEFT
 10
0.0
 20
0.0
 30
0.0
  9
$PUCSORGRIGHT
 10
0.0
 20
0.0
 30
0.0
  9
$PUCSORGFRONT
 10
0.0
 20
0.0
 30
0.0
  9
$PUCSORGBACK
 10
0.0
 20
0.0
 30
0.0
  9
$USERI1
 70
     0
  9
$USERI2
 70
     0
  9
$USERI3
 70
     0
  9
$USERI4
 70
     0
  9
$USERI5
 70
     0
  9
$USERR1
 40
0.0
  9
$USERR2
 40
0.0
  9
$USERR3
 40
0.0
  9
$USERR4
 40
0.0
  9
$USERR5
 40
0.0
  9
$WORLDVIEW
 70
     1
  9
$SHADEDGE
 70
     3
  9
$SHADEDIF
 70
    70
  9
$TILEMODE
 70
     1
  9
$MAXACTVP
 70
    64
  9
$PINSBASE
 10
0.0
 20
0.0
 30
0.0
  9
$PLIMCHECK
 70
     0
  9
$PEXTMIN
 10
1.000000000000000E+20
 20
1.000000000000000E+20
 30
1.000000000000000E+20
  9
$PEXTMAX
 10
-1.000000000000000E+20
 20
-1.000000000000000E+20
 30
-1.000000000000000E+20
  9
$PLIMMIN
 10
0.0
 20
0.0
  9
$PLIMMAX
 10
420.0
 20
297.0
  9
$UNITMODE
 70
     0
  9
$VISRETAIN
 70
     1
  9
$PLINEGEN
 70
     0
  9
$PSLTSCALE
 70
     1
  9
$TREEDEPTH
 70
  3020
  9
$CMLSTYLE
  2
Standard
  9
$CMLJUST
 70
     0
  9
$CMLSCALE
 40
20.0
  9
$PROXYGRAPHICS
 70
     1
  9
$MEASUREMENT
 70
     1
  9
$CELWEIGHT
370
    -1
  9
$ENDCAPS
280
     0
  9
$JOINSTYLE
280
     0
  9
$LWDISPLAY
290
     0
  9
$INSUNITS
 70
     4
  9
$HYPERLINKBASE
  1

  9
$STYLESHEET
  1

  9
$XEDIT
290
     1
  9
$CEPSNTYPE
380
     0
  9
$PSTYLEMODE
290
     1
  9
$FINGERPRINTGUID
  2
{95E35CEC-6358-4306-B481-AD9E0F17EEA4}
  9
$VERSIONGUID
  2
{FAEB1C32-E019-11D5-929B-00C0DF256EC4}
  9
$EXTNAMES
290
     1
  9
$PSVPSCALE
 40
0.0
  9
$OLESTARTUP
290
     0
  9
$SORTENTS
280
   127
  9
$INDEXCTL
280
     0
  9
$HIDETEXT
280
     1
  9
$XCLIPFRAME
280
     2
  9
$HALOGAP
280
     0
  9
$OBSCOLOR
 70
   257
  9
$OBSLTYPE
280
     0
  9
$INTERSECTIONDISPLAY
280
     0
  9
$INTERSECTIONCOLOR
 70
   257
  9
$DIMASSOC
280
     2
  9
$PROJECTNAME
  1

  9
$CAMERADISPLAY
290
     0
  9
$LENSLENGTH
 40
50.0
  9
$CAMERAHEIGHT
 40
0.0
  9
$STEPSPERSEC
 40
2.0
  9
$STEPSIZE
 40
6.0
  9
$3DDWFPREC
 40
2.0
  9
$PSOLWIDTH
 40
5.0
  9
$PSOLHEIGHT
 40
80.0
  9
$LOFTANG1
 40
1.570796326794897
  9
$LOFTANG2
 40
1.570796326794897
  9
$LOFTMAG1
 40
0.0
  9
$LOFTMAG2
 40
0.0
  9
$LOFTPARAM
 70
     7
  9
$LOFTNORMALS
280
     1
  9
$LATITUDE
 40
37.795
  9
$LONGITUDE
 40
-122.394
  9
$NORTHDIRECTION
 40
0.0
  9
$TIMEZONE
 70
 -8000
  9
$LIGHTGLYPHDISPLAY
280
     1
  9
$TILEMODELIGHTSYNCH
280
     1
  9
$CMATERIAL
347
44
  9
$SOLIDHIST
280
     0
  9
$SHOWHIST
280
     1
  9
$DWFFRAME
280
     2
  9
$DGNFRAME
280
     2
  9
$REALWORLDSCALE
290
     1
  9
$INTERFERECOLOR
 62
   256
  9
$CSHADOW
280
     0
  9
$SHADOWPLANELOCATION
 40
0.0
  0
ENDSEC
  0
SECTION
  2
CLASSES
  0
CLASS
  1
ACDBDICTIONARYWDFLT
  2
AcDbDictionaryWithDefault
  3
ObjectDBX Classes
 90
        0
 91
        4
280
     0
281
     0
  0
CLASS
  1
VISUALSTYLE
  2
AcDbVisualStyle
  3
ObjectDBX Classes
 90
     4095
 91
        4
280
     0
281
     0
  0
CLASS
  1
MATERIAL
  2
AcDbMaterial
  3
ObjectDBX Classes
 90
     1153
 91
        4
280
     0
281
     0
  0
CLASS
  1
SCALE
  2
AcDbScale
  3
ObjectDBX Classes
 90
     1153
 91
        4
280
     0
281
     0
  0
CLASS
  1
TABLESTYLE
  2
AcDbTableStyle
  3
ObjectDBX Classes
 90
     4095
 91
        4
280
     0
281
     0
  0
CLASS
  1
MLEADERSTYLE
  2
AcDbMLeaderStyle
  3
ACDB_MLEADERSTYLE_CLASS
 90
     4095
 91
        4
280
     0
281
     0
  0
CLASS
  1
SUN
  2
AcDbSun
  3
SCENEOE
 90
     1153
 91
        4
280
     0
281
     0
  0
CLASS
  1
DICTIONARYVAR
  2
AcDbDictionaryVar
  3
ObjectDBX Classes
 90
        0
 91
        4
280
     0
281
     0
  0
CLASS
  1
CELLSTYLEMAP
  2
AcDbCellStyleMap
  3
ObjectDBX Classes
 90
     1152
 91
        4
280
     0
281
     0
  0
ENDSEC
  0
SECTION
  2
TABLES
  0
TABLE
  2
VPORT
  5
8
330
0
100
AcDbSymbolTable
 70
     1
  0
VPORT
  5
29
330
8
100
AcDbSymbolTableRecord
100
AcDbViewportTableRecord
  2
*Active
 70
     0
 10
0.0
 20
0.0
 11
1.0
 21
1.0
 12
-45.94
 22
0.4814000000000078
 13
0.0
 23
0.0
 14
10.0
 24
10.0
 15
10.0
 25
10.0
 16
0.0
 26
0.0
 36
1.0
 17
0.0
 27
0.0
 37
0.0
 40
201.820056
 41
0.4932205548491179
 42
50.0
 43
0.0
 44
0.0
 50
0.0
 51
0.0
 71
     0
 72
   100
 73
     1
 74
     3
 75
     0
 76
     0
 77
     0
 78
     0
281
     0
 65
     1
110
0.0
120
0.0
130
0.0
111
1.0
121
0.0
131
0.0
112
0.0
122
1.0
132
0.0
 79
     0
146
0.0
348
2F
 60
     3
 61
     5
292
     1
282
     1
141
0.0
142
0.0
 63
   250
361
6D
  0
ENDTAB
  0
TABLE
  2
LTYPE
  5
5
330
0
100
AcDbSymbolTable
 70
     3
  0
LTYPE
  5
14
330
5
100
AcDbSymbolTableRecord
100
AcDbLinetypeTableRecord
  2
ByBlock
 70
     0
  3

 72
    65
 73
     0
 40
0.0
  0
LTYPE
  5
15
330
5
100
AcDbSymbolTableRecord
100
AcDbLinetypeTableRecord
  2
ByLayer
 70
     0
  3

 72
    65
 73
     0
 40
0.0
  0
LTYPE
  5
16
330
5
100
AcDbSymbolTableRecord
100
AcDbLinetypeTableRecord
  2
Continuous
 70
     0
  3
Solid line
 72
    65
 73
     0
 40
0.0
  0
LTYPE
  5
93
330
5
100
AcDbSymbolTableRecord
100
AcDbLinetypeTableRecord
  2
Dashed
 70
     0
  3

 72
    65
 73
     2
 40
2.0
 49
1.0
 74
     0
 49
-1.0
 74
     0
  0
LTYPE
  5
A1
330
5
100
AcDbSymbolTableRecord
100
AcDbLinetypeTableRecord
  2
Center
 70
     0
  3

 72
    65
 73
     4
 40
1.5
 49
0.45
 74
     0
 49
-0.5
 74
     0
 49
0.05
 74
     0
 49
-0.5
 74
     0
  0
ENDTAB
  0
TABLE
  2
LAYER
  5
2
330
0
100
AcDbSymbolTable
 70
     7
  0
LAYER
  5
10
330
2
100
AcDbSymbolTableRecord
100
AcDbLayerTableRecord
  2
0
 70
     0
 62
     7
  6
Continuous
370
    -3
390
F
347
46
348
0
  0
LAYER
  5
72
330
2
100
AcDbSymbolTableRecord
100
AcDbLayerTableRecord
  2
AM_6
 70
     0
 62
    -2
  6
Continuous
370
    35
390
F
347
46
348
0
  0
LAYER
  5
94
330
2
100
AcDbSymbolTableRecord
100
AcDbLayerTableRecord
  2
AM_9
 70
     0
 62
     6
  6
Dashed
370
    25
390
F
347
46
348
0
  0
LAYER
  5
9B
330
2
100
AcDbSymbolTableRecord
100
AcDbLayerTableRecord
  2
AM_5
 70
     0
 62
     3
  6
Continuous
370
    25
390
F
347
46
348
0
  0
LAYER
  5
A2
330
2
100
AcDbSymbolTableRecord
100
AcDbLayerTableRecord
  2
AM_7
 70
     0
 62
     7
  6
Center
370
    25
390
F
347
46
348
0
  0
LAYER
  5
A4
330
2
100
AcDbSymbolTableRecord
100
AcDbLayerTableRecord
  2
AM_4
 70
     0
 62
     7
  6
Continuous
370
    50
390
F
347
46
348
0
  0
LAYER
  5
178
330
2
100
AcDbSymbolTableRecord
100
AcDbLayerTableRecord
  2
ConnectionPoints
 70
     0
 62
     7
  6
Continuous
370
    50
390
F
347
46
348
0
  0
ENDTAB
  0
TABLE
  2
STYLE
  5
3
330
0
100
AcDbSymbolTable
 70
     1
  0
STYLE
  5
11
330
3
100
AcDbSymbolTableRecord
100
AcDbTextStyleTableRecord
  2
Standard
 70
     0
 40
0.0
 41
1.0
 50
0.0
 71
     0
 42
2.5
  3
txt
  4

  0
ENDTAB
  0
TABLE
  2
VIEW
  5
6
330
0
100
AcDbSymbolTable
 70
     0
  0
ENDTAB
  0
TABLE
  2
UCS
  5
7
330
0
100
AcDbSymbolTable
 70
     0
  0
ENDTAB
  0
TABLE
  2
APPID
  5
9
330
0
100
AcDbSymbolTable
 70
     1
  0
APPID
  5
12
330
9
100
AcDbSymbolTableRecord
100
AcDbRegAppTableRecord
  2
ACAD
 70
     0
  0
ENDTAB
  0
TABLE
  2
DIMSTYLE
  5
A
330
0
100
AcDbSymbolTable
 70
     1
100
AcDbDimStyleTable
  0
DIMSTYLE
105
27
330
A
100
AcDbSymbolTableRecord
100
AcDbDimStyleTableRecord
  2
ISO-25
 70
     0
 41
2.5
 42
0.625
 43
3.75
 44
1.25
 73
     0
 74
     0
 77
     1
 78
     8
140
2.5
141
2.5
143
0.03937007874016
147
0.625
171
     3
172
     1
178
     0
271
     2
272
     2
274
     3
278
    44
283
     0
284
     8
340
11
  0
ENDTAB
  0
TABLE
  2
BLOCK_RECORD
  5
1
330
0
100
AcDbSymbolTable
 70
     5
  0
BLOCK_RECORD
  5
1F
330
1
100
AcDbSymbolTableRecord
100
AcDbBlockTableRecord
  2
*Model_Space
340
22
 70
     0
280
     1
281
     0
  0
BLOCK_RECORD
  5
1B
330
1
100
AcDbSymbolTableRecord
100
AcDbBlockTableRecord
  2
*Paper_Space
340
1E
 70
     0
280
     1
281
     0
  0
BLOCK_RECORD
  5
23
330
1
100
AcDbSymbolTableRecord
100
AcDbBlockTableRecord
  2
*Paper_Space0
340
26
 70
     0
280
     1
281
     0
  0
BLOCK_RECORD
  5
6E
330
1
100
AcDbSymbolTableRecord
100
AcDbBlockTableRecord
  2
1_125676_2
340
0
102
{BLKREFS
331
6F
102
}
 70
     0
280
     1
281
     0
  0
BLOCK_RECORD
  5
87
330
1
100
AcDbSymbolTableRecord
100
AcDbBlockTableRecord
  2
2_405015E_Metric_0_in_125676_2
340
0
102
{BLKREFS
331
88
102
}
 70
     0
280
     1
281
     0
  0
BLOCK_RECORD
  5
CC
330
1
100
AcDbSymbolTableRecord
100
AcDbBlockTableRecord
  2
3_125635_0_in_125676_2
340
0
102
{BLKREFS
331
CD
102
}
 70
     0
280
     1
281
     0
  0
BLOCK_RECORD
  5
12F
330
1
100
AcDbSymbolTableRecord
100
AcDbBlockTableRecord
  2
4_125676H_0_in_125676_2
340
0
102
{BLKREFS
331
130
102
}
 70
     0
280
     1
281
     0
  0
ENDTAB
  0
ENDSEC
  0
SECTION
  2
BLOCKS
  0
BLOCK
  5
20
330
1F
100
AcDbEntity
  8
0
100
AcDbBlockBegin
  2
*Model_Space
 70
     0
 10
0.0
 20
0.0
 30
0.0
  3
*Model_Space
  1

  0
ENDBLK
  5
21
330
1F
100
AcDbEntity
  8
0
100
AcDbBlockEnd
  0
BLOCK
  5
1C
330
1B
100
AcDbEntity
 67
     1
  8
0
100
AcDbBlockBegin
  2
*Paper_Space
 70
     0
 10
0.0
 20
0.0
 30
0.0
  3
*Paper_Space
  1

  0
ENDBLK
  5
1D
330
1B
100
AcDbEntity
 67
     1
  8
0
100
AcDbBlockEnd
  0
BLOCK
  5
24
330
23
100
AcDbEntity
  8
0
100
AcDbBlockBegin
  2
*Paper_Space0
 70
     0
 10
0.0
 20
0.0
 30
0.0
  3
*Paper_Space0
  1

  0
ENDBLK
  5
25
330
23
100
AcDbEntity
  8
0
100
AcDbBlockEnd
  0
BLOCK
  5
70
330
6E
100
AcDbEntity
  8
0
100
AcDbBlockBegin
  2
1_125676_2
 70
     2
 10
0.0
 20
0.0
 30
0.0
  3
1_125676_2
  1

  0
ATTDEF
  5
73
330
6E
100
AcDbEntity
  8
AM_6
100
AcDbText
 10
7.855
 20
99.41279999999999
 30
0.0
 40
0.5
  1
Eccentric Collar Four-Bolt Flange Metric Bore
100
AcDbAttributeDefinition
  3

  2
NN
 70
     8
280
     0
  0
ATTDEF
  5
74
330
6E
100
AcDbEntity
  8
AM_6
100
AcDbText
 10
7.855
 20
98.91279999999999
 30
0.0
 40
0.5
  1
SXR 4 Bolt Flange Bearings -(Normal Duty)
100
AcDbAttributeDefinition
  3

  2
NT
 70
     8
280
     0
  0
ATTDEF
  5
75
330
6E
100
AcDbEntity
  8
AM_6
100
AcDbText
 10
7.855
 20
98.41279999999999
 30
0.0
 40
0.5
  1
125676
100
AcDbAttributeDefinition
  3

  2
NB
 70
     8
280
     0
  0
ATTDEF
  5
76
330
6E
100
AcDbEntity
  8
AM_6
100
AcDbText
 10
7.855
 20
97.91279999999999
 30
0.0
 40
0.5
  1
$PN.
100
AcDbAttributeDefinition
  3

  2
NBSYN
 70
     8
280
     0
  0
ATTDEF
  5
77
330
6E
100
AcDbEntity
  8
AM_6
100
AcDbText
 10
7.855
 20
97.41279999999999
 30
0.0
 40
0.5
  1
125676
100
AcDbAttributeDefinition
  3

  2
LINA
 70
     8
280
     0
  0
ATTDEF
  5
78
330
6E
100
AcDbEntity
  8
AM_6
100
AcDbText
 10
7.855
 20
96.91279999999999
 30
0.0
 40
0.5
  1
215
100
AcDbAttributeDefinition
  3

  2
SERIES
 70
     8
280
     0
  0
ATTDEF
  5
79
330
6E
100
AcDbEntity
  8
AM_6
100
AcDbText
 10
7.855
 20
96.41279999999999
 30
0.0
 40
0.5
  1
75
100
AcDbAttributeDefinition
  3

  2
SS
 70
     8
280
     0
  0
ATTDEF
  5
7A
330
6E
100
AcDbEntity
  8
AM_6
100
AcDbText
 10
7.855
 20
95.91279999999999
 30
0.0
 40
0.5
  1
125676
100
AcDbAttributeDefinition
  3

  2
PN
 70
     8
280
     0
  0
ATTDEF
  5
7B
330
6E
100
AcDbEntity
  8
AM_6
100
AcDbText
 10
7.855
 20
95.41279999999999
 30
0.0
 40
0.5
  1
F4B-SXR-75M
100
AcDbAttributeDefinition
  3

  2
DESCRIPTION
 70
     8
280
     0
  0
ATTDEF
  5
7C
330
6E
100
AcDbEntity
  8
AM_6
100
AcDbText
 10
7.855
 20
94.91279999999999
 30
0.0
 40
0.5
  1
8.2
100
AcDbAttributeDefinition
  3

  2
W
 70
     8
280
     0
  0
ATTDEF
  5
7D
330
6E
100
AcDbEntity
  8
AM_6
100
AcDbText
 10
7.855
 20
94.41279999999999
 30
0.0
 40
0.5
  1
76.7
100
AcDbAttributeDefinition
  3

  2
A
 70
     8
280
     0
  0
ATTDEF
  5
7E
330
6E
100
AcDbEntity
  8
AM_6
100
AcDbText
 10
7.855
 20
93.91279999999999
 30
0.0
 40
0.5
  1
196.9
100
AcDbAttributeDefinition
  3

  2
B
 70
     8
280
     0
  0
ATTDEF
  5
7F
330
6E
100
AcDbEntity
  8
AM_6
100
AcDbText
 10
7.855
 20
93.41279999999999
 30
0.0
 40
0.5
  1
90.9
100
AcDbAttributeDefinition
  3

  2
C
 70
     8
280
     0
  0
ATTDEF
  5
80
330
6E
100
AcDbEntity
  8
AM_6
100
AcDbText
 10
7.855
 20
92.91279999999999
 30
0.0
 40
0.5
  1
152.4
100
AcDbAttributeDefinition
  3

  2
D
 70
     8
280
     0
  0
ATTDEF
  5
81
330
6E
100
AcDbEntity
  8
AM_6
100
AcDbText
 10
7.855
 20
92.41279999999999
 30
0.0
 40
0.5
  1
M18
100
AcDbAttributeDefinition
  3

  2
F
 70
     8
280
     0
  0
ATTDEF
  5
82
330
6E
100
AcDbEntity
  8
AM_6
100
AcDbText
 10
7.855
 20
91.91279999999999
 30
0.0
 40
0.5
  1
25.4
100
AcDbAttributeDefinition
  3

  2
H
 70
     8
280
     0
  0
ATTDEF
  5
83
330
6E
100
AcDbEntity
  8
AM_6
100
AcDbText
 10
7.855
 20
91.41279999999999
 30
0.0
 40
0.5
  1
33.8
100
AcDbAttributeDefinition
  3

  2
J
 70
     8
280
     0
  0
ATTDEF
  5
84
330
6E
100
AcDbEntity
  8
AM_6
100
AcDbText
 10
7.855
 20
90.91279999999999
 30
0.0
 40
0.5
  1
101.6
100
AcDbAttributeDefinition
  3

  2
L
 70
     8
280
     0
  0
ATTDEF
  5
85
330
6E
100
AcDbEntity
  8
AM_6
100
AcDbText
 10
7.855
 20
90.41279999999999
 30
0.0
 40
0.5
  1
98.6
100
AcDbAttributeDefinition
  3

  2
N
 70
     8
280
     0
  0
ATTDEF
  5
86
330
6E
100
AcDbEntity
  8
AM_6
100
AcDbText
 10
7.855
 20
89.91279999999999
 30
0.0
 40
0.5
  1
baldor
100
AcDbAttributeDefinition
  3

  2
COMPANY
 70
     8
280
     0
  0
INSERT
  5
88
330
6E
100
AcDbEntity
  8
0
100
AcDbBlockReference
  2
2_405015E_Metric_0_in_125676_2
 10
0.0
 20
0.0
 30
0.0
  0
INSERT
  5
CD
330
6E
100
AcDbEntity
  8
0
100
AcDbBlockReference
  2
3_125635_0_in_125676_2
 10
0.0
 20
0.0
 30
0.0
  0
INSERT
  5
130
330
6E
100
AcDbEntity
  8
0
100
AcDbBlockReference
  2
4_125676H_0_in_125676_2
 10
0.0
 20
0.0
 30
0.0
  0
ENDBLK
  5
71
330
6E
100
AcDbEntity
  8
0
100
AcDbBlockEnd
  0
BLOCK
  5
89
330
87
100
AcDbEntity
  8
0
100
AcDbBlockBegin
  2
2_405015E_Metric_0_in_125676_2
 70
     2
 10
0.0
 20
0.0
 30
0.0
  3
2_405015E_Metric_0_in_125676_2
  1

  0
ATTDEF
  5
8B
330
87
100
AcDbEntity
  8
AM_6
100
AcDbText
 10
-30.47649730810375
 20
99.41279999999999
 30
0.0
 40
0.5
  1
405015E -Metric
100
AcDbAttributeDefinition
  3

  2
NN
 70
     8
280
     0
  0
ATTDEF
  5
8C
330
87
100
AcDbEntity
  8
AM_6
100
AcDbText
 10
-30.47649730810375
 20
98.91279999999999
 30
0.0
 40
0.5
  1
Grease Fitting
100
AcDbAttributeDefinition
  3

  2
NT
 70
     8
280
     0
  0
ATTDEF
  5
8D
330
87
100
AcDbEntity
  8
AM_6
100
AcDbText
 10
-30.47649730810375
 20
98.41279999999999
 30
0.0
 40
0.5
  1
405015E-Metric
100
AcDbAttributeDefinition
  3

  2
NB
 70
     8
280
     0
  0
ATTDEF
  5
8E
330
87
100
AcDbEntity
  8
AM_6
100
AcDbText
 10
-30.47649730810375
 20
97.91279999999999
 30
0.0
 40
0.5
  1
$MN.-Metric
100
AcDbAttributeDefinition
  3

  2
NBSYN
 70
     8
280
     0
  0
ATTDEF
  5
8F
330
87
100
AcDbEntity
  8
AM_6
100
AcDbText
 10
-30.47649730810375
 20
97.41279999999999
 30
0.0
 40
0.5
  1
405015E
100
AcDbAttributeDefinition
  3

  2
LINA
 70
     8
280
     0
  0
ATTDEF
  5
90
330
87
100
AcDbEntity
  8
AM_6
100
AcDbText
 10
-30.47649730810375
 20
96.91279999999999
 30
0.0
 40
0.5
  1
405015E
100
AcDbAttributeDefinition
  3

  2
MN
 70
     8
280
     0
  0
ATTDEF
  5
91
330
87
100
AcDbEntity
  8
AM_6
100
AcDbText
 10
-30.47649730810375
 20
96.41279999999999
 30
0.0
 40
0.5
  1
1/8 x 27PTF
100
AcDbAttributeDefinition
  3

  2
T
 70
     8
280
     0
  0
ATTDEF
  5
92
330
87
100
AcDbEntity
  8
AM_6
100
AcDbText
 10
-30.47649730810375
 20
95.91279999999999
 30
0.0
 40
0.5
  1
baldor
100
AcDbAttributeDefinition
  3

  2
COMPANY
 70
     8
280
     0
  0
LINE
  5
95
330
87
100
AcDbEntity
  8
AM_9
100
AcDbLine
 10
-45.40799375318353
 20
82.34399999999998
 30
0.0
 11
-37.09200624681648
 21
82.34399999999998
 31
0.0
  0
LINE
  5
96
330
87
100
AcDbEntity
  8
AM_9
100
AcDbLine
 10
-37.09200624681648
 20
82.34399999999998
 30
0.0
 11
-36.49197054348823
 21
82.94403570332824
 31
0.0
  0
LINE
  5
97
330
87
100
AcDbEntity
  8
AM_9
100
AcDbLine
 10
-46.00802945651177
 20
82.94403570332824
 30
0.0
 11
-45.40799375318353
 21
82.34399999999998
 31
0.0
  0
LINE
  5
98
330
87
100
AcDbEntity
  8
AM_9
100
AcDbLine
 10
-46.00802945651177
 20
82.94403570332824
 30
0.0
 11
-36.49197054348823
 21
82.94403570332824
 31
0.0
  0
LINE
  5
99
330
87
100
AcDbEntity
  8
AM_9
100
AcDbLine
 10
-36.49197054348823
 20
82.94403570332824
 30
0.0
 11
-36.30036833446504
 21
89.07499999999999
 31
0.0
  0
LINE
  5
9A
330
87
100
AcDbEntity
  8
AM_9
100
AcDbLine
 10
-46.19963166553497
 20
89.07499999999999
 30
0.0
 11
-46.00802945651177
 21
82.94403570332824
 31
0.0
  0
LINE
  5
9C
330
87
100
AcDbEntity
  8
AM_5
100
AcDbLine
 10
-36.91491707355492
 20
88.01057036016891
 30
0.0
 11
-37.09200624681648
 21
82.34399999999998
 31
0.0
  0
LINE
  5
9D
330
87
100
AcDbEntity
  8
AM_5
100
AcDbLine
 10
-36.30036833446504
 20
89.07499999999999
 30
0.0
 11
-36.91491707355492
 21
88.01057036016891
 31
0.0
  0
LINE
  5
9E
330
87
100
AcDbEntity
  8
AM_5
100
AcDbLine
 10
-36.33363342303391
 20
88.01057036016891
 30
0.0
 11
-46.16636657696609
 21
88.01057036016891
 31
0.0
  0
LINE
  5
9F
330
87
100
AcDbEntity
  8
AM_5
100
AcDbLine
 10
-45.58508292644508
 20
88.01057036016891
 30
0.0
 11
-45.40799375318353
 21
82.34399999999998
 31
0.0
  0
LINE
  5
A0
330
87
100
AcDbEntity
  8
AM_5
100
AcDbLine
 10
-46.19963166553497
 20
89.07499999999999
 30
0.0
 11
-45.58508292644508
 21
88.01057036016891
 31
0.0
  0
LINE
  5
A3
330
87
100
AcDbEntity
  8
AM_7
100
AcDbLine
 10
-41.25
 20
99.41279999999999
 30
0.0
 11
-41.25
 21
81.53119999999998
 31
0.0
  0
LINE
  5
A5
330
87
100
AcDbEntity
  8
AM_4
100
AcDbLine
 10
-36.25000000000001
 20
89.07499999999999
 30
0.0
 11
-35.47649730810375
 21
89.28225942163688
 31
0.0
  0
LINE
  5
A6
330
87
100
AcDbEntity
  8
AM_4
100
AcDbLine
 10
-46.25
 20
92.07499999999999
 30
0.0
 11
-36.25000000000001
 21
92.07499999999999
 31
0.0
  0
LINE
  5
A7
330
87
100
AcDbEntity
  8
AM_4
100
AcDbLine
 10
-35.47649730810375
 20
91.86774057836308
 30
0.0
 11
-36.25000000000001
 21
92.07499999999999
 31
0.0
  0
LINE
  5
A8
330
87
100
AcDbEntity
  8
AM_4
100
AcDbLine
 10
-47.02350269189625
 20
89.28225942163688
 30
0.0
 11
-46.25
 21
89.07499999999999
 31
0.0
  0
LINE
  5
A9
330
87
100
AcDbEntity
  8
AM_4
100
AcDbLine
 10
-46.25
 20
92.07499999999999
 30
0.0
 11
-47.02350269189625
 21
91.86774057836308
 31
0.0
  0
LINE
  5
AA
330
87
100
AcDbEntity
  8
AM_4
100
AcDbLine
 10
-38.575
 20
94.6
 30
0.0
 11
-38.575
 21
95.29999999999998
 31
0.0
  0
LINE
  5
AB
330
87
100
AcDbEntity
  8
AM_4
100
AcDbLine
 10
-43.925
 20
95.29999999999998
 30
0.0
 11
-43.925
 21
94.6
 31
0.0
  0
LINE
  5
AC
330
87
100
AcDbEntity
  8
AM_4
100
AcDbLine
 10
-43.925
 20
94.6
 30
0.0
 11
-38.575
 21
94.6
 31
0.0
  0
LINE
  5
AD
330
87
100
AcDbEntity
  8
AM_4
100
AcDbLine
 10
-43.925
 20
94.6
 30
0.0
 11
-44.23299498256252
 21
93.78381329620935
 31
0.0
  0
LINE
  5
AE
330
87
100
AcDbEntity
  8
AM_4
100
AcDbLine
 10
-38.26700501743749
 20
93.78381329620935
 30
0.0
 11
-38.575
 21
94.6
 31
0.0
  0
LINE
  5
AF
330
87
100
AcDbEntity
  8
AM_4
100
AcDbLine
 10
-43.925
 20
95.29999999999998
 30
0.0
 11
-38.575
 21
95.29999999999998
 31
0.0
  0
LINE
  5
B0
330
87
100
AcDbEntity
  8
AM_4
100
AcDbLine
 10
-38.575
 20
95.29999999999998
 30
0.0
 11
-38.075
 21
96.6
 31
0.0
  0
LINE
  5
B1
330
87
100
AcDbEntity
  8
AM_4
100
AcDbLine
 10
-44.425
 20
96.6
 30
0.0
 11
-43.925
 21
95.29999999999998
 31
0.0
  0
LINE
  5
B2
330
87
100
AcDbEntity
  8
AM_4
100
AcDbLine
 10
-43.61694754832969
 20
98.6
 30
0.0
 11
-38.88305245167032
 21
98.6
 31
0.0
  0
LINE
  5
B3
330
87
100
AcDbEntity
  8
AM_4
100
AcDbLine
 10
-44.425
 20
96.6
 30
0.0
 11
-38.075
 21
96.6
 31
0.0
  0
LINE
  5
B4
330
87
100
AcDbEntity
  8
AM_4
100
AcDbLine
 10
-43.61694754832969
 20
98.6
 30
0.0
 11
-44.425
 21
96.6
 31
0.0
  0
LINE
  5
B5
330
87
100
AcDbEntity
  8
AM_4
100
AcDbLine
 10
-38.075
 20
96.6
 30
0.0
 11
-38.88305245167032
 21
98.6
 31
0.0
  0
LINE
  5
B6
330
87
100
AcDbEntity
  8
AM_4
100
AcDbLine
 10
-44.23299498256252
 20
93.78381329620935
 30
0.0
 11
-38.26700501743749
 21
93.78381329620935
 31
0.0
  0
LINE
  5
B7
330
87
100
AcDbEntity
  8
AM_4
100
AcDbLine
 10
-44.23299498256252
 20
93.78381329620935
 30
0.0
 11
-44.85758389460111
 21
92.9454122707801
 31
0.0
  0
LINE
  5
B8
330
87
100
AcDbEntity
  8
AM_4
100
AcDbLine
 10
-37.64241610539889
 20
92.9454122707801
 30
0.0
 11
-38.26700501743749
 21
93.78381329620935
 31
0.0
  0
LINE
  5
B9
330
87
100
AcDbEntity
  8
AM_4
100
AcDbLine
 10
-44.85758389460111
 20
92.9454122707801
 30
0.0
 11
-37.64241610539889
 21
92.9454122707801
 31
0.0
  0
LINE
  5
BA
330
87
100
AcDbEntity
  8
AM_4
100
AcDbLine
 10
-44.85758389460111
 20
92.9454122707801
 30
0.0
 11
-46.0
 21
92.07499999999999
 31
0.0
  0
LINE
  5
BB
330
87
100
AcDbEntity
  8
AM_4
100
AcDbLine
 10
-36.50000000000001
 20
92.07499999999999
 30
0.0
 11
-37.64241610539889
 21
92.9454122707801
 31
0.0
  0
LINE
  5
BC
330
87
100
AcDbEntity
  8
AM_4
100
AcDbLine
 10
-35.47649730810375
 20
91.86774057836308
 30
0.0
 11
-35.47649730810375
 21
89.28225942163688
 31
0.0
  0
LWPOLYLINE
  5
BD
330
87
100
AcDbEntity
  8
AM_4
100
AcDbPolyline
 90
        3
 70
     0
 43
0.0
 10
-36.91987298107781
 20
92.07499999999999
 10
-36.19818514459078
 20
92.02029415348491
 10
-35.47649730810375
 20
91.86774057836308
  0
LWPOLYLINE
  5
BE
330
87
100
AcDbEntity
  8
AM_4
100
AcDbPolyline
 90
        3
 70
     0
 43
0.0
 10
-38.36324865405187
 20
91.86774057836308
 10
-37.64480572040851
 20
92.01981085829439
 10
-36.91987298107781
 20
92.07499999999999
  0
LWPOLYLINE
  5
BF
330
87
100
AcDbEntity
  8
AM_4
100
AcDbPolyline
 90
        3
 70
     0
 43
0.0
 10
-35.47649730810375
 20
89.28225942163688
 10
-36.1949402417471
 20
89.13018914170559
 10
-36.91987298107781
 20
89.07499999999999
  0
LWPOLYLINE
  5
C0
330
87
100
AcDbEntity
  8
AM_4
100
AcDbPolyline
 90
        3
 70
     0
 43
0.0
 10
-36.91987298107781
 20
89.07499999999999
 10
-37.64156081756484
 20
89.12970584651505
 10
-38.36324865405187
 20
89.2822594216369
  0
LWPOLYLINE
  5
C1
330
87
100
AcDbEntity
  8
AM_4
100
AcDbPolyline
 90
        3
 70
     0
 43
0.0
 10
-45.5801270189222
 20
92.07499999999999
 10
-44.85843918243516
 20
92.02029415348491
 10
-44.13675134594813
 20
91.86774057836308
  0
LWPOLYLINE
  5
C2
330
87
100
AcDbEntity
  8
AM_4
100
AcDbPolyline
 90
        3
 70
     0
 43
0.0
 10
-47.02350269189625
 20
91.86774057836308
 10
-46.3050597582529
 20
92.01981085829439
 10
-45.5801270189222
 20
92.07499999999999
  0
LINE
  5
C3
330
87
100
AcDbEntity
  8
AM_4
100
AcDbLine
 10
-47.02350269189625
 20
91.86774057836308
 30
0.0
 11
-47.02350269189625
 21
89.28225942163688
 31
0.0
  0
LWPOLYLINE
  5
C4
330
87
100
AcDbEntity
  8
AM_4
100
AcDbPolyline
 90
        3
 70
     0
 43
0.0
 10
-45.5801270189222
 20
89.07499999999999
 10
-46.30181485540923
 20
89.12970584651505
 10
-47.02350269189625
 20
89.28225942163688
  0
LWPOLYLINE
  5
C5
330
87
100
AcDbEntity
  8
AM_4
100
AcDbPolyline
 90
        3
 70
     0
 43
0.0
 10
-44.13675134594813
 20
89.2822594216369
 10
-44.85519427959149
 20
89.13018914170559
 10
-45.5801270189222
 20
89.07499999999999
  0
LINE
  5
C6
330
87
100
AcDbEntity
  8
AM_4
100
AcDbLine
 10
-38.36324865405187
 20
91.86774057836308
 30
0.0
 11
-38.36324865405187
 21
89.2822594216369
 31
0.0
  0
LWPOLYLINE
  5
C7
330
87
100
AcDbEntity
  8
AM_4
100
AcDbPolyline
 90
        4
 70
     0
 43
0.0
 10
-41.25
 20
92.07499999999999
 10
-40.13432047760844
 20
92.04205240150252
 10
-39.01864095521688
 20
91.94764244961905
 10
-38.36324865405187
 20
91.86774057836308
  0
LWPOLYLINE
  5
C8
330
87
100
AcDbEntity
  8
AM_4
100
AcDbPolyline
 90
        3
 70
     0
 43
0.0
 10
-44.13675134594813
 20
91.86774057836308
 10
-42.69986547866142
 20
92.01981085829439
 10
-41.25
 20
92.07499999999999
  0
LINE
  5
C9
330
87
100
AcDbEntity
  8
AM_4
100
AcDbLine
 10
-44.13675134594813
 20
91.86774057836308
 30
0.0
 11
-44.13675134594813
 21
89.2822594216369
 31
0.0
  0
LWPOLYLINE
  5
CA
330
87
100
AcDbEntity
  8
AM_4
100
AcDbPolyline
 90
        3
 70
     0
 43
0.0
 10
-41.25
 20
89.07499999999999
 10
-42.69337567297406
 20
89.12970584651505
 10
-44.13675134594813
 20
89.2822594216369
  0
LWPOLYLINE
  5
CB
330
87
100
AcDbEntity
  8
AM_4
100
AcDbPolyline
 90
        4
 70
     0
 43
0.0
 10
-38.36324865405187
 20
89.2822594216369
 10
-39.01864095521688
 20
89.20235755038091
 10
-40.13098598098539
 20
89.10814245672373
 10
-41.25
 20
89.07499999999999
  0
ENDBLK
  5
8A
330
87
100
AcDbEntity
  8
0
100
AcDbBlockEnd
  0
BLOCK
  5
CE
330
CC
100
AcDbEntity
  8
0
100
AcDbBlockBegin
  2
3_125635_0_in_125676_2
 70
     2
 10
0.0
 20
0.0
 30
0.0
  3
3_125635_0_in_125676_2
  1

  0
ATTDEF
  5
D0
330
CC
100
AcDbEntity
  8
AM_6
100
AcDbText
 10
-9.200000000000012
 20
64.99451235573098
 30
0.0
 40
0.5
  1
Eccentric Collar Insert Metric Bore
100
AcDbAttributeDefinition
  3

  2
NN
 70
     8
280
     0
  0
ATTDEF
  5
D1
330
CC
100
AcDbEntity
  8
AM_6
100
AcDbText
 10
-9.200000000000012
 20
64.49451235573098
 30
0.0
 40
0.5
  1
SXR Normal Duty Bearing Inserts
100
AcDbAttributeDefinition
  3

  2
NT
 70
     8
280
     0
  0
ATTDEF
  5
D2
330
CC
100
AcDbEntity
  8
AM_6
100
AcDbText
 10
-9.200000000000012
 20
63.99451235573098
 30
0.0
 40
0.5
  1
125635
100
AcDbAttributeDefinition
  3

  2
NB
 70
     8
280
     0
  0
ATTDEF
  5
D3
330
CC
100
AcDbEntity
  8
AM_6
100
AcDbText
 10
-9.200000000000012
 20
63.49451235573098
 30
0.0
 40
0.5
  1
$PN.
100
AcDbAttributeDefinition
  3

  2
NBSYN
 70
     8
280
     0
  0
ATTDEF
  5
D4
330
CC
100
AcDbEntity
  8
AM_6
100
AcDbText
 10
-9.200000000000012
 20
62.99451235573098
 30
0.0
 40
0.5
  1
125635
100
AcDbAttributeDefinition
  3

  2
LINA
 70
     8
280
     0
  0
ATTDEF
  5
D5
330
CC
100
AcDbEntity
  8
AM_6
100
AcDbText
 10
-9.200000000000012
 20
62.49451235573098
 30
0.0
 40
0.5
  1
215
100
AcDbAttributeDefinition
  3

  2
SERIES
 70
     8
280
     0
  0
ATTDEF
  5
D6
330
CC
100
AcDbEntity
  8
AM_6
100
AcDbText
 10
-9.200000000000012
 20
61.99451235573098
 30
0.0
 40
0.5
  1
75
100
AcDbAttributeDefinition
  3

  2
SS
 70
     8
280
     0
  0
ATTDEF
  5
D7
330
CC
100
AcDbEntity
  8
AM_6
100
AcDbText
 10
-9.200000000000012
 20
61.49451235573098
 30
0.0
 40
0.5
  1
125635
100
AcDbAttributeDefinition
  3

  2
PN
 70
     8
280
     0
  0
ATTDEF
  5
D8
330
CC
100
AcDbEntity
  8
AM_6
100
AcDbText
 10
-9.200000000000012
 20
60.99451235573098
 30
0.0
 40
0.5
  1
INS-SXR-75M
100
AcDbAttributeDefinition
  3

  2
DESCRIPTION
 70
     8
280
     0
  0
ATTDEF
  5
D9
330
CC
100
AcDbEntity
  8
AM_6
100
AcDbText
 10
-9.200000000000012
 20
60.49451235573098
 30
0.0
 40
0.5
  1
2.0
100
AcDbAttributeDefinition
  3

  2
WEIGHT
 70
     8
280
     0
  0
ATTDEF
  5
DA
330
CC
100
AcDbEntity
  8
AM_6
100
AcDbText
 10
-9.200000000000012
 20
59.99451235573098
 30
0.0
 40
0.5
  1
76.7
100
AcDbAttributeDefinition
  3

  2
A
 70
     8
280
     0
  0
ATTDEF
  5
DB
330
CC
100
AcDbEntity
  8
AM_6
100
AcDbText
 10
-9.200000000000012
 20
59.49451235573098
 30
0.0
 40
0.5
  1
29.0
100
AcDbAttributeDefinition
  3

  2
C
 70
     8
280
     0
  0
ATTDEF
  5
DC
330
CC
100
AcDbEntity
  8
AM_6
100
AcDbText
 10
-9.200000000000012
 20
58.99451235573098
 30
0.0
 40
0.5
  1
130.000
100
AcDbAttributeDefinition
  3

  2
D
 70
     8
280
     0
  0
ATTDEF
  5
DD
330
CC
100
AcDbEntity
  8
AM_6
100
AcDbText
 10
-9.200000000000012
 20
58.49451235573098
 30
0.0
 40
0.5
  1
7.1
100
AcDbAttributeDefinition
  3

  2
J
 70
     8
280
     0
  0
ATTDEF
  5
DE
330
CC
100
AcDbEntity
  8
AM_6
100
AcDbText
 10
-9.200000000000012
 20
57.99451235573098
 30
0.0
 40
0.5
  1
101.6
100
AcDbAttributeDefinition
  3

  2
L
 70
     8
280
     0
  0
ATTDEF
  5
DF
330
CC
100
AcDbEntity
  8
AM_6
100
AcDbText
 10
-9.200000000000012
 20
57.49451235573098
 30
0.0
 40
0.5
  1
M12 x 1.75
100
AcDbAttributeDefinition
  3

  2
N
 70
     8
280
     0
  0
ATTDEF
  5
E0
330
CC
100
AcDbEntity
  8
AM_6
100
AcDbText
 10
-9.200000000000012
 20
56.99451235573098
 30
0.0
 40
0.5
  1
21.8
100
AcDbAttributeDefinition
  3

  2
W
 70
     8
280
     0
  0
ATTDEF
  5
E1
330
CC
100
AcDbEntity
  8
AM_6
100
AcDbText
 10
-9.200000000000012
 20
56.49451235573098
 30
0.0
 40
0.5
  1
54.9
100
AcDbAttributeDefinition
  3

  2
Y
 70
     8
280
     0
  0
ATTDEF
  5
E2
330
CC
100
AcDbEntity
  8
AM_6
100
AcDbText
 10
-9.200000000000012
 20
55.99451235573098
 30
0.0
 40
0.5
  1
91.9
100
AcDbAttributeDefinition
  3

  2
Z
 70
     8
280
     0
  0
ATTDEF
  5
E3
330
CC
100
AcDbEntity
  8
AM_6
100
AcDbText
 10
-9.200000000000012
 20
55.49451235573098
 30
0.0
 40
0.5
  1
baldor
100
AcDbAttributeDefinition
  3

  2
COMPANY
 70
     8
280
     0
  0
LINE
  5
E4
330
CC
100
AcDbEntity
  8
AM_9
100
AcDbLine
 10
-76.84699971200001
 20
50.57092486539023
 30
0.0
 11
-76.61792457739026
 21
50.8
 31
0.0
  0
LINE
  5
E5
330
CC
100
AcDbEntity
  8
AM_9
100
AcDbLine
 10
-87.1820748466098
 20
50.8
 30
0.0
 11
-86.95299971200002
 21
50.57092486539023
 31
0.0
  0
LINE
  5
E6
330
CC
100
AcDbEntity
  8
AM_9
100
AcDbLine
 10
-80.37971988876224
 20
50.57092486539023
 30
0.0
 11
-76.84699971200001
 21
50.57092486539023
 31
0.0
  0
LINE
  5
E7
330
CC
100
AcDbEntity
  8
AM_9
100
AcDbLine
 10
-76.84699971200001
 20
37.49801218406148
 30
0.0
 11
-76.84699971200001
 21
50.57092486539023
 31
0.0
  0
LINE
  5
E8
330
CC
100
AcDbEntity
  8
AM_9
100
AcDbLine
 10
-86.95299971200002
 20
50.57092486539023
 30
0.0
 11
-86.95299971200002
 21
37.49999999999999
 31
0.0
  0
LINE
  5
E9
330
CC
100
AcDbEntity
  8
AM_9
100
AcDbLine
 10
-86.95299971200002
 20
50.57092486539023
 30
0.0
 11
-83.42027953523781
 21
50.57092486539023
 31
0.0
  0
LWPOLYLINE
  5
EA
330
CC
100
AcDbEntity
  8
AM_9
100
AcDbPolyline
 90
       20
 70
     0
 43
0.0
 10
-86.95299971200002
 20
37.5
 10
-86.88403022200097
 20
37.49076887881363
 10
-86.67114354744257
 20
37.46306186763812
 10
-86.33251965858383
 20
37.42144337244174
 10
-85.8586729202154
 20
37.36827912239794
 10
-85.2854829333928
 20
37.3119108012754
 10
-84.59873623589057
 20
37.25587698371065
 10
-83.85250936159538
 20
37.20926611654365
 10
-83.0273824353044
 20
37.17510165157326
 10
-82.19851661378539
 20
37.15920213541528
 10
-81.33675518988329
 20
37.16227166618982
 10
-80.52055223462793
 20
37.18359942693591
 10
-79.72051311235673
 20
37.22186659529616
 10
-79.00077378642509
 20
37.27093642461275
 10
-78.3432033151721
 20
37.32784472225109
 10
-77.79798290367285
 20
37.38373620835401
 10
-77.35512604579064
 20
37.4349177592499
 10
-77.05186564743401
 20
37.47294483901693
 10
-76.87986515578082
 20
37.49558563301213
 10
-76.84699971200702
 20
37.49999999999905
  0
LINE
  5
EB
330
CC
100
AcDbEntity
  8
AM_9
100
AcDbLine
 10
-90.32000000000001
 20
-37.5
 30
0.0
 11
-73.31012135708822
 21
-37.5
 31
0.0
  0
LINE
  5
EC
330
CC
100
AcDbEntity
  8
AM_9
100
AcDbLine
 10
-73.31012135708822
 20
37.5
 30
0.0
 11
-76.86180179263074
 21
37.5
 31
0.0
  0
LINE
  5
ED
330
CC
100
AcDbEntity
  8
AM_9
100
AcDbLine
 10
-86.95299971200002
 20
37.5
 30
0.0
 11
-90.32000000000001
 21
37.5
 31
0.0
  0
LINE
  5
EE
330
CC
100
AcDbEntity
  8
AM_9
100
AcDbLine
 10
-72.48987749091182
 20
-37.5
 30
0.0
 11
-14.78000000000002
 21
-37.5
 31
0.0
  0
LINE
  5
EF
330
CC
100
AcDbEntity
  8
AM_9
100
AcDbLine
 10
-14.78000000000002
 20
37.5
 30
0.0
 11
-72.48987749091182
 21
37.5
 31
0.0
  0
LINE
  5
F0
330
CC
100
AcDbEntity
  8
AM_9
100
AcDbLine
 10
-72.48987749091182
 20
37.5
 30
0.0
 11
-72.89999942400003
 21
37.91012193308819
 31
0.0
  0
LINE
  5
F1
330
CC
100
AcDbEntity
  8
AM_9
100
AcDbLine
 10
-72.89999942400003
 20
-37.91012193308819
 30
0.0
 11
-72.48987749091182
 21
-37.5
 31
0.0
  0
LINE
  5
F2
330
CC
100
AcDbEntity
  8
AM_9
100
AcDbLine
 10
-72.48987749091182
 20
37.5
 30
0.0
 11
-72.48987749091182
 21
-37.5
 31
0.0
  0
LINE
  5
F3
330
CC
100
AcDbEntity
  8
AM_9
100
AcDbLine
 10
-73.31012135708822
 20
-37.5
 30
0.0
 11
-72.89999942400003
 21
-37.91012193308819
 31
0.0
  0
LINE
  5
F4
330
CC
100
AcDbEntity
  8
AM_9
100
AcDbLine
 10
-72.89999942400003
 20
37.91012193308819
 30
0.0
 11
-73.31012135708822
 21
37.5
 31
0.0
  0
LINE
  5
F5
330
CC
100
AcDbEntity
  8
AM_9
100
AcDbLine
 10
-72.89999942400003
 20
37.91012193308819
 30
0.0
 11
-72.89999942400003
 21
-37.91012193308819
 31
0.0
  0
LINE
  5
F6
330
CC
100
AcDbEntity
  8
AM_9
100
AcDbLine
 10
-73.31012135708822
 20
37.5
 30
0.0
 11
-73.31012135708822
 21
-37.5
 31
0.0
  0
LINE
  5
F7
330
CC
100
AcDbEntity
  8
AM_9
100
AcDbLine
 10
-90.32000000000001
 20
37.5
 30
0.0
 11
-90.9
 21
38.08
 31
0.0
  0
LINE
  5
F8
330
CC
100
AcDbEntity
  8
AM_9
100
AcDbLine
 10
-90.9
 20
-38.08
 30
0.0
 11
-90.32000000000001
 21
-37.5
 31
0.0
  0
LINE
  5
F9
330
CC
100
AcDbEntity
  8
AM_9
100
AcDbLine
 10
-90.32000000000001
 20
37.5
 30
0.0
 11
-90.32000000000001
 21
-37.5
 31
0.0
  0
LINE
  5
FA
330
CC
100
AcDbEntity
  8
AM_9
100
AcDbLine
 10
-14.78000000000002
 20
-37.5
 30
0.0
 11
-14.20000000000001
 21
-38.08
 31
0.0
  0
LINE
  5
FB
330
CC
100
AcDbEntity
  8
AM_9
100
AcDbLine
 10
-14.20000000000001
 20
38.08
 30
0.0
 11
-14.78000000000002
 21
37.5
 31
0.0
  0
LINE
  5
FC
330
CC
100
AcDbEntity
  8
AM_9
100
AcDbLine
 10
-14.20000000000001
 20
45.37
 30
0.0
 11
-14.78000000000001
 21
45.95
 31
0.0
  0
LINE
  5
FD
330
CC
100
AcDbEntity
  8
AM_9
100
AcDbLine
 10
-14.78000000000001
 20
-45.95
 30
0.0
 11
-14.20000000000001
 21
-45.37
 31
0.0
  0
LINE
  5
FE
330
CC
100
AcDbEntity
  8
AM_9
100
AcDbLine
 10
-14.20000000000001
 20
45.37
 30
0.0
 11
-14.20000000000001
 21
-45.37
 31
0.0
  0
LINE
  5
FF
330
CC
100
AcDbEntity
  8
AM_9
100
AcDbLine
 10
-57.1
 20
-45.95
 30
0.0
 11
-50.50000000000001
 21
-45.95
 31
0.0
  0
LINE
  5
100
330
CC
100
AcDbEntity
  8
AM_9
100
AcDbLine
 10
-50.50000000000001
 20
45.95
 30
0.0
 11
-57.1
 21
45.95
 31
0.0
  0
LINE
  5
101
330
CC
100
AcDbEntity
  8
AM_9
100
AcDbLine
 10
-21.50000000000001
 20
-45.95
 30
0.0
 11
-14.78000000000001
 21
-45.95
 31
0.0
  0
LINE
  5
102
330
CC
100
AcDbEntity
  8
AM_9
100
AcDbLine
 10
-14.78000000000001
 20
45.95
 30
0.0
 11
-21.50000000000001
 21
45.95
 31
0.0
  0
LINE
  5
103
330
CC
100
AcDbEntity
  8
AM_9
100
AcDbLine
 10
-14.78000000000001
 20
45.95
 30
0.0
 11
-14.78000000000001
 21
-45.95
 31
0.0
  0
LINE
  5
104
330
CC
100
AcDbEntity
  8
AM_9
100
AcDbLine
 10
-44.52000000000001
 20
-61.90476239999998
 30
0.0
 11
-41.68000000000001
 21
-61.90476239999998
 31
0.0
  0
LINE
  5
105
330
CC
100
AcDbEntity
  8
AM_9
100
AcDbLine
 10
-41.68000000000001
 20
61.90476239999998
 30
0.0
 11
-44.52000000000001
 21
61.90476239999998
 31
0.0
  0
LINE
  5
106
330
CC
100
AcDbEntity
  8
AM_9
100
AcDbLine
 10
-21.50000000000001
 20
62.43068155963061
 30
0.0
 11
-21.50000000000001
 21
-62.43068155963061
 31
0.0
  0
ARC
  5
107
330
CC
100
AcDbEntity
  8
AM_9
100
AcDbCircle
 10
-22.66000000000004
 20
-62.43068155963058
 30
0.0
 40
1.160000000000029
100
AcDbArc
 50
282.0614113392573
 51
0.0
  0
ARC
  5
108
330
CC
100
AcDbEntity
  8
AM_9
100
AcDbCircle
 10
-22.66000000000004
 20
62.43068155963058
 30
0.0
 40
1.160000000000029
100
AcDbArc
 50
0.0
 51
77.93858866074261
  0
LINE
  5
109
330
CC
100
AcDbEntity
  8
AM_9
100
AcDbLine
 10
-50.50000000000001
 20
62.4306815596306
 30
0.0
 11
-50.50000000000001
 21
-62.4306815596306
 31
0.0
  0
ARC
  5
10A
330
CC
100
AcDbEntity
  8
AM_9
100
AcDbCircle
 10
-49.34000000000002
 20
-62.43068155963061
 30
0.0
 40
1.159999999999982
100
AcDbArc
 50
179.9999991462263
 51
257.9385933156918
  0
ARC
  5
10B
330
CC
100
AcDbEntity
  8
AM_9
100
AcDbCircle
 10
-49.34000000000002
 20
62.43068155963061
 30
0.0
 40
1.15999999999998
100
AcDbArc
 50
102.0614066843082
 51
179.9999991462263
  0
ARC
  5
10C
330
CC
100
AcDbEntity
  8
AM_9
100
AcDbCircle
 10
-35.99999999999978
 20
-0.0000000000020606
 30
0.0
 40
65.00000000000206
100
AcDbArc
 50
97.53182800222888
 51
102.061406684309
  0
ARC
  5
10D
330
CC
100
AcDbEntity
  8
AM_9
100
AcDbCircle
 10
-35.99999999916921
 20
0.0000000048146802
 30
0.0
 40
65.0000000048782
100
AcDbArc
 50
257.9385933158608
 51
262.4681719976009
  0
LINE
  5
10E
330
CC
100
AcDbEntity
  8
AM_9
100
AcDbLine
 10
-49.58239348370928
 20
63.5650736431076
 30
0.0
 11
-49.58239348370928
 21
-63.56507364310372
 31
0.0
  0
LINE
  5
10F
330
CC
100
AcDbEntity
  8
AM_9
100
AcDbLine
 10
-44.52000000000001
 20
64.43919304274378
 30
0.0
 11
-44.52000000000001
 21
-64.43919304273993
 31
0.0
  0
ARC
  5
110
330
CC
100
AcDbEntity
  8
AM_9
100
AcDbCircle
 10
-35.99999999999701
 20
0.0000000000486722
 30
0.0
 40
64.99999999995178
100
AcDbArc
 50
77.93859323261157
 51
95.01316365975931
  0
ARC
  5
111
330
CC
100
AcDbEntity
  8
AM_9
100
AcDbCircle
 10
-35.99999999999503
 20
-0.0000000000830056
 30
0.0
 40
64.9999999999191
100
AcDbArc
 50
264.9868363402364
 51
282.0614067673928
  0
LINE
  5
112
330
CC
100
AcDbEntity
  8
AM_9
100
AcDbLine
 10
-41.68000000000001
 20
64.75135210943475
 30
0.0
 11
-41.68000000000001
 21
-64.75135210943611
 31
0.0
  0
LINE
  5
113
330
CC
100
AcDbEntity
  8
AM_9
100
AcDbLine
 10
-22.41760642412801
 20
63.56507362341454
 30
0.0
 11
-22.41760642412801
 21
-63.56507362341589
 31
0.0
  0
ELLIPSE
  5
114
330
CC
100
AcDbEntity
  8
AM_9
100
AcDbEllipse
 10
-28.9284240293802
 20
-0.0000000000000082
 30
0.0
 11
-7.332249350056292E-16
 21
-3.99149063776935
 31
0.0
210
0.0
220
0.0
230
1.0
 40
0.9940418392810222
 41
3.779868063866989
 42
5.644909896902769
  0
ARC
  5
115
330
CC
100
AcDbEntity
  8
AM_9
100
AcDbCircle
 10
-28.9
 20
0.0000000000000029
 30
0.0
 40
3.999999999999997
100
AcDbArc
 50
233.2655303345693
 51
126.7344696654525
  0
LINE
  5
116
330
CC
100
AcDbEntity
  8
AM_5
100
AcDbLine
 10
-75.89999971200001
 20
37.5
 30
0.0
 11
-75.89999971200001
 21
50.8
 31
0.0
  0
LINE
  5
117
330
CC
100
AcDbEntity
  8
AM_5
100
AcDbLine
 10
-87.89999971200002
 20
37.5
 30
0.0
 11
-87.89999971200002
 21
50.8
 31
0.0
  0
LINE
  5
118
330
CC
100
AcDbEntity
  8
AM_7
100
AcDbLine
 10
-81.89999971200001
 20
52.29665170677179
 30
0.0
 11
-81.89999971200001
 21
35.16466119637759
 31
0.0
  0
LINE
  5
119
330
CC
100
AcDbEntity
  8
AM_4
100
AcDbLine
 10
-70.50000000000001
 20
-43.76190511200001
 30
0.0
 11
-69.3
 21
-43.76190511200001
 31
0.0
  0
LINE
  5
11A
330
CC
100
AcDbEntity
  8
AM_4
100
AcDbLine
 10
-69.3
 20
43.76190511200001
 30
0.0
 11
-70.50000000000001
 21
43.76190511200001
 31
0.0
  0
LINE
  5
11B
330
CC
100
AcDbEntity
  8
AM_4
100
AcDbLine
 10
-68.72
 20
-45.95
 30
0.0
 11
-57.1
 21
-45.95
 31
0.0
  0
LINE
  5
11C
330
CC
100
AcDbEntity
  8
AM_4
100
AcDbLine
 10
-57.1
 20
45.95
 30
0.0
 11
-68.72
 21
45.95
 31
0.0
  0
LINE
  5
11D
330
CC
100
AcDbEntity
  8
AM_4
100
AcDbLine
 10
-69.3
 20
-45.37
 30
0.0
 11
-68.72
 21
-45.95
 31
0.0
  0
LINE
  5
11E
330
CC
100
AcDbEntity
  8
AM_4
100
AcDbLine
 10
-68.72
 20
45.95
 30
0.0
 11
-69.3
 21
45.37
 31
0.0
  0
LINE
  5
11F
330
CC
100
AcDbEntity
  8
AM_4
100
AcDbLine
 10
-69.3
 20
45.37
 30
0.0
 11
-69.3
 21
-45.37
 31
0.0
  0
LINE
  5
120
330
CC
100
AcDbEntity
  8
AM_4
100
AcDbLine
 10
-68.72
 20
45.95
 30
0.0
 11
-68.72
 21
-45.95
 31
0.0
  0
LINE
  5
121
330
CC
100
AcDbEntity
  8
AM_4
100
AcDbLine
 10
-90.9
 20
49.3
 30
0.0
 11
-90.9
 21
-49.3
 31
0.0
  0
ARC
  5
122
330
CC
100
AcDbEntity
  8
AM_4
100
AcDbCircle
 10
-89.40000000000005
 20
-49.30000000000003
 30
0.0
 40
1.499999999999957
100
AcDbArc
 50
180.0
 51
270.0
  0
ARC
  5
123
330
CC
100
AcDbEntity
  8
AM_4
100
AcDbCircle
 10
-89.40000000000006
 20
49.30000000000005
 30
0.0
 40
1.499999999999943
100
AcDbArc
 50
90.0
 51
180.0
  0
LWPOLYLINE
  5
124
330
CC
100
AcDbEntity
  8
AM_4
100
AcDbPolyline
 90
        5
 70
     0
 43
0.0
 10
-80.37971988876224
 20
50.57092486539023
 10
-81.19447955821241
 20
50.55299150087362
 10
-82.05300040520983
 20
50.54829967676581
 10
-82.73811489230928
 20
50.55501585456644
 10
-83.42027953523781
 20
50.57092486539023
  0
LWPOLYLINE
  5
125
330
CC
100
AcDbEntity
  8
AM_4
100
AcDbPolyline
 90
        9
 70
     0
 43
0.0
 10
-83.42027953523781
 20
50.57092486539023
 10
-84.18295303924513
 20
50.59698619398899
 10
-84.91048166655072
 20
50.63154985809411
 10
-85.61333134179489
 20
50.67390547192753
 10
-86.22640286581313
 20
50.71801304447079
 10
-86.67473995326172
 20
50.75447459398508
 10
-86.99627740928734
 20
50.78280321462767
 10
-87.15395810409983
 20
50.79735875595388
 10
-87.18207484660876
 20
50.7999999999999
  0
LINE
  5
126
330
CC
100
AcDbEntity
  8
AM_4
100
AcDbLine
 10
-89.40000000000003
 20
-50.8
 30
0.0
 11
-72.00000000000004
 21
-50.8
 31
0.0
  0
LINE
  5
127
330
CC
100
AcDbEntity
  8
AM_4
100
AcDbLine
 10
-72.00000000000004
 20
50.8
 30
0.0
 11
-76.61917919378203
 21
50.8
 31
0.0
  0
LINE
  5
128
330
CC
100
AcDbEntity
  8
AM_4
100
AcDbLine
 10
-87.16437641605401
 20
50.8
 30
0.0
 11
-89.40000000000003
 21
50.8
 31
0.0
  0
LINE
  5
129
330
CC
100
AcDbEntity
  8
AM_4
100
AcDbLine
 10
-89.40000000000003
 20
50.8
 30
0.0
 11
-89.40000000000003
 21
-50.8
 31
0.0
  0
LWPOLYLINE
  5
12A
330
CC
100
AcDbEntity
  8
AM_4
100
AcDbPolyline
 90
       10
 70
     0
 43
0.0
 10
-76.61792457739034
 20
50.79999999999999
 10
-76.61794840724484
 20
50.79999775559654
 10
-76.69292811923732
 20
50.79298508862608
 10
-76.89604466100772
 20
50.77448334634846
 10
-77.2312958212547
 20
50.74553112192357
 10
-77.67874690692075
 20
50.70997523383287
 10
-78.24279371634215
 20
50.6702004352365
 10
-78.9080077740964
 20
50.63055436543933
 10
-79.66728442134665
 20
50.59494881312954
 10
-80.37971988876224
 20
50.57092486539022
  0
LINE
  5
12B
330
CC
100
AcDbEntity
  8
AM_4
100
AcDbLine
 10
-70.50000000000001
 20
49.30000000000001
 30
0.0
 11
-70.50000000000001
 21
-49.30000000000001
 31
0.0
  0
ARC
  5
12C
330
CC
100
AcDbEntity
  8
AM_4
100
AcDbCircle
 10
-72.0
 20
-49.30000000000001
 30
0.0
 40
1.499999999999993
100
AcDbArc
 50
270.0
 51
0.0
  0
ARC
  5
12D
330
CC
100
AcDbEntity
  8
AM_4
100
AcDbCircle
 10
-72.0
 20
49.30000000000001
 30
0.0
 40
1.499999999999986
100
AcDbArc
 50
0.0
 51
90.0
  0
LINE
  5
12E
330
CC
100
AcDbEntity
  8
AM_4
100
AcDbLine
 10
-72.00000000000004
 20
50.8
 30
0.0
 11
-72.00000000000004
 21
-50.8
 31
0.0
  0
ENDBLK
  5
CF
330
CC
100
AcDbEntity
  8
0
100
AcDbBlockEnd
  0
BLOCK
  5
131
330
12F
100
AcDbEntity
  8
0
100
AcDbBlockBegin
  2
4_125676H_0_in_125676_2
 70
     2
 10
0.0
 20
0.0
 30
0.0
  3
4_125676H_0_in_125676_2
  1

  0
ATTDEF
  5
133
330
12F
100
AcDbEntity
  8
AM_6
100
AcDbText
 10
7.855
 20
98.45
 30
0.0
 40
0.5
  1
F4B-SXR - housing -Metric
100
AcDbAttributeDefinition
  3

  2
NN
 70
     8
280
     0
  0
ATTDEF
  5
134
330
12F
100
AcDbEntity
  8
AM_6
100
AcDbText
 10
7.855
 20
97.95
 30
0.0
 40
0.5
  1
SXR 4 Bolt Flange Bearings -(Normal Duty)
100
AcDbAttributeDefinition
  3

  2
NT
 70
     8
280
     0
  0
ATTDEF
  5
135
330
12F
100
AcDbEntity
  8
AM_6
100
AcDbText
 10
7.855
 20
97.45
 30
0.0
 40
0.5
  1
125676H
100
AcDbAttributeDefinition
  3

  2
NB
 70
     8
280
     0
  0
ATTDEF
  5
136
330
12F
100
AcDbEntity
  8
AM_6
100
AcDbText
 10
7.855
 20
96.95
 30
0.0
 40
0.5
  1
$PN.H
100
AcDbAttributeDefinition
  3

  2
NBSYN
 70
     8
280
     0
  0
ATTDEF
  5
137
330
12F
100
AcDbEntity
  8
AM_6
100
AcDbText
 10
7.855
 20
96.45
 30
0.0
 40
0.5
  1
125676
100
AcDbAttributeDefinition
  3

  2
LINA
 70
     8
280
     0
  0
ATTDEF
  5
138
330
12F
100
AcDbEntity
  8
AM_6
100
AcDbText
 10
7.855
 20
95.95
 30
0.0
 40
0.5
  1
215
100
AcDbAttributeDefinition
  3

  2
SERIES
 70
     8
280
     0
  0
ATTDEF
  5
139
330
12F
100
AcDbEntity
  8
AM_6
100
AcDbText
 10
7.855
 20
95.45
 30
0.0
 40
0.5
  1
75
100
AcDbAttributeDefinition
  3

  2
SS
 70
     8
280
     0
  0
ATTDEF
  5
13A
330
12F
100
AcDbEntity
  8
AM_6
100
AcDbText
 10
7.855
 20
94.95
 30
0.0
 40
0.5
  1
125676
100
AcDbAttributeDefinition
  3

  2
PN
 70
     8
280
     0
  0
ATTDEF
  5
13B
330
12F
100
AcDbEntity
  8
AM_6
100
AcDbText
 10
7.855
 20
94.45
 30
0.0
 40
0.5
  1
F4B-SXR-75M
100
AcDbAttributeDefinition
  3

  2
DESCRIPTION
 70
     8
280
     0
  0
ATTDEF
  5
13C
330
12F
100
AcDbEntity
  8
AM_6
100
AcDbText
 10
7.855
 20
93.95
 30
0.0
 40
0.5
  1
8.2
100
AcDbAttributeDefinition
  3

  2
W
 70
     8
280
     0
  0
ATTDEF
  5
13D
330
12F
100
AcDbEntity
  8
AM_6
100
AcDbText
 10
7.855
 20
93.45
 30
0.0
 40
0.5
  1
76.7
100
AcDbAttributeDefinition
  3

  2
A
 70
     8
280
     0
  0
ATTDEF
  5
13E
330
12F
100
AcDbEntity
  8
AM_6
100
AcDbText
 10
7.855
 20
92.95
 30
0.0
 40
0.5
  1
196.9
100
AcDbAttributeDefinition
  3

  2
B
 70
     8
280
     0
  0
ATTDEF
  5
13F
330
12F
100
AcDbEntity
  8
AM_6
100
AcDbText
 10
7.855
 20
92.45
 30
0.0
 40
0.5
  1
90.9
100
AcDbAttributeDefinition
  3

  2
C
 70
     8
280
     0
  0
ATTDEF
  5
140
330
12F
100
AcDbEntity
  8
AM_6
100
AcDbText
 10
7.855
 20
91.95
 30
0.0
 40
0.5
  1
152.4
100
AcDbAttributeDefinition
  3

  2
D
 70
     8
280
     0
  0
ATTDEF
  5
141
330
12F
100
AcDbEntity
  8
AM_6
100
AcDbText
 10
7.855
 20
91.45
 30
0.0
 40
0.5
  1
M18
100
AcDbAttributeDefinition
  3

  2
F
 70
     8
280
     0
  0
ATTDEF
  5
142
330
12F
100
AcDbEntity
  8
AM_6
100
AcDbText
 10
7.855
 20
90.95
 30
0.0
 40
0.5
  1
25.4
100
AcDbAttributeDefinition
  3

  2
H
 70
     8
280
     0
  0
ATTDEF
  5
143
330
12F
100
AcDbEntity
  8
AM_6
100
AcDbText
 10
7.855
 20
90.45
 30
0.0
 40
0.5
  1
33.8
100
AcDbAttributeDefinition
  3

  2
J
 70
     8
280
     0
  0
ATTDEF
  5
144
330
12F
100
AcDbEntity
  8
AM_6
100
AcDbText
 10
7.855
 20
89.95
 30
0.0
 40
0.5
  1
101.6
100
AcDbAttributeDefinition
  3

  2
L
 70
     8
280
     0
  0
ATTDEF
  5
145
330
12F
100
AcDbEntity
  8
AM_6
100
AcDbText
 10
7.855
 20
89.45
 30
0.0
 40
0.5
  1
98.6
100
AcDbAttributeDefinition
  3

  2
N
 70
     8
280
     0
  0
ATTDEF
  5
146
330
12F
100
AcDbEntity
  8
AM_6
100
AcDbText
 10
7.855
 20
88.95
 30
0.0
 40
0.5
  1
0.375000
100
AcDbAttributeDefinition
  3

  2
GFH
 70
     8
280
     0
  0
ATTDEF
  5
147
330
12F
100
AcDbEntity
  8
AM_6
100
AcDbText
 10
7.855
 20
88.45
 30
0.0
 40
0.5
  1
9255
100
AcDbAttributeDefinition
  3

  2
CAPS
 70
     8
280
     0
  0
ATTDEF
  5
148
330
12F
100
AcDbEntity
  8
AM_6
100
AcDbText
 10
7.855
 20
87.95
 30
0.0
 40
0.5
  1
14875
100
AcDbAttributeDefinition
  3

  2
CAPD
 70
     8
280
     0
  0
ATTDEF
  5
149
330
12F
100
AcDbEntity
  8
AM_6
100
AcDbText
 10
7.855
 20
87.45
 30
0.0
 40
0.5
  1
baldor
100
AcDbAttributeDefinition
  3

  2
COMPANY
 70
     8
280
     0
  0
LINE
  5
14A
330
12F
100
AcDbEntity
  8
AM_9
100
AcDbLine
 10
-16.93333333333333
 20
89.07499999999999
 30
0.0
 11
-16.93333333333333
 21
98.45
 31
0.0
  0
LINE
  5
14B
330
12F
100
AcDbEntity
  8
AM_9
100
AcDbLine
 10
-16.93333333333333
 20
91.32499999999999
 30
0.0
 11
-22.86
 21
91.32499999999999
 31
0.0
  0
LINE
  5
14C
330
12F
100
AcDbEntity
  8
AM_9
100
AcDbLine
 10
-16.93333333333333
 20
89.07499999999999
 30
0.0
 11
-25.40000000000001
 21
89.07499999999999
 31
0.0
  0
LINE
  5
14D
330
12F
100
AcDbEntity
  8
AM_9
100
AcDbLine
 10
-25.39999999999999
 20
86.82499999999999
 30
0.0
 11
-22.86
 21
86.82499999999999
 31
0.0
  0
LINE
  5
14E
330
12F
100
AcDbEntity
  8
AM_9
100
AcDbLine
 10
-25.4
 20
-76.19999999999999
 30
0.0
 11
-22.86
 21
-76.19999999999999
 31
0.0
  0
LINE
  5
14F
330
12F
100
AcDbEntity
  8
AM_9
100
AcDbLine
 10
-22.86
 20
75.1342132453651
 30
0.0
 11
-25.4
 21
75.1342132453651
 31
0.0
  0
LINE
  5
150
330
12F
100
AcDbEntity
  8
AM_9
100
AcDbLine
 10
-22.86
 20
68.30297227645876
 30
0.0
 11
-25.4
 21
68.30297227645876
 31
0.0
  0
LINE
  5
151
330
12F
100
AcDbEntity
  8
AM_9
100
AcDbLine
 10
-22.86
 20
67.93413760765966
 30
0.0
 11
-25.4
 21
67.93413760765966
 31
0.0
  0
LINE
  5
152
330
12F
100
AcDbEntity
  8
AM_9
100
AcDbLine
 10
-25.4
 20
67.71718583883184
 30
0.0
 11
-22.86
 21
67.71718583883184
 31
0.0
  0
LINE
  5
153
330
12F
100
AcDbEntity
  8
AM_9
100
AcDbLine
 10
-22.86
 20
-68.30297227645876
 30
0.0
 11
-25.4
 21
-68.30297227645876
 31
0.0
  0
LINE
  5
154
330
12F
100
AcDbEntity
  8
AM_9
100
AcDbLine
 10
-22.86
 20
-67.93413760765968
 30
0.0
 11
-25.4
 21
-67.93413760765968
 31
0.0
  0
LINE
  5
155
330
12F
100
AcDbEntity
  8
AM_9
100
AcDbLine
 10
-22.86
 20
-67.71718583883185
 30
0.0
 11
-25.4
 21
-67.71718583883185
 31
0.0
  0
LINE
  5
156
330
12F
100
AcDbEntity
  8
AM_9
100
AcDbLine
 10
-39.97
 20
30.00000000000006
 30
0.0
 11
0.0000000000000038
 21
30.00000000000006
 31
0.0
  0
LINE
  5
157
330
12F
100
AcDbEntity
  8
AM_9
100
AcDbLine
 10
-39.97
 20
-30.0
 30
0.0
 11
0.0000000000000038
 21
-30.0
 31
0.0
  0
LINE
  5
158
330
12F
100
AcDbEntity
  8
AM_9
100
AcDbLine
 10
-57.10000000000001
 20
-65.0
 30
0.0
 11
0.0
 21
-65.0
 31
0.0
  0
LINE
  5
159
330
12F
100
AcDbEntity
  8
AM_9
100
AcDbLine
 10
0.0
 20
65.0
 30
0.0
 11
-57.10000000000001
 21
65.0
 31
0.0
  0
LINE
  5
15A
330
12F
100
AcDbEntity
  8
AM_9
100
AcDbLine
 10
-39.97
 20
-30.0
 30
0.0
 11
-39.97
 21
30.00000000000006
 31
0.0
  0
LINE
  5
15B
330
12F
100
AcDbEntity
  8
AM_9
100
AcDbLine
 10
-25.4
 20
67.2
 30
0.0
 11
0.0000000000000047
 21
67.2
 31
0.0
  0
LINE
  5
15C
330
12F
100
AcDbEntity
  8
AM_9
100
AcDbLine
 10
0.0000000000000047
 20
85.2
 30
0.0
 11
-25.4
 21
85.2
 31
0.0
  0
LINE
  5
15D
330
12F
100
AcDbEntity
  8
AM_9
100
AcDbLine
 10
-25.4
 20
-85.2
 30
0.0
 11
0.0000000000000047
 21
-85.2
 31
0.0
  0
LINE
  5
15E
330
12F
100
AcDbEntity
  8
AM_9
100
AcDbLine
 10
0.0000000000000047
 20
-67.2
 30
0.0
 11
-25.4
 21
-67.2
 31
0.0
  0
LINE
  5
15F
330
12F
100
AcDbEntity
  8
AM_9
100
AcDbLine
 10
-22.86
 20
-91.9331258814007
 30
0.0
 11
-25.4
 21
-91.9331258814007
 31
0.0
  0
LINE
  5
160
330
12F
100
AcDbEntity
  8
AM_9
100
AcDbLine
 10
-22.86
 20
-76.20000000000002
 30
0.0
 11
-22.86
 21
-98.45
 31
0.0
  0
LINE
  5
161
330
12F
100
AcDbEntity
  8
AM_9
100
AcDbLine
 10
-22.86
 20
98.45
 30
0.0
 11
-22.86
 21
76.2
 31
0.0
  0
LINE
  5
162
330
12F
100
AcDbEntity
  8
AM_9
100
AcDbLine
 10
-22.86
 20
91.93312588140071
 30
0.0
 11
-25.4
 21
91.93312588140071
 31
0.0
  0
LINE
  5
163
330
12F
100
AcDbEntity
  8
AM_7
100
AcDbLine
 10
1.269999999999995
 20
76.2
 30
0.0
 11
-26.67
 21
76.2
 31
0.0
  0
LINE
  5
164
330
12F
100
AcDbEntity
  8
AM_7
100
AcDbLine
 10
1.269999999999995
 20
-76.2
 30
0.0
 11
-26.67
 21
-76.2
 31
0.0
  0
LINE
  5
165
330
12F
100
AcDbEntity
  8
AM_7
100
AcDbLine
 10
2.855
 20
0.0
 30
0.0
 11
-94.735
 21
0.0
 31
0.0
  0
LINE
  5
166
330
12F
100
AcDbEntity
  8
AM_4
100
AcDbLine
 10
-57.10000000000001
 20
-75.2
 30
0.0
 11
-57.10000000000001
 21
89.07499999999999
 31
0.0
  0
LINE
  5
167
330
12F
100
AcDbEntity
  8
AM_4
100
AcDbLine
 10
-57.10000000000001
 20
89.07499999999999
 30
0.0
 11
-25.40000000000001
 21
89.07499999999999
 31
0.0
  0
LINE
  5
168
330
12F
100
AcDbEntity
  8
AM_4
100
AcDbLine
 10
-57.10000000000001
 20
86.82499999999999
 30
0.0
 11
-25.39999999999999
 21
86.82499999999999
 31
0.0
  0
LINE
  5
169
330
12F
100
AcDbEntity
  8
AM_4
100
AcDbLine
 10
-57.10000000000001
 20
74.11983540186796
 30
0.0
 11
-25.4
 21
74.11983540186796
 31
0.0
  0
LINE
  5
16A
330
12F
100
AcDbEntity
  8
AM_4
100
AcDbLine
 10
-57.10000000000001
 20
-75.2
 30
0.0
 11
-25.4
 21
-75.2
 31
0.0
  0
LINE
  5
16B
330
12F
100
AcDbEntity
  8
AM_4
100
AcDbLine
 10
-22.86
 20
-34.51656048194199
 30
0.0
 11
-25.4
 21
-34.51656048194199
 31
0.0
  0
LINE
  5
16C
330
12F
100
AcDbEntity
  8
AM_4
100
AcDbLine
 10
-22.86
 20
34.516560481942
 30
0.0
 11
-25.4
 21
34.516560481942
 31
0.0
  0
LINE
  5
16D
330
12F
100
AcDbEntity
  8
AM_4
100
AcDbLine
 10
-22.86
 20
-36.8367205136574
 30
0.0
 11
-25.4
 21
-36.8367205136574
 31
0.0
  0
LINE
  5
16E
330
12F
100
AcDbEntity
  8
AM_4
100
AcDbLine
 10
-22.86
 20
36.83672051365739
 30
0.0
 11
-25.4
 21
36.83672051365739
 31
0.0
  0
LINE
  5
16F
330
12F
100
AcDbEntity
  8
AM_4
100
AcDbLine
 10
-22.85999999999999
 20
-76.2
 30
0.0
 11
-22.85999999999999
 21
76.2
 31
0.0
  0
LINE
  5
170
330
12F
100
AcDbEntity
  8
AM_4
100
AcDbLine
 10
-25.4
 20
-98.45
 30
0.0
 11
0.0000000000000047
 21
-98.45
 31
0.0
  0
LINE
  5
171
330
12F
100
AcDbEntity
  8
AM_4
100
AcDbLine
 10
-22.85999999999999
 20
-76.2
 30
0.0
 11
0.000000000000006
 21
-76.2
 31
0.0
  0
LINE
  5
172
330
12F
100
AcDbEntity
  8
AM_4
100
AcDbLine
 10
-22.85999999999999
 20
-60.46687411859932
 30
0.0
 11
-25.39999999999999
 21
-60.46687411859932
 31
0.0
  0
LINE
  5
173
330
12F
100
AcDbEntity
  8
AM_4
100
AcDbLine
 10
0.0000000000000047
 20
-98.45
 30
0.0
 11
0.0000000000000047
 21
98.45
 31
0.0
  0
LINE
  5
174
330
12F
100
AcDbEntity
  8
AM_4
100
AcDbLine
 10
-25.4
 20
-98.45
 30
0.0
 11
-25.4
 21
98.45
 31
0.0
  0
LINE
  5
175
330
12F
100
AcDbEntity
  8
AM_4
100
AcDbLine
 10
-22.85999999999999
 20
60.46687411859932
 30
0.0
 11
-25.39999999999999
 21
60.46687411859932
 31
0.0
  0
LINE
  5
176
330
12F
100
AcDbEntity
  8
AM_4
100
AcDbLine
 10
-22.85999999999999
 20
76.2
 30
0.0
 11
0.000000000000006
 21
76.19999999999997
 31
0.0
  0
LINE
  5
177
330
12F
100
AcDbEntity
  8
AM_4
100
AcDbLine
 10
-25.4
 20
98.45
 30
0.0
 11
0.0000000000000047
 21
98.45
 31
0.0
  0
ENDBLK
  5
132
330
12F
100
AcDbEntity
  8
0
100
AcDbBlockEnd
  0
ENDSEC
  0
SECTION
  2
ENTITIES
  0
INSERT
  5
6F
330
1F
100
AcDbEntity
  8
0
100
AcDbBlockReference
  2
1_125676_2
 10
0.0
 20
0.0
 30
0.0
  0
POINT
  5
179
330
1F
100
AcDbEntity
  8
ConnectionPoints
100
AcDbPoint
 10
-36.00000000000001
 20
0.0
 30
0.0000000000000022
  0
POINT
  5
17A
330
1F
100
AcDbEntity
  8
ConnectionPoints
100
AcDbPoint
 10
-90.9
 20
0.0
 30
0.0000000000000056
  0
POINT
  5
17B
330
1F
100
AcDbEntity
  8
ConnectionPoints
100
AcDbPoint
 10
-41.25
 20
89.07499999999999
 30
0.0000000000000025
  0
POINT
  5
17C
330
1F
100
AcDbEntity
  8
ConnectionPoints
100
AcDbPoint
 10
-41.25
 20
89.07499999999999
 30
0.0000000000000025
  0
POINT
  5
17D
330
1F
100
AcDbEntity
  8
ConnectionPoints
100
AcDbPoint
 10
-90.9
 20
0.0
 30
0.0000000000000056
  0
ENDSEC
  0
SECTION
  2
OBJECTS
  0
DICTIONARY
  5
C
330
0
100
AcDbDictionary
281
     1
  3
ACAD_DETAILVIEWSTYLE
350
185
  3
ACAD_GROUP
350
D
  3
ACAD_LAYOUT
350
1A
  3
ACAD_MATERIAL
350
43
  3
ACAD_MLEADERSTYLE
350
6B
  3
ACAD_MLINESTYLE
350
17
  3
ACAD_PLOTSETTINGS
350
19
  3
ACAD_PLOTSTYLENAME
350
E
  3
ACAD_SCALELIST
350
47
  3
ACAD_SECTIONVIEWSTYLE
350
186
  3
ACAD_TABLESTYLE
350
69
  3
ACAD_VISUALSTYLE
350
2A
  3
ACDB_RECOMPOSE_DATA
350
182
  3
AcDbVariableDictionary
350
17E
  0
SUN
  5
6D
330
29
100
AcDbSun
 90
        1
290
     0
 63
     7
421
 16777215
 40
1.0
291
     1
 91
  2455826
 92
 54000000
292
     0
 70
     2
 71
   256
280
     1
  0
DICTIONARY
  5
185
102
{ACAD_REACTORS
330
C
102
}
330
C
100
AcDbDictionary
281
     1
  0
DICTIONARY
  5
D
102
{ACAD_REACTORS
330
C
102
}
330
C
100
AcDbDictionary
281
     1
  0
DICTIONARY
  5
1A
102
{ACAD_REACTORS
330
C
102
}
330
C
100
AcDbDictionary
281
     1
  3
Layout1
350
1E
  3
Layout2
350
26
  3
Model
350
22
  0
DICTIONARY
  5
43
102
{ACAD_REACTORS
330
C
102
}
330
C
100
AcDbDictionary
281
     1
  3
ByBlock
350
45
  3
ByLayer
350
44
  3
Global
350
46
  0
DICTIONARY
  5
6B
102
{ACAD_REACTORS
330
C
102
}
330
C
100
AcDbDictionary
281
     1
  3
Standard
350
6C
  0
DICTIONARY
  5
17
102
{ACAD_REACTORS
330
C
102
}
330
C
100
AcDbDictionary
281
     1
  3
Standard
350
18
  0
DICTIONARY
  5
19
102
{ACAD_REACTORS
330
C
102
}
330
C
100
AcDbDictionary
281
     1
  0
ACDBDICTIONARYWDFLT
  5
E
102
{ACAD_REACTORS
330
C
102
}
330
C
100
AcDbDictionary
281
     1
  3
Normal
350
F
100
AcDbDictionaryWithDefault
340
F
  0
DICTIONARY
  5
47
102
{ACAD_REACTORS
330
C
102
}
330
C
100
AcDbDictionary
281
     1
  3
A0
350
48
  3
A1
350
49
  3
A2
350
4A
  3
A3
350
4B
  3
A4
350
4C
  3
A5
350
4D
  3
A6
350
4E
  3
A7
350
4F
  3
A8
350
50
  3
A9
350
51
  3
B0
350
52
  3
B1
350
53
  3
B2
350
54
  3
B3
350
55
  3
B4
350
56
  3
B5
350
57
  3
B6
350
58
  3
B7
350
59
  3
B8
350
5A
  3
B9
350
5B
  3
C0
350
5C
  3
C1
350
5D
  3
C2
350
5E
  3
C3
350
5F
  3
C4
350
60
  3
C5
350
61
  3
C6
350
62
  3
C7
350
63
  3
C8
350
64
  3
C9
350
65
  3
D0
350
66
  3
D1
350
67
  3
D2
350
68
  0
DICTIONARY
  5
186
102
{ACAD_REACTORS
330
C
102
}
330
C
100
AcDbDictionary
281
     1
  0
DICTIONARY
  5
69
102
{ACAD_REACTORS
330
C
102
}
330
C
100
AcDbDictionary
281
     1
  3
Standard
350
6A
  0
DICTIONARY
  5
2A
102
{ACAD_REACTORS
330
C
102
}
330
C
100
AcDbDictionary
281
     1
  3
2dWireframe
350
2F
  3
Basic
350
32
  3
Brighten
350
36
  3
ColorChange
350
3A
  3
Conceptual
350
34
  3
Dim
350
35
  3
EdgeColorOff
350
3D
  3
Facepattern
350
39
  3
Flat
350
2B
  3
FlatWithEdges
350
2C
  3
Gouraud
350
2D
  3
GouraudWithEdges
350
2E
  3
Hidden
350
31
  3
JitterOff
350
3B
  3
Linepattern
350
38
  3
OverhangOff
350
3C
  3
Realistic
350
33
  3
Shaded
350
42
  3
Shaded with edges
350
41
  3
Shades of Gray
350
3E
  3
Sketchy
350
3F
  3
Thicken
350
37
  3
Wireframe
350
30
  3
X-Ray
350
40
  0
XRECORD
  5
182
102
{ACAD_REACTORS
330
C
102
}
330
C
100
AcDbXrecord
280
     1
 90
        1
330
6A
  0
DICTIONARY
  5
17E
102
{ACAD_REACTORS
330
C
102
}
330
C
100
AcDbDictionary
281
     1
  3
CANNOSCALE
350
17F
  3
CMLEADERSTYLE
350
184
  3
CTABLESTYLE
350
183
  0
LAYOUT
  5
1E
102
{ACAD_REACTORS
330
1A
102
}
330
1A
100
AcDbPlotSettings
  1

  2
none_device
  4

  6

 40
0.0
 41
0.0
 42
0.0
 43
0.0
 44
0.0
 45
0.0
 46
0.0
 47
0.0
 48
0.0
 49
0.0
140
0.0
141
0.0
142
1.0
143
1.0
 70
   688
 72
     1
 73
     0
 74
     5
  7

 75
    16
 76
     0
 77
     2
 78
   300
147
1.0
148
0.0
149
0.0
100
AcDbLayout
  1
Layout1
 70
     1
 71
     1
 10
0.0
 20
0.0
 11
420.0
 21
297.0
 12
0.0
 22
0.0
 32
0.0
 14
1.000000000000000E+20
 24
1.000000000000000E+20
 34
1.000000000000000E+20
 15
-1.000000000000000E+20
 25
-1.000000000000000E+20
 35
-1.000000000000000E+20
146
0.0
 13
0.0
 23
0.0
 33
0.0
 16
1.0
 26
0.0
 36
0.0
 17
0.0
 27
1.0
 37
0.0
 76
     0
330
1B
  0
LAYOUT
  5
26
102
{ACAD_REACTORS
330
1A
102
}
330
1A
100
AcDbPlotSettings
  1

  2
none_device
  4

  6

 40
0.0
 41
0.0
 42
0.0
 43
0.0
 44
0.0
 45
0.0
 46
0.0
 47
0.0
 48
0.0
 49
0.0
140
0.0
141
0.0
142
1.0
143
1.0
 70
   688
 72
     1
 73
     0
 74
     5
  7

 75
    16
 76
     0
 77
     2
 78
   300
147
1.0
148
0.0
149
0.0
100
AcDbLayout
  1
Layout2
 70
     1
 71
     2
 10
0.0
 20
0.0
 11
0.0
 21
0.0
 12
0.0
 22
0.0
 32
0.0
 14
0.0
 24
0.0
 34
0.0
 15
0.0
 25
0.0
 35
0.0
146
0.0
 13
0.0
 23
0.0
 33
0.0
 16
1.0
 26
0.0
 36
0.0
 17
0.0
 27
1.0
 37
0.0
 76
     0
330
23
  0
LAYOUT
  5
22
102
{ACAD_REACTORS
330
1A
102
}
330
1A
100
AcDbPlotSettings
  1

  2
none_device
  4
Letter_(8.50_x_11.00_Inches)
  6

 40
6.35
 41
6.35
 42
6.35000508
 43
6.35000508
 44
215.9
 45
279.4
 46
0.0
 47
0.0
 48
0.0
 49
0.0
140
0.0
141
0.0
142
1.0
143
1.0
 70
  1712
 72
     1
 73
     0
 74
     0
  7

 75
     0
 76
     0
 77
     2
 78
   300
147
1.0
148
0.0
149
0.0
100
AcDbLayout
  1
Model
 70
     1
 71
     0
 10
0.0
 20
0.0
 11
420.0
 21
297.0
 12
0.0
 22
0.0
 32
0.0
 14
1.000000000000000E+20
 24
1.000000000000000E+20
 34
1.000000000000000E+20
 15
-1.000000000000000E+20
 25
-1.000000000000000E+20
 35
-1.000000000000000E+20
146
0.0
 13
0.0
 23
0.0
 33
0.0
 16
1.0
 26
0.0
 36
0.0
 17
0.0
 27
1.0
 37
0.0
 76
     0
330
1F
331
29
  0
MATERIAL
  5
45
102
{ACAD_REACTORS
330
43
102
}
330
43
100
AcDbMaterial
  1
ByBlock
 72
     1
 94
      127
  0
MATERIAL
  5
44
102
{ACAD_REACTORS
330
43
102
}
330
43
100
AcDbMaterial
  1
ByLayer
 72
     1
 94
      127
  0
MATERIAL
  5
46
102
{ACAD_REACTORS
330
43
102
}
330
43
100
AcDbMaterial
  1
Global
 72
     1
 94
      127
  0
MLEADERSTYLE
  5
6C
102
{ACAD_REACTORS
330
6B
102
}
330
6B
100
AcDbMLeaderStyle
179
     2
170
     2
171
     1
172
     0
 90
        2
 40
0.0
 41
0.0
173
     1
 91
-1056964608
340
14
 92
       -2
290
     1
 42
2.0
291
     1
 43
8.0
  3
Standard
341
0
 44
4.0
300

342
11
174
     1
178
     6
175
     1
176
     0
 93
-1056964608
 45
4.0
292
     0
297
     0
 46
4.0
343
0
 94
-1056964608
 47
1.0
 49
1.0
140
1.0
293
     1
141
0.0
294
     1
177
     0
142
1.0
295
     0
296
     0
143
3.75
271
     0
272
     9
273
     9
298
     0
  0
MLINESTYLE
  5
18
102
{ACAD_REACTORS
330
17
102
}
330
17
100
AcDbMlineStyle
  2
Standard
 70
     0
  3

 62
   256
 51
90.0
 52
90.0
 71
     2
 49
0.5
 62
   256
  6
BYLAYER
 49
-0.5
 62
   256
  6
BYLAYER
  0
ACDBPLACEHOLDER
  5
F
102
{ACAD_REACTORS
330
E
102
}
330
E
  0
SCALE
  5
48
102
{ACAD_REACTORS
330
47
102
}
330
47
100
AcDbScale
 70
     0
300
1:1
140
1.0
141
1.0
290
     1
  0
SCALE
  5
49
102
{ACAD_REACTORS
330
47
102
}
330
47
100
AcDbScale
 70
     0
300
1:2
140
1.0
141
2.0
290
     0
  0
SCALE
  5
4A
102
{ACAD_REACTORS
330
47
102
}
330
47
100
AcDbScale
 70
     0
300
1:4
140
1.0
141
4.0
290
     0
  0
SCALE
  5
4B
102
{ACAD_REACTORS
330
47
102
}
330
47
100
AcDbScale
 70
     0
300
1:5
140
1.0
141
5.0
290
     0
  0
SCALE
  5
4C
102
{ACAD_REACTORS
330
47
102
}
330
47
100
AcDbScale
 70
     0
300
1:8
140
1.0
141
8.0
290
     0
  0
SCALE
  5
4D
102
{ACAD_REACTORS
330
47
102
}
330
47
100
AcDbScale
 70
     0
300
1:10
140
1.0
141
10.0
290
     0
  0
SCALE
  5
4E
102
{ACAD_REACTORS
330
47
102
}
330
47
100
AcDbScale
 70
     0
300
1:16
140
1.0
141
16.0
290
     0
  0
SCALE
  5
4F
102
{ACAD_REACTORS
330
47
102
}
330
47
100
AcDbScale
 70
     0
300
1:20
140
1.0
141
20.0
290
     0
  0
SCALE
  5
50
102
{ACAD_REACTORS
330
47
102
}
330
47
100
AcDbScale
 70
     0
300
1:30
140
1.0
141
30.0
290
     0
  0
SCALE
  5
51
102
{ACAD_REACTORS
330
47
102
}
330
47
100
AcDbScale
 70
     0
300
1:40
140
1.0
141
40.0
290
     0
  0
SCALE
  5
52
102
{ACAD_REACTORS
330
47
102
}
330
47
100
AcDbScale
 70
     0
300
1:50
140
1.0
141
50.0
290
     0
  0
SCALE
  5
53
102
{ACAD_REACTORS
330
47
102
}
330
47
100
AcDbScale
 70
     0
300
1:100
140
1.0
141
100.0
290
     0
  0
SCALE
  5
54
102
{ACAD_REACTORS
330
47
102
}
330
47
100
AcDbScale
 70
     0
300
2:1
140
2.0
141
1.0
290
     0
  0
SCALE
  5
55
102
{ACAD_REACTORS
330
47
102
}
330
47
100
AcDbScale
 70
     0
300
4:1
140
4.0
141
1.0
290
     0
  0
SCALE
  5
56
102
{ACAD_REACTORS
330
47
102
}
330
47
100
AcDbScale
 70
     0
300
8:1
140
8.0
141
1.0
290
     0
  0
SCALE
  5
57
102
{ACAD_REACTORS
330
47
102
}
330
47
100
AcDbScale
 70
     0
300
10:1
140
10.0
141
1.0
290
     0
  0
SCALE
  5
58
102
{ACAD_REACTORS
330
47
102
}
330
47
100
AcDbScale
 70
     0
300
100:1
140
100.0
141
1.0
290
     0
  0
SCALE
  5
59
102
{ACAD_REACTORS
330
47
102
}
330
47
100
AcDbScale
 70
     0
300
1/128" = 1'-0"
140
0.0078125
141
12.0
290
     0
  0
SCALE
  5
5A
102
{ACAD_REACTORS
330
47
102
}
330
47
100
AcDbScale
 70
     0
300
1/64" = 1'-0"
140
0.015625
141
12.0
290
     0
  0
SCALE
  5
5B
102
{ACAD_REACTORS
330
47
102
}
330
47
100
AcDbScale
 70
     0
300
1/32" = 1'-0"
140
0.03125
141
12.0
290
     0
  0
SCALE
  5
5C
102
{ACAD_REACTORS
330
47
102
}
330
47
100
AcDbScale
 70
     0
300
1/16" = 1'-0"
140
0.0625
141
12.0
290
     0
  0
SCALE
  5
5D
102
{ACAD_REACTORS
330
47
102
}
330
47
100
AcDbScale
 70
     0
300
3/32" = 1'-0"
140
0.09375
141
12.0
290
     0
  0
SCALE
  5
5E
102
{ACAD_REACTORS
330
47
102
}
330
47
100
AcDbScale
 70
     0
300
1/8" = 1'-0"
140
0.125
141
12.0
290
     0
  0
SCALE
  5
5F
102
{ACAD_REACTORS
330
47
102
}
330
47
100
AcDbScale
 70
     0
300
3/16" = 1'-0"
140
0.1875
141
12.0
290
     0
  0
SCALE
  5
60
102
{ACAD_REACTORS
330
47
102
}
330
47
100
AcDbScale
 70
     0
300
1/4" = 1'-0"
140
0.25
141
12.0
290
     0
  0
SCALE
  5
61
102
{ACAD_REACTORS
330
47
102
}
330
47
100
AcDbScale
 70
     0
300
3/8" = 1'-0"
140
0.375
141
12.0
290
     0
  0
SCALE
  5
62
102
{ACAD_REACTORS
330
47
102
}
330
47
100
AcDbScale
 70
     0
300
1/2" = 1'-0"
140
0.5
141
12.0
290
     0
  0
SCALE
  5
63
102
{ACAD_REACTORS
330
47
102
}
330
47
100
AcDbScale
 70
     0
300
3/4" = 1'-0"
140
0.75
141
12.0
290
     0
  0
SCALE
  5
64
102
{ACAD_REACTORS
330
47
102
}
330
47
100
AcDbScale
 70
     0
300
1" = 1'-0"
140
1.0
141
12.0
290
     0
  0
SCALE
  5
65
102
{ACAD_REACTORS
330
47
102
}
330
47
100
AcDbScale
 70
     0
300
1-1/2" = 1'-0"
140
1.5
141
12.0
290
     0
  0
SCALE
  5
66
102
{ACAD_REACTORS
330
47
102
}
330
47
100
AcDbScale
 70
     0
300
3" = 1'-0"
140
3.0
141
12.0
290
     0
  0
SCALE
  5
67
102
{ACAD_REACTORS
330
47
102
}
330
47
100
AcDbScale
 70
     0
300
6" = 1'-0"
140
6.0
141
12.0
290
     0
  0
SCALE
  5
68
102
{ACAD_REACTORS
330
47
102
}
330
47
100
AcDbScale
 70
     0
300
1'-0" = 1'-0"
140
12.0
141
12.0
290
     0
  0
TABLESTYLE
  5
6A
102
{ACAD_REACTORS
330
69
102
}
102
{ACAD_XDICTIONARY
360
180
102
}
330
69
100
AcDbTableStyle
  3
Standard
 70
     0
 71
     0
 40
0.06
 41
0.06
280
     0
281
     0
  7
Standard
140
4.5
170
     2
 62
     0
 63
   257
283
     0
 90
        4
 91
        0
  1

274
    -2
284
     1
 64
     0
275
    -2
285
     1
 65
     0
276
    -2
286
     1
 66
     0
277
    -2
287
     1
 67
     0
278
    -2
288
     1
 68
     0
279
    -2
289
     1
 69
     0
  7
Standard
140
6.0
170
     5
 62
     0
 63
   257
283
     0
 90
        4
 91
        0
  1

274
    -2
284
     1
 64
     0
275
    -2
285
     1
 65
     0
276
    -2
286
     1
 66
     0
277
    -2
287
     1
 67
     0
278
    -2
288
     1
 68
     0
279
    -2
289
     1
 69
     0
  7
Standard
140
4.5
170
     5
 62
     0
 63
   257
283
     0
 90
        4
 91
        0
  1

274
    -2
284
     1
 64
     0
275
    -2
285
     1
 65
     0
276
    -2
286
     1
 66
     0
277
    -2
287
     1
 67
     0
278
    -2
288
     1
 68
     0
279
    -2
289
     1
 69
     0
  0
VISUALSTYLE
  5
2F
102
{ACAD_REACTORS
330
2A
102
}
330
2A
100
AcDbVisualStyle
  2
2dWireframe
 70
     4
177
     3
291
     0
 70
    58
 90
        0
176
     1
 90
        2
176
     1
 90
        0
176
     1
 90
        0
176
     1
 40
0.6
176
     1
 40
30.0
176
     1
 62
     7
420
 16777215
176
     1
 90
        1
176
     1
 90
        4
176
     1
 62
     7
176
     1
 62
   257
176
     1
 90
        1
176
     1
 90
        1
176
     1
 40
1.0
176
     1
 90
        0
176
     1
 62
   257
176
     1
 40
1.0
176
     1
 90
        1
176
     1
 90
        6
176
     1
 90
        2
176
     1
 62
     7
176
     1
 90
        5
176
     1
 90
        0
176
     1
 90
        0
176
     1
290
     0
176
     1
 90
        1
176
     1
 40
0.0
176
     1
 90
        0
176
     1
290
     1
176
     1
290
     1
176
     1
290
     0
176
     1
290
     0
176
     1
290
     0
176
     1
290
     0
176
     1
290
     0
176
     1
290
     0
176
     1
290
     0
176
     1
 90
       50
176
     1
 40
0.0
176
     1
 40
1.0
176
     1
 90
        0
176
     1
 62
    18
420
        0
176
     1
 90
       50
176
     1
 90
        3
176
     1
 62
     5
420
      255
176
     1
290
     0
176
     1
 90
       50
176
     1
 90
       50
176
     1
 90
       50
176
     1
290
     0
176
     1
 90
       50
176
     1
 62
   256
176
     0
 40
1.0
176
     0
 90
        2
176
     1
  1
strokes_ogs.tif
176
     1
290
     0
176
     1
 40
1.0
176
     1
 40
1.0
176
     1
  0
VISUALSTYLE
  5
32
102
{ACAD_REACTORS
330
2A
102
}
330
2A
100
AcDbVisualStyle
  2
Basic
 70
     7
177
     3
291
     1
 70
    58
 90
        1
176
     1
 90
        0
176
     1
 90
        1
176
     1
 90
        0
176
     1
 40
0.6
176
     1
 40
30.0
176
     1
 62
     7
420
 16777215
176
     1
 90
        0
176
     1
 90
        4
176
     1
 62
     7
176
     1
 62
   257
176
     1
 90
        1
176
     1
 90
        1
176
     1
 40
1.0
176
     1
 90
        8
176
     1
 62
     7
176
     1
 40
1.0
176
     1
 90
        1
176
     1
 90
        6
176
     1
 90
        2
176
     1
 62
     7
176
     1
 90
        5
176
     1
 90
        0
176
     1
 90
        0
176
     1
290
     0
176
     1
 90
        1
176
     1
 40
0.0
176
     1
 90
        0
176
     1
290
     0
176
     1
290
     1
176
     1
290
     1
176
     1
290
     0
176
     1
290
     0
176
     1
290
     0
176
     1
290
     0
176
     1
290
     0
176
     1
290
     0
176
     1
 90
       50
176
     1
 40
0.0
176
     1
 40
1.0
176
     1
 90
        0
176
     1
 62
    18
420
        0
176
     1
 90
       50
176
     1
 90
        3
176
     1
 62
     5
420
      255
176
     1
290
     0
176
     1
 90
       50
176
     1
 90
       50
176
     1
 90
       50
176
     1
290
     0
176
     1
 90
       50
176
     1
 62
   256
176
     0
 40
1.0
176
     0
 90
        2
176
     1
  1
strokes_ogs.tif
176
     1
290
     0
176
     1
 40
1.0
176
     1
 40
1.0
176
     1
  0
VISUALSTYLE
  5
36
102
{ACAD_REACTORS
330
2A
102
}
330
2A
100
AcDbVisualStyle
  2
Brighten
 70
    12
177
     3
291
     1
 70
    58
 90
        2
176
     1
 90
        2
176
     1
 90
        0
176
     1
 90
        0
176
     1
 40
0.6
176
     1
 40
30.0
176
     1
 62
     7
420
 16777215
176
     1
 90
        1
176
     1
 90
        4
176
     1
 62
     7
176
     1
 62
   257
176
     1
 90
        1
176
     1
 90
        1
176
     1
 40
1.0
176
     1
 90
        8
176
     1
 62
     7
176
     1
 40
1.0
176
     1
 90
        1
176
     1
 90
        6
176
     1
 90
        2
176
     1
 62
     7
176
     1
 90
        5
176
     1
 90
        0
176
     1
 90
        0
176
     1
290
     0
176
     1
 90
        1
176
     1
 40
50.0
176
     1
 90
        0
176
     1
290
     0
176
     1
290
     1
176
     1
290
     1
176
     1
290
     0
176
     1
290
     0
176
     1
290
     0
176
     1
290
     0
176
     1
290
     0
176
     1
290
     0
176
     1
 90
       50
176
     1
 40
0.0
176
     1
 40
1.0
176
     1
 90
        0
176
     1
 62
    18
420
        0
176
     1
 90
       50
176
     1
 90
        3
176
     1
 62
     5
420
      255
176
     1
290
     0
176
     1
 90
       50
176
     1
 90
       50
176
     1
 90
       50
176
     1
290
     0
176
     1
 90
       50
176
     1
 62
   256
176
     0
 40
1.0
176
     0
 90
        2
176
     1
  1
strokes_ogs.tif
176
     1
290
     0
176
     1
 40
1.0
176
     1
 40
1.0
176
     1
  0
VISUALSTYLE
  5
3A
102
{ACAD_REACTORS
330
2A
102
}
330
2A
100
AcDbVisualStyle
  2
ColorChange
 70
    16
177
     3
291
     1
 70
    58
 90
        2
176
     1
 90
        2
176
     1
 90
        3
176
     1
 90
        0
176
     1
 40
0.6
176
     1
 40
30.0
176
     1
 62
     8
420
  8421504
176
     1
 90
        1
176
     1
 90
        4
176
     1
 62
     7
176
     1
 62
   257
176
     1
 90
        1
176
     1
 90
        1
176
     1
 40
1.0
176
     1
 90
        8
176
     1
 62
     8
420
  8421504
176
     1
 40
1.0
176
     1
 90
        1
176
     1
 90
        6
176
     1
 90
        2
176
     1
 62
     7
176
     1
 90
        5
176
     1
 90
        0
176
     1
 90
        0
176
     1
290
     0
176
     1
 90
        1
176
     1
 40
0.0
176
     1
 90
        0
176
     1
290
     0
176
     1
290
     1
176
     1
290
     1
176
     1
290
     0
176
     1
290
     0
176
     1
290
     0
176
     1
290
     0
176
     1
290
     0
176
     1
290
     0
176
     1
 90
       50
176
     1
 40
0.0
176
     1
 40
1.0
176
     1
 90
        0
176
     1
 62
    18
420
        0
176
     1
 90
       50
176
     1
 90
        3
176
     1
 62
     5
420
      255
176
     1
290
     0
176
     1
 90
       50
176
     1
 90
       50
176
     1
 90
       50
176
     1
290
     0
176
     1
 90
       50
176
     1
 62
   256
176
     0
 40
1.0
176
     0
 90
        2
176
     1
  1
strokes_ogs.tif
176
     1
290
     0
176
     1
 40
1.0
176
     1
 40
1.0
176
     1
  0
VISUALSTYLE
  5
34
102
{ACAD_REACTORS
330
2A
102
}
330
2A
100
AcDbVisualStyle
  2
Conceptual
 70
     9
177
     3
291
     0
 70
    58
 90
        3
176
     1
 90
        2
176
     1
 90
        0
176
     1
 90
        0
176
     1
 40
0.6
176
     1
 40
30.0
176
     1
 62
     7
420
 16777215
176
     1
 90
        2
176
     1
 90
        2
176
     1
 62
     7
176
     1
 62
   257
176
     1
 90
        1
176
     1
 90
        1
176
     1
 40
179.0
176
     1
 90
        8
176
     1
 62
     7
176
     1
 40
1.0
176
     1
 90
        1
176
     1
 90
        6
176
     1
 90
        2
176
     1
 62
     7
176
     1
 90
        3
176
     1
 90
        0
176
     1
 90
        0
176
     1
290
     0
176
     1
 90
        1
176
     1
 40
0.0
176
     1
 90
        0
176
     1
290
     0
176
     1
290
     1
176
     1
290
     1
176
     1
290
     0
176
     1
290
     0
176
     1
290
     0
176
     1
290
     0
176
     1
290
     0
176
     1
290
     0
176
     1
 90
       50
176
     1
 40
0.0
176
     1
 40
1.0
176
     1
 90
        0
176
     1
 62
    18
420
        0
176
     1
 90
       50
176
     1
 90
        3
176
     1
 62
     5
420
      255
176
     1
290
     0
176
     1
 90
       50
176
     1
 90
       50
176
     1
 90
       50
176
     1
290
     0
176
     1
 90
       50
176
     1
 62
   256
176
     0
 40
1.0
176
     0
 90
        2
176
     1
  1
strokes_ogs.tif
176
     1
290
     0
176
     1
 40
1.0
176
     1
 40
1.0
176
     1
  0
VISUALSTYLE
  5
35
102
{ACAD_REACTORS
330
2A
102
}
330
2A
100
AcDbVisualStyle
  2
Dim
 70
    11
177
     3
291
     1
 70
    58
 90
        2
176
     1
 90
        2
176
     1
 90
        0
176
     1
 90
        0
176
     1
 40
0.6
176
     1
 40
30.0
176
     1
 62
     7
420
 16777215
176
     1
 90
        1
176
     1
 90
        4
176
     1
 62
     7
176
     1
 62
   257
176
     1
 90
        1
176
     1
 90
        1
176
     1
 40
1.0
176
     1
 90
        8
176
     1
 62
     7
176
     1
 40
1.0
176
     1
 90
        1
176
     1
 90
        6
176
     1
 90
        2
176
     1
 62
     7
176
     1
 90
        5
176
     1
 90
        0
176
     1
 90
        0
176
     1
290
     0
176
     1
 90
        1
176
     1
 40
-50.0
176
     1
 90
        0
176
     1
290
     0
176
     1
290
     1
176
     1
290
     1
176
     1
290
     0
176
     1
290
     0
176
     1
290
     0
176
     1
290
     0
176
     1
290
     0
176
     1
290
     0
176
     1
 90
       50
176
     1
 40
0.0
176
     1
 40
1.0
176
     1
 90
        0
176
     1
 62
    18
420
        0
176
     1
 90
       50
176
     1
 90
        3
176
     1
 62
     5
420
      255
176
     1
290
     0
176
     1
 90
       50
176
     1
 90
       50
176
     1
 90
       50
176
     1
290
     0
176
     1
 90
       50
176
     1
 62
   256
176
     0
 40
1.0
176
     0
 90
        2
176
     1
  1
strokes_ogs.tif
176
     1
290
     0
176
     1
 40
1.0
176
     1
 40
1.0
176
     1
  0
VISUALSTYLE
  5
3D
102
{ACAD_REACTORS
330
2A
102
}
330
2A
100
AcDbVisualStyle
  2
EdgeColorOff
 70
    22
177
     3
291
     1
 70
    58
 90
        2
176
     0
 90
        2
176
     0
 90
        0
176
     0
 90
        0
176
     0
 40
0.6
176
     0
 40
30.0
176
     0
 62
     7
420
 16777215
176
     0
 90
        1
176
     0
 90
        4
176
     0
 62
     7
176
     0
 62
   257
176
     0
 90
        1
176
     0
 90
        1
176
     0
 40
1.0
176
     0
 90
        8
176
     2
 62
     7
176
     0
 40
1.0
176
     0
 90
        1
176
     0
 90
        6
176
     0
 90
        2
176
     0
 62
     7
176
     0
 90
        5
176
     0
 90
        0
176
     0
 90
        0
176
     0
290
     0
176
     0
 90
        1
176
     0
 40
0.0
176
     0
 90
        0
176
     0
290
     0
176
     0
290
     1
176
     0
290
     1
176
     0
290
     0
176
     0
290
     0
176
     0
290
     0
176
     0
290
     0
176
     0
290
     0
176
     0
290
     0
176
     0
 90
       50
176
     0
 40
0.0
176
     0
 40
1.0
176
     0
 90
        0
176
     0
 62
    18
420
        0
176
     0
 90
       50
176
     0
 90
        3
176
     0
 62
     5
420
      255
176
     0
290
     0
176
     0
 90
       50
176
     0
 90
       50
176
     0
 90
       50
176
     0
290
     0
176
     0
 90
       50
176
     0
 62
   256
176
     0
 40
1.0
176
     0
 90
        2
176
     0
  1
strokes_ogs.tif
176
     0
290
     0
176
     0
 40
1.0
176
     0
 40
1.0
176
     0
  0
VISUALSTYLE
  5
39
102
{ACAD_REACTORS
330
2A
102
}
330
2A
100
AcDbVisualStyle
  2
Facepattern
 70
    15
177
     3
291
     1
 70
    58
 90
        2
176
     1
 90
        2
176
     1
 90
        0
176
     1
 90
        0
176
     1
 40
0.6
176
     1
 40
30.0
176
     1
 62
     7
420
 16777215
176
     1
 90
        1
176
     1
 90
        4
176
     1
 62
     7
176
     1
 62
   257
176
     1
 90
        1
176
     1
 90
        1
176
     1
 40
1.0
176
     1
 90
        8
176
     1
 62
     7
176
     1
 40
1.0
176
     1
 90
        1
176
     1
 90
        6
176
     1
 90
        2
176
     1
 62
     7
176
     1
 90
        5
176
     1
 90
        0
176
     1
 90
        0
176
     1
290
     0
176
     1
 90
        1
176
     1
 40
0.0
176
     1
 90
        0
176
     1
290
     0
176
     1
290
     1
176
     1
290
     1
176
     1
290
     0
176
     1
290
     0
176
     1
290
     0
176
     1
290
     0
176
     1
290
     0
176
     1
290
     0
176
     1
 90
       50
176
     1
 40
0.0
176
     1
 40
1.0
176
     1
 90
        0
176
     1
 62
    18
420
        0
176
     1
 90
       50
176
     1
 90
        3
176
     1
 62
     5
420
      255
176
     1
290
     0
176
     1
 90
       50
176
     1
 90
       50
176
     1
 90
       50
176
     1
290
     0
176
     1
 90
       50
176
     1
 62
   256
176
     0
 40
1.0
176
     0
 90
        2
176
     1
  1
strokes_ogs.tif
176
     1
290
     0
176
     1
 40
1.0
176
     1
 40
1.0
176
     1
  0
VISUALSTYLE
  5
2B
102
{ACAD_REACTORS
330
2A
102
}
330
2A
100
AcDbVisualStyle
  2
Flat
 70
     0
177
     3
291
     1
 70
    58
 90
        2
176
     1
 90
        1
176
     1
 90
        1
176
     1
 90
        2
176
     1
 40
0.6
176
     1
 40
30.0
176
     1
 62
     7
420
 16777215
176
     1
 90
        0
176
     1
 90
        0
176
     1
 62
     7
176
     1
 62
   257
176
     1
 90
        1
176
     1
 90
        1
176
     1
 40
1.0
176
     1
 90
        8
176
     1
 62
     7
176
     1
 40
1.0
176
     1
 90
        1
176
     1
 90
        6
176
     1
 90
        2
176
     1
 62
     7
176
     1
 90
        5
176
     1
 90
        0
176
     1
 90
        0
176
     1
290
     0
176
     1
 90
       13
176
     1
 40
0.0
176
     1
 90
        0
176
     1
290
     0
176
     1
290
     1
176
     1
290
     1
176
     1
290
     0
176
     1
290
     0
176
     1
290
     0
176
     1
290
     0
176
     1
290
     0
176
     1
290
     0
176
     1
 90
       50
176
     1
 40
0.0
176
     1
 40
1.0
176
     1
 90
        0
176
     1
 62
    18
420
        0
176
     1
 90
       50
176
     1
 90
        3
176
     1
 62
     5
420
      255
176
     1
290
     0
176
     1
 90
       50
176
     1
 90
       50
176
     1
 90
       50
176
     1
290
     0
176
     1
 90
       50
176
     1
 62
   256
176
     0
 40
1.0
176
     0
 90
        2
176
     1
  1
strokes_ogs.tif
176
     1
290
     0
176
     1
 40
1.0
176
     1
 40
1.0
176
     1
  0
VISUALSTYLE
  5
2C
102
{ACAD_REACTORS
330
2A
102
}
330
2A
100
AcDbVisualStyle
  2
FlatWithEdges
 70
     1
177
     3
291
     1
 70
    58
 90
        2
176
     1
 90
        1
176
     1
 90
        1
176
     1
 90
        2
176
     1
 40
0.6
176
     1
 40
30.0
176
     1
 62
     7
420
 16777215
176
     1
 90
        1
176
     1
 90
        0
176
     1
 62
     7
176
     1
 62
   257
176
     1
 90
        1
176
     1
 90
        1
176
     1
 40
1.0
176
     1
 90
        0
176
     1
 62
   257
176
     1
 40
1.0
176
     1
 90
        1
176
     1
 90
        6
176
     1
 90
        2
176
     1
 62
     7
176
     1
 90
        5
176
     1
 90
        0
176
     1
 90
        0
176
     1
290
     0
176
     1
 90
       13
176
     1
 40
0.0
176
     1
 90
        0
176
     1
290
     0
176
     1
290
     1
176
     1
290
     1
176
     1
290
     0
176
     1
290
     0
176
     1
290
     0
176
     1
290
     0
176
     1
290
     0
176
     1
290
     0
176
     1
 90
       50
176
     1
 40
0.0
176
     1
 40
1.0
176
     1
 90
        0
176
     1
 62
    18
420
        0
176
     1
 90
       50
176
     1
 90
        3
176
     1
 62
     5
420
      255
176
     1
290
     0
176
     1
 90
       50
176
     1
 90
       50
176
     1
 90
       50
176
     1
290
     0
176
     1
 90
       50
176
     1
 62
   256
176
     0
 40
1.0
176
     0
 90
        2
176
     1
  1
strokes_ogs.tif
176
     1
290
     0
176
     1
 40
1.0
176
     1
 40
1.0
176
     1
  0
VISUALSTYLE
  5
2D
102
{ACAD_REACTORS
330
2A
102
}
330
2A
100
AcDbVisualStyle
  2
Gouraud
 70
     2
177
     3
291
     1
 70
    58
 90
        2
176
     1
 90
        2
176
     1
 90
        1
176
     1
 90
        2
176
     1
 40
0.6
176
     1
 40
30.0
176
     1
 62
     7
420
 16777215
176
     1
 90
        0
176
     1
 90
        0
176
     1
 62
     7
176
     1
 62
   257
176
     1
 90
        1
176
     1
 90
        1
176
     1
 40
1.0
176
     1
 90
        0
176
     1
 62
     7
176
     1
 40
1.0
176
     1
 90
        1
176
     1
 90
        6
176
     1
 90
        2
176
     1
 62
     7
176
     1
 90
        5
176
     1
 90
        0
176
     1
 90
        0
176
     1
290
     0
176
     1
 90
       13
176
     1
 40
0.0
176
     1
 90
        0
176
     1
290
     0
176
     1
290
     1
176
     1
290
     1
176
     1
290
     0
176
     1
290
     0
176
     1
290
     0
176
     1
290
     0
176
     1
290
     0
176
     1
290
     0
176
     1
 90
       50
176
     1
 40
0.0
176
     1
 40
1.0
176
     1
 90
        0
176
     1
 62
    18
420
        0
176
     1
 90
       50
176
     1
 90
        3
176
     1
 62
     5
420
      255
176
     1
290
     0
176
     1
 90
       50
176
     1
 90
       50
176
     1
 90
       50
176
     1
290
     0
176
     1
 90
       50
176
     1
 62
   256
176
     0
 40
1.0
176
     0
 90
        2
176
     1
  1
strokes_ogs.tif
176
     1
290
     0
176
     1
 40
1.0
176
     1
 40
1.0
176
     1
  0
VISUALSTYLE
  5
2E
102
{ACAD_REACTORS
330
2A
102
}
330
2A
100
AcDbVisualStyle
  2
GouraudWithEdges
 70
     3
177
     3
291
     1
 70
    58
 90
        2
176
     1
 90
        2
176
     1
 90
        1
176
     1
 90
        2
176
     1
 40
0.6
176
     1
 40
30.0
176
     1
 62
     7
420
 16777215
176
     1
 90
        1
176
     1
 90
        0
176
     1
 62
     7
176
     1
 62
   257
176
     1
 90
        1
176
     1
 90
        1
176
     1
 40
1.0
176
     1
 90
        0
176
     1
 62
   257
176
     1
 40
1.0
176
     1
 90
        1
176
     1
 90
        6
176
     1
 90
        2
176
     1
 62
     7
176
     1
 90
        5
176
     1
 90
        0
176
     1
 90
        0
176
     1
290
     0
176
     1
 90
       13
176
     1
 40
0.0
176
     1
 90
        0
176
     1
290
     0
176
     1
290
     1
176
     1
290
     1
176
     1
290
     0
176
     1
290
     0
176
     1
290
     0
176
     1
290
     0
176
     1
290
     0
176
     1
290
     0
176
     1
 90
       50
176
     1
 40
0.0
176
     1
 40
1.0
176
     1
 90
        0
176
     1
 62
    18
420
        0
176
     1
 90
       50
176
     1
 90
        3
176
     1
 62
     5
420
      255
176
     1
290
     0
176
     1
 90
       50
176
     1
 90
       50
176
     1
 90
       50
176
     1
290
     0
176
     1
 90
       50
176
     1
 62
   256
176
     0
 40
1.0
176
     0
 90
        2
176
     1
  1
strokes_ogs.tif
176
     1
290
     0
176
     1
 40
1.0
176
     1
 40
1.0
176
     1
  0
VISUALSTYLE
  5
31
102
{ACAD_REACTORS
330
2A
102
}
330
2A
100
AcDbVisualStyle
  2
Hidden
 70
     6
177
     3
291
     0
 70
    58
 90
        1
176
     1
 90
        2
176
     1
 90
        2
176
     1
 90
        0
176
     1
 40
0.6
176
     1
 40
30.0
176
     1
 62
     7
420
 16777215
176
     1
 90
        2
176
     1
 90
        2
176
     1
 62
     7
176
     1
 62
   257
176
     1
 90
        2
176
     1
 90
        1
176
     1
 40
40.0
176
     1
 90
        0
176
     1
 62
   257
176
     1
 40
1.0
176
     1
 90
        1
176
     1
 90
        6
176
     1
 90
        2
176
     1
 62
     7
176
     1
 90
        3
176
     1
 90
        0
176
     1
 90
        0
176
     1
290
     0
176
     1
 90
        1
176
     1
 40
0.0
176
     1
 90
        0
176
     1
290
     0
176
     1
290
     1
176
     1
290
     1
176
     1
290
     0
176
     1
290
     0
176
     1
290
     0
176
     1
290
     0
176
     1
290
     0
176
     1
290
     0
176
     1
 90
       50
176
     1
 40
0.0
176
     1
 40
1.0
176
     1
 90
        0
176
     1
 62
    18
420
        0
176
     1
 90
       50
176
     1
 90
        3
176
     1
 62
     5
420
      255
176
     1
290
     0
176
     1
 90
       50
176
     1
 90
       50
176
     1
 90
       50
176
     1
290
     0
176
     1
 90
       50
176
     1
 62
   256
176
     0
 40
1.0
176
     0
 90
        2
176
     1
  1
strokes_ogs.tif
176
     1
290
     0
176
     1
 40
1.0
176
     1
 40
1.0
176
     1
  0
VISUALSTYLE
  5
3B
102
{ACAD_REACTORS
330
2A
102
}
330
2A
100
AcDbVisualStyle
  2
JitterOff
 70
    20
177
     3
291
     1
 70
    58
 90
        2
176
     0
 90
        2
176
     0
 90
        0
176
     0
 90
        0
176
     0
 40
0.6
176
     0
 40
30.0
176
     0
 62
     7
420
 16777215
176
     0
 90
        1
176
     0
 90
        4
176
     0
 62
     7
176
     0
 62
   257
176
     0
 90
        1
176
     0
 90
        1
176
     0
 40
1.0
176
     0
 90
       10
176
     2
 62
     7
176
     0
 40
1.0
176
     0
 90
        1
176
     0
 90
        6
176
     0
 90
        2
176
     0
 62
     7
176
     0
 90
        5
176
     0
 90
        0
176
     0
 90
        0
176
     0
290
     0
176
     0
 90
        1
176
     0
 40
0.0
176
     0
 90
        0
176
     0
290
     0
176
     0
290
     1
176
     0
290
     1
176
     0
290
     0
176
     0
290
     0
176
     0
290
     0
176
     0
290
     0
176
     0
290
     0
176
     0
290
     0
176
     0
 90
       50
176
     0
 40
0.0
176
     0
 40
1.0
176
     0
 90
        0
176
     0
 62
    18
420
        0
176
     0
 90
       50
176
     0
 90
        3
176
     0
 62
     5
420
      255
176
     0
290
     0
176
     0
 90
       50
176
     0
 90
       50
176
     0
 90
       50
176
     0
290
     0
176
     0
 90
       50
176
     0
 62
   256
176
     0
 40
1.0
176
     0
 90
        2
176
     0
  1
strokes_ogs.tif
176
     0
290
     0
176
     0
 40
1.0
176
     0
 40
1.0
176
     0
  0
VISUALSTYLE
  5
38
102
{ACAD_REACTORS
330
2A
102
}
330
2A
100
AcDbVisualStyle
  2
Linepattern
 70
    14
177
     3
291
     1
 70
    58
 90
        2
176
     1
 90
        2
176
     1
 90
        0
176
     1
 90
        0
176
     1
 40
0.6
176
     1
 40
30.0
176
     1
 62
     7
420
 16777215
176
     1
 90
        1
176
     1
 90
        4
176
     1
 62
     7
176
     1
 62
   257
176
     1
 90
        7
176
     1
 90
        7
176
     1
 40
1.0
176
     1
 90
        8
176
     1
 62
     7
176
     1
 40
1.0
176
     1
 90
        1
176
     1
 90
        6
176
     1
 90
        2
176
     1
 62
     7
176
     1
 90
        5
176
     1
 90
        0
176
     1
 90
        0
176
     1
290
     0
176
     1
 90
        1
176
     1
 40
0.0
176
     1
 90
        0
176
     1
290
     0
176
     1
290
     1
176
     1
290
     1
176
     1
290
     0
176
     1
290
     0
176
     1
290
     0
176
     1
290
     0
176
     1
290
     0
176
     1
290
     0
176
     1
 90
       50
176
     1
 40
0.0
176
     1
 40
1.0
176
     1
 90
        0
176
     1
 62
    18
420
        0
176
     1
 90
       50
176
     1
 90
        3
176
     1
 62
     5
420
      255
176
     1
290
     0
176
     1
 90
       50
176
     1
 90
       50
176
     1
 90
       50
176
     1
290
     0
176
     1
 90
       50
176
     1
 62
   256
176
     0
 40
1.0
176
     0
 90
        2
176
     1
  1
strokes_ogs.tif
176
     1
290
     0
176
     1
 40
1.0
176
     1
 40
1.0
176
     1
  0
VISUALSTYLE
  5
3C
102
{ACAD_REACTORS
330
2A
102
}
330
2A
100
AcDbVisualStyle
  2
OverhangOff
 70
    21
177
     3
291
     1
 70
    58
 90
        2
176
     0
 90
        2
176
     0
 90
        0
176
     0
 90
        0
176
     0
 40
0.6
176
     0
 40
30.0
176
     0
 62
     7
420
 16777215
176
     0
 90
        1
176
     0
 90
        4
176
     0
 62
     7
176
     0
 62
   257
176
     0
 90
        1
176
     0
 90
        1
176
     0
 40
1.0
176
     0
 90
        9
176
     2
 62
     7
176
     0
 40
1.0
176
     0
 90
        1
176
     0
 90
        6
176
     0
 90
        2
176
     0
 62
     7
176
     0
 90
        5
176
     0
 90
        0
176
     0
 90
        0
176
     0
290
     0
176
     0
 90
        1
176
     0
 40
0.0
176
     0
 90
        0
176
     0
290
     0
176
     0
290
     1
176
     0
290
     1
176
     0
290
     0
176
     0
290
     0
176
     0
290
     0
176
     0
290
     0
176
     0
290
     0
176
     0
290
     0
176
     0
 90
       50
176
     0
 40
0.0
176
     0
 40
1.0
176
     0
 90
        0
176
     0
 62
    18
420
        0
176
     0
 90
       50
176
     0
 90
        3
176
     0
 62
     5
420
      255
176
     0
290
     0
176
     0
 90
       50
176
     0
 90
       50
176
     0
 90
       50
176
     0
290
     0
176
     0
 90
       50
176
     0
 62
   256
176
     0
 40
1.0
176
     0
 90
        2
176
     0
  1
strokes_ogs.tif
176
     0
290
     0
176
     0
 40
1.0
176
     0
 40
1.0
176
     0
  0
VISUALSTYLE
  5
33
102
{ACAD_REACTORS
330
2A
102
}
330
2A
100
AcDbVisualStyle
  2
Realistic
 70
     8
177
     3
291
     0
 70
    58
 90
        2
176
     1
 90
        3
176
     1
 90
        0
176
     1
 90
        2
176
     1
 40
0.6
176
     1
 40
30.0
176
     1
 62
     7
420
 16777215
176
     1
 90
        0
176
     1
 90
        0
176
     1
 62
     7
176
     1
 62
   257
176
     1
 90
        1
176
     1
 90
        1
176
     1
 40
1.0
176
     1
 90
        8
176
     1
 62
   257
176
     1
 40
1.0
176
     1
 90
        1
176
     1
 90
        6
176
     1
 90
        2
176
     1
 62
     7
176
     1
 90
        3
176
     1
 90
        0
176
     1
 90
        0
176
     1
290
     0
176
     1
 90
       13
176
     1
 40
0.0
176
     1
 90
        0
176
     1
290
     0
176
     1
290
     1
176
     1
290
     1
176
     1
290
     0
176
     1
290
     0
176
     1
290
     0
176
     1
290
     0
176
     1
290
     0
176
     1
290
     0
176
     1
 90
       50
176
     1
 40
0.0
176
     1
 40
1.0
176
     1
 90
        0
176
     1
 62
    18
420
        0
176
     1
 90
       50
176
     1
 90
        3
176
     1
 62
     5
420
      255
176
     1
290
     0
176
     1
 90
       50
176
     1
 90
       50
176
     1
 90
       50
176
     1
290
     0
176
     1
 90
       50
176
     1
 62
   256
176
     0
 40
1.0
176
     0
 90
        2
176
     1
  1
strokes_ogs.tif
176
     1
290
     0
176
     1
 40
1.0
176
     1
 40
1.0
176
     1
  0
VISUALSTYLE
  5
42
102
{ACAD_REACTORS
330
2A
102
}
330
2A
100
AcDbVisualStyle
  2
Shaded
 70
    27
177
     3
291
     0
 70
    58
 90
        2
176
     1
 90
        2
176
     1
 90
        1
176
     1
 90
        2
176
     1
 40
0.6
176
     1
 40
30.0
176
     1
 62
     7
420
 16777215
176
     1
 90
        0
176
     1
 90
        4
176
     1
 62
     7
176
     1
 62
   257
176
     1
 90
        1
176
     1
 90
        1
176
     1
 40
1.0
176
     1
 90
        8
176
     1
 62
   257
176
     1
 40
1.0
176
     1
 90
        1
176
     1
 90
        6
176
     1
 90
        2
176
     1
 62
     8
420
  7895160
176
     1
 90
        3
176
     1
 90
        0
176
     1
 90
        0
176
     1
290
     0
176
     1
 90
        5
176
     1
 40
0.0
176
     1
 90
        0
176
     1
290
     0
176
     1
290
     1
176
     1
290
     1
176
     1
290
     0
176
     1
290
     0
176
     1
290
     0
176
     1
290
     0
176
     1
290
     0
176
     1
290
     0
176
     1
 90
       50
176
     1
 40
0.0
176
     1
 40
1.0
176
     1
 90
        0
176
     1
 62
    18
420
        0
176
     1
 90
       50
176
     1
 90
        3
176
     1
 62
     5
420
      255
176
     1
290
     0
176
     1
 90
       50
176
     1
 90
       50
176
     1
 90
       50
176
     1
290
     0
176
     1
 90
       50
176
     1
 62
   256
176
     0
 40
1.0
176
     0
 90
        2
176
     1
  1
strokes_ogs.tif
176
     1
290
     0
176
     1
 40
1.0
176
     1
 40
1.0
176
     1
  0
VISUALSTYLE
  5
41
102
{ACAD_REACTORS
330
2A
102
}
330
2A
100
AcDbVisualStyle
  2
Shaded with edges
 70
    26
177
     3
291
     0
 70
    58
 90
        2
176
     1
 90
        2
176
     1
 90
        1
176
     1
 90
        2
176
     1
 40
0.6
176
     1
 40
30.0
176
     1
 62
     7
420
 16777215
176
     1
 90
        1
176
     1
 90
       10
176
     1
 62
     7
176
     1
 62
   257
176
     1
 90
        2
176
     1
 90
        1
176
     1
 40
1.0
176
     1
 90
        8
176
     1
 62
   257
176
     1
 40
1.0
176
     1
 90
        1
176
     1
 90
        6
176
     1
 90
        2
176
     1
 62
     7
176
     1
 90
        3
176
     1
 90
        0
176
     1
 90
        0
176
     1
290
     0
176
     1
 90
        5
176
     1
 40
0.0
176
     1
 90
        0
176
     1
290
     0
176
     1
290
     1
176
     1
290
     1
176
     1
290
     0
176
     1
290
     0
176
     1
290
     0
176
     1
290
     0
176
     1
290
     0
176
     1
290
     0
176
     1
 90
       50
176
     1
 40
0.0
176
     1
 40
1.0
176
     1
 90
        0
176
     1
 62
    18
420
        0
176
     1
 90
       50
176
     1
 90
        3
176
     1
 62
     5
420
      255
176
     1
290
     0
176
     1
 90
       50
176
     1
 90
       50
176
     1
 90
       50
176
     1
290
     0
176
     1
 90
       50
176
     1
 62
   256
176
     0
 40
1.0
176
     0
 90
        2
176
     1
  1
strokes_ogs.tif
176
     1
290
     0
176
     1
 40
1.0
176
     1
 40
1.0
176
     1
  0
VISUALSTYLE
  5
3E
102
{ACAD_REACTORS
330
2A
102
}
330
2A
100
AcDbVisualStyle
  2
Shades of Gray
 70
    23
177
     3
291
     0
 70
    58
 90
        2
176
     1
 90
        2
176
     1
 90
        3
176
     1
 90
        0
176
     1
 40
0.6
176
     1
 40
30.0
176
     1
 62
     7
420
 16777215
176
     1
 90
        2
176
     1
 90
        2
176
     1
 62
     7
176
     1
 62
     7
176
     1
 90
        1
176
     1
 90
        1
176
     1
 40
40.0
176
     1
 90
        8
176
     1
 62
     7
176
     1
 40
1.0
176
     1
 90
        1
176
     1
 90
        6
176
     1
 90
        2
176
     1
 62
     7
176
     1
 90
        3
176
     1
 90
        0
176
     1
 90
        0
176
     1
290
     0
176
     1
 90
        1
176
     1
 40
0.0
176
     1
 90
        0
176
     1
290
     0
176
     1
290
     1
176
     1
290
     1
176
     1
290
     0
176
     1
290
     0
176
     1
290
     0
176
     1
290
     0
176
     1
290
     0
176
     1
290
     0
176
     1
 90
       50
176
     1
 40
0.0
176
     1
 40
1.0
176
     1
 90
        0
176
     1
 62
    18
420
        0
176
     1
 90
       50
176
     1
 90
        3
176
     1
 62
     5
420
      255
176
     1
290
     0
176
     1
 90
       50
176
     1
 90
       50
176
     1
 90
       50
176
     1
290
     0
176
     1
 90
       50
176
     1
 62
   256
176
     0
 40
1.0
176
     0
 90
        2
176
     1
  1
strokes_ogs.tif
176
     1
290
     0
176
     1
 40
1.0
176
     1
 40
1.0
176
     1
  0
VISUALSTYLE
  5
3F
102
{ACAD_REACTORS
330
2A
102
}
330
2A
100
AcDbVisualStyle
  2
Sketchy
 70
    24
177
     3
291
     0
 70
    58
 90
        1
176
     1
 90
        2
176
     1
 90
        2
176
     1
 90
        0
176
     1
 40
0.6
176
     1
 40
30.0
176
     1
 62
     7
420
 16777215
176
     1
 90
        2
176
     1
 90
        2
176
     1
 62
     7
176
     1
 62
     7
176
     1
 90
        1
176
     1
 90
        1
176
     1
 40
40.0
176
     1
 90
       11
176
     1
 62
     7
176
     1
 40
1.0
176
     1
 90
        1
176
     1
 90
        6
176
     1
 90
        2
176
     1
 62
     7
176
     1
 90
        6
176
     1
 90
        0
176
     1
 90
        0
176
     1
290
     0
176
     1
 90
        1
176
     1
 40
0.0
176
     1
 90
        0
176
     1
290
     0
176
     1
290
     1
176
     1
290
     1
176
     1
290
     0
176
     1
290
     0
176
     1
290
     0
176
     1
290
     0
176
     1
290
     0
176
     1
290
     0
176
     1
 90
       50
176
     1
 40
0.0
176
     1
 40
1.0
176
     1
 90
        0
176
     1
 62
    18
420
        0
176
     1
 90
       50
176
     1
 90
        3
176
     1
 62
     5
420
      255
176
     1
290
     0
176
     1
 90
       50
176
     1
 90
       50
176
     1
 90
       50
176
     1
290
     0
176
     1
 90
       50
176
     1
 62
   256
176
     0
 40
1.0
176
     0
 90
        2
176
     1
  1
strokes_ogs.tif
176
     1
290
     0
176
     1
 40
1.0
176
     1
 40
1.0
176
     1
  0
VISUALSTYLE
  5
37
102
{ACAD_REACTORS
330
2A
102
}
330
2A
100
AcDbVisualStyle
  2
Thicken
 70
    13
177
     3
291
     1
 70
    58
 90
        2
176
     1
 90
        2
176
     1
 90
        0
176
     1
 90
        0
176
     1
 40
0.6
176
     1
 40
30.0
176
     1
 62
     7
420
 16777215
176
     1
 90
        1
176
     1
 90
        4
176
     1
 62
     7
176
     1
 62
   257
176
     1
 90
        1
176
     1
 90
        1
176
     1
 40
1.0
176
     1
 90
       12
176
     1
 62
     7
176
     1
 40
1.0
176
     1
 90
        1
176
     1
 90
        6
176
     1
 90
        2
176
     1
 62
     7
176
     1
 90
        5
176
     1
 90
        0
176
     1
 90
        0
176
     1
290
     0
176
     1
 90
        1
176
     1
 40
0.0
176
     1
 90
        0
176
     1
290
     0
176
     1
290
     1
176
     1
290
     1
176
     1
290
     0
176
     1
290
     0
176
     1
290
     0
176
     1
290
     0
176
     1
290
     0
176
     1
290
     0
176
     1
 90
       50
176
     1
 40
0.0
176
     1
 40
1.0
176
     1
 90
        0
176
     1
 62
    18
420
        0
176
     1
 90
       50
176
     1
 90
        3
176
     1
 62
     5
420
      255
176
     1
290
     0
176
     1
 90
       50
176
     1
 90
       50
176
     1
 90
       50
176
     1
290
     0
176
     1
 90
       50
176
     1
 62
   256
176
     0
 40
1.0
176
     0
 90
        2
176
     1
  1
strokes_ogs.tif
176
     1
290
     0
176
     1
 40
1.0
176
     1
 40
1.0
176
     1
  0
VISUALSTYLE
  5
30
102
{ACAD_REACTORS
330
2A
102
}
330
2A
100
AcDbVisualStyle
  2
Wireframe
 70
     5
177
     3
291
     0
 70
    58
 90
        0
176
     1
 90
        2
176
     1
 90
        0
176
     1
 90
        0
176
     1
 40
0.6
176
     1
 40
30.0
176
     1
 62
     7
420
 16777215
176
     1
 90
        1
176
     1
 90
        4
176
     1
 62
     7
176
     1
 62
   257
176
     1
 90
        1
176
     1
 90
        1
176
     1
 40
1.0
176
     1
 90
        0
176
     1
 62
   257
176
     1
 40
1.0
176
     1
 90
        1
176
     1
 90
        6
176
     1
 90
        2
176
     1
 62
     7
176
     1
 90
        3
176
     1
 90
        0
176
     1
 90
        0
176
     1
290
     0
176
     1
 90
        1
176
     1
 40
0.0
176
     1
 90
        0
176
     1
290
     0
176
     1
290
     1
176
     1
290
     1
176
     1
290
     0
176
     1
290
     0
176
     1
290
     0
176
     1
290
     0
176
     1
290
     0
176
     1
290
     0
176
     1
 90
       50
176
     1
 40
0.0
176
     1
 40
1.0
176
     1
 90
        0
176
     1
 62
    18
420
        0
176
     1
 90
       50
176
     1
 90
        3
176
     1
 62
     5
420
      255
176
     1
290
     0
176
     1
 90
       50
176
     1
 90
       50
176
     1
 90
       50
176
     1
290
     0
176
     1
 90
       50
176
     1
 62
   256
176
     0
 40
1.0
176
     0
 90
        2
176
     1
  1
strokes_ogs.tif
176
     1
290
     0
176
     1
 40
1.0
176
     1
 40
1.0
176
     1
  0
VISUALSTYLE
  5
40
102
{ACAD_REACTORS
330
2A
102
}
330
2A
100
AcDbVisualStyle
  2
X-Ray
 70
    25
177
     3
291
     0
 70
    58
 90
        2
176
     1
 90
        2
176
     1
 90
        1
176
     1
 90
        1
176
     1
 40
0.5
176
     1
 40
30.0
176
     1
 62
     7
420
 16777215
176
     1
 90
        1
176
     1
 90
        0
176
     1
 62
     7
176
     1
 62
   257
176
     1
 90
        1
176
     1
 90
        1
176
     1
 40
1.0
176
     1
 90
        8
176
     1
 62
     7
176
     1
 40
1.0
176
     1
 90
        1
176
     1
 90
        6
176
     1
 90
        2
176
     1
 62
     7
176
     1
 90
        3
176
     1
 90
        0
176
     1
 90
        0
176
     1
290
     0
176
     1
 90
       13
176
     1
 40
0.0
176
     1
 90
        0
176
     1
290
     0
176
     1
290
     1
176
     1
290
     1
176
     1
290
     0
176
     1
290
     0
176
     1
290
     0
176
     1
290
     0
176
     1
290
     0
176
     1
290
     0
176
     1
 90
       50
176
     1
 40
0.0
176
     1
 40
1.0
176
     1
 90
        0
176
     1
 62
    18
420
        0
176
     1
 90
       50
176
     1
 90
        3
176
     1
 62
     5
420
      255
176
     1
290
     0
176
     1
 90
       50
176
     1
 90
       50
176
     1
 90
       50
176
     1
290
     0
176
     1
 90
       50
176
     1
 62
   256
176
     0
 40
1.0
176
     0
 90
        2
176
     1
  1
strokes_ogs.tif
176
     1
290
     0
176
     1
 40
1.0
176
     1
 40
1.0
176
     1
  0
DICTIONARYVAR
  5
17F
102
{ACAD_REACTORS
330
17E
102
}
330
17E
100
DictionaryVariables
280
     0
  1
1:1
  0
DICTIONARYVAR
  5
184
102
{ACAD_REACTORS
330
17E
102
}
330
17E
100
DictionaryVariables
280
     0
  1
Standard
  0
DICTIONARYVAR
  5
183
102
{ACAD_REACTORS
330
17E
102
}
330
17E
100
DictionaryVariables
280
     0
  1
Standard
  0
DICTIONARY
  5
180
330
6A
100
AcDbDictionary
280
     1
281
     1
  3
ACAD_ROUNDTRIP_2008_TABLESTYLE_CELLSTYLEMAP
360
181
  0
CELLSTYLEMAP
  5
181
102
{ACAD_REACTORS
330
180
102
}
330
180
100
AcDbCellStyleMap
 90
        3
300
CELLSTYLE
  1
TABLEFORMAT_BEGIN
 90
        5
170
     1
 91
        0
 92
    32768
 62
   257
 93
        1
300
CONTENTFORMAT
  1
CONTENTFORMAT_BEGIN
 90
        0
 91
        0
 92
        4
 93
        0
300

 40
0.0
140
1.0
 94
        5
 62
     0
340
11
144
6.0
309
CONTENTFORMAT_END
171
     1
301
MARGIN
  1
CELLMARGIN_BEGIN
 40
1.5
 40
1.5
 40
1.5
 40
1.5
 40
1.5
 40
1.5
309
CELLMARGIN_END
 94
        6
 95
        1
302
GRIDFORMAT
  1
GRIDFORMAT_BEGIN
 90
        0
 91
        1
 62
     0
 92
       -2
340
14
 93
        0
 40
0.045
309
GRIDFORMAT_END
 95
        2
302
GRIDFORMAT
  1
GRIDFORMAT_BEGIN
 90
        0
 91
        1
 62
     0
 92
       -2
340
14
 93
        0
 40
0.045
309
GRIDFORMAT_END
 95
        4
302
GRIDFORMAT
  1
GRIDFORMAT_BEGIN
 90
        0
 91
        1
 62
     0
 92
       -2
340
14
 93
        0
 40
0.045
309
GRIDFORMAT_END
 95
        8
302
GRIDFORMAT
  1
GRIDFORMAT_BEGIN
 90
        0
 91
        1
 62
     0
 92
       -2
340
14
 93
        0
 40
0.045
309
GRIDFORMAT_END
 95
       16
302
GRIDFORMAT
  1
GRIDFORMAT_BEGIN
 90
        0
 91
        1
 62
     0
 92
       -2
340
14
 93
        0
 40
0.045
309
GRIDFORMAT_END
 95
       32
302
GRIDFORMAT
  1
GRIDFORMAT_BEGIN
 90
        0
 91
        1
 62
     0
 92
       -2
340
14
 93
        0
 40
0.045
309
GRIDFORMAT_END
309
TABLEFORMAT_END
  1
CELLSTYLE_BEGIN
 90
        1
 91
        1
300
_TITLE
309
CELLSTYLE_END
300
CELLSTYLE
  1
TABLEFORMAT_BEGIN
 90
        5
170
     1
 91
        0
 92
        0
 62
   257
 93
        1
300
CONTENTFORMAT
  1
CONTENTFORMAT_BEGIN
 90
        0
 91
        0
 92
        4
 93
        0
300

 40
0.0
140
1.0
 94
        5
 62
     0
340
11
144
4.5
309
CONTENTFORMAT_END
171
     1
301
MARGIN
  1
CELLMARGIN_BEGIN
 40
1.5
 40
1.5
 40
1.5
 40
1.5
 40
1.5
 40
1.5
309
CELLMARGIN_END
 94
        6
 95
        1
302
GRIDFORMAT
  1
GRIDFORMAT_BEGIN
 90
        0
 91
        1
 62
     0
 92
       -2
340
14
 93
        0
 40
0.045
309
GRIDFORMAT_END
 95
        2
302
GRIDFORMAT
  1
GRIDFORMAT_BEGIN
 90
        0
 91
        1
 62
     0
 92
       -2
340
14
 93
        0
 40
0.045
309
GRIDFORMAT_END
 95
        4
302
GRIDFORMAT
  1
GRIDFORMAT_BEGIN
 90
        0
 91
        1
 62
     0
 92
       -2
340
14
 93
        0
 40
0.045
309
GRIDFORMAT_END
 95
        8
302
GRIDFORMAT
  1
GRIDFORMAT_BEGIN
 90
        0
 91
        1
 62
     0
 92
       -2
340
14
 93
        0
 40
0.045
309
GRIDFORMAT_END
 95
       16
302
GRIDFORMAT
  1
GRIDFORMAT_BEGIN
 90
        0
 91
        1
 62
     0
 92
       -2
340
14
 93
        0
 40
0.045
309
GRIDFORMAT_END
 95
       32
302
GRIDFORMAT
  1
GRIDFORMAT_BEGIN
 90
        0
 91
        1
 62
     0
 92
       -2
340
14
 93
        0
 40
0.045
309
GRIDFORMAT_END
309
TABLEFORMAT_END
  1
CELLSTYLE_BEGIN
 90
        2
 91
        1
300
_HEADER
309
CELLSTYLE_END
300
CELLSTYLE
  1
TABLEFORMAT_BEGIN
 90
        5
170
     1
 91
        0
 92
        0
 62
   257
 93
        1
300
CONTENTFORMAT
  1
CONTENTFORMAT_BEGIN
 90
        0
 91
        0
 92
        4
 93
        0
300

 40
0.0
140
1.0
 94
        2
 62
     0
340
11
144
4.5
309
CONTENTFORMAT_END
171
     1
301
MARGIN
  1
CELLMARGIN_BEGIN
 40
1.5
 40
1.5
 40
1.5
 40
1.5
 40
1.5
 40
1.5
309
CELLMARGIN_END
 94
        6
 95
        1
302
GRIDFORMAT
  1
GRIDFORMAT_BEGIN
 90
        0
 91
        1
 62
     0
 92
       -2
340
14
 93
        0
 40
0.045
309
GRIDFORMAT_END
 95
        2
302
GRIDFORMAT
  1
GRIDFORMAT_BEGIN
 90
        0
 91
        1
 62
     0
 92
       -2
340
14
 93
        0
 40
0.045
309
GRIDFORMAT_END
 95
        4
302
GRIDFORMAT
  1
GRIDFORMAT_BEGIN
 90
        0
 91
        1
 62
     0
 92
       -2
340
14
 93
        0
 40
0.045
309
GRIDFORMAT_END
 95
        8
302
GRIDFORMAT
  1
GRIDFORMAT_BEGIN
 90
        0
 91
        1
 62
     0
 92
       -2
340
14
 93
        0
 40
0.045
309
GRIDFORMAT_END
 95
       16
302
GRIDFORMAT
  1
GRIDFORMAT_BEGIN
 90
        0
 91
        1
 62
     0
 92
       -2
340
14
 93
        0
 40
0.045
309
GRIDFORMAT_END
 95
       32
302
GRIDFORMAT
  1
GRIDFORMAT_BEGIN
 90
        0
 91
        1
 62
     0
 92
       -2
340
14
 93
        0
 40
0.045
309
GRIDFORMAT_END
309
TABLEFORMAT_END
  1
CELLSTYLE_BEGIN
 90
        3
 91
        2
300
_DATA
309
CELLSTYLE_END
  0
ENDSEC
  0
EOF