0
SECTION
  2
HEADER
  9
$ACADVER
  1
AC1027
  9
$ACADMAINTVER
 70
     8
  9
$DWGCODEPAGE
  3
ANSI_1252
  9
$REQUIREDVERSIONS
160
                 0
  9
$COMMENTS
  1
File was created by Cadenas
  9
$CUSTOMPROPERTYTAG
  1
NN
  9
$CUSTOMPROPERTY
  1
Eccentric Collar Two-Bolt Pillow Block Metric Bore
  9
$CUSTOMPROPERTYTAG
  1
NT
  9
$CUSTOMPROPERTY
  1
Eccentric Collar Pillow Block Bearings -(Normal Duty)
  9
$CUSTOMPROPERTYTAG
  1
NB
  9
$CUSTOMPROPERTY
  1
125662
  9
$CUSTOMPROPERTYTAG
  1
NBSYN
  9
$CUSTOMPROPERTY
  1
$PN.
  9
$CUSTOMPROPERTYTAG
  1
LINA
  9
$CUSTOMPROPERTY
  1
125662
  9
$CUSTOMPROPERTYTAG
  1
SERIES
  9
$CUSTOMPROPERTY
  1
210
  9
$CUSTOMPROPERTYTAG
  1
SS
  9
$CUSTOMPROPERTY
  1
50
  9
$CUSTOMPROPERTYTAG
  1
PN
  9
$CUSTOMPROPERTY
  1
125662
  9
$CUSTOMPROPERTYTAG
  1
DESCRIPTION
  9
$CUSTOMPROPERTY
  1
P2B-SXR-50M
  9
$CUSTOMPROPERTYTAG
  1
WEIGHT
  9
$CUSTOMPROPERTY
  1
3.2
  9
$CUSTOMPROPERTYTAG
  1
A
  9
$CUSTOMPROPERTY
  1
57.2
  9
$CUSTOMPROPERTYTAG
  1
B
  9
$CUSTOMPROPERTY
  1
206.2
  9
$CUSTOMPROPERTYTAG
  1
C
  9
$CUSTOMPROPERTY
  1
57.2
  9
$CUSTOMPROPERTYTAG
  1
DMIN
  9
$CUSTOMPROPERTY
  1
152.4
  9
$CUSTOMPROPERTYTAG
  1
DMAX
  9
$CUSTOMPROPERTY
  1
169.70
  9
$CUSTOMPROPERTYTAG
  1
F
  9
$CUSTOMPROPERTY
  1
M16
  9
$CUSTOMPROPERTYTAG
  1
G
  9
$CUSTOMPROPERTY
  1
25.9
  9
$CUSTOMPROPERTYTAG
  1
H
  9
$CUSTOMPROPERTY
  1
19.1
  9
$CUSTOMPROPERTYTAG
  1
J
  9
$CUSTOMPROPERTY
  1
115.1
  9
$CUSTOMPROPERTYTAG
  1
L
  9
$CUSTOMPROPERTY
  1
69.9
  9
$CUSTOMPROPERTYTAG
  1
M
  9
$CUSTOMPROPERTY
  1
57.2
  9
$CUSTOMPROPERTYTAG
  1
R
  9
$CUSTOMPROPERTY
  1
19.1
  9
$CUSTOMPROPERTYTAG
  1
S
  9
$CUSTOMPROPERTY
  1
38.1
  9
$CUSTOMPROPERTYTAG
  1
U
  9
$CUSTOMPROPERTY
  1
93.7
  9
$CUSTOMPROPERTYTAG
  1
V
  9
$CUSTOMPROPERTY
  1
187.5
  9
$CUSTOMPROPERTYTAG
  1
W
  9
$CUSTOMPROPERTY
  1
20.6
  9
$CUSTOMPROPERTYTAG
  1
X
  9
$CUSTOMPROPERTY
  1
3.0
  9
$CUSTOMPROPERTYTAG
  1
COMPANY
  9
$CUSTOMPROPERTY
  1
baldor
  9
$INSBASE
 10
0.0
 20
0.0
 30
0.0
  9
$EXTMIN
 10
1.000000000000000E+20
 20
1.000000000000000E+20
 30
1.000000000000000E+20
  9
$EXTMAX
 10
-1.000000000000000E+20
 20
-1.000000000000000E+20
 30
-1.000000000000000E+20
  9
$LIMMIN
 10
0.0
 20
0.0
  9
$LIMMAX
 10
420.0
 20
297.0
  9
$ORTHOMODE
 70
     0
  9
$REGENMODE
 70
     1
  9
$FILLMODE
 70
     1
  9
$QTEXTMODE
 70
     0
  9
$MIRRTEXT
 70
     1
  9
$LTSCALE
 40
1.0
  9
$ATTMODE
 70
     1
  9
$TEXTSIZE
 40
2.5
  9
$TRACEWID
 40
1.0
  9
$TEXTSTYLE
  7
Standard
  9
$CLAYER
  8
0
  9
$CELTYPE
  6
ByLayer
  9
$CECOLOR
 62
   256
  9
$CELTSCALE
 40
1.0
  9
$DISPSILH
 70
     0
  9
$DIMSCALE
 40
1.0
  9
$DIMASZ
 40
2.5
  9
$DIMEXO
 40
0.625
  9
$DIMDLI
 40
3.75
  9
$DIMRND
 40
0.0
  9
$DIMDLE
 40
0.0
  9
$DIMEXE
 40
1.25
  9
$DIMTP
 40
0.0
  9
$DIMTM
 40
0.0
  9
$DIMTXT
 40
2.5
  9
$DIMCEN
 40
2.5
  9
$DIMTSZ
 40
0.0
  9
$DIMTOL
 70
     0
  9
$DIMLIM
 70
     0
  9
$DIMTIH
 70
     0
  9
$DIMTOH
 70
     0
  9
$DIMSE1
 70
     0
  9
$DIMSE2
 70
     0
  9
$DIMTAD
 70
     1
  9
$DIMZIN
 70
     8
  9
$DIMBLK
  1

  9
$DIMASO
 70
     1
  9
$DIMSHO
 70
     1
  9
$DIMPOST
  1

  9
$DIMAPOST
  1

  9
$DIMALT
 70
     0
  9
$DIMALTD
 70
     3
  9
$DIMALTF
 40
0.03937007874016
  9
$DIMLFAC
 40
1.0
  9
$DIMTOFL
 70
     1
  9
$DIMTVP
 40
0.0
  9
$DIMTIX
 70
     0
  9
$DIMSOXD
 70
     0
  9
$DIMSAH
 70
     0
  9
$DIMBLK1
  1

  9
$DIMBLK2
  1

  9
$DIMSTYLE
  2
ISO-25
  9
$DIMCLRD
 70
     0
  9
$DIMCLRE
 70
     0
  9
$DIMCLRT
 70
     0
  9
$DIMTFAC
 40
1.0
  9
$DIMGAP
 40
0.625
  9
$DIMJUST
 70
     0
  9
$DIMSD1
 70
     0
  9
$DIMSD2
 70
     0
  9
$DIMTOLJ
 70
     0
  9
$DIMTZIN
 70
     8
  9
$DIMALTZ
 70
     0
  9
$DIMALTTZ
 70
     0
  9
$DIMUPT
 70
     0
  9
$DIMDEC
 70
     2
  9
$DIMTDEC
 70
     2
  9
$DIMALTU
 70
     2
  9
$DIMALTTD
 70
     3
  9
$DIMTXSTY
  7
Standard
  9
$DIMAUNIT
 70
     0
  9
$DIMADEC
 70
     0
  9
$DIMALTRND
 40
0.0
  9
$DIMAZIN
 70
     0
  9
$DIMDSEP
 70
    44
  9
$DIMATFIT
 70
     3
  9
$DIMFRAC
 70
     0
  9
$DIMLDRBLK
  1

  9
$DIMLUNIT
 70
     2
  9
$DIMLWD
 70
    -2
  9
$DIMLWE
 70
    -2
  9
$DIMTMOVE
 70
     0
  9
$DIMFXL
 40
1.0
  9
$DIMFXLON
 70
     0
  9
$DIMJOGANG
 40
0.7853981633974483
  9
$DIMTFILL
 70
     0
  9
$DIMTFILLCLR
 70
     0
  9
$DIMARCSYM
 70
     0
  9
$DIMLTYPE
  6

  9
$DIMLTEX1
  6

  9
$DIMLTEX2
  6

  9
$DIMTXTDIRECTION
 70
     0
  9
$LUNITS
 70
     2
  9
$LUPREC
 70
     4
  9
$SKETCHINC
 40
1.0
  9
$FILLETRAD
 40
10.0
  9
$AUNITS
 70
     0
  9
$AUPREC
 70
     0
  9
$MENU
  1
.
  9
$ELEVATION
 40
0.0
  9
$PELEVATION
 40
0.0
  9
$THICKNESS
 40
0.0
  9
$LIMCHECK
 70
     0
  9
$CHAMFERA
 40
0.0
  9
$CHAMFERB
 40
0.0
  9
$CHAMFERC
 40
0.0
  9
$CHAMFERD
 40
0.0
  9
$SKPOLY
 70
     0
  9
$TDCREATE
 40
2458168.986237014
  9
$TDUCREATE
 40
2458168.944570347
  9
$TDUPDATE
 40
2458168.986237187
  9
$TDUUPDATE
 40
2458168.944570521
  9
$TDINDWG
 40
0.0000000116
  9
$TDUSRTIMER
 40
0.0000000116
  9
$USRTIMER
 70
     1
  9
$ANGBASE
 50
0.0
  9
$ANGDIR
 70
     0
  9
$PDMODE
 70
     0
  9
$PDSIZE
 40
0.0
  9
$PLINEWID
 40
0.0
  9
$SPLFRAME
 70
     0
  9
$SPLINETYPE
 70
     6
  9
$SPLINESEGS
 70
     8
  9
$HANDSEED
  5
1E9
  9
$SURFTAB1
 70
     6
  9
$SURFTAB2
 70
     6
  9
$SURFTYPE
 70
     6
  9
$SURFU
 70
     6
  9
$SURFV
 70
     6
  9
$UCSBASE
  2

  9
$UCSNAME
  2

  9
$UCSORG
 10
0.0
 20
0.0
 30
0.0
  9
$UCSXDIR
 10
1.0
 20
0.0
 30
0.0
  9
$UCSYDIR
 10
0.0
 20
1.0
 30
0.0
  9
$UCSORTHOREF
  2

  9
$UCSORTHOVIEW
 70
     0
  9
$UCSORGTOP
 10
0.0
 20
0.0
 30
0.0
  9
$UCSORGBOTTOM
 10
0.0
 20
0.0
 30
0.0
  9
$UCSORGLEFT
 10
0.0
 20
0.0
 30
0.0
  9
$UCSORGRIGHT
 10
0.0
 20
0.0
 30
0.0
  9
$UCSORGFRONT
 10
0.0
 20
0.0
 30
0.0
  9
$UCSORGBACK
 10
0.0
 20
0.0
 30
0.0
  9
$PUCSBASE
  2

  9
$PUCSNAME
  2

  9
$PUCSORG
 10
0.0
 20
0.0
 30
0.0
  9
$PUCSXDIR
 10
1.0
 20
0.0
 30
0.0
  9
$PUCSYDIR
 10
0.0
 20
1.0
 30
0.0
  9
$PUCSORTHOREF
  2

  9
$PUCSORTHOVIEW
 70
     0
  9
$PUCSORGTOP
 10
0.0
 20
0.0
 30
0.0
  9
$PUCSORGBOTTOM
 10
0.0
 20
0.0
 30
0.0
  9
$PUCSORGLEFT
 10
0.0
 20
0.0
 30
0.0
  9
$PUCSORGRIGHT
 10
0.0
 20
0.0
 30
0.0
  9
$PUCSORGFRONT
 10
0.0
 20
0.0
 30
0.0
  9
$PUCSORGBACK
 10
0.0
 20
0.0
 30
0.0
  9
$USERI1
 70
     0
  9
$USERI2
 70
     0
  9
$USERI3
 70
     0
  9
$USERI4
 70
     0
  9
$USERI5
 70
     0
  9
$USERR1
 40
0.0
  9
$USERR2
 40
0.0
  9
$USERR3
 40
0.0
  9
$USERR4
 40
0.0
  9
$USERR5
 40
0.0
  9
$WORLDVIEW
 70
     1
  9
$SHADEDGE
 70
     3
  9
$SHADEDIF
 70
    70
  9
$TILEMODE
 70
     1
  9
$MAXACTVP
 70
    64
  9
$PINSBASE
 10
0.0
 20
0.0
 30
0.0
  9
$PLIMCHECK
 70
     0
  9
$PEXTMIN
 10
1.000000000000000E+20
 20
1.000000000000000E+20
 30
1.000000000000000E+20
  9
$PEXTMAX
 10
-1.000000000000000E+20
 20
-1.000000000000000E+20
 30
-1.000000000000000E+20
  9
$PLIMMIN
 10
0.0
 20
0.0
  9
$PLIMMAX
 10
420.0
 20
297.0
  9
$UNITMODE
 70
     0
  9
$VISRETAIN
 70
     1
  9
$PLINEGEN
 70
     0
  9
$PSLTSCALE
 70
     1
  9
$TREEDEPTH
 70
  3020
  9
$CMLSTYLE
  2
Standard
  9
$CMLJUST
 70
     0
  9
$CMLSCALE
 40
20.0
  9
$PROXYGRAPHICS
 70
     1
  9
$MEASUREMENT
 70
     1
  9
$CELWEIGHT
370
    -1
  9
$ENDCAPS
280
     0
  9
$JOINSTYLE
280
     0
  9
$LWDISPLAY
290
     0
  9
$INSUNITS
 70
     4
  9
$HYPERLINKBASE
  1

  9
$STYLESHEET
  1

  9
$XEDIT
290
     1
  9
$CEPSNTYPE
380
     0
  9
$PSTYLEMODE
290
     1
  9
$FINGERPRINTGUID
  2
{65024208-4423-4822-92EB-F8CBD4489E1E}
  9
$VERSIONGUID
  2
{FAEB1C32-E019-11D5-929B-00C0DF256EC4}
  9
$EXTNAMES
290
     1
  9
$PSVPSCALE
 40
0.0
  9
$OLESTARTUP
290
     0
  9
$SORTENTS
280
   127
  9
$INDEXCTL
280
     0
  9
$HIDETEXT
280
     1
  9
$XCLIPFRAME
280
     2
  9
$HALOGAP
280
     0
  9
$OBSCOLOR
 70
   257
  9
$OBSLTYPE
280
     0
  9
$INTERSECTIONDISPLAY
280
     0
  9
$INTERSECTIONCOLOR
 70
   257
  9
$DIMASSOC
280
     2
  9
$PROJECTNAME
  1

  9
$CAMERADISPLAY
290
     0
  9
$LENSLENGTH
 40
50.0
  9
$CAMERAHEIGHT
 40
0.0
  9
$STEPSPERSEC
 40
2.0
  9
$STEPSIZE
 40
6.0
  9
$3DDWFPREC
 40
2.0
  9
$PSOLWIDTH
 40
5.0
  9
$PSOLHEIGHT
 40
80.0
  9
$LOFTANG1
 40
1.570796326794897
  9
$LOFTANG2
 40
1.570796326794897
  9
$LOFTMAG1
 40
0.0
  9
$LOFTMAG2
 40
0.0
  9
$LOFTPARAM
 70
     7
  9
$LOFTNORMALS
280
     1
  9
$LATITUDE
 40
37.795
  9
$LONGITUDE
 40
-122.394
  9
$NORTHDIRECTION
 40
0.0
  9
$TIMEZONE
 70
 -8000
  9
$LIGHTGLYPHDISPLAY
280
     1
  9
$TILEMODELIGHTSYNCH
280
     1
  9
$CMATERIAL
347
44
  9
$SOLIDHIST
280
     0
  9
$SHOWHIST
280
     1
  9
$DWFFRAME
280
     2
  9
$DGNFRAME
280
     2
  9
$REALWORLDSCALE
290
     1
  9
$INTERFERECOLOR
 62
   256
  9
$CSHADOW
280
     0
  9
$SHADOWPLANELOCATION
 40
0.0
  0
ENDSEC
  0
SECTION
  2
CLASSES
  0
CLASS
  1
ACDBDICTIONARYWDFLT
  2
AcDbDictionaryWithDefault
  3
ObjectDBX Classes
 90
        0
 91
        4
280
     0
281
     0
  0
CLASS
  1
VISUALSTYLE
  2
AcDbVisualStyle
  3
ObjectDBX Classes
 90
     4095
 91
        4
280
     0
281
     0
  0
CLASS
  1
MATERIAL
  2
AcDbMaterial
  3
ObjectDBX Classes
 90
     1153
 91
        4
280
     0
281
     0
  0
CLASS
  1
SCALE
  2
AcDbScale
  3
ObjectDBX Classes
 90
     1153
 91
        4
280
     0
281
     0
  0
CLASS
  1
TABLESTYLE
  2
AcDbTableStyle
  3
ObjectDBX Classes
 90
     4095
 91
        4
280
     0
281
     0
  0
CLASS
  1
MLEADERSTYLE
  2
AcDbMLeaderStyle
  3
ACDB_MLEADERSTYLE_CLASS
 90
     4095
 91
        4
280
     0
281
     0
  0
CLASS
  1
SUN
  2
AcDbSun
  3
SCENEOE
 90
     1153
 91
        4
280
     0
281
     0
  0
CLASS
  1
DICTIONARYVAR
  2
AcDbDictionaryVar
  3
ObjectDBX Classes
 90
        0
 91
        4
280
     0
281
     0
  0
CLASS
  1
CELLSTYLEMAP
  2
AcDbCellStyleMap
  3
ObjectDBX Classes
 90
     1152
 91
        4
280
     0
281
     0
  0
ENDSEC
  0
SECTION
  2
TABLES
  0
TABLE
  2
VPORT
  5
8
330
0
100
AcDbSymbolTable
 70
     1
  0
VPORT
  5
29
330
8
100
AcDbSymbolTableRecord
100
AcDbViewportTableRecord
  2
*Active
 70
     0
 10
0.0
 20
0.0
 11
1.0
 21
1.0
 12
0.0
 22
-4.75
 13
0.0
 23
0.0
 14
10.0
 24
10.0
 15
10.0
 25
10.0
 16
0.0
 26
0.0
 36
1.0
 17
0.0
 27
0.0
 37
0.0
 40
73.86840000000002
 41
2.84727975697321
 42
50.0
 43
0.0
 44
0.0
 50
0.0
 51
0.0
 71
     0
 72
   100
 73
     1
 74
     3
 75
     0
 76
     0
 77
     0
 78
     0
281
     0
 65
     1
110
0.0
120
0.0
130
0.0
111
1.0
121
0.0
131
0.0
112
0.0
122
1.0
132
0.0
 79
     0
146
0.0
348
2F
 60
     3
 61
     5
292
     1
282
     1
141
0.0
142
0.0
 63
   250
361
6D
  0
ENDTAB
  0
TABLE
  2
LTYPE
  5
5
330
0
100
AcDbSymbolTable
 70
     3
  0
LTYPE
  5
14
330
5
100
AcDbSymbolTableRecord
100
AcDbLinetypeTableRecord
  2
ByBlock
 70
     0
  3

 72
    65
 73
     0
 40
0.0
  0
LTYPE
  5
15
330
5
100
AcDbSymbolTableRecord
100
AcDbLinetypeTableRecord
  2
ByLayer
 70
     0
  3

 72
    65
 73
     0
 40
0.0
  0
LTYPE
  5
16
330
5
100
AcDbSymbolTableRecord
100
AcDbLinetypeTableRecord
  2
Continuous
 70
     0
  3
Solid line
 72
    65
 73
     0
 40
0.0
  0
LTYPE
  5
9B
330
5
100
AcDbSymbolTableRecord
100
AcDbLinetypeTableRecord
  2
Dashed
 70
     0
  3

 72
    65
 73
     2
 40
2.0
 49
1.0
 74
     0
 49
-1.0
 74
     0
  0
LTYPE
  5
118
330
5
100
AcDbSymbolTableRecord
100
AcDbLinetypeTableRecord
  2
Center
 70
     0
  3

 72
    65
 73
     4
 40
1.5
 49
0.45
 74
     0
 49
-0.5
 74
     0
 49
0.05
 74
     0
 49
-0.5
 74
     0
  0
ENDTAB
  0
TABLE
  2
LAYER
  5
2
330
0
100
AcDbSymbolTable
 70
     7
  0
LAYER
  5
10
330
2
100
AcDbSymbolTableRecord
100
AcDbLayerTableRecord
  2
0
 70
     0
 62
     7
  6
Continuous
370
    -3
390
F
347
46
348
0
  0
LAYER
  5
72
330
2
100
AcDbSymbolTableRecord
100
AcDbLayerTableRecord
  2
AM_6
 70
     0
 62
    -2
  6
Continuous
370
    35
390
F
347
46
348
0
  0
LAYER
  5
9C
330
2
100
AcDbSymbolTableRecord
100
AcDbLayerTableRecord
  2
AM_9
 70
     0
 62
     6
  6
Dashed
370
    25
390
F
347
46
348
0
  0
LAYER
  5
B9
330
2
100
AcDbSymbolTableRecord
100
AcDbLayerTableRecord
  2
AM_4
 70
     0
 62
     7
  6
Continuous
370
    50
390
F
347
46
348
0
  0
LAYER
  5
119
330
2
100
AcDbSymbolTableRecord
100
AcDbLayerTableRecord
  2
AM_7
 70
     0
 62
     7
  6
Center
370
    25
390
F
347
46
348
0
  0
LAYER
  5
136
330
2
100
AcDbSymbolTableRecord
100
AcDbLayerTableRecord
  2
AM_5
 70
     0
 62
     3
  6
Continuous
370
    25
390
F
347
46
348
0
  0
LAYER
  5
1DB
330
2
100
AcDbSymbolTableRecord
100
AcDbLayerTableRecord
  2
ConnectionPoints
 70
     0
 62
     7
  6
Continuous
370
    50
390
F
347
46
348
0
  0
ENDTAB
  0
TABLE
  2
STYLE
  5
3
330
0
100
AcDbSymbolTable
 70
     1
  0
STYLE
  5
11
330
3
100
AcDbSymbolTableRecord
100
AcDbTextStyleTableRecord
  2
Standard
 70
     0
 40
0.0
 41
1.0
 50
0.0
 71
     0
 42
2.5
  3
txt
  4

  0
ENDTAB
  0
TABLE
  2
VIEW
  5
6
330
0
100
AcDbSymbolTable
 70
     0
  0
ENDTAB
  0
TABLE
  2
UCS
  5
7
330
0
100
AcDbSymbolTable
 70
     0
  0
ENDTAB
  0
TABLE
  2
APPID
  5
9
330
0
100
AcDbSymbolTable
 70
     1
  0
APPID
  5
12
330
9
100
AcDbSymbolTableRecord
100
AcDbRegAppTableRecord
  2
ACAD
 70
     0
  0
ENDTAB
  0
TABLE
  2
DIMSTYLE
  5
A
330
0
100
AcDbSymbolTable
 70
     1
100
AcDbDimStyleTable
  0
DIMSTYLE
105
27
330
A
100
AcDbSymbolTableRecord
100
AcDbDimStyleTableRecord
  2
ISO-25
 70
     0
 41
2.5
 42
0.625
 43
3.75
 44
1.25
 73
     0
 74
     0
 77
     1
 78
     8
140
2.5
141
2.5
143
0.03937007874016
147
0.625
171
     3
172
     1
178
     0
271
     2
272
     2
274
     3
278
    44
283
     0
284
     8
340
11
  0
ENDTAB
  0
TABLE
  2
BLOCK_RECORD
  5
1
330
0
100
AcDbSymbolTable
 70
     5
  0
BLOCK_RECORD
  5
1F
330
1
100
AcDbSymbolTableRecord
100
AcDbBlockTableRecord
  2
*Model_Space
340
22
 70
     0
280
     1
281
     0
  0
BLOCK_RECORD
  5
1B
330
1
100
AcDbSymbolTableRecord
100
AcDbBlockTableRecord
  2
*Paper_Space
340
1E
 70
     0
280
     1
281
     0
  0
BLOCK_RECORD
  5
23
330
1
100
AcDbSymbolTableRecord
100
AcDbBlockTableRecord
  2
*Paper_Space0
340
26
 70
     0
280
     1
281
     0
  0
BLOCK_RECORD
  5
6E
330
1
100
AcDbSymbolTableRecord
100
AcDbBlockTableRecord
  2
1_125662_4
340
0
102
{BLKREFS
331
6F
102
}
 70
     0
280
     1
281
     0
  0
BLOCK_RECORD
  5
8F
330
1
100
AcDbSymbolTableRecord
100
AcDbBlockTableRecord
  2
2_405015E_Metric_0_in_125662_4
340
0
102
{BLKREFS
331
90
102
}
 70
     0
280
     1
281
     0
  0
BLOCK_RECORD
  5
D7
330
1
100
AcDbSymbolTableRecord
100
AcDbBlockTableRecord
  2
3_125632_0_in_125662_4
340
0
102
{BLKREFS
331
D8
102
}
 70
     0
280
     1
281
     0
  0
BLOCK_RECORD
  5
138
330
1
100
AcDbSymbolTableRecord
100
AcDbBlockTableRecord
  2
4_125662H_0_in_125662_4
340
0
102
{BLKREFS
331
139
102
}
 70
     0
280
     1
281
     0
  0
ENDTAB
  0
ENDSEC
  0
SECTION
  2
BLOCKS
  0
BLOCK
  5
20
330
1F
100
AcDbEntity
  8
0
100
AcDbBlockBegin
  2
*Model_Space
 70
     0
 10
0.0
 20
0.0
 30
0.0
  3
*Model_Space
  1

  0
ENDBLK
  5
21
330
1F
100
AcDbEntity
  8
0
100
AcDbBlockEnd
  0
BLOCK
  5
1C
330
1B
100
AcDbEntity
 67
     1
  8
0
100
AcDbBlockBegin
  2
*Paper_Space
 70
     0
 10
0.0
 20
0.0
 30
0.0
  3
*Paper_Space
  1

  0
ENDBLK
  5
1D
330
1B
100
AcDbEntity
 67
     1
  8
0
100
AcDbBlockEnd
  0
BLOCK
  5
24
330
23
100
AcDbEntity
  8
0
100
AcDbBlockBegin
  2
*Paper_Space0
 70
     0
 10
0.0
 20
0.0
 30
0.0
  3
*Paper_Space0
  1

  0
ENDBLK
  5
25
330
23
100
AcDbEntity
  8
0
100
AcDbBlockEnd
  0
BLOCK
  5
70
330
6E
100
AcDbEntity
  8
0
100
AcDbBlockBegin
  2
1_125662_4
 70
     2
 10
0.0
 20
0.0
 30
0.0
  3
1_125662_4
  1

  0
ATTDEF
  5
73
330
6E
100
AcDbEntity
  8
AM_6
100
AcDbText
 10
108.1
 20
31.46
 30
0.0
 40
0.5
  1
Eccentric Collar Two-Bolt Pillow Block Metric Bore
100
AcDbAttributeDefinition
  3

  2
NN
 70
     8
280
     0
  0
ATTDEF
  5
74
330
6E
100
AcDbEntity
  8
AM_6
100
AcDbText
 10
108.1
 20
30.96
 30
0.0
 40
0.5
  1
Eccentric Collar Pillow Block Bearings -(Normal Duty)
100
AcDbAttributeDefinition
  3

  2
NT
 70
     8
280
     0
  0
ATTDEF
  5
75
330
6E
100
AcDbEntity
  8
AM_6
100
AcDbText
 10
108.1
 20
30.46
 30
0.0
 40
0.5
  1
125662
100
AcDbAttributeDefinition
  3

  2
NB
 70
     8
280
     0
  0
ATTDEF
  5
76
330
6E
100
AcDbEntity
  8
AM_6
100
AcDbText
 10
108.1
 20
29.96
 30
0.0
 40
0.5
  1
$PN.
100
AcDbAttributeDefinition
  3

  2
NBSYN
 70
     8
280
     0
  0
ATTDEF
  5
77
330
6E
100
AcDbEntity
  8
AM_6
100
AcDbText
 10
108.1
 20
29.46
 30
0.0
 40
0.5
  1
125662
100
AcDbAttributeDefinition
  3

  2
LINA
 70
     8
280
     0
  0
ATTDEF
  5
78
330
6E
100
AcDbEntity
  8
AM_6
100
AcDbText
 10
108.1
 20
28.96
 30
0.0
 40
0.5
  1
210
100
AcDbAttributeDefinition
  3

  2
SERIES
 70
     8
280
     0
  0
ATTDEF
  5
79
330
6E
100
AcDbEntity
  8
AM_6
100
AcDbText
 10
108.1
 20
28.46
 30
0.0
 40
0.5
  1
50
100
AcDbAttributeDefinition
  3

  2
SS
 70
     8
280
     0
  0
ATTDEF
  5
7A
330
6E
100
AcDbEntity
  8
AM_6
100
AcDbText
 10
108.1
 20
27.96
 30
0.0
 40
0.5
  1
125662
100
AcDbAttributeDefinition
  3

  2
PN
 70
     8
280
     0
  0
ATTDEF
  5
7B
330
6E
100
AcDbEntity
  8
AM_6
100
AcDbText
 10
108.1
 20
27.46
 30
0.0
 40
0.5
  1
P2B-SXR-50M
100
AcDbAttributeDefinition
  3

  2
DESCRIPTION
 70
     8
280
     0
  0
ATTDEF
  5
7C
330
6E
100
AcDbEntity
  8
AM_6
100
AcDbText
 10
108.1
 20
26.96
 30
0.0
 40
0.5
  1
3.2
100
AcDbAttributeDefinition
  3

  2
WEIGHT
 70
     8
280
     0
  0
ATTDEF
  5
7D
330
6E
100
AcDbEntity
  8
AM_6
100
AcDbText
 10
108.1
 20
26.46
 30
0.0
 40
0.5
  1
57.2
100
AcDbAttributeDefinition
  3

  2
A
 70
     8
280
     0
  0
ATTDEF
  5
7E
330
6E
100
AcDbEntity
  8
AM_6
100
AcDbText
 10
108.1
 20
25.96
 30
0.0
 40
0.5
  1
206.2
100
AcDbAttributeDefinition
  3

  2
B
 70
     8
280
     0
  0
ATTDEF
  5
7F
330
6E
100
AcDbEntity
  8
AM_6
100
AcDbText
 10
108.1
 20
25.46
 30
0.0
 40
0.5
  1
57.2
100
AcDbAttributeDefinition
  3

  2
C
 70
     8
280
     0
  0
ATTDEF
  5
80
330
6E
100
AcDbEntity
  8
AM_6
100
AcDbText
 10
108.1
 20
24.96
 30
0.0
 40
0.5
  1
152.4
100
AcDbAttributeDefinition
  3

  2
DMIN
 70
     8
280
     0
  0
ATTDEF
  5
81
330
6E
100
AcDbEntity
  8
AM_6
100
AcDbText
 10
108.1
 20
24.46
 30
0.0
 40
0.5
  1
169.70
100
AcDbAttributeDefinition
  3

  2
DMAX
 70
     8
280
     0
  0
ATTDEF
  5
82
330
6E
100
AcDbEntity
  8
AM_6
100
AcDbText
 10
108.1
 20
23.96
 30
0.0
 40
0.5
  1
M16
100
AcDbAttributeDefinition
  3

  2
F
 70
     8
280
     0
  0
ATTDEF
  5
83
330
6E
100
AcDbEntity
  8
AM_6
100
AcDbText
 10
108.1
 20
23.46
 30
0.0
 40
0.5
  1
25.9
100
AcDbAttributeDefinition
  3

  2
G
 70
     8
280
     0
  0
ATTDEF
  5
84
330
6E
100
AcDbEntity
  8
AM_6
100
AcDbText
 10
108.1
 20
22.96
 30
0.0
 40
0.5
  1
19.1
100
AcDbAttributeDefinition
  3

  2
H
 70
     8
280
     0
  0
ATTDEF
  5
85
330
6E
100
AcDbEntity
  8
AM_6
100
AcDbText
 10
108.1
 20
22.46
 30
0.0
 40
0.5
  1
115.1
100
AcDbAttributeDefinition
  3

  2
J
 70
     8
280
     0
  0
ATTDEF
  5
86
330
6E
100
AcDbEntity
  8
AM_6
100
AcDbText
 10
108.1
 20
21.96
 30
0.0
 40
0.5
  1
69.9
100
AcDbAttributeDefinition
  3

  2
L
 70
     8
280
     0
  0
ATTDEF
  5
87
330
6E
100
AcDbEntity
  8
AM_6
100
AcDbText
 10
108.1
 20
21.46
 30
0.0
 40
0.5
  1
57.2
100
AcDbAttributeDefinition
  3

  2
M
 70
     8
280
     0
  0
ATTDEF
  5
88
330
6E
100
AcDbEntity
  8
AM_6
100
AcDbText
 10
108.1
 20
20.96
 30
0.0
 40
0.5
  1
19.1
100
AcDbAttributeDefinition
  3

  2
R
 70
     8
280
     0
  0
ATTDEF
  5
89
330
6E
100
AcDbEntity
  8
AM_6
100
AcDbText
 10
108.1
 20
20.46
 30
0.0
 40
0.5
  1
38.1
100
AcDbAttributeDefinition
  3

  2
S
 70
     8
280
     0
  0
ATTDEF
  5
8A
330
6E
100
AcDbEntity
  8
AM_6
100
AcDbText
 10
108.1
 20
19.96
 30
0.0
 40
0.5
  1
93.7
100
AcDbAttributeDefinition
  3

  2
U
 70
     8
280
     0
  0
ATTDEF
  5
8B
330
6E
100
AcDbEntity
  8
AM_6
100
AcDbText
 10
108.1
 20
19.46
 30
0.0
 40
0.5
  1
187.5
100
AcDbAttributeDefinition
  3

  2
V
 70
     8
280
     0
  0
ATTDEF
  5
8C
330
6E
100
AcDbEntity
  8
AM_6
100
AcDbText
 10
108.1
 20
18.96
 30
0.0
 40
0.5
  1
20.6
100
AcDbAttributeDefinition
  3

  2
W
 70
     8
280
     0
  0
ATTDEF
  5
8D
330
6E
100
AcDbEntity
  8
AM_6
100
AcDbText
 10
108.1
 20
18.46
 30
0.0
 40
0.5
  1
3.0
100
AcDbAttributeDefinition
  3

  2
X
 70
     8
280
     0
  0
ATTDEF
  5
8E
330
6E
100
AcDbEntity
  8
AM_6
100
AcDbText
 10
108.1
 20
17.96
 30
0.0
 40
0.5
  1
baldor
100
AcDbAttributeDefinition
  3

  2
COMPANY
 70
     8
280
     0
  0
INSERT
  5
90
330
6E
100
AcDbEntity
  8
0
100
AcDbBlockReference
  2
2_405015E_Metric_0_in_125662_4
 10
0.0
 20
0.0
 30
0.0
  0
INSERT
  5
D8
330
6E
100
AcDbEntity
  8
0
100
AcDbBlockReference
  2
3_125632_0_in_125662_4
 10
0.0
 20
0.0
 30
0.0
  0
INSERT
  5
139
330
6E
100
AcDbEntity
  8
0
100
AcDbBlockReference
  2
4_125662H_0_in_125662_4
 10
0.0
 20
0.0
 30
0.0
  0
ENDBLK
  5
71
330
6E
100
AcDbEntity
  8
0
100
AcDbBlockEnd
  0
BLOCK
  5
91
330
8F
100
AcDbEntity
  8
0
100
AcDbBlockBegin
  2
2_405015E_Metric_0_in_125662_4
 70
     2
 10
0.0
 20
0.0
 30
0.0
  3
2_405015E_Metric_0_in_125662_4
  1

  0
ATTDEF
  5
93
330
8F
100
AcDbEntity
  8
AM_6
100
AcDbText
 10
54.35035938363976
 20
5.000000000000003
 30
0.0
 40
0.5
  1
405015E -Metric
100
AcDbAttributeDefinition
  3

  2
NN
 70
     8
280
     0
  0
ATTDEF
  5
94
330
8F
100
AcDbEntity
  8
AM_6
100
AcDbText
 10
54.35035938363976
 20
4.500000000000003
 30
0.0
 40
0.5
  1
Grease Fitting
100
AcDbAttributeDefinition
  3

  2
NT
 70
     8
280
     0
  0
ATTDEF
  5
95
330
8F
100
AcDbEntity
  8
AM_6
100
AcDbText
 10
54.35035938363976
 20
4.000000000000003
 30
0.0
 40
0.5
  1
405015E-Metric
100
AcDbAttributeDefinition
  3

  2
NB
 70
     8
280
     0
  0
ATTDEF
  5
96
330
8F
100
AcDbEntity
  8
AM_6
100
AcDbText
 10
54.35035938363976
 20
3.500000000000003
 30
0.0
 40
0.5
  1
$MN.-Metric
100
AcDbAttributeDefinition
  3

  2
NBSYN
 70
     8
280
     0
  0
ATTDEF
  5
97
330
8F
100
AcDbEntity
  8
AM_6
100
AcDbText
 10
54.35035938363976
 20
3.000000000000003
 30
0.0
 40
0.5
  1
405015E
100
AcDbAttributeDefinition
  3

  2
LINA
 70
     8
280
     0
  0
ATTDEF
  5
98
330
8F
100
AcDbEntity
  8
AM_6
100
AcDbText
 10
54.35035938363976
 20
2.500000000000003
 30
0.0
 40
0.5
  1
405015E
100
AcDbAttributeDefinition
  3

  2
MN
 70
     8
280
     0
  0
ATTDEF
  5
99
330
8F
100
AcDbEntity
  8
AM_6
100
AcDbText
 10
54.35035938363976
 20
2.000000000000003
 30
0.0
 40
0.5
  1
1/8 x 27PTF
100
AcDbAttributeDefinition
  3

  2
T
 70
     8
280
     0
  0
ATTDEF
  5
9A
330
8F
100
AcDbEntity
  8
AM_6
100
AcDbText
 10
54.35035938363976
 20
1.500000000000003
 30
0.0
 40
0.5
  1
baldor
100
AcDbAttributeDefinition
  3

  2
COMPANY
 70
     8
280
     0
  0
LWPOLYLINE
  5
9D
330
8F
100
AcDbEntity
  8
AM_9
100
AcDbPolyline
 90
        3
 70
     0
 43
0.0
 10
44.00334480918007
 20
2.500000000000002
 10
44.55233804730126
 20
1.250000000000002
 10
45.17052007784398
 20
0.0000000000000023
  0
LWPOLYLINE
  5
9E
330
8F
100
AcDbEntity
  8
AM_9
100
AcDbPolyline
 90
        3
 70
     0
 43
0.0
 10
45.17052007784398
 20
0.0000000000000023
 10
44.55497428141284
 20
-1.24437966340913
 10
44.00334480918007
 20
-2.499999999999997
  0
ELLIPSE
  5
9F
330
8F
100
AcDbEntity
  8
AM_9
100
AcDbEllipse
 10
36.18194688653445
 20
0.0000000000000022
 30
0.0
 11
2.546036870355444E-16
 21
4.15799375318352
 31
0.0
210
0.0
220
0.0
230
1.0
 40
0.7071067811865476
 41
0.0
 42
6.283185307179586
  0
LWPOLYLINE
  5
A0
330
8F
100
AcDbEntity
  8
AM_9
100
AcDbPolyline
 90
        3
 70
     0
 43
0.0
 10
46.99873133639512
 20
0.0000000000000025
 10
46.5982453922767
 20
1.244379663409137
 10
46.12466515273971
 20
2.500000000000003
  0
LWPOLYLINE
  5
A1
330
8F
100
AcDbEntity
  8
AM_9
100
AcDbPolyline
 90
        3
 70
     0
 43
0.0
 10
46.12466515273971
 20
-2.499999999999995
 10
46.59629264077818
 20
-1.249999999999996
 10
46.99873133639512
 20
0.0000000000000025
  0
LWPOLYLINE
  5
A2
330
8F
100
AcDbEntity
  8
AM_9
100
AcDbPolyline
 90
        3
 70
     0
 43
0.0
 10
44.00334480918007
 20
-2.499999999999997
 10
43.53171732114161
 20
-3.749999999999997
 10
43.12927862552467
 20
-4.999999999999997
  0
LINE
  5
A3
330
8F
100
AcDbEntity
  8
AM_9
100
AcDbLine
 10
46.99873133639512
 20
0.0000000000000025
 30
0.0
 11
45.17052007784398
 21
0.0000000000000023
 31
0.0
  0
LWPOLYLINE
  5
A4
330
8F
100
AcDbEntity
  8
AM_9
100
AcDbPolyline
 90
        3
 70
     0
 43
0.0
 10
43.12927862552467
 20
5.000000000000003
 10
43.52976456964308
 20
3.755620336590869
 10
44.00334480918007
 20
2.500000000000002
  0
LINE
  5
A5
330
8F
100
AcDbEntity
  8
AM_9
100
AcDbLine
 10
46.12466515273971
 20
2.500000000000003
 30
0.0
 11
45.86902359043497
 21
3.103744181182881
 31
0.0
  0
LINE
  5
A6
330
8F
100
AcDbEntity
  8
AM_9
100
AcDbLine
 10
45.87171672860689
 20
-3.097599803833519
 30
0.0
 11
46.12466515273971
 21
-2.499999999999995
 31
0.0
  0
LINE
  5
A7
330
8F
100
AcDbEntity
  8
AM_9
100
AcDbLine
 10
36.50109235662928
 20
-4.755705400136177
 30
0.0
 11
40.83195876138997
 21
-4.947207567024082
 31
0.0
  0
LINE
  5
A8
330
8F
100
AcDbEntity
  8
AM_9
100
AcDbLine
 10
40.83195876138997
 20
4.947207567024088
 30
0.0
 11
36.50109235662928
 21
4.755705400136183
 31
0.0
  0
ELLIPSE
  5
A9
330
8F
100
AcDbEntity
  8
AM_9
100
AcDbEllipse
 10
43.06280297426025
 20
-0.0000000000004534
 30
0.0
 11
-9.184850993606657E-16
 21
-5.000000000000821
 31
0.0
210
0.0
220
0.0
230
1.0
 40
0.707106781186548
 41
0.8982051386274357
 42
2.2433875149625
  0
LINE
  5
AA
330
8F
100
AcDbEntity
  8
AM_9
100
AcDbLine
 10
45.84249200467069
 20
1.989928832732518
 30
0.0
 11
45.57867253278381
 21
2.40658641745395
 31
0.0
  0
LINE
  5
AB
330
8F
100
AcDbEntity
  8
AM_9
100
AcDbLine
 10
45.57867253278381
 20
-2.406586417453944
 30
0.0
 11
45.84249200467069
 21
-1.989928832732512
 31
0.0
  0
ELLIPSE
  5
AC
330
8F
100
AcDbEntity
  8
AM_9
100
AcDbEllipse
 10
44.27111644379204
 20
0.0000000000000304
 30
0.0
 11
-5.479672885901868E-16
 21
-2.982994982562608
 31
0.0
210
0.0
220
0.0
230
1.0
 40
0.7071067811865476
 41
0.3869422381884107
 42
2.754650415401376
  0
ELLIPSE
  5
AD
330
8F
100
AcDbEntity
  8
AM_9
100
AcDbEllipse
 10
43.67827739336374
 20
-0.0000000000084279
 30
0.0
 11
-6.627024103745460E-16
 21
-3.607583894588738
 31
0.0
210
0.0
220
0.0
230
1.0
 40
0.707106781186547
 41
0.6633833151883879
 42
2.478209338404287
  0
LINE
  5
AE
330
8F
100
AcDbEntity
  8
AM_9
100
AcDbLine
 10
45.56202519663375
 20
2.477229919855584
 30
0.0
 11
45.09046354576878
 21
2.748977116714939
 31
0.0
  0
LINE
  5
AF
330
8F
100
AcDbEntity
  8
AM_9
100
AcDbLine
 10
45.09046354576877
 20
-2.748977116714933
 30
0.0
 11
45.56202519663375
 21
-2.477229919855578
 31
0.0
  0
ELLIPSE
  5
B0
330
8F
100
AcDbEntity
  8
AM_9
100
AcDbEllipse
 10
44.84824759675675
 20
0.0000000000000009
 30
0.0
 11
-4.913895281578753E-16
 21
-2.674999999999999
 31
0.0
210
0.0
220
0.0
230
1.0
 40
0.707106781186554
 41
0.0
 42
3.141592653589793
  0
ELLIPSE
  5
B1
330
8F
100
AcDbEntity
  8
AM_9
100
AcDbEllipse
 10
43.06280297426077
 20
0.0000000000000139
 30
0.0
 11
-8.725608443924909E-16
 21
-4.75000000000001
 31
0.0
210
0.0
220
0.0
230
1.0
 40
0.7071067811865412
 41
0.8736482899486093
 42
2.267944363641179
  0
LINE
  5
B2
330
8F
100
AcDbEntity
  8
AM_9
100
AcDbLine
 10
44.96492021565255
 20
-2.674999999999997
 30
0.0
 11
45.34322234358736
 21
-2.674999999999997
 31
0.0
  0
LINE
  5
B3
330
8F
100
AcDbEntity
  8
AM_9
100
AcDbLine
 10
45.34322234358736
 20
2.675000000000003
 30
0.0
 11
44.96492021565255
 21
2.675000000000003
 31
0.0
  0
ELLIPSE
  5
B4
330
8F
100
AcDbEntity
  8
AM_9
100
AcDbEllipse
 10
45.34322234358736
 20
0.0000000000000052
 30
0.0
 11
-4.913895281578755E-16
 21
-2.675
 31
0.0
210
0.0
220
0.0
230
1.0
 40
0.7071067811865483
 41
5.888394187479824
 42
9.81956908046914
  0
ELLIPSE
  5
B5
330
8F
100
AcDbEntity
  8
AM_9
100
AcDbEllipse
 10
46.2624611591299
 20
0.000000000000012
 30
0.0
 11
-5.832380380939243E-16
 21
-3.174999999999986
 31
0.0
210
0.0
220
0.0
230
1.0
 40
0.7071067811865411
 41
0.41591405210254
 42
2.725678601487252
  0
ELLIPSE
  5
B6
330
8F
100
AcDbEntity
  8
AM_9
100
AcDbEllipse
 10
40.9414826307011
 20
0.0000000000000029
 30
0.0
 11
-9.184850993605148E-16
 21
-5.0
 31
0.0
210
0.0
220
0.0
230
1.0
 40
0.7071067811865476
 41
0.0
 42
6.283185307179586
  0
ELLIPSE
  5
B7
330
8F
100
AcDbEntity
  8
AM_9
100
AcDbEllipse
 10
40.94148263070109
 20
-0.0000000000000027
 30
0.0
 11
-9.092325864233693E-16
 21
-4.949631665534979
 31
0.0
210
0.0
220
0.0
230
1.0
 40
0.7071067811865481
 41
0.0
 42
6.283185307179586
  0
ELLIPSE
  5
B8
330
8F
100
AcDbEntity
  8
AM_9
100
AcDbEllipse
 10
36.60623620131188
 20
-0.0000000000000044
 30
0.0
 11
-8.740358316248960E-16
 21
-4.758029456511782
 31
0.0
210
0.0
220
0.0
230
1.0
 40
0.7071067811865477
 41
0.0
 42
6.283185307179586
  0
LWPOLYLINE
  5
BA
330
8F
100
AcDbEntity
  8
AM_4
100
AcDbPolyline
 90
        3
 70
     0
 43
0.0
 10
45.86902359043497
 20
3.103744181182881
 10
45.57567191461852
 20
3.750000000000003
 10
44.95748988407581
 20
5.000000000000003
  0
LWPOLYLINE
  5
BB
330
8F
100
AcDbEntity
  8
AM_4
100
AcDbPolyline
 90
        3
 70
     0
 43
0.0
 10
44.95748988407581
 20
-4.999999999999997
 10
45.57303568050693
 20
-3.755620336590863
 10
45.87171672860689
 20
-3.097599803833519
  0
ELLIPSE
  5
BC
330
8F
100
AcDbEntity
  8
AM_4
100
AcDbEllipse
 10
43.06280297426072
 20
-0.0000000000000142
 30
0.0
 11
-9.184850993605183E-16
 21
-5.00000000000002
 31
0.0
210
0.0
220
0.0
230
1.0
 40
0.707106781186549
 41
2.243387514962514
 42
7.181390445806869
  0
ELLIPSE
  5
BD
330
8F
100
AcDbEntity
  8
AM_4
100
AcDbEllipse
 10
43.67827739335733
 20
-0.0000000000000029
 30
0.0
 11
-6.627024103768206E-16
 21
-3.60758389460112
 31
0.0
210
0.0
220
0.0
230
1.0
 40
0.7071067811865485
 41
2.47820933840087
 42
6.946568622368513
  0
LINE
  5
BE
330
8F
100
AcDbEntity
  8
AM_4
100
AcDbLine
 10
45.09046354576878
 20
2.748977116714939
 30
0.0
 11
45.06707719111867
 21
2.762453989376799
 31
0.0
  0
LINE
  5
BF
330
8F
100
AcDbEntity
  8
AM_4
100
AcDbLine
 10
45.06707719111867
 20
-2.762453989376794
 30
0.0
 11
45.09046354576877
 21
-2.748977116714933
 31
0.0
  0
ELLIPSE
  5
C0
330
8F
100
AcDbEntity
  8
AM_4
100
AcDbEllipse
 10
44.2711164437921
 20
0.0000000000000024
 30
0.0
 11
-5.479672885901694E-16
 21
-2.982994982562513
 31
0.0
210
0.0
220
0.0
230
1.0
 40
0.7071067811865487
 41
2.754650415401408
 42
6.670127545367972
  0
ELLIPSE
  5
C1
330
8F
100
AcDbEntity
  8
AM_4
100
AcDbEllipse
 10
43.06280297426073
 20
0.0000000000000027
 30
0.0
 11
-8.725608443924888E-16
 21
-4.749999999999998
 31
0.0
210
0.0
220
0.0
230
1.0
 40
0.7071067811865475
 41
2.267944363641178
 42
7.156833597128203
  0
LWPOLYLINE
  5
C2
330
8F
100
AcDbEntity
  8
AM_4
100
AcDbPolyline
 90
        3
 70
     0
 43
0.0
 10
40.00094079578177
 20
2.500000000000003
 10
39.45194755766058
 20
1.250000000000003
 10
38.83376552711785
 20
0.0000000000000029
  0
LWPOLYLINE
  5
C3
330
8F
100
AcDbEntity
  8
AM_4
100
AcDbPolyline
 90
        3
 70
     0
 43
0.0
 10
40.87500697943717
 20
5.000000000000003
 10
40.47452103531875
 20
3.75562033659087
 10
40.00094079578177
 20
2.500000000000003
  0
LINE
  5
C4
330
8F
100
AcDbEntity
  8
AM_4
100
AcDbLine
 10
44.95748988407581
 20
5.000000000000003
 30
0.0
 11
39.04679572088603
 21
5.000000000000003
 31
0.0
  0
LWPOLYLINE
  5
C5
330
8F
100
AcDbEntity
  8
AM_4
100
AcDbPolyline
 90
        3
 70
     0
 43
0.0
 10
37.87962045222212
 20
2.500000000000002
 10
38.42861369034331
 20
3.750000000000002
 10
39.04679572088603
 20
5.000000000000003
  0
LWPOLYLINE
  5
C6
330
8F
100
AcDbEntity
  8
AM_4
100
AcDbPolyline
 90
        3
 70
     0
 43
0.0
 10
37.00555426856672
 20
0.0000000000000028
 10
37.40604021268513
 20
1.244379663409136
 10
37.87962045222212
 20
2.500000000000002
  0
LINE
  5
C7
330
8F
100
AcDbEntity
  8
AM_4
100
AcDbLine
 10
44.95748988407581
 20
-4.999999999999997
 30
0.0
 11
39.04679572088603
 21
-4.999999999999997
 31
0.0
  0
LWPOLYLINE
  5
C8
330
8F
100
AcDbEntity
  8
AM_4
100
AcDbPolyline
 90
        3
 70
     0
 43
0.0
 10
40.00094079578177
 20
-2.499999999999995
 10
40.47256828382023
 20
-3.749999999999997
 10
40.87500697943717
 20
-4.999999999999997
  0
LWPOLYLINE
  5
C9
330
8F
100
AcDbEntity
  8
AM_4
100
AcDbPolyline
 90
        3
 70
     0
 43
0.0
 10
38.83376552711785
 20
0.0000000000000029
 10
39.449311323549
 20
-1.24437966340913
 10
40.00094079578177
 20
-2.499999999999995
  0
LINE
  5
CA
330
8F
100
AcDbEntity
  8
AM_4
100
AcDbLine
 10
38.83376552711785
 20
0.0000000000000029
 30
0.0
 11
37.00555426856672
 21
0.0000000000000028
 31
0.0
  0
LWPOLYLINE
  5
CB
330
8F
100
AcDbEntity
  8
AM_4
100
AcDbPolyline
 90
        3
 70
     0
 43
0.0
 10
37.87962045222212
 20
-2.499999999999997
 10
37.40799296418366
 20
-1.249999999999997
 10
37.00555426856672
 20
0.0000000000000028
  0
LWPOLYLINE
  5
CC
330
8F
100
AcDbEntity
  8
AM_4
100
AcDbPolyline
 90
        3
 70
     0
 43
0.0
 10
39.04679572088603
 20
-4.999999999999997
 10
38.4312499244549
 20
-3.755620336590864
 10
37.87962045222212
 20
-2.499999999999997
  0
LINE
  5
CD
330
8F
100
AcDbEntity
  8
AM_4
100
AcDbLine
 10
44.84824759675677
 20
-2.674999999999997
 30
0.0
 11
44.96492021565255
 21
-2.674999999999997
 31
0.0
  0
LINE
  5
CE
330
8F
100
AcDbEntity
  8
AM_4
100
AcDbLine
 10
44.96492021565255
 20
2.675000000000003
 30
0.0
 11
44.84824759675677
 21
2.675000000000003
 31
0.0
  0
ELLIPSE
  5
CF
330
8F
100
AcDbEntity
  8
AM_4
100
AcDbEllipse
 10
44.84824759675676
 20
0.0000000000000031
 30
0.0
 11
-4.913895281578743E-16
 21
-2.674999999999994
 31
0.0
210
0.0
220
0.0
230
1.0
 40
0.7071067811865501
 41
3.141592653589793
 42
6.283185307179586
  0
LINE
  5
D0
330
8F
100
AcDbEntity
  8
AM_4
100
AcDbLine
 10
44.61571825140504
 20
-2.469230769230767
 30
0.0
 11
45.39897499364245
 21
-2.930769230769228
 31
0.0
  0
LINE
  5
D1
330
8F
100
AcDbEntity
  8
AM_4
100
AcDbLine
 10
45.39897499364245
 20
2.930769230769234
 30
0.0
 11
44.61571825140504
 21
2.469230769230772
 31
0.0
  0
ELLIPSE
  5
D2
330
8F
100
AcDbEntity
  8
AM_4
100
AcDbEllipse
 10
46.26246115912987
 20
0.0000000000000027
 30
0.0
 11
-5.832380380939283E-16
 21
-3.175000000000007
 31
0.0
210
0.0
220
0.0
230
1.0
 40
0.7071067811865454
 41
2.725678601487245
 42
6.699099359282135
  0
ELLIPSE
  5
D3
330
8F
100
AcDbEntity
  8
AM_4
100
AcDbEllipse
 10
45.34322234358736
 20
0.0000000000000031
 30
0.0
 11
-4.913895281578760E-16
 21
-2.675000000000003
 31
0.0
210
0.0
220
0.0
230
1.0
 40
0.7071067811865502
 41
3.536383773289558
 42
5.888394187479823
  0
LINE
  5
D4
330
8F
100
AcDbEntity
  8
AM_4
100
AcDbLine
 10
48.35288721878428
 20
2.165159119691911
 30
0.0
 11
47.16952590603703
 21
2.904323000259531
 31
0.0
  0
LINE
  5
D5
330
8F
100
AcDbEntity
  8
AM_4
100
AcDbLine
 10
47.16952590603703
 20
-2.904323000259525
 30
0.0
 11
48.35288721878428
 21
-2.165159119691905
 31
0.0
  0
ELLIPSE
  5
D6
330
8F
100
AcDbEntity
  8
AM_4
100
AcDbEllipse
 10
47.67667472150294
 20
-0.0000000000000082
 30
0.0
 11
-4.348012108217478E-16
 21
-2.366947548329708
 31
0.0
210
0.0
220
0.0
230
1.0
 40
0.7071067811865492
 41
0.0
 42
6.283185307179586
  0
ENDBLK
  5
92
330
8F
100
AcDbEntity
  8
0
100
AcDbBlockEnd
  0
BLOCK
  5
D9
330
D7
100
AcDbEntity
  8
0
100
AcDbBlockBegin
  2
3_125632_0_in_125662_4
 70
     2
 10
0.0
 20
0.0
 30
0.0
  3
3_125632_0_in_125662_4
  1

  0
ATTDEF
  5
DB
330
D7
100
AcDbEntity
  8
AM_6
100
AcDbText
 10
53.33250000000001
 20
19.1
 30
0.0
 40
0.5
  1
Eccentric Collar Insert Metric Bore
100
AcDbAttributeDefinition
  3

  2
NN
 70
     8
280
     0
  0
ATTDEF
  5
DC
330
D7
100
AcDbEntity
  8
AM_6
100
AcDbText
 10
53.33250000000001
 20
18.6
 30
0.0
 40
0.5
  1
SXR Normal Duty Bearing Inserts
100
AcDbAttributeDefinition
  3

  2
NT
 70
     8
280
     0
  0
ATTDEF
  5
DD
330
D7
100
AcDbEntity
  8
AM_6
100
AcDbText
 10
53.33250000000001
 20
18.1
 30
0.0
 40
0.5
  1
125632
100
AcDbAttributeDefinition
  3

  2
NB
 70
     8
280
     0
  0
ATTDEF
  5
DE
330
D7
100
AcDbEntity
  8
AM_6
100
AcDbText
 10
53.33250000000001
 20
17.6
 30
0.0
 40
0.5
  1
$PN.
100
AcDbAttributeDefinition
  3

  2
NBSYN
 70
     8
280
     0
  0
ATTDEF
  5
DF
330
D7
100
AcDbEntity
  8
AM_6
100
AcDbText
 10
53.33250000000001
 20
17.1
 30
0.0
 40
0.5
  1
125632
100
AcDbAttributeDefinition
  3

  2
LINA
 70
     8
280
     0
  0
ATTDEF
  5
E0
330
D7
100
AcDbEntity
  8
AM_6
100
AcDbText
 10
53.33250000000001
 20
16.6
 30
0.0
 40
0.5
  1
210
100
AcDbAttributeDefinition
  3

  2
SERIES
 70
     8
280
     0
  0
ATTDEF
  5
E1
330
D7
100
AcDbEntity
  8
AM_6
100
AcDbText
 10
53.33250000000001
 20
16.1
 30
0.0
 40
0.5
  1
50
100
AcDbAttributeDefinition
  3

  2
SS
 70
     8
280
     0
  0
ATTDEF
  5
E2
330
D7
100
AcDbEntity
  8
AM_6
100
AcDbText
 10
53.33250000000001
 20
15.6
 30
0.0
 40
0.5
  1
125632
100
AcDbAttributeDefinition
  3

  2
PN
 70
     8
280
     0
  0
ATTDEF
  5
E3
330
D7
100
AcDbEntity
  8
AM_6
100
AcDbText
 10
53.33250000000001
 20
15.1
 30
0.0
 40
0.5
  1
INS-SXR-50M
100
AcDbAttributeDefinition
  3

  2
DESCRIPTION
 70
     8
280
     0
  0
ATTDEF
  5
E4
330
D7
100
AcDbEntity
  8
AM_6
100
AcDbText
 10
53.33250000000001
 20
14.6
 30
0.0
 40
0.5
  1
1.0
100
AcDbAttributeDefinition
  3

  2
WEIGHT
 70
     8
280
     0
  0
ATTDEF
  5
E5
330
D7
100
AcDbEntity
  8
AM_6
100
AcDbText
 10
53.33250000000001
 20
14.1
 30
0.0
 40
0.5
  1
57.2
100
AcDbAttributeDefinition
  3

  2
A
 70
     8
280
     0
  0
ATTDEF
  5
E6
330
D7
100
AcDbEntity
  8
AM_6
100
AcDbText
 10
53.33250000000001
 20
13.6
 30
0.0
 40
0.5
  1
22.1
100
AcDbAttributeDefinition
  3

  2
C
 70
     8
280
     0
  0
ATTDEF
  5
E7
330
D7
100
AcDbEntity
  8
AM_6
100
AcDbText
 10
53.33250000000001
 20
13.1
 30
0.0
 40
0.5
  1
90.000
100
AcDbAttributeDefinition
  3

  2
D
 70
     8
280
     0
  0
ATTDEF
  5
E8
330
D7
100
AcDbEntity
  8
AM_6
100
AcDbText
 10
53.33250000000001
 20
12.6
 30
0.0
 40
0.5
  1
6.4
100
AcDbAttributeDefinition
  3

  2
J
 70
     8
280
     0
  0
ATTDEF
  5
E9
330
D7
100
AcDbEntity
  8
AM_6
100
AcDbText
 10
53.33250000000001
 20
12.1
 30
0.0
 40
0.5
  1
69.9
100
AcDbAttributeDefinition
  3

  2
L
 70
     8
280
     0
  0
ATTDEF
  5
EA
330
D7
100
AcDbEntity
  8
AM_6
100
AcDbText
 10
53.33250000000001
 20
11.6
 30
0.0
 40
0.5
  1
M10 x 1.5
100
AcDbAttributeDefinition
  3

  2
N
 70
     8
280
     0
  0
ATTDEF
  5
EB
330
D7
100
AcDbEntity
  8
AM_6
100
AcDbText
 10
53.33250000000001
 20
11.1
 30
0.0
 40
0.5
  1
19.1
100
AcDbAttributeDefinition
  3

  2
W
 70
     8
280
     0
  0
ATTDEF
  5
EC
330
D7
100
AcDbEntity
  8
AM_6
100
AcDbText
 10
53.33250000000001
 20
10.6
 30
0.0
 40
0.5
  1
38.1
100
AcDbAttributeDefinition
  3

  2
Y
 70
     8
280
     0
  0
ATTDEF
  5
ED
330
D7
100
AcDbEntity
  8
AM_6
100
AcDbText
 10
53.33250000000001
 20
10.1
 30
0.0
 40
0.5
  1
61.7
100
AcDbAttributeDefinition
  3

  2
Z
 70
     8
280
     0
  0
ATTDEF
  5
EE
330
D7
100
AcDbEntity
  8
AM_6
100
AcDbText
 10
53.33250000000001
 20
9.600000000000001
 30
0.0
 40
0.5
  1
baldor
100
AcDbAttributeDefinition
  3

  2
COMPANY
 70
     8
280
     0
  0
LINE
  5
EF
330
D7
100
AcDbEntity
  8
AM_9
100
AcDbLine
 10
44.16666666666666
 20
9.733333333333334
 30
0.0
 11
43.93517561940919
 21
9.733333333333334
 31
0.0
  0
ARC
  5
F0
330
D7
100
AcDbEntity
  8
AM_9
100
AcDbCircle
 10
44.16666666666665
 20
6.399999999999974
 30
0.0
 40
3.333333333333363
100
AcDbArc
 50
282.5309559928303
 51
90.0
  0
LINE
  5
F1
330
D7
100
AcDbEntity
  8
AM_9
100
AcDbLine
 10
44.16666666666666
 20
9.733333333333334
 30
0.0
 11
44.16666666666666
 21
8.137065972217863
 31
0.0
  0
LINE
  5
F2
330
D7
100
AcDbEntity
  8
AM_9
100
AcDbLine
 10
25.0
 20
-22.78745832271555
 30
0.0
 11
25.0
 21
18.658
 31
0.0
  0
LINE
  5
F3
330
D7
100
AcDbEntity
  8
AM_9
100
AcDbLine
 10
-25.0
 20
18.658
 30
0.0
 11
-25.0
 21
-22.78745832271555
 31
0.0
  0
LINE
  5
F4
330
D7
100
AcDbEntity
  8
AM_9
100
AcDbLine
 10
25.0
 20
-37.65799999999999
 30
0.0
 11
25.0
 21
-23.41254071728445
 31
0.0
  0
LINE
  5
F5
330
D7
100
AcDbEntity
  8
AM_9
100
AcDbLine
 10
-25.0
 20
-23.41254071728445
 30
0.0
 11
-25.0
 21
-37.65799999999999
 31
0.0
  0
LINE
  5
F6
330
D7
100
AcDbEntity
  8
AM_9
100
AcDbLine
 10
-25.0
 20
-23.41254071728445
 30
0.0
 11
25.0
 21
-23.41254071728445
 31
0.0
  0
LINE
  5
F7
330
D7
100
AcDbEntity
  8
AM_9
100
AcDbLine
 10
25.0
 20
-23.41254071728445
 30
0.0
 11
25.31254119728445
 21
-23.09999952
 31
0.0
  0
LINE
  5
F8
330
D7
100
AcDbEntity
  8
AM_9
100
AcDbLine
 10
-25.31254119728445
 20
-23.09999952
 30
0.0
 11
-25.0
 21
-23.41254071728445
 31
0.0
  0
LINE
  5
F9
330
D7
100
AcDbEntity
  8
AM_9
100
AcDbLine
 10
-25.0
 20
-22.78745832271555
 30
0.0
 11
25.0
 21
-22.78745832271555
 31
0.0
  0
LINE
  5
FA
330
D7
100
AcDbEntity
  8
AM_9
100
AcDbLine
 10
-25.31254119728445
 20
-23.09999952
 30
0.0
 11
25.31254119728445
 21
-23.09999952
 31
0.0
  0
LINE
  5
FB
330
D7
100
AcDbEntity
  8
AM_9
100
AcDbLine
 10
-25.0
 20
-22.78745832271555
 30
0.0
 11
-25.31254119728445
 21
-23.09999952
 31
0.0
  0
LINE
  5
FC
330
D7
100
AcDbEntity
  8
AM_9
100
AcDbLine
 10
25.31254119728445
 20
-23.09999952
 30
0.0
 11
25.0
 21
-22.78745832271555
 31
0.0
  0
LINE
  5
FD
330
D7
100
AcDbEntity
  8
AM_9
100
AcDbLine
 10
25.0
 20
18.658
 30
0.0
 11
25.442
 21
19.1
 31
0.0
  0
LINE
  5
FE
330
D7
100
AcDbEntity
  8
AM_9
100
AcDbLine
 10
-25.442
 20
19.1
 30
0.0
 11
-25.0
 21
18.658
 31
0.0
  0
LINE
  5
FF
330
D7
100
AcDbEntity
  8
AM_9
100
AcDbLine
 10
-25.0
 20
-37.65799999999999
 30
0.0
 11
25.0
 21
-37.65799999999999
 31
0.0
  0
LINE
  5
100
330
D7
100
AcDbEntity
  8
AM_9
100
AcDbLine
 10
-25.0
 20
-37.65799999999999
 30
0.0
 11
-25.442
 21
-38.09999999999999
 31
0.0
  0
LINE
  5
101
330
D7
100
AcDbEntity
  8
AM_9
100
AcDbLine
 10
25.442
 20
-38.09999999999999
 30
0.0
 11
25.0
 21
-37.65799999999999
 31
0.0
  0
LINE
  5
102
330
D7
100
AcDbEntity
  8
AM_9
100
AcDbLine
 10
30.85
 20
11.05
 30
0.0
 11
30.85
 21
18.04467632051786
 31
0.0
  0
LINE
  5
103
330
D7
100
AcDbEntity
  8
AM_9
100
AcDbLine
 10
-30.85
 20
18.04467632051786
 30
0.0
 11
-30.85
 21
11.05
 31
0.0
  0
LINE
  5
104
330
D7
100
AcDbEntity
  8
AM_9
100
AcDbLine
 10
30.85
 20
-18.04467632051786
 30
0.0
 11
30.85
 21
-11.05
 31
0.0
  0
LINE
  5
105
330
D7
100
AcDbEntity
  8
AM_9
100
AcDbLine
 10
-30.85
 20
-11.05
 30
0.0
 11
-30.85
 21
-18.04467632051786
 31
0.0
  0
LINE
  5
106
330
D7
100
AcDbEntity
  8
AM_9
100
AcDbLine
 10
42.85714320000004
 20
-7.680000000000002
 30
0.0
 11
42.85714320000004
 21
-5.119999999999999
 31
0.0
  0
LINE
  5
107
330
D7
100
AcDbEntity
  8
AM_9
100
AcDbLine
 10
-42.85714320000004
 20
-5.119999999999999
 30
0.0
 11
-42.85714320000004
 21
-7.680000000000002
 31
0.0
  0
LINE
  5
108
330
D7
100
AcDbEntity
  8
AM_9
100
AcDbLine
 10
-42.92870717829737
 20
11.05
 30
0.0
 11
42.92870717828542
 21
11.05
 31
0.0
  0
ARC
  5
109
330
D7
100
AcDbEntity
  8
AM_9
100
AcDbCircle
 10
42.92870717829739
 20
10.16600000000003
 30
0.0
 40
0.8839999999999741
100
AcDbArc
 50
13.32285625340159
 51
90.0
  0
ARC
  5
10A
330
D7
100
AcDbEntity
  8
AM_9
100
AcDbCircle
 10
-42.92870717829739
 20
10.16600000000003
 30
0.0
 40
0.8839999999999684
100
AcDbArc
 50
90.0
 51
166.6771437465984
  0
LINE
  5
10B
330
D7
100
AcDbEntity
  8
AM_9
100
AcDbLine
 10
-42.92870717829738
 20
-11.05
 30
0.0
 11
42.92870717828544
 21
-11.05
 31
0.0
  0
ARC
  5
10C
330
D7
100
AcDbEntity
  8
AM_9
100
AcDbCircle
 10
42.92870717829737
 20
-10.166
 30
0.0
 40
0.8840000000000021
100
AcDbArc
 50
270.0
 51
346.6771437465954
  0
ARC
  5
10D
330
D7
100
AcDbEntity
  8
AM_9
100
AcDbCircle
 10
-42.92870717829737
 20
-10.16599999999999
 30
0.0
 40
0.8839999999999998
100
AcDbArc
 50
193.3228562534046
 51
270.0
  0
LINE
  5
10E
330
D7
100
AcDbEntity
  8
AM_9
100
AcDbLine
 10
-43.78891610806468
 20
-10.36970713573308
 30
0.0
 11
43.78891610806734
 21
-10.36970713573308
 31
0.0
  0
LINE
  5
10F
330
D7
100
AcDbEntity
  8
AM_9
100
AcDbLine
 10
-44.33979702253947
 20
-7.680000000000002
 30
0.0
 11
44.33979702254212
 21
-7.680000000000002
 31
0.0
  0
ARC
  5
110
330
D7
100
AcDbEntity
  8
AM_9
100
AcDbCircle
 10
0.0000000054771121
 20
-0.0000000011213519
 30
0.0
 40
44.99999999441448
100
AcDbArc
 50
346.6771437463797
 51
350.173417283647
  0
ARC
  5
111
330
D7
100
AcDbEntity
  8
AM_9
100
AcDbCircle
 10
-0.0000000054568119
 20
-0.0000000011171952
 30
0.0
 40
44.99999999443519
100
AcDbArc
 50
189.8265827163537
 51
193.3228562536194
  0
LINE
  5
112
330
D7
100
AcDbEntity
  8
AM_9
100
AcDbLine
 10
-44.7077800835604
 20
-5.120000000000003
 30
0.0
 11
44.70778008356007
 21
-5.120000000000003
 31
0.0
  0
LINE
  5
113
330
D7
100
AcDbEntity
  8
AM_9
100
AcDbLine
 10
-43.78891610806468
 20
10.36970713573307
 30
0.0
 11
43.78891610806436
 21
10.36970713573307
 31
0.0
  0
LINE
  5
114
330
D7
100
AcDbEntity
  8
AM_9
100
AcDbLine
 10
43.93474959781024
 20
9.733333333323651
 30
0.0
 11
44.88989019810805
 21
3.146070247426781
 31
0.0
  0
ARC
  5
115
330
D7
100
AcDbEntity
  8
AM_9
100
AcDbCircle
 10
-0.0000000000398401
 20
-0.0000000000008868
 30
0.0
 40
45.00000000003915
100
AcDbArc
 50
353.4668658295445
 51
4.008971413226142
  0
ARC
  5
116
330
D7
100
AcDbEntity
  8
AM_9
100
AcDbCircle
 10
-0.0000000057315077
 20
-0.0000000012898163
 30
0.0
 40
45.00000000587416
100
AcDbArc
 50
12.48784832416313
 51
13.32285625331983
  0
ARC
  5
117
330
D7
100
AcDbEntity
  8
AM_9
100
AcDbCircle
 10
0.0000000000217568
 20
-0.0000000000012568
 30
0.0
 40
45.00000000002114
100
AcDbArc
 50
166.6771437466014
 51
186.5331341704575
  0
LINE
  5
11A
330
D7
100
AcDbEntity
  8
AM_7
100
AcDbLine
 10
-4.3974
 20
-30.59999976
 30
0.0
 11
4.3974
 21
-30.59999976
 31
0.0
  0
LINE
  5
11B
330
D7
100
AcDbEntity
  8
AM_7
100
AcDbLine
 10
30.0175
 20
6.4
 30
0.0
 11
48.33250000000001
 21
6.4
 31
0.0
  0
LINE
  5
11C
330
D7
100
AcDbEntity
  8
AM_4
100
AcDbLine
 10
29.380952616
 20
-21.1
 30
0.0
 11
29.380952616
 21
-20.1
 31
0.0
  0
LINE
  5
11D
330
D7
100
AcDbEntity
  8
AM_4
100
AcDbLine
 10
-29.380952616
 20
-20.1
 30
0.0
 11
-29.380952616
 21
-21.1
 31
0.0
  0
LINE
  5
11E
330
D7
100
AcDbEntity
  8
AM_4
100
AcDbLine
 10
-30.408
 20
-20.1
 30
0.0
 11
30.408
 21
-20.1
 31
0.0
  0
LINE
  5
11F
330
D7
100
AcDbEntity
  8
AM_4
100
AcDbLine
 10
30.408
 20
-20.1
 30
0.0
 11
30.85
 21
-19.658
 31
0.0
  0
LINE
  5
120
330
D7
100
AcDbEntity
  8
AM_4
100
AcDbLine
 10
-30.85
 20
-19.658
 30
0.0
 11
-30.408
 21
-20.1
 31
0.0
  0
LINE
  5
121
330
D7
100
AcDbEntity
  8
AM_4
100
AcDbLine
 10
-30.408
 20
19.1
 30
0.0
 11
30.408
 21
19.1
 31
0.0
  0
LINE
  5
122
330
D7
100
AcDbEntity
  8
AM_4
100
AcDbLine
 10
-30.408
 20
19.1
 30
0.0
 11
-30.85
 21
18.658
 31
0.0
  0
LINE
  5
123
330
D7
100
AcDbEntity
  8
AM_4
100
AcDbLine
 10
30.85
 20
18.658
 30
0.0
 11
30.408
 21
19.1
 31
0.0
  0
LINE
  5
124
330
D7
100
AcDbEntity
  8
AM_4
100
AcDbLine
 10
-30.85
 20
18.658
 30
0.0
 11
30.85
 21
18.658
 31
0.0
  0
LINE
  5
125
330
D7
100
AcDbEntity
  8
AM_4
100
AcDbLine
 10
30.85
 20
18.04467632051786
 30
0.0
 11
30.85
 21
18.658
 31
0.0
  0
LINE
  5
126
330
D7
100
AcDbEntity
  8
AM_4
100
AcDbLine
 10
-30.85
 20
18.658
 30
0.0
 11
-30.85
 21
18.04467632051786
 31
0.0
  0
LINE
  5
127
330
D7
100
AcDbEntity
  8
AM_4
100
AcDbLine
 10
-30.85
 20
-19.658
 30
0.0
 11
30.85
 21
-19.658
 31
0.0
  0
LINE
  5
128
330
D7
100
AcDbEntity
  8
AM_4
100
AcDbLine
 10
30.85
 20
-19.658
 30
0.0
 11
30.85
 21
-18.04467632051786
 31
0.0
  0
LINE
  5
129
330
D7
100
AcDbEntity
  8
AM_4
100
AcDbLine
 10
-30.85
 20
-18.04467632051786
 30
0.0
 11
-30.85
 21
-19.658
 31
0.0
  0
CIRCLE
  5
12A
330
D7
100
AcDbEntity
  8
AM_4
100
AcDbCircle
 10
0.0
 20
-30.59999976
 30
0.0
 40
4.188
  0
LWPOLYLINE
  5
12B
330
D7
100
AcDbEntity
  8
AM_4
100
AcDbPolyline
 90
       39
 70
     0
 43
0.0
 10
-3.076849633414286
 20
-27.43819626543477
 10
-2.607209806993475
 20
-26.99361256605318
 10
-2.063677261562189
 20
-26.61626720533732
 10
-1.412178872597455
 20
-26.30735955411332
 10
-0.6932985500625453
 20
-26.11261541058857
 10
-0.0131055792111581
 20
-26.05251835186037
 10
0.6881859243671905
 20
-26.11172624865286
 10
1.331984848250325
 20
-26.27850564621967
 10
1.956447850973786
 20
-26.55566201934098
 10
2.524985786259776
 20
-26.92822476151671
 10
3.040018080969893
 20
-27.39830422332243
 10
3.486182309441322
 20
-27.95965881786598
 10
3.846867467444108
 20
-28.60121688190889
 10
4.108303039221034
 20
-29.31290795982637
 10
4.255555153695568
 20
-30.07796895037148
 10
4.276759705289864
 20
-30.86312936002003
 10
4.164931022169743
 20
-31.663031063103
 10
3.925880860370946
 20
-32.41780228893696
 10
3.550923488143838
 20
-33.14136843593648
 10
3.079741147972861
 20
-33.75862977987641
 10
2.488758488614149
 20
-34.29956612385656
 10
1.862539519547332
 20
-34.6940807481902
 10
1.152790244917431
 20
-34.97929856330686
 10
0.4720021652729169
 20
-35.11973607465015
 10
-0.2449544654501106
 20
-35.1400407279553
 10
-0.905349877393886
 20
-35.04450119964949
 10
-1.558710626121149
 20
-34.83498865154557
 10
-2.156173979178717
 20
-34.52805739493873
 10
-2.710924733795946
 20
-34.11910286355877
 10
-3.203436426209945
 20
-33.61684717275448
 10
-3.62075526263534
 20
-33.02793969528111
 10
-3.949687132292343
 20
-32.35885403707059
 10
-4.173119348616907
 20
-31.62630597545996
 10
-4.277221714850508
 20
-30.85455227736589
 10
-4.252909973910286
 20
-30.05428524961231
 10
-4.098290664315082
 20
-29.27751489563228
 10
-3.806738417306695
 20
-28.51658642266497
 10
-3.484160998081379
 20
-27.95665692474842
 10
-3.076849633517699
 20
-27.43819626536704
  0
LINE
  5
12C
330
D7
100
AcDbEntity
  8
AM_4
100
AcDbLine
 10
34.95
 20
-36.84999999999999
 30
0.0
 11
34.95
 21
-22.35
 31
0.0
  0
LINE
  5
12D
330
D7
100
AcDbEntity
  8
AM_4
100
AcDbLine
 10
-34.95
 20
-22.35
 30
0.0
 11
-34.95
 21
-36.84999999999999
 31
0.0
  0
LINE
  5
12E
330
D7
100
AcDbEntity
  8
AM_4
100
AcDbLine
 10
-33.70000000000001
 20
-38.09999999999999
 30
0.0
 11
33.69999999999455
 21
-38.09999999999999
 31
0.0
  0
LINE
  5
12F
330
D7
100
AcDbEntity
  8
AM_4
100
AcDbLine
 10
-34.95
 20
-36.84999999999999
 30
0.0
 11
34.95
 21
-36.84999999999999
 31
0.0
  0
ARC
  5
130
330
D7
100
AcDbEntity
  8
AM_4
100
AcDbCircle
 10
33.70000000000001
 20
-36.85000000000001
 30
0.0
 40
1.249999999999986
100
AcDbArc
 50
270.0
 51
0.0
  0
ARC
  5
131
330
D7
100
AcDbEntity
  8
AM_4
100
AcDbCircle
 10
-33.70000000000001
 20
-36.85000000000001
 30
0.0
 40
1.249999999999993
100
AcDbArc
 50
180.0
 51
270.0
  0
LINE
  5
132
330
D7
100
AcDbEntity
  8
AM_4
100
AcDbLine
 10
-34.95
 20
-22.35
 30
0.0
 11
34.95
 21
-22.35
 31
0.0
  0
LINE
  5
133
330
D7
100
AcDbEntity
  8
AM_4
100
AcDbLine
 10
-33.7
 20
-21.1
 30
0.0
 11
33.69999999999454
 21
-21.1
 31
0.0
  0
ARC
  5
134
330
D7
100
AcDbEntity
  8
AM_4
100
AcDbCircle
 10
33.69999999999999
 20
-22.35000000000002
 30
0.0
 40
1.250000000000014
100
AcDbArc
 50
0.0
 51
90.0
  0
ARC
  5
135
330
D7
100
AcDbEntity
  8
AM_4
100
AcDbCircle
 10
-33.69999999999999
 20
-22.35000000000002
 30
0.0
 40
1.250000000000014
100
AcDbArc
 50
90.0
 51
180.0
  0
ARC
  5
137
330
D7
100
AcDbEntity
  8
AM_5
100
AcDbCircle
 10
0.0
 20
-30.59999976000001
 30
0.0
 40
5.0
100
AcDbArc
 50
75.0
 51
15.0
  0
ENDBLK
  5
DA
330
D7
100
AcDbEntity
  8
0
100
AcDbBlockEnd
  0
BLOCK
  5
13A
330
138
100
AcDbEntity
  8
0
100
AcDbBlockBegin
  2
4_125662H_0_in_125662_4
 70
     2
 10
0.0
 20
0.0
 30
0.0
  3
4_125662H_0_in_125662_4
  1

  0
ATTDEF
  5
13C
330
138
100
AcDbEntity
  8
AM_6
100
AcDbText
 10
108.1
 20
31.46
 30
0.0
 40
0.5
  1
P2B-SXR -M-Housing
100
AcDbAttributeDefinition
  3

  2
NN
 70
     8
280
     0
  0
ATTDEF
  5
13D
330
138
100
AcDbEntity
  8
AM_6
100
AcDbText
 10
108.1
 20
30.96
 30
0.0
 40
0.5
  1
Eccentric Collar Pillow Block Bearings -(Normal Duty)
100
AcDbAttributeDefinition
  3

  2
NT
 70
     8
280
     0
  0
ATTDEF
  5
13E
330
138
100
AcDbEntity
  8
AM_6
100
AcDbText
 10
108.1
 20
30.46
 30
0.0
 40
0.5
  1
125662H
100
AcDbAttributeDefinition
  3

  2
NB
 70
     8
280
     0
  0
ATTDEF
  5
13F
330
138
100
AcDbEntity
  8
AM_6
100
AcDbText
 10
108.1
 20
29.96
 30
0.0
 40
0.5
  1
$PN.H
100
AcDbAttributeDefinition
  3

  2
NBSYN
 70
     8
280
     0
  0
ATTDEF
  5
140
330
138
100
AcDbEntity
  8
AM_6
100
AcDbText
 10
108.1
 20
29.46
 30
0.0
 40
0.5
  1
125662
100
AcDbAttributeDefinition
  3

  2
LINA
 70
     8
280
     0
  0
ATTDEF
  5
141
330
138
100
AcDbEntity
  8
AM_6
100
AcDbText
 10
108.1
 20
28.96
 30
0.0
 40
0.5
  1
210
100
AcDbAttributeDefinition
  3

  2
SERIES
 70
     8
280
     0
  0
ATTDEF
  5
142
330
138
100
AcDbEntity
  8
AM_6
100
AcDbText
 10
108.1
 20
28.46
 30
0.0
 40
0.5
  1
50
100
AcDbAttributeDefinition
  3

  2
SS
 70
     8
280
     0
  0
ATTDEF
  5
143
330
138
100
AcDbEntity
  8
AM_6
100
AcDbText
 10
108.1
 20
27.96
 30
0.0
 40
0.5
  1
125662
100
AcDbAttributeDefinition
  3

  2
PN
 70
     8
280
     0
  0
ATTDEF
  5
144
330
138
100
AcDbEntity
  8
AM_6
100
AcDbText
 10
108.1
 20
27.46
 30
0.0
 40
0.5
  1
P2B-SXR-50M
100
AcDbAttributeDefinition
  3

  2
DESCRIPTION
 70
     8
280
     0
  0
ATTDEF
  5
145
330
138
100
AcDbEntity
  8
AM_6
100
AcDbText
 10
108.1
 20
26.96
 30
0.0
 40
0.5
  1
3.2
100
AcDbAttributeDefinition
  3

  2
WEIGHT
 70
     8
280
     0
  0
ATTDEF
  5
146
330
138
100
AcDbEntity
  8
AM_6
100
AcDbText
 10
108.1
 20
26.46
 30
0.0
 40
0.5
  1
57.2
100
AcDbAttributeDefinition
  3

  2
A
 70
     8
280
     0
  0
ATTDEF
  5
147
330
138
100
AcDbEntity
  8
AM_6
100
AcDbText
 10
108.1
 20
25.96
 30
0.0
 40
0.5
  1
206.2
100
AcDbAttributeDefinition
  3

  2
B
 70
     8
280
     0
  0
ATTDEF
  5
148
330
138
100
AcDbEntity
  8
AM_6
100
AcDbText
 10
108.1
 20
25.46
 30
0.0
 40
0.5
  1
57.2
100
AcDbAttributeDefinition
  3

  2
C
 70
     8
280
     0
  0
ATTDEF
  5
149
330
138
100
AcDbEntity
  8
AM_6
100
AcDbText
 10
108.1
 20
24.96
 30
0.0
 40
0.5
  1
152.4
100
AcDbAttributeDefinition
  3

  2
DMIN
 70
     8
280
     0
  0
ATTDEF
  5
14A
330
138
100
AcDbEntity
  8
AM_6
100
AcDbText
 10
108.1
 20
24.46
 30
0.0
 40
0.5
  1
169.70
100
AcDbAttributeDefinition
  3

  2
DMAX
 70
     8
280
     0
  0
ATTDEF
  5
14B
330
138
100
AcDbEntity
  8
AM_6
100
AcDbText
 10
108.1
 20
23.96
 30
0.0
 40
0.5
  1
M16
100
AcDbAttributeDefinition
  3

  2
F
 70
     8
280
     0
  0
ATTDEF
  5
14C
330
138
100
AcDbEntity
  8
AM_6
100
AcDbText
 10
108.1
 20
23.46
 30
0.0
 40
0.5
  1
25.9
100
AcDbAttributeDefinition
  3

  2
G
 70
     8
280
     0
  0
ATTDEF
  5
14D
330
138
100
AcDbEntity
  8
AM_6
100
AcDbText
 10
108.1
 20
22.96
 30
0.0
 40
0.5
  1
19.1
100
AcDbAttributeDefinition
  3

  2
H
 70
     8
280
     0
  0
ATTDEF
  5
14E
330
138
100
AcDbEntity
  8
AM_6
100
AcDbText
 10
108.1
 20
22.46
 30
0.0
 40
0.5
  1
115.1
100
AcDbAttributeDefinition
  3

  2
J
 70
     8
280
     0
  0
ATTDEF
  5
14F
330
138
100
AcDbEntity
  8
AM_6
100
AcDbText
 10
108.1
 20
21.96
 30
0.0
 40
0.5
  1
69.9
100
AcDbAttributeDefinition
  3

  2
L
 70
     8
280
     0
  0
ATTDEF
  5
150
330
138
100
AcDbEntity
  8
AM_6
100
AcDbText
 10
108.1
 20
21.46
 30
0.0
 40
0.5
  1
57.2
100
AcDbAttributeDefinition
  3

  2
M
 70
     8
280
     0
  0
ATTDEF
  5
151
330
138
100
AcDbEntity
  8
AM_6
100
AcDbText
 10
108.1
 20
20.96
 30
0.0
 40
0.5
  1
19.1
100
AcDbAttributeDefinition
  3

  2
R
 70
     8
280
     0
  0
ATTDEF
  5
152
330
138
100
AcDbEntity
  8
AM_6
100
AcDbText
 10
108.1
 20
20.46
 30
0.0
 40
0.5
  1
38.1
100
AcDbAttributeDefinition
  3

  2
S
 70
     8
280
     0
  0
ATTDEF
  5
153
330
138
100
AcDbEntity
  8
AM_6
100
AcDbText
 10
108.1
 20
19.96
 30
0.0
 40
0.5
  1
93.7
100
AcDbAttributeDefinition
  3

  2
U
 70
     8
280
     0
  0
ATTDEF
  5
154
330
138
100
AcDbEntity
  8
AM_6
100
AcDbText
 10
108.1
 20
19.46
 30
0.0
 40
0.5
  1
187.5
100
AcDbAttributeDefinition
  3

  2
V
 70
     8
280
     0
  0
ATTDEF
  5
155
330
138
100
AcDbEntity
  8
AM_6
100
AcDbText
 10
108.1
 20
18.96
 30
0.0
 40
0.5
  1
20.6
100
AcDbAttributeDefinition
  3

  2
W
 70
     8
280
     0
  0
ATTDEF
  5
156
330
138
100
AcDbEntity
  8
AM_6
100
AcDbText
 10
108.1
 20
18.46
 30
0.0
 40
0.5
  1
3.0
100
AcDbAttributeDefinition
  3

  2
X
 70
     8
280
     0
  0
ATTDEF
  5
157
330
138
100
AcDbEntity
  8
AM_6
100
AcDbText
 10
108.1
 20
17.96
 30
0.0
 40
0.5
  1
baldor
100
AcDbAttributeDefinition
  3

  2
COMPANY
 70
     8
280
     0
  0
LINE
  5
158
330
138
100
AcDbEntity
  8
AM_9
100
AcDbLine
 10
47.5
 20
-25.60380952380953
 30
0.0
 11
47.5
 21
-14.3
 31
0.0
  0
LINE
  5
159
330
138
100
AcDbEntity
  8
AM_9
100
AcDbLine
 10
45.59
 20
-23.00441490564315
 30
0.0
 11
45.59
 21
-14.3
 31
0.0
  0
LINE
  5
15A
330
138
100
AcDbEntity
  8
AM_9
100
AcDbLine
 10
-47.5
 20
-25.60380952380953
 30
0.0
 11
-47.5
 21
-14.3
 31
0.0
  0
LINE
  5
15B
330
138
100
AcDbEntity
  8
AM_9
100
AcDbLine
 10
-45.59
 20
-23.00441490564314
 30
0.0
 11
-45.59
 21
-14.3
 31
0.0
  0
LINE
  5
15C
330
138
100
AcDbEntity
  8
AM_9
100
AcDbLine
 10
-47.5
 20
-8.579999999999997
 30
0.0
 11
-47.5
 21
25.60380952380952
 31
0.0
  0
LINE
  5
15D
330
138
100
AcDbEntity
  8
AM_9
100
AcDbLine
 10
-45.59
 20
14.3
 30
0.0
 11
-45.59
 21
23.00441490564314
 31
0.0
  0
LINE
  5
15E
330
138
100
AcDbEntity
  8
AM_9
100
AcDbLine
 10
45.59
 20
14.3
 30
0.0
 11
45.59
 21
23.00441490564314
 31
0.0
  0
LINE
  5
15F
330
138
100
AcDbEntity
  8
AM_9
100
AcDbLine
 10
-89.78
 20
7.228941831277942
 30
0.0
 11
-89.78
 21
14.3
 31
0.0
  0
LINE
  5
160
330
138
100
AcDbEntity
  8
AM_9
100
AcDbLine
 10
-93.60000000000001
 20
-14.3
 30
0.0
 11
-93.60000000000001
 21
14.3
 31
0.0
  0
LINE
  5
161
330
138
100
AcDbEntity
  8
AM_9
100
AcDbLine
 10
-89.78
 20
-14.3
 30
0.0
 11
-89.78
 21
-7.228941831277955
 31
0.0
  0
LINE
  5
162
330
138
100
AcDbEntity
  8
AM_9
100
AcDbLine
 10
-65.03456270391935
 20
-14.3
 30
0.0
 11
-65.03456270391935
 21
14.3
 31
0.0
  0
LINE
  5
163
330
138
100
AcDbEntity
  8
AM_9
100
AcDbLine
 10
89.77999999999999
 20
7.228941831277958
 30
0.0
 11
89.77999999999999
 21
14.3
 31
0.0
  0
LINE
  5
164
330
138
100
AcDbEntity
  8
AM_9
100
AcDbLine
 10
93.60000000000001
 20
-14.3
 30
0.0
 11
93.60000000000001
 21
14.3
 31
0.0
  0
LINE
  5
165
330
138
100
AcDbEntity
  8
AM_9
100
AcDbLine
 10
89.77999999999999
 20
-14.3
 30
0.0
 11
89.77999999999999
 21
-7.22894183127796
 31
0.0
  0
LINE
  5
166
330
138
100
AcDbEntity
  8
AM_9
100
AcDbLine
 10
65.03456270391926
 20
-14.3
 30
0.0
 11
65.03456270391926
 21
14.3
 31
0.0
  0
LINE
  5
167
330
138
100
AcDbEntity
  8
AM_9
100
AcDbLine
 10
-60.09111894246111
 20
-14.3
 30
0.0
 11
-60.09111894246111
 21
14.3
 31
0.0
  0
LINE
  5
168
330
138
100
AcDbEntity
  8
AM_9
100
AcDbLine
 10
60.09111894246111
 20
-14.3
 30
0.0
 11
60.09111894246111
 21
14.3
 31
0.0
  0
LINE
  5
169
330
138
100
AcDbEntity
  8
AM_9
100
AcDbLine
 10
-30.40959054975583
 20
-14.3
 30
0.0
 11
-30.40959054975583
 21
14.3
 31
0.0
  0
LINE
  5
16A
330
138
100
AcDbEntity
  8
AM_9
100
AcDbLine
 10
30.40959134313744
 20
-14.3
 30
0.0
 11
30.40959134313744
 21
14.3
 31
0.0
  0
LINE
  5
16B
330
138
100
AcDbEntity
  8
AM_9
100
AcDbLine
 10
-38.18055317326596
 20
-14.3
 30
0.0
 11
-38.18055317326596
 21
14.3
 31
0.0
  0
LINE
  5
16C
330
138
100
AcDbEntity
  8
AM_9
100
AcDbLine
 10
93.60000000000001
 20
-14.3
 30
0.0
 11
-93.60000000000001
 21
-14.3
 31
0.0
  0
LINE
  5
16D
330
138
100
AcDbEntity
  8
AM_9
100
AcDbLine
 10
38.18055317326596
 20
-14.3
 30
0.0
 11
38.18055317326596
 21
14.3
 31
0.0
  0
LINE
  5
16E
330
138
100
AcDbEntity
  8
AM_9
100
AcDbLine
 10
93.60000000000001
 20
14.3
 30
0.0
 11
-93.60000000000001
 21
14.3
 31
0.0
  0
LINE
  5
16F
330
138
100
AcDbEntity
  8
AM_9
100
AcDbLine
 10
-40.38873605350877
 20
-8.579999999999995
 30
0.0
 11
-40.38873605350877
 21
19.20072916666666
 31
0.0
  0
LINE
  5
170
330
138
100
AcDbEntity
  8
AM_9
100
AcDbLine
 10
-37.41657386773941
 20
-8.579999999999995
 30
0.0
 11
-47.5
 21
-8.579999999999997
 31
0.0
  0
LINE
  5
171
330
138
100
AcDbEntity
  8
AM_9
100
AcDbLine
 10
47.5
 20
-8.579999999999997
 30
0.0
 11
37.41657386773941
 21
-8.579999999999995
 31
0.0
  0
LINE
  5
172
330
138
100
AcDbEntity
  8
AM_9
100
AcDbLine
 10
40.38873605350878
 20
-8.579999999999995
 30
0.0
 11
40.38873605350878
 21
19.20072916666666
 31
0.0
  0
LINE
  5
173
330
138
100
AcDbEntity
  8
AM_9
100
AcDbLine
 10
47.5
 20
-8.579999999999997
 30
0.0
 11
47.5
 21
25.60380952380945
 31
0.0
  0
LINE
  5
174
330
138
100
AcDbEntity
  8
AM_9
100
AcDbLine
 10
34.95
 20
-22.88000000000001
 30
0.0
 11
-34.95
 21
-22.88
 31
0.0
  0
LINE
  5
175
330
138
100
AcDbEntity
  8
AM_9
100
AcDbLine
 10
-37.41657386773941
 20
-8.579999999999995
 30
0.0
 11
-37.41657386773941
 21
19.20072916666667
 31
0.0
  0
LINE
  5
176
330
138
100
AcDbEntity
  8
AM_9
100
AcDbLine
 10
37.41657386773941
 20
19.20072916666667
 30
0.0
 11
37.41657386773941
 21
-8.579999999999995
 31
0.0
  0
LINE
  5
177
330
138
100
AcDbEntity
  8
AM_9
100
AcDbLine
 10
45.0
 20
-22.88879286775918
 30
0.0
 11
45.0
 21
-8.579999999999997
 31
0.0
  0
LINE
  5
178
330
138
100
AcDbEntity
  8
AM_9
100
AcDbLine
 10
-45.0
 20
-8.579999999999997
 30
0.0
 11
-45.0
 21
-22.88900244912222
 31
0.0
  0
LINE
  5
179
330
138
100
AcDbEntity
  8
AM_7
100
AcDbLine
 10
-95.275
 20
-20.6
 30
0.0
 11
-92.125
 21
-20.6
 31
0.0
  0
LINE
  5
17A
330
138
100
AcDbEntity
  8
AM_7
100
AcDbLine
 10
-93.7
 20
-22.175
 30
0.0
 11
-93.7
 21
-19.02500000000001
 31
0.0
  0
LINE
  5
17B
330
138
100
AcDbEntity
  8
AM_7
100
AcDbLine
 10
92.125
 20
-20.6
 30
0.0
 11
95.275
 21
-20.6
 31
0.0
  0
LINE
  5
17C
330
138
100
AcDbEntity
  8
AM_7
100
AcDbLine
 10
93.7
 20
-22.175
 30
0.0
 11
93.7
 21
-19.02500000000001
 31
0.0
  0
LINE
  5
17D
330
138
100
AcDbEntity
  8
AM_7
100
AcDbLine
 10
0.0
 20
31.46
 30
0.0
 11
0.0
 21
-40.96
 31
0.0
  0
LINE
  5
17E
330
138
100
AcDbEntity
  8
AM_7
100
AcDbLine
 10
-94.03750000000002
 20
-0.0000000000000044
 30
0.0
 11
-67.0125
 21
0.0000000000000018
 31
0.0
  0
LINE
  5
17F
330
138
100
AcDbEntity
  8
AM_7
100
AcDbLine
 10
-76.20000000000005
 20
-9.187500000000043
 30
0.0
 11
-76.20000000000005
 21
9.187500000000046
 31
0.0
  0
LINE
  5
180
330
138
100
AcDbEntity
  8
AM_7
100
AcDbLine
 10
67.0125
 20
-0.0000000000000053
 30
0.0
 11
94.03750000000002
 21
0.0
 31
0.0
  0
LINE
  5
181
330
138
100
AcDbEntity
  8
AM_7
100
AcDbLine
 10
84.85
 20
-9.18750000000003
 30
0.0
 11
84.85
 21
9.18750000000003
 31
0.0
  0
LINE
  5
182
330
138
100
AcDbEntity
  8
AM_7
100
AcDbLine
 10
76.20000000000005
 20
-9.18750000000005
 30
0.0
 11
76.20000000000005
 21
9.187500000000039
 31
0.0
  0
LINE
  5
183
330
138
100
AcDbEntity
  8
AM_7
100
AcDbLine
 10
-84.85
 20
-9.187500000000036
 30
0.0
 11
-84.85
 21
9.187500000000025
 31
0.0
  0
LINE
  5
184
330
138
100
AcDbEntity
  8
AM_4
100
AcDbLine
 10
103.1
 20
22.88000000000001
 30
0.0
 11
97.38
 21
28.6
 31
0.0
  0
LINE
  5
185
330
138
100
AcDbEntity
  8
AM_4
100
AcDbLine
 10
103.1
 20
-22.88000000000002
 30
0.0
 11
103.1
 21
22.88
 31
0.0
  0
LINE
  5
186
330
138
100
AcDbEntity
  8
AM_4
100
AcDbLine
 10
97.38000000000001
 20
-28.6
 30
0.0
 11
103.1
 21
-22.88000000000002
 31
0.0
  0
LINE
  5
187
330
138
100
AcDbEntity
  8
AM_4
100
AcDbLine
 10
-103.1
 20
-22.87999999999998
 30
0.0
 11
-97.38
 21
-28.59999999999998
 31
0.0
  0
LINE
  5
188
330
138
100
AcDbEntity
  8
AM_4
100
AcDbLine
 10
-97.38
 20
28.6
 30
0.0
 11
-103.1
 21
22.88
 31
0.0
  0
LINE
  5
189
330
138
100
AcDbEntity
  8
AM_4
100
AcDbLine
 10
99.28
 20
21.30622257996864
 30
0.0
 11
99.28
 21
26.7
 31
0.0
  0
LINE
  5
18A
330
138
100
AcDbEntity
  8
AM_4
100
AcDbLine
 10
-99.28
 20
21.30622257996864
 30
0.0
 11
-99.28
 21
26.69999999999998
 31
0.0
  0
LINE
  5
18B
330
138
100
AcDbEntity
  8
AM_4
100
AcDbLine
 10
99.28
 20
-26.70000000000001
 30
0.0
 11
99.28
 21
-21.30622257996866
 31
0.0
  0
LINE
  5
18C
330
138
100
AcDbEntity
  8
AM_4
100
AcDbLine
 10
-103.1
 20
-22.87999999999998
 30
0.0
 11
-103.1
 21
22.88
 31
0.0
  0
LINE
  5
18D
330
138
100
AcDbEntity
  8
AM_4
100
AcDbLine
 10
-99.28
 20
-26.69999999999996
 30
0.0
 11
-99.28
 21
-21.30622257996865
 31
0.0
  0
LINE
  5
18E
330
138
100
AcDbEntity
  8
AM_4
100
AcDbLine
 10
81.35955533438779
 20
23.6
 30
0.0
 11
81.35955533438779
 21
28.6
 31
0.0
  0
LINE
  5
18F
330
138
100
AcDbEntity
  8
AM_4
100
AcDbLine
 10
81.35955533438779
 20
-28.6
 30
0.0
 11
81.35955533438779
 21
-23.6
 31
0.0
  0
LINE
  5
190
330
138
100
AcDbEntity
  8
AM_4
100
AcDbLine
 10
-81.35955533438779
 20
-28.6
 30
0.0
 11
-81.35955533438779
 21
-23.6
 31
0.0
  0
LINE
  5
191
330
138
100
AcDbEntity
  8
AM_4
100
AcDbLine
 10
-81.35955533438779
 20
23.6
 30
0.0
 11
-81.35955533438779
 21
28.6
 31
0.0
  0
CIRCLE
  5
192
330
138
100
AcDbEntity
  8
AM_4
100
AcDbCircle
 10
-93.7
 20
-20.6
 30
0.0
 40
1.5
  0
LINE
  5
193
330
138
100
AcDbEntity
  8
AM_4
100
AcDbLine
 10
-84.85000000000001
 20
8.749999999999998
 30
0.0
 11
-76.2
 21
8.750000000000005
 31
0.0
  0
ARC
  5
194
330
138
100
AcDbEntity
  8
AM_4
100
AcDbCircle
 10
-84.85000000000002
 20
-0.0000000000000036
 30
0.0
 40
8.750000000000002
100
AcDbArc
 50
90.0
 51
270.0
  0
ARC
  5
195
330
138
100
AcDbEntity
  8
AM_4
100
AcDbCircle
 10
-76.2
 20
0.0000000000000027
 30
0.0
 40
8.750000000000004
100
AcDbArc
 50
270.0
 51
90.0
  0
LINE
  5
196
330
138
100
AcDbEntity
  8
AM_4
100
AcDbLine
 10
-76.2
 20
-8.750000000000002
 30
0.0
 11
-84.85000000000001
 21
-8.750000000000009
 31
0.0
  0
ARC
  5
197
330
138
100
AcDbEntity
  8
AM_4
100
AcDbCircle
 10
-92.79999999999998
 20
-13.29999999999999
 30
0.0
 40
10.30000000000001
100
AcDbArc
 50
180.0
 51
270.0
  0
LINE
  5
198
330
138
100
AcDbEntity
  8
AM_4
100
AcDbLine
 10
-92.8
 20
-23.59999999999999
 30
0.0
 11
-76.2
 21
-23.59999999999999
 31
0.0
  0
LINE
  5
199
330
138
100
AcDbEntity
  8
AM_4
100
AcDbLine
 10
-76.19999999999999
 20
23.6
 30
0.0
 11
-92.79999999999997
 21
23.6
 31
0.0
  0
ARC
  5
19A
330
138
100
AcDbEntity
  8
AM_4
100
AcDbCircle
 10
-92.79999999999995
 20
13.29999999999997
 30
0.0
 40
10.30000000000003
100
AcDbArc
 50
90.0
 51
180.0
  0
LINE
  5
19B
330
138
100
AcDbEntity
  8
AM_4
100
AcDbLine
 10
84.85000000000001
 20
-8.750000000000002
 30
0.0
 11
76.2
 21
-8.750000000000009
 31
0.0
  0
LINE
  5
19C
330
138
100
AcDbEntity
  8
AM_4
100
AcDbLine
 10
92.8
 20
23.59999999999999
 30
0.0
 11
76.2
 21
23.6
 31
0.0
  0
ARC
  5
19D
330
138
100
AcDbEntity
  8
AM_4
100
AcDbCircle
 10
84.85000000000002
 20
-0.0000000000000009
 30
0.0
 40
8.75
100
AcDbArc
 50
270.0
 51
90.0
  0
ARC
  5
19E
330
138
100
AcDbEntity
  8
AM_4
100
AcDbCircle
 10
92.8
 20
13.29999999999999
 30
0.0
 40
10.3
100
AcDbArc
 50
0.0
 51
90.0
  0
CIRCLE
  5
19F
330
138
100
AcDbEntity
  8
AM_4
100
AcDbCircle
 10
93.7
 20
-20.6
 30
0.0
 40
1.5
  0
ARC
  5
1A0
330
138
100
AcDbEntity
  8
AM_4
100
AcDbCircle
 10
76.2
 20
-0.0000000000000062
 30
0.0
 40
8.750000000000004
100
AcDbArc
 50
90.0
 51
270.0
  0
LINE
  5
1A1
330
138
100
AcDbEntity
  8
AM_4
100
AcDbLine
 10
76.2
 20
8.749999999999998
 30
0.0
 11
84.85000000000001
 21
8.750000000000005
 31
0.0
  0
LINE
  5
1A2
330
138
100
AcDbEntity
  8
AM_4
100
AcDbLine
 10
76.2
 20
-23.6
 30
0.0
 11
92.8
 21
-23.6
 31
0.0
  0
ARC
  5
1A3
330
138
100
AcDbEntity
  8
AM_4
100
AcDbCircle
 10
92.79999999999995
 20
-13.29999999999997
 30
0.0
 40
10.30000000000004
100
AcDbArc
 50
270.0
 51
0.0000008537736463
  0
LWPOLYLINE
  5
1A4
330
138
100
AcDbEntity
  8
AM_4
100
AcDbPolyline
 90
       15
 70
     0
 43
0.0
 10
76.19999999999999
 20
23.6
 10
74.14312447115526
 20
23.51019487496519
 10
72.10190300706044
 20
23.24146297108811
 10
70.09187053558051
 20
22.79584950042201
 10
68.12832461751422
 20
22.17674585054744
 10
66.22620902291949
 20
21.38886377406494
 10
64.4
 20
20.43819952931275
 10
62.66359610211532
 20
19.33198824522021
 10
61.03021241139768
 20
18.07864885760789
 10
59.51227996399749
 20
16.68772003600253
 10
58.12135114239213
 20
15.16978758860234
 10
56.86801175477981
 20
13.5364038978847
 10
55.76180047068726
 20
11.80000000000002
 10
54.81113622593507
 20
9.973790977080528
 10
54.19048523342945
 20
8.5171156937142
  0
LINE
  5
1A5
330
138
100
AcDbEntity
  8
AM_4
100
AcDbLine
 10
77.78429361432389
 20
23.6
 30
0.0
 11
77.78429361432389
 21
28.6
 31
0.0
  0
LWPOLYLINE
  5
1A6
330
138
100
AcDbEntity
  8
AM_4
100
AcDbPolyline
 90
       15
 70
     0
 43
0.0
 10
54.19048523342945
 20
-8.517115693714194
 10
55.01655362632382
 20
-10.40296110410808
 10
56.00384083703652
 20
-12.20963369902006
 10
57.14483301375368
 20
-13.92338360910409
 10
58.43084651706058
 20
-15.53116816275396
 10
59.85209400768089
 20
-17.02075114870953
 10
61.39775893403826
 20
-18.38079594101289
 10
63.05607785274513
 20
-19.6009517775771
 10
64.8144299555098
 20
-20.67193253573567
 10
66.65943312110817
 20
-21.58558740524317
 10
68.57704576140671
 20
-22.33496292086273
 10
70.55267368632656
 20
-22.91435588243518
 10
72.57128117444232
 20
-23.31935675967593
 10
74.6175054039009
 20
-23.54688325136296
 10
76.2
 20
-23.6
  0
LINE
  5
1A7
330
138
100
AcDbEntity
  8
AM_4
100
AcDbLine
 10
77.78429361432389
 20
-28.6
 30
0.0
 11
77.78429361432389
 21
-23.6
 31
0.0
  0
LWPOLYLINE
  5
1A8
330
138
100
AcDbEntity
  8
AM_4
100
AcDbPolyline
 90
       15
 70
     0
 43
0.0
 10
-54.19048523342943
 20
8.517115693714166
 10
-55.01655362632381
 20
10.40296110410806
 10
-56.00384083703649
 20
12.20963369902003
 10
-57.14483301375365
 20
13.92338360910406
 10
-58.43084651706057
 20
15.53116816275394
 10
-59.85209400768085
 20
17.02075114870951
 10
-61.39775893403823
 20
18.38079594101288
 10
-63.0560778527451
 20
19.60095177757709
 10
-64.81442995550975
 20
20.67193253573566
 10
-66.65943312110812
 20
21.58558740524315
 10
-68.57704576140667
 20
22.33496292086271
 10
-70.55267368632651
 20
22.91435588243518
 10
-72.57128117444228
 20
23.31935675967593
 10
-74.61750540390088
 20
23.54688325136296
 10
-76.2
 20
23.60000000000001
  0
LINE
  5
1A9
330
138
100
AcDbEntity
  8
AM_4
100
AcDbLine
 10
-77.78429361432389
 20
23.6
 30
0.0
 11
-77.78429361432389
 21
28.6
 31
0.0
  0
LWPOLYLINE
  5
1AA
330
138
100
AcDbEntity
  8
AM_4
100
AcDbPolyline
 90
       15
 70
     0
 43
0.0
 10
-76.2
 20
-23.59999999999999
 10
-74.14312447115528
 20
-23.51019487496519
 10
-72.10190300706044
 20
-23.2414629710881
 10
-70.09187053558051
 20
-22.795849500422
 10
-68.12832461751422
 20
-22.17674585054743
 10
-66.22620902291949
 20
-21.38886377406493
 10
-64.4
 20
-20.43819952931275
 10
-62.66359610211532
 20
-19.3319882452202
 10
-61.03021241139768
 20
-18.07864885760788
 10
-59.51227996399749
 20
-16.68772003600252
 10
-58.12135114239213
 20
-15.16978758860233
 10
-56.86801175477981
 20
-13.53640389788469
 10
-55.76180047068726
 20
-11.80000000000001
 10
-54.81113622593507
 20
-9.973790977080515
 10
-54.19048523342943
 20
-8.517115693714148
  0
LINE
  5
1AB
330
138
100
AcDbEntity
  8
AM_4
100
AcDbLine
 10
-77.78429361432389
 20
-28.6
 30
0.0
 11
-77.78429361432389
 21
-23.6
 31
0.0
  0
LINE
  5
1AC
330
138
100
AcDbEntity
  8
AM_4
100
AcDbLine
 10
44.77619047619048
 20
22.88000000000001
 30
0.0
 11
-44.77619047619048
 21
22.88000000000001
 31
0.0
  0
LWPOLYLINE
  5
1AD
330
138
100
AcDbEntity
  8
AM_4
100
AcDbPolyline
 90
        7
 70
     0
 43
0.0
 10
-46.96543701579584
 20
23.98321151356103
 10
-46.66623185799062
 20
23.64246256391731
 10
-46.29896369476764
 20
23.34542513518575
 10
-45.97824032731986
 20
23.15958889600293
 10
-45.61831673464512
 20
23.01345014974256
 10
-45.21721820360548
 20
22.91594180652011
 10
-44.77619047619048
 20
22.88000000000001
  0
LINE
  5
1AE
330
138
100
AcDbEntity
  8
AM_4
100
AcDbLine
 10
-40.38873605350879
 20
19.20072916666667
 30
0.0
 11
-40.38873605350879
 21
22.88000000000001
 31
0.0
  0
LWPOLYLINE
  5
1AF
330
138
100
AcDbEntity
  8
AM_4
100
AcDbPolyline
 90
        8
 70
     0
 43
0.0
 10
-47.50000000000001
 20
22.9246875
 10
-47.31924815935793
 20
22.3080152264443
 10
-46.77836826807989
 20
21.69603620124727
 10
-45.88147674873075
 20
21.09340795431368
 10
-44.63539948733066
 20
20.50471685047958
 10
-43.04961988424088
 20
19.93444318450657
 10
-41.13620667976086
 20
19.38692708333334
 10
-40.38873605350879
 20
19.20072916666667
  0
LINE
  5
1B0
330
138
100
AcDbEntity
  8
AM_4
100
AcDbLine
 10
40.38873605350877
 20
19.20072916666666
 30
0.0
 11
40.38873605350877
 21
22.88000000000001
 31
0.0
  0
LWPOLYLINE
  5
1B1
330
138
100
AcDbEntity
  8
AM_4
100
AcDbPolyline
 90
        7
 70
     0
 43
0.0
 10
44.77619047619048
 20
22.88000000000001
 10
45.21233709807861
 20
22.91514546033655
 10
45.6116217220589
 20
23.01128315838483
 10
45.97465653457989
 20
23.15782967334388
 10
46.29896369476764
 20
23.34542513518575
 10
46.665568931301
 20
23.64182395419909
 10
46.96543701579584
 20
23.98321151356104
  0
LWPOLYLINE
  5
1B2
330
138
100
AcDbEntity
  8
AM_4
100
AcDbPolyline
 90
        3
 70
     0
 43
0.0
 10
47.50000000000001
 20
22.9246875
 10
47.31924815935793
 20
23.54135977355569
 10
46.96543701579589
 20
23.98321151356104
  0
LINE
  5
1B3
330
138
100
AcDbEntity
  8
AM_4
100
AcDbLine
 10
-34.95
 20
-22.88
 30
0.0
 11
-44.77619047619048
 21
-22.88
 31
0.0
  0
LINE
  5
1B4
330
138
100
AcDbEntity
  8
AM_4
100
AcDbLine
 10
44.77619047619048
 20
-22.88000000000001
 30
0.0
 11
34.95
 21
-22.88000000000001
 31
0.0
  0
LWPOLYLINE
  5
1B5
330
138
100
AcDbEntity
  8
AM_4
100
AcDbPolyline
 90
        3
 70
     0
 43
0.0
 10
44.77619047619048
 20
-22.88000000000001
 10
44.94964778775842
 20
-22.88552865475662
 10
44.99999999984395
 20
-22.88921054438044
  0
LINE
  5
1B6
330
138
100
AcDbEntity
  8
AM_4
100
AcDbLine
 10
37.41657386773941
 20
19.20072916666667
 30
0.0
 11
37.41657386773941
 21
22.88000000000001
 31
0.0
  0
LINE
  5
1B7
330
138
100
AcDbEntity
  8
AM_4
100
AcDbLine
 10
-37.41657386773941
 20
22.88000000000001
 30
0.0
 11
-37.41657386773941
 21
19.20072916666667
 31
0.0
  0
LWPOLYLINE
  5
1B8
330
138
100
AcDbEntity
  8
AM_4
100
AcDbPolyline
 90
        4
 70
     0
 43
0.0
 10
-44.99999999999513
 20
-22.8892105443929
 10
-44.98952284640856
 20
-22.88836708807044
 10
-44.91726628564749
 20
-22.88365586307977
 10
-44.77619047619049
 20
-22.88
  0
LINE
  5
1B9
330
138
100
AcDbEntity
  8
AM_4
100
AcDbLine
 10
-40.38873605350877
 20
19.20072916666666
 30
0.0
 11
-37.41657386773941
 21
19.20072916666667
 31
0.0
  0
LWPOLYLINE
  5
1BA
330
138
100
AcDbEntity
  8
AM_4
100
AcDbPolyline
 90
        3
 70
     0
 43
0.0
 10
-46.96543701579589
 20
23.98321151356103
 10
-47.4060633259943
 20
23.36945124015298
 10
-47.50000000000001
 20
22.9246875
  0
LWPOLYLINE
  5
1BB
330
138
100
AcDbEntity
  8
AM_4
100
AcDbPolyline
 90
        9
 70
     0
 43
0.0
 10
-47.49999999999999
 20
25.60380952380952
 10
-47.48963508242132
 20
25.36641388165876
 10
-47.45861921296658
 20
25.13082496368817
 10
-47.40718844113022
 20
24.89883574381599
 10
-47.33573418614066
 20
24.67221180008437
 10
-47.24480025802363
 20
24.45267787754439
 10
-47.13507871887951
 20
24.24190476190477
 10
-47.00740461587287
 20
24.04149656384382
 10
-46.96543701579584
 20
23.98321151356103
  0
LINE
  5
1BC
330
138
100
AcDbEntity
  8
AM_4
100
AcDbLine
 10
-47.49999999999999
 20
25.60380952380952
 30
0.0
 11
-47.50000000000001
 21
25.87619047619038
 31
0.0
  0
LWPOLYLINE
  5
1BD
330
138
100
AcDbEntity
  8
AM_4
100
AcDbPolyline
 90
       19
 70
     0
 43
0.0
 10
-47.5
 20
25.87619047619028
 10
-47.51036491757866
 20
26.11358611834104
 10
-47.54138078703338
 20
26.34917503631163
 10
-47.59281155886972
 20
26.58116425618381
 10
-47.66426581385926
 20
26.80778819991544
 10
-47.75519974197628
 20
27.02732212245544
 10
-47.86492128112037
 20
27.23809523809506
 10
-47.99259538412701
 20
27.43850343615602
 10
-48.13725037398056
 20
27.62702148924128
 10
-48.29778533886316
 20
27.80221466113655
 10
-48.47297851075841
 20
27.96274962601918
 10
-48.66149656384364
 20
28.10740461587276
 10
-48.86190476190458
 20
28.23507871887942
 10
-49.07267787754419
 20
28.34480025802355
 10
-49.29221180008417
 20
28.4357341861406
 10
-49.51883574381579
 20
28.50718844113018
 10
-49.75082496368796
 20
28.55861921296655
 10
-49.98641388165855
 20
28.58963508242131
 10
-50.22380952380932
 20
28.60000000000001
  0
LINE
  5
1BE
330
138
100
AcDbEntity
  8
AM_4
100
AcDbLine
 10
-97.38
 20
28.6
 30
0.0
 11
-50.22380952380952
 21
28.6
 31
0.0
  0
LINE
  5
1BF
330
138
100
AcDbEntity
  8
AM_4
100
AcDbLine
 10
-54.19048523342943
 20
19.8872473371996
 30
0.0
 11
-76.20000000000002
 21
28.6
 31
0.0
  0
LINE
  5
1C0
330
138
100
AcDbEntity
  8
AM_4
100
AcDbLine
 10
76.19999999999996
 20
28.6
 30
0.0
 11
54.19048523342944
 21
19.8872473371996
 31
0.0
  0
LINE
  5
1C1
330
138
100
AcDbEntity
  8
AM_4
100
AcDbLine
 10
50.22380952380952
 20
28.6
 30
0.0
 11
97.38
 21
28.6
 31
0.0
  0
LWPOLYLINE
  5
1C2
330
138
100
AcDbEntity
  8
AM_4
100
AcDbPolyline
 90
       19
 70
     0
 43
0.0
 10
50.22380952380952
 20
28.6
 10
49.98641388165876
 20
28.58963508242132
 10
49.75082496368817
 20
28.55861921296659
 10
49.51883574381599
 20
28.50718844113022
 10
49.29221180008437
 20
28.43573418614067
 10
49.07267787754439
 20
28.34480025802364
 10
48.86190476190477
 20
28.23507871887952
 10
48.66149656384383
 20
28.10740461587287
 10
48.47297851075857
 20
27.96274962601931
 10
48.29778533886331
 20
27.80221466113669
 10
48.13725037398069
 20
27.62702148924143
 10
47.99259538412714
 20
27.43850343615619
 10
47.86492128112049
 20
27.23809523809524
 10
47.75519974197637
 20
27.02732212245563
 10
47.66426581385934
 20
26.80778819991563
 10
47.59281155886978
 20
26.58116425618402
 10
47.54138078703342
 20
26.34917503631184
 10
47.51036491757868
 20
26.11358611834125
 10
47.50000000000001
 20
25.87619047619049
  0
LINE
  5
1C3
330
138
100
AcDbEntity
  8
AM_4
100
AcDbLine
 10
47.50000000000001
 20
25.87619047619048
 30
0.0
 11
47.5
 21
25.60380952380937
 31
0.0
  0
LWPOLYLINE
  5
1C4
330
138
100
AcDbEntity
  8
AM_4
100
AcDbPolyline
 90
        9
 70
     0
 43
0.0
 10
46.96543701579585
 20
23.98321151356104
 10
47.09835069503963
 20
24.180183786479
 10
47.21359133285929
 20
24.38799071086676
 10
47.31028187841684
 20
24.60505075055249
 10
47.38768645827722
 20
24.82971194756974
 10
47.44521597684952
 20
25.06026449455508
 10
47.48243259976015
 20
25.2949537474145
 10
47.49905308603675
 20
25.53199357922451
 10
47.5
 20
25.60380952380921
  0
LWPOLYLINE
  5
1C5
330
138
100
AcDbEntity
  8
AM_4
100
AcDbPolyline
 90
        8
 70
     0
 43
0.0
 10
40.38873605350878
 20
19.20072916666666
 10
42.41393828782383
 20
19.73924971427472
 10
44.1163448415324
 20
20.30201336685206
 10
45.48299937281957
 20
20.88473715319661
 10
46.50350081549369
 20
21.48298619343602
 10
47.1700825373804
 20
22.09220745114143
 10
47.47767144908307
 20
22.70776438468386
 10
47.50000000000001
 20
22.9246875
  0
LINE
  5
1C6
330
138
100
AcDbEntity
  8
AM_4
100
AcDbLine
 10
37.41657386773941
 20
19.20072916666667
 30
0.0
 11
40.38873605350878
 21
19.20072916666666
 31
0.0
  0
LWPOLYLINE
  5
1C7
330
138
100
AcDbEntity
  8
AM_4
100
AcDbPolyline
 90
       24
 70
     0
 43
0.0
 10
-37.41657386773942
 20
19.20072916666667
 10
-35.09529893910871
 20
18.7291365066149
 10
-32.5069275944305
 20
18.28947452296574
 10
-29.67115890253914
 20
17.88508930888993
 10
-26.60957477546387
 20
17.51905848004106
 10
-23.34547571704679
 20
17.19416775204212
 10
-19.90370349203932
 20
16.91288973950757
 10
-16.31045206527268
 20
16.6773651379531
 10
-12.59306824976909
 20
16.48938643181018
 10
-8.779843580982249
 20
16.35038425253721
 10
-4.899799001129636
 20
16.26141649065028
 10
-0.9824639922988971
 20
16.22316024453753
 10
2.942348160741214
 20
16.23590666733164
 10
6.844767267639691
 20
16.29955875105865
 10
10.69509356264795
 20
16.41363206492722
 10
14.46402373777041
 20
16.57725844213946
 10
18.12287395863211
 20
16.78919258716446
 10
21.64379816577813
 20
17.04782155318926
 10
24.99999999999995
 20
17.35117701761797
 10
28.16593673880903
 20
17.69695026219526
 10
31.11751369197818
 20
18.08250974374628
 10
33.8322675766829
 20
18.50492112180926
 10
36.28953747664738
 20
18.96096959073818
 10
37.41657386773939
 20
19.20072916666666
  0
LINE
  5
1C8
330
138
100
AcDbEntity
  8
AM_4
100
AcDbLine
 10
47.49999999999999
 20
-25.60380952380953
 30
0.0
 11
47.5
 21
-25.87619047619048
 31
0.0
  0
LWPOLYLINE
  5
1C9
330
138
100
AcDbEntity
  8
AM_4
100
AcDbPolyline
 90
       19
 70
     0
 43
0.0
 10
47.5
 20
-25.87619047619048
 10
47.51036491757867
 20
-26.11358611834125
 10
47.54138078703341
 20
-26.34917503631183
 10
47.59281155886978
 20
-26.58116425618402
 10
47.66426581385933
 20
-26.80778819991564
 10
47.75519974197636
 20
-27.02732212245563
 10
47.86492128112048
 20
-27.23809523809524
 10
47.99259538412713
 20
-27.43850343615619
 10
48.13725037398068
 20
-27.62702148924144
 10
48.2977853388633
 20
-27.8022146611367
 10
48.47297851075856
 20
-27.96274962601932
 10
48.66149656384381
 20
-28.10740461587288
 10
48.86190476190475
 20
-28.23507871887953
 10
49.07267787754437
 20
-28.34480025802365
 10
49.29221180008435
 20
-28.43573418614068
 10
49.51883574381598
 20
-28.50718844113024
 10
49.75082496368815
 20
-28.5586192129666
 10
49.98641388165875
 20
-28.58963508242134
 10
50.22380952380951
 20
-28.60000000000002
  0
LINE
  5
1CA
330
138
100
AcDbEntity
  8
AM_4
100
AcDbLine
 10
50.22380952380952
 20
-28.60000000000002
 30
0.0
 11
97.38000000000001
 21
-28.6
 31
0.0
  0
LINE
  5
1CB
330
138
100
AcDbEntity
  8
AM_4
100
AcDbLine
 10
54.19048523342945
 20
-19.8872473371996
 30
0.0
 11
76.19999999999996
 21
-28.6
 31
0.0
  0
LINE
  5
1CC
330
138
100
AcDbEntity
  8
AM_4
100
AcDbLine
 10
-76.20000000000002
 20
-28.6
 30
0.0
 11
-54.19048523342943
 21
-19.8872473371996
 31
0.0
  0
LINE
  5
1CD
330
138
100
AcDbEntity
  8
AM_4
100
AcDbLine
 10
-97.38
 20
-28.59999999999998
 30
0.0
 11
-50.22380952380952
 21
-28.6
 31
0.0
  0
LWPOLYLINE
  5
1CE
330
138
100
AcDbEntity
  8
AM_4
100
AcDbPolyline
 90
       19
 70
     0
 43
0.0
 10
-50.22380952380952
 20
-28.59999999999999
 10
-49.98641388165876
 20
-28.58963508242132
 10
-49.75082496368817
 20
-28.55861921296658
 10
-49.51883574381599
 20
-28.50718844113022
 10
-49.29221180008437
 20
-28.43573418614066
 10
-49.07267787754439
 20
-28.34480025802363
 10
-48.86190476190477
 20
-28.23507871887951
 10
-48.66149656384383
 20
-28.10740461587287
 10
-48.47297851075857
 20
-27.96274962601931
 10
-48.29778533886331
 20
-27.80221466113669
 10
-48.13725037398069
 20
-27.62702148924143
 10
-47.99259538412714
 20
-27.43850343615618
 10
-47.86492128112049
 20
-27.23809523809523
 10
-47.75519974197637
 20
-27.02732212245562
 10
-47.66426581385934
 20
-26.80778819991563
 10
-47.59281155886978
 20
-26.58116425618401
 10
-47.54138078703342
 20
-26.34917503631183
 10
-47.51036491757868
 20
-26.11358611834124
 10
-47.50000000000001
 20
-25.87619047619048
  0
LINE
  5
1CF
330
138
100
AcDbEntity
  8
AM_4
100
AcDbLine
 10
-47.50000000000001
 20
-25.87619047619048
 30
0.0
 11
-47.50000000000001
 21
-25.60380952380953
 31
0.0
  0
LWPOLYLINE
  5
1D0
330
138
100
AcDbEntity
  8
AM_4
100
AcDbPolyline
 90
       19
 70
     0
 43
0.0
 10
-44.99936788392443
 20
-22.88915850265181
 10
-45.23511605255859
 20
-22.91893976209841
 10
-45.46737152044975
 20
-22.96915450160033
 10
-45.69436668324757
 20
-23.03942055666945
 10
-45.91437397069973
 20
-23.12920316019891
 10
-46.12571899450469
 20
-23.23781901236361
 10
-46.32679329141769
 20
-23.36444148094455
 10
-46.51606656462723
 20
-23.50810689249909
 10
-46.69209833023786
 20
-23.66772186649774
 10
-46.85354888022239
 20
-23.84207163661023
 10
-46.99918947840895
 20
-24.02982929581072
 10
-47.12791171190512
 20
-24.22956589494154
 10
-47.2387359267894
 20
-24.43976131787903
 10
-47.33081868386902
 20
-24.65881585053517
 10
-47.40345917776153
 20
-24.88506235564771
 10
-47.45610457044686
 20
-25.11677896070137
 10
-47.48835419869853
 20
-25.35220216241737
 10
-47.49996262337269
 20
-25.58954024807825
 10
-47.5
 20
-25.60380952380952
  0
LWPOLYLINE
  5
1D1
330
138
100
AcDbEntity
  8
AM_4
100
AcDbPolyline
 90
       37
 70
     0
 43
0.0
 10
44.99936788392444
 20
-22.88915850265182
 10
44.80734363416688
 20
-22.30508606960168
 10
44.27430844393952
 20
-21.72572917756243
 10
43.40431903289541
 20
-21.15549708230777
 10
42.20399654576657
 20
-20.59872959439812
 10
40.6824761614546
 20
-20.05966405060189
 10
38.85133756880322
 20
-19.54240306520404
 10
36.72451683817425
 20
-19.05088330663416
 10
34.31820035953721
 20
-18.58884553704272
 10
31.65070165426816
 20
-18.15980614284233
 10
28.74232199819395
 20
-17.76703037288395
 10
25.61519591662496
 20
-17.41350748794144
 10
22.29312272725227
 20
-17.10192801063218
 10
18.80138541296967
 20
-16.83466324891531
 10
15.16655820310745
 20
-16.61374724900637
 10
11.41630432750137
 20
-16.44086131505741
 10
7.579165482609972
 20
-16.31732121341715
 10
3.684344611970674
 20
-16.24406715885463
 10
-0.2385163458338226
 20
-16.22165665895708
 10
-4.159562050226417
 20
-16.25026027116055
 10
-8.048950975804553
 20
-16.32966030470483
 10
-11.87708252436734
 20
-16.45925247739161
 10
-15.61482230334118
 20
-16.63805051453685
 10
-19.2337238560991
 20
-16.86469365511665
 10
-22.70624515667212
 20
-17.13745700798034
 10
-26.00595822119719
 20
-17.45426467931362
 10
-29.10775024083204
 20
-17.81270557144392
 10
-31.98801470539402
 20
-18.21005173274963
 10
-34.62483106315658
 20
-18.64327911901902
 10
-36.99813154948392
 20
-19.10909060825273
 10
-39.08985391463705
 20
-19.60394109375303
 10
-40.88407888840067
 20
-20.12406446452638
 10
-42.36715133534177
 20
-20.6655022676621
 10
-43.52778417863551
 20
-21.22413383454926
 10
-44.35714430153515
 20
-21.79570764165287
 10
-44.8489197727241
 20
-22.37587366717519
 10
-44.99936788392444
 20
-22.88915850265181
  0
LWPOLYLINE
  5
1D2
330
138
100
AcDbEntity
  8
AM_4
100
AcDbPolyline
 90
       19
 70
     0
 43
0.0
 10
47.49999999999999
 20
-25.60380952380953
 10
47.48963508242132
 20
-25.36641388165877
 10
47.45861921296658
 20
-25.13082496368818
 10
47.40718844113022
 20
-24.898835743816
 10
47.33573418614066
 20
-24.67221180008438
 10
47.24480025802363
 20
-24.45267787754439
 10
47.13507871887951
 20
-24.24190476190477
 10
47.00740461587287
 20
-24.04149656384383
 10
46.86274962601931
 20
-23.85297851075858
 10
46.70221466113669
 20
-23.67778533886332
 10
46.52702148924143
 20
-23.5172503739807
 10
46.33850343615618
 20
-23.37259538412714
 10
46.13809523809523
 20
-23.24492128112049
 10
45.92732212245562
 20
-23.13519974197638
 10
45.70778819991563
 20
-23.04426581385935
 10
45.48116425618401
 20
-22.97281155886979
 10
45.24917503631183
 20
-22.92138078703343
 10
45.01358611834124
 20
-22.89036491757869
 10
44.99936788392445
 20
-22.88915850265182
  0
LINE
  5
1D3
330
138
100
AcDbEntity
  8
AM_4
100
AcDbLine
 10
-54.19048523342943
 20
-19.8872473371996
 30
0.0
 11
-54.19048523342944
 21
-8.517115693714166
 31
0.0
  0
LWPOLYLINE
  5
1D4
330
138
100
AcDbEntity
  8
AM_4
100
AcDbPolyline
 90
       29
 70
     0
 43
0.0
 10
-54.19048523342947
 20
-19.8872473371996
 10
-52.20706331220608
 20
-19.19527371964762
 10
-49.82631411569011
 20
-18.53168319284574
 10
-47.06635658280268
 20
-17.90152608138982
 10
-43.948195656877
 20
-17.30959826139732
 10
-40.49556242535643
 20
-16.76040466099416
 10
-36.73473351188977
 20
-16.25812497509158
 10
-32.69433109535908
 20
-15.80658185538407
 10
-28.40510507781583
 20
-15.40921181766178
 10
-23.89969905915903
 20
-15.06903908785038
 10
-19.21240189962917
 20
-14.78865258582563
 10
-14.37888676087769
 20
-14.57018622216995
 10
-9.435939611666733
 20
-14.41530265782436
 10
-4.421179264434874
 20
-14.32518065023477
 10
0.6272289265803638
 20
-14.30050608229609
 10
5.670863526733143
 20
-14.34146674236926
 10
10.67133943128647
 20
-14.44775089509839
 10
15.59059999923678
 20
-14.61854965390509
 10
20.39120668733123
 20
-14.85256313710373
 10
25.03662397998787
 20
-15.14801036078596
 10
29.4914974466299
 20
-15.50264279318365
 10
33.72192281025006
 20
-15.91376146735334
 10
37.6957039794305
 20
-16.37823752194435
 10
41.38259808003911
 20
-16.89253601372293
 10
44.7545456217627
 20
-17.45274282062474
 10
47.78588404777119
 20
-18.05459443058712
 10
50.45354304227047
 20
-18.69351038945033
 10
52.73722010953584
 20
-19.36462816097942
 10
54.19048523342946
 20
-19.8872473371996
  0
LINE
  5
1D5
330
138
100
AcDbEntity
  8
AM_4
100
AcDbLine
 10
54.19048523342945
 20
-19.8872473371996
 30
0.0
 11
54.19048523342946
 21
-8.517115693714212
 31
0.0
  0
LWPOLYLINE
  5
1D6
330
138
100
AcDbEntity
  8
AM_4
100
AcDbPolyline
 90
       21
 70
     0
 43
0.0
 10
54.19048523342946
 20
8.517115693714215
 10
53.91563199848716
 20
7.769600342595536
 10
53.65239686421573
 20
6.968901838250513
 10
53.40020394381116
 20
6.093252574572546
 10
53.17193178648794
 20
5.164114091868544
 10
53.00952991767728
 20
4.377287919689986
 10
52.87021371561235
 20
3.561049273009017
 10
52.75450516506366
 20
2.695602869746237
 10
52.66942509346367
 20
1.808879367974487
 10
52.61841098008046
 20
0.9305137469920424
 10
52.60004243636102
 20
0.0447548258794852
 10
52.61615903433819
 20
-0.8713389637908056
 10
52.66722511482006
 20
-1.780029832178285
 10
52.74211258884176
 20
-2.585689803967994
 10
52.84249275993354
 20
-3.37444151382761
 10
52.96974057314154
 20
-4.160979491182333
 10
53.11887201387214
 20
-4.921537451649147
 10
53.34831872975526
 20
-5.895645785333055
 10
53.60486112556047
 20
-6.813200367286384
 10
53.89043392345062
 20
-7.696937055839903
 10
54.19048523342945
 20
-8.51711569371431
  0
LINE
  5
1D7
330
138
100
AcDbEntity
  8
AM_4
100
AcDbLine
 10
54.19048523342945
 20
8.5171156937142
 30
0.0
 11
54.19048523342944
 21
19.8872473371996
 31
0.0
  0
LWPOLYLINE
  5
1D8
330
138
100
AcDbEntity
  8
AM_4
100
AcDbPolyline
 90
       29
 70
     0
 43
0.0
 10
54.19048523342946
 20
19.8872473371996
 10
52.20706331220608
 20
19.19527371964763
 10
49.82631411569011
 20
18.53168319284574
 10
47.06635658280268
 20
17.90152608138983
 10
43.94819565687702
 20
17.30959826139732
 10
40.49556242535645
 20
16.76040466099417
 10
36.73473351188977
 20
16.25812497509159
 10
32.69433109535908
 20
15.80658185538408
 10
28.40510507781584
 20
15.40921181766179
 10
23.89969905915904
 20
15.06903908785039
 10
19.21240189962918
 20
14.78865258582564
 10
14.3788867608777
 20
14.57018622216996
 10
9.435939611666742
 20
14.41530265782436
 10
4.421179264434885
 20
14.32518065023477
 10
-0.627228926580352
 20
14.3005060822961
 10
-5.670863526733132
 20
14.34146674236926
 10
-10.67133943128646
 20
14.44775089509839
 10
-15.59059999923677
 20
14.6185496539051
 10
-20.39120668733122
 20
14.85256313710373
 10
-25.03662397998786
 20
15.14801036078596
 10
-29.4914974466299
 20
15.50264279318366
 10
-33.72192281025005
 20
15.91376146735334
 10
-37.69570397943049
 20
16.37823752194435
 10
-41.3825980800391
 20
16.89253601372294
 10
-44.75454562176272
 20
17.45274282062474
 10
-47.78588404777121
 20
18.05459443058713
 10
-50.45354304227048
 20
18.69351038945034
 10
-52.73722010953585
 20
19.36462816097943
 10
-54.19048523342946
 20
19.8872473371996
  0
LINE
  5
1D9
330
138
100
AcDbEntity
  8
AM_4
100
AcDbLine
 10
-54.19048523342944
 20
8.517115693714162
 30
0.0
 11
-54.19048523342943
 21
19.8872473371996
 31
0.0
  0
LWPOLYLINE
  5
1DA
330
138
100
AcDbEntity
  8
AM_4
100
AcDbPolyline
 90
       21
 70
     0
 43
0.0
 10
-54.19048523342944
 20
-8.517115693714166
 10
-53.91563199848716
 20
-7.769600342595499
 10
-53.65239686421572
 20
-6.968901838250483
 10
-53.40020394381115
 20
-6.093252574572506
 10
-53.17193178648793
 20
-5.164114091868492
 10
-53.00952991767728
 20
-4.377287919689934
 10
-52.87021371561234
 20
-3.561049273008968
 10
-52.75450516506365
 20
-2.695602869746189
 10
-52.66942509346367
 20
-1.80887936797444
 10
-52.61841098008046
 20
-0.9305137469919985
 10
-52.60004243636102
 20
-0.0447548258794446
 10
-52.61615903433819
 20
0.8713389637908425
 10
-52.66722511482007
 20
1.780029832178319
 10
-52.74211258884178
 20
2.585689803968026
 10
-52.84249275993355
 20
3.374441513827642
 10
-52.96974057314154
 20
4.160979491182368
 10
-53.11887201387214
 20
4.921537451649184
 10
-53.34831872975526
 20
5.895645785333073
 10
-53.60486112556046
 20
6.813200367286388
 10
-53.8904339234506
 20
7.696937055839889
 10
-54.19048523342943
 20
8.517115693714281
  0
ENDBLK
  5
13B
330
138
100
AcDbEntity
  8
0
100
AcDbBlockEnd
  0
ENDSEC
  0
SECTION
  2
ENTITIES
  0
INSERT
  5
6F
330
1F
100
AcDbEntity
  8
0
100
AcDbBlockReference
  2
1_125662_4
 10
0.0
 20
0.0
 30
0.0
  0
POINT
  5
1DC
330
1F
100
AcDbEntity
  8
ConnectionPoints
100
AcDbPoint
 10
0.0
 20
0.0
 30
0.0
  0
POINT
  5
1DD
330
1F
100
AcDbEntity
  8
ConnectionPoints
100
AcDbPoint
 10
0.0
 20
-38.1
 30
0.0000000000000023
  0
POINT
  5
1DE
330
1F
100
AcDbEntity
  8
ConnectionPoints
100
AcDbPoint
 10
40.9414826307011
 20
0.0000000000000025
 30
40.9414826307011
  0
POINT
  5
1DF
330
1F
100
AcDbEntity
  8
ConnectionPoints
100
AcDbPoint
 10
0.0
 20
-38.1
 30
0.0000000000000023
  0
ENDSEC
  0
SECTION
  2
OBJECTS
  0
DICTIONARY
  5
C
330
0
100
AcDbDictionary
281
     1
  3
ACAD_DETAILVIEWSTYLE
350
1E7
  3
ACAD_GROUP
350
D
  3
ACAD_LAYOUT
350
1A
  3
ACAD_MATERIAL
350
43
  3
ACAD_MLEADERSTYLE
350
6B
  3
ACAD_MLINESTYLE
350
17
  3
ACAD_PLOTSETTINGS
350
19
  3
ACAD_PLOTSTYLENAME
350
E
  3
ACAD_SCALELIST
350
47
  3
ACAD_SECTIONVIEWSTYLE
350
1E8
  3
ACAD_TABLESTYLE
350
69
  3
ACAD_VISUALSTYLE
350
2A
  3
ACDB_RECOMPOSE_DATA
350
1E4
  3
AcDbVariableDictionary
350
1E0
  0
SUN
  5
6D
330
29
100
AcDbSun
 90
        1
290
     0
 63
     7
421
 16777215
 40
1.0
291
     1
 91
  2455826
 92
 54000000
292
     0
 70
     2
 71
   256
280
     1
  0
DICTIONARY
  5
1E7
102
{ACAD_REACTORS
330
C
102
}
330
C
100
AcDbDictionary
281
     1
  0
DICTIONARY
  5
D
102
{ACAD_REACTORS
330
C
102
}
330
C
100
AcDbDictionary
281
     1
  0
DICTIONARY
  5
1A
102
{ACAD_REACTORS
330
C
102
}
330
C
100
AcDbDictionary
281
     1
  3
Layout1
350
1E
  3
Layout2
350
26
  3
Model
350
22
  0
DICTIONARY
  5
43
102
{ACAD_REACTORS
330
C
102
}
330
C
100
AcDbDictionary
281
     1
  3
ByBlock
350
45
  3
ByLayer
350
44
  3
Global
350
46
  0
DICTIONARY
  5
6B
102
{ACAD_REACTORS
330
C
102
}
330
C
100
AcDbDictionary
281
     1
  3
Standard
350
6C
  0
DICTIONARY
  5
17
102
{ACAD_REACTORS
330
C
102
}
330
C
100
AcDbDictionary
281
     1
  3
Standard
350
18
  0
DICTIONARY
  5
19
102
{ACAD_REACTORS
330
C
102
}
330
C
100
AcDbDictionary
281
     1
  0
ACDBDICTIONARYWDFLT
  5
E
102
{ACAD_REACTORS
330
C
102
}
330
C
100
AcDbDictionary
281
     1
  3
Normal
350
F
100
AcDbDictionaryWithDefault
340
F
  0
DICTIONARY
  5
47
102
{ACAD_REACTORS
330
C
102
}
330
C
100
AcDbDictionary
281
     1
  3
A0
350
48
  3
A1
350
49
  3
A2
350
4A
  3
A3
350
4B
  3
A4
350
4C
  3
A5
350
4D
  3
A6
350
4E
  3
A7
350
4F
  3
A8
350
50
  3
A9
350
51
  3
B0
350
52
  3
B1
350
53
  3
B2
350
54
  3
B3
350
55
  3
B4
350
56
  3
B5
350
57
  3
B6
350
58
  3
B7
350
59
  3
B8
350
5A
  3
B9
350
5B
  3
C0
350
5C
  3
C1
350
5D
  3
C2
350
5E
  3
C3
350
5F
  3
C4
350
60
  3
C5
350
61
  3
C6
350
62
  3
C7
350
63
  3
C8
350
64
  3
C9
350
65
  3
D0
350
66
  3
D1
350
67
  3
D2
350
68
  0
DICTIONARY
  5
1E8
102
{ACAD_REACTORS
330
C
102
}
330
C
100
AcDbDictionary
281
     1
  0
DICTIONARY
  5
69
102
{ACAD_REACTORS
330
C
102
}
330
C
100
AcDbDictionary
281
     1
  3
Standard
350
6A
  0
DICTIONARY
  5
2A
102
{ACAD_REACTORS
330
C
102
}
330
C
100
AcDbDictionary
281
     1
  3
2dWireframe
350
2F
  3
Basic
350
32
  3
Brighten
350
36
  3
ColorChange
350
3A
  3
Conceptual
350
34
  3
Dim
350
35
  3
EdgeColorOff
350
3D
  3
Facepattern
350
39
  3
Flat
350
2B
  3
FlatWithEdges
350
2C
  3
Gouraud
350
2D
  3
GouraudWithEdges
350
2E
  3
Hidden
350
31
  3
JitterOff
350
3B
  3
Linepattern
350
38
  3
OverhangOff
350
3C
  3
Realistic
350
33
  3
Shaded
350
42
  3
Shaded with edges
350
41
  3
Shades of Gray
350
3E
  3
Sketchy
350
3F
  3
Thicken
350
37
  3
Wireframe
350
30
  3
X-Ray
350
40
  0
XRECORD
  5
1E4
102
{ACAD_REACTORS
330
C
102
}
330
C
100
AcDbXrecord
280
     1
 90
        1
330
6A
  0
DICTIONARY
  5
1E0
102
{ACAD_REACTORS
330
C
102
}
330
C
100
AcDbDictionary
281
     1
  3
CANNOSCALE
350
1E1
  3
CMLEADERSTYLE
350
1E6
  3
CTABLESTYLE
350
1E5
  0
LAYOUT
  5
1E
102
{ACAD_REACTORS
330
1A
102
}
330
1A
100
AcDbPlotSettings
  1

  2
none_device
  4

  6

 40
0.0
 41
0.0
 42
0.0
 43
0.0
 44
0.0
 45
0.0
 46
0.0
 47
0.0
 48
0.0
 49
0.0
140
0.0
141
0.0
142
1.0
143
1.0
 70
   688
 72
     1
 73
     0
 74
     5
  7

 75
    16
 76
     0
 77
     2
 78
   300
147
1.0
148
0.0
149
0.0
100
AcDbLayout
  1
Layout1
 70
     1
 71
     1
 10
0.0
 20
0.0
 11
420.0
 21
297.0
 12
0.0
 22
0.0
 32
0.0
 14
1.000000000000000E+20
 24
1.000000000000000E+20
 34
1.000000000000000E+20
 15
-1.000000000000000E+20
 25
-1.000000000000000E+20
 35
-1.000000000000000E+20
146
0.0
 13
0.0
 23
0.0
 33
0.0
 16
1.0
 26
0.0
 36
0.0
 17
0.0
 27
1.0
 37
0.0
 76
     0
330
1B
  0
LAYOUT
  5
26
102
{ACAD_REACTORS
330
1A
102
}
330
1A
100
AcDbPlotSettings
  1

  2
none_device
  4

  6

 40
0.0
 41
0.0
 42
0.0
 43
0.0
 44
0.0
 45
0.0
 46
0.0
 47
0.0
 48
0.0
 49
0.0
140
0.0
141
0.0
142
1.0
143
1.0
 70
   688
 72
     1
 73
     0
 74
     5
  7

 75
    16
 76
     0
 77
     2
 78
   300
147
1.0
148
0.0
149
0.0
100
AcDbLayout
  1
Layout2
 70
     1
 71
     2
 10
0.0
 20
0.0
 11
0.0
 21
0.0
 12
0.0
 22
0.0
 32
0.0
 14
0.0
 24
0.0
 34
0.0
 15
0.0
 25
0.0
 35
0.0
146
0.0
 13
0.0
 23
0.0
 33
0.0
 16
1.0
 26
0.0
 36
0.0
 17
0.0
 27
1.0
 37
0.0
 76
     0
330
23
  0
LAYOUT
  5
22
102
{ACAD_REACTORS
330
1A
102
}
330
1A
100
AcDbPlotSettings
  1

  2
none_device
  4
Letter_(8.50_x_11.00_Inches)
  6

 40
6.35
 41
6.35
 42
6.35000508
 43
6.35000508
 44
215.9
 45
279.4
 46
0.0
 47
0.0
 48
0.0
 49
0.0
140
0.0
141
0.0
142
1.0
143
1.0
 70
  1712
 72
     1
 73
     0
 74
     0
  7

 75
     0
 76
     0
 77
     2
 78
   300
147
1.0
148
0.0
149
0.0
100
AcDbLayout
  1
Model
 70
     1
 71
     0
 10
0.0
 20
0.0
 11
420.0
 21
297.0
 12
0.0
 22
0.0
 32
0.0
 14
1.000000000000000E+20
 24
1.000000000000000E+20
 34
1.000000000000000E+20
 15
-1.000000000000000E+20
 25
-1.000000000000000E+20
 35
-1.000000000000000E+20
146
0.0
 13
0.0
 23
0.0
 33
0.0
 16
1.0
 26
0.0
 36
0.0
 17
0.0
 27
1.0
 37
0.0
 76
     0
330
1F
331
29
  0
MATERIAL
  5
45
102
{ACAD_REACTORS
330
43
102
}
330
43
100
AcDbMaterial
  1
ByBlock
 72
     1
 94
      127
  0
MATERIAL
  5
44
102
{ACAD_REACTORS
330
43
102
}
330
43
100
AcDbMaterial
  1
ByLayer
 72
     1
 94
      127
  0
MATERIAL
  5
46
102
{ACAD_REACTORS
330
43
102
}
330
43
100
AcDbMaterial
  1
Global
 72
     1
 94
      127
  0
MLEADERSTYLE
  5
6C
102
{ACAD_REACTORS
330
6B
102
}
330
6B
100
AcDbMLeaderStyle
179
     2
170
     2
171
     1
172
     0
 90
        2
 40
0.0
 41
0.0
173
     1
 91
-1056964608
340
14
 92
       -2
290
     1
 42
2.0
291
     1
 43
8.0
  3
Standard
341
0
 44
4.0
300

342
11
174
     1
178
     6
175
     1
176
     0
 93
-1056964608
 45
4.0
292
     0
297
     0
 46
4.0
343
0
 94
-1056964608
 47
1.0
 49
1.0
140
1.0
293
     1
141
0.0
294
     1
177
     0
142
1.0
295
     0
296
     0
143
3.75
271
     0
272
     9
273
     9
298
     0
  0
MLINESTYLE
  5
18
102
{ACAD_REACTORS
330
17
102
}
330
17
100
AcDbMlineStyle
  2
Standard
 70
     0
  3

 62
   256
 51
90.0
 52
90.0
 71
     2
 49
0.5
 62
   256
  6
BYLAYER
 49
-0.5
 62
   256
  6
BYLAYER
  0
ACDBPLACEHOLDER
  5
F
102
{ACAD_REACTORS
330
E
102
}
330
E
  0
SCALE
  5
48
102
{ACAD_REACTORS
330
47
102
}
330
47
100
AcDbScale
 70
     0
300
1:1
140
1.0
141
1.0
290
     1
  0
SCALE
  5
49
102
{ACAD_REACTORS
330
47
102
}
330
47
100
AcDbScale
 70
     0
300
1:2
140
1.0
141
2.0
290
     0
  0
SCALE
  5
4A
102
{ACAD_REACTORS
330
47
102
}
330
47
100
AcDbScale
 70
     0
300
1:4
140
1.0
141
4.0
290
     0
  0
SCALE
  5
4B
102
{ACAD_REACTORS
330
47
102
}
330
47
100
AcDbScale
 70
     0
300
1:5
140
1.0
141
5.0
290
     0
  0
SCALE
  5
4C
102
{ACAD_REACTORS
330
47
102
}
330
47
100
AcDbScale
 70
     0
300
1:8
140
1.0
141
8.0
290
     0
  0
SCALE
  5
4D
102
{ACAD_REACTORS
330
47
102
}
330
47
100
AcDbScale
 70
     0
300
1:10
140
1.0
141
10.0
290
     0
  0
SCALE
  5
4E
102
{ACAD_REACTORS
330
47
102
}
330
47
100
AcDbScale
 70
     0
300
1:16
140
1.0
141
16.0
290
     0
  0
SCALE
  5
4F
102
{ACAD_REACTORS
330
47
102
}
330
47
100
AcDbScale
 70
     0
300
1:20
140
1.0
141
20.0
290
     0
  0
SCALE
  5
50
102
{ACAD_REACTORS
330
47
102
}
330
47
100
AcDbScale
 70
     0
300
1:30
140
1.0
141
30.0
290
     0
  0
SCALE
  5
51
102
{ACAD_REACTORS
330
47
102
}
330
47
100
AcDbScale
 70
     0
300
1:40
140
1.0
141
40.0
290
     0
  0
SCALE
  5
52
102
{ACAD_REACTORS
330
47
102
}
330
47
100
AcDbScale
 70
     0
300
1:50
140
1.0
141
50.0
290
     0
  0
SCALE
  5
53
102
{ACAD_REACTORS
330
47
102
}
330
47
100
AcDbScale
 70
     0
300
1:100
140
1.0
141
100.0
290
     0
  0
SCALE
  5
54
102
{ACAD_REACTORS
330
47
102
}
330
47
100
AcDbScale
 70
     0
300
2:1
140
2.0
141
1.0
290
     0
  0
SCALE
  5
55
102
{ACAD_REACTORS
330
47
102
}
330
47
100
AcDbScale
 70
     0
300
4:1
140
4.0
141
1.0
290
     0
  0
SCALE
  5
56
102
{ACAD_REACTORS
330
47
102
}
330
47
100
AcDbScale
 70
     0
300
8:1
140
8.0
141
1.0
290
     0
  0
SCALE
  5
57
102
{ACAD_REACTORS
330
47
102
}
330
47
100
AcDbScale
 70
     0
300
10:1
140
10.0
141
1.0
290
     0
  0
SCALE
  5
58
102
{ACAD_REACTORS
330
47
102
}
330
47
100
AcDbScale
 70
     0
300
100:1
140
100.0
141
1.0
290
     0
  0
SCALE
  5
59
102
{ACAD_REACTORS
330
47
102
}
330
47
100
AcDbScale
 70
     0
300
1/128" = 1'-0"
140
0.0078125
141
12.0
290
     0
  0
SCALE
  5
5A
102
{ACAD_REACTORS
330
47
102
}
330
47
100
AcDbScale
 70
     0
300
1/64" = 1'-0"
140
0.015625
141
12.0
290
     0
  0
SCALE
  5
5B
102
{ACAD_REACTORS
330
47
102
}
330
47
100
AcDbScale
 70
     0
300
1/32" = 1'-0"
140
0.03125
141
12.0
290
     0
  0
SCALE
  5
5C
102
{ACAD_REACTORS
330
47
102
}
330
47
100
AcDbScale
 70
     0
300
1/16" = 1'-0"
140
0.0625
141
12.0
290
     0
  0
SCALE
  5
5D
102
{ACAD_REACTORS
330
47
102
}
330
47
100
AcDbScale
 70
     0
300
3/32" = 1'-0"
140
0.09375
141
12.0
290
     0
  0
SCALE
  5
5E
102
{ACAD_REACTORS
330
47
102
}
330
47
100
AcDbScale
 70
     0
300
1/8" = 1'-0"
140
0.125
141
12.0
290
     0
  0
SCALE
  5
5F
102
{ACAD_REACTORS
330
47
102
}
330
47
100
AcDbScale
 70
     0
300
3/16" = 1'-0"
140
0.1875
141
12.0
290
     0
  0
SCALE
  5
60
102
{ACAD_REACTORS
330
47
102
}
330
47
100
AcDbScale
 70
     0
300
1/4" = 1'-0"
140
0.25
141
12.0
290
     0
  0
SCALE
  5
61
102
{ACAD_REACTORS
330
47
102
}
330
47
100
AcDbScale
 70
     0
300
3/8" = 1'-0"
140
0.375
141
12.0
290
     0
  0
SCALE
  5
62
102
{ACAD_REACTORS
330
47
102
}
330
47
100
AcDbScale
 70
     0
300
1/2" = 1'-0"
140
0.5
141
12.0
290
     0
  0
SCALE
  5
63
102
{ACAD_REACTORS
330
47
102
}
330
47
100
AcDbScale
 70
     0
300
3/4" = 1'-0"
140
0.75
141
12.0
290
     0
  0
SCALE
  5
64
102
{ACAD_REACTORS
330
47
102
}
330
47
100
AcDbScale
 70
     0
300
1" = 1'-0"
140
1.0
141
12.0
290
     0
  0
SCALE
  5
65
102
{ACAD_REACTORS
330
47
102
}
330
47
100
AcDbScale
 70
     0
300
1-1/2" = 1'-0"
140
1.5
141
12.0
290
     0
  0
SCALE
  5
66
102
{ACAD_REACTORS
330
47
102
}
330
47
100
AcDbScale
 70
     0
300
3" = 1'-0"
140
3.0
141
12.0
290
     0
  0
SCALE
  5
67
102
{ACAD_REACTORS
330
47
102
}
330
47
100
AcDbScale
 70
     0
300
6" = 1'-0"
140
6.0
141
12.0
290
     0
  0
SCALE
  5
68
102
{ACAD_REACTORS
330
47
102
}
330
47
100
AcDbScale
 70
     0
300
1'-0" = 1'-0"
140
12.0
141
12.0
290
     0
  0
TABLESTYLE
  5
6A
102
{ACAD_REACTORS
330
69
102
}
102
{ACAD_XDICTIONARY
360
1E2
102
}
330
69
100
AcDbTableStyle
  3
Standard
 70
     0
 71
     0
 40
0.06
 41
0.06
280
     0
281
     0
  7
Standard
140
4.5
170
     2
 62
     0
 63
   257
283
     0
 90
        4
 91
        0
  1

274
    -2
284
     1
 64
     0
275
    -2
285
     1
 65
     0
276
    -2
286
     1
 66
     0
277
    -2
287
     1
 67
     0
278
    -2
288
     1
 68
     0
279
    -2
289
     1
 69
     0
  7
Standard
140
6.0
170
     5
 62
     0
 63
   257
283
     0
 90
        4
 91
        0
  1

274
    -2
284
     1
 64
     0
275
    -2
285
     1
 65
     0
276
    -2
286
     1
 66
     0
277
    -2
287
     1
 67
     0
278
    -2
288
     1
 68
     0
279
    -2
289
     1
 69
     0
  7
Standard
140
4.5
170
     5
 62
     0
 63
   257
283
     0
 90
        4
 91
        0
  1

274
    -2
284
     1
 64
     0
275
    -2
285
     1
 65
     0
276
    -2
286
     1
 66
     0
277
    -2
287
     1
 67
     0
278
    -2
288
     1
 68
     0
279
    -2
289
     1
 69
     0
  0
VISUALSTYLE
  5
2F
102
{ACAD_REACTORS
330
2A
102
}
330
2A
100
AcDbVisualStyle
  2
2dWireframe
 70
     4
177
     3
291
     0
 70
    58
 90
        0
176
     1
 90
        2
176
     1
 90
        0
176
     1
 90
        0
176
     1
 40
0.6
176
     1
 40
30.0
176
     1
 62
     7
420
 16777215
176
     1
 90
        1
176
     1
 90
        4
176
     1
 62
     7
176
     1
 62
   257
176
     1
 90
        1
176
     1
 90
        1
176
     1
 40
1.0
176
     1
 90
        0
176
     1
 62
   257
176
     1
 40
1.0
176
     1
 90
        1
176
     1
 90
        6
176
     1
 90
        2
176
     1
 62
     7
176
     1
 90
        5
176
     1
 90
        0
176
     1
 90
        0
176
     1
290
     0
176
     1
 90
        1
176
     1
 40
0.0
176
     1
 90
        0
176
     1
290
     1
176
     1
290
     1
176
     1
290
     0
176
     1
290
     0
176
     1
290
     0
176
     1
290
     0
176
     1
290
     0
176
     1
290
     0
176
     1
290
     0
176
     1
 90
       50
176
     1
 40
0.0
176
     1
 40
1.0
176
     1
 90
        0
176
     1
 62
    18
420
        0
176
     1
 90
       50
176
     1
 90
        3
176
     1
 62
     5
420
      255
176
     1
290
     0
176
     1
 90
       50
176
     1
 90
       50
176
     1
 90
       50
176
     1
290
     0
176
     1
 90
       50
176
     1
 62
   256
176
     0
 40
1.0
176
     0
 90
        2
176
     1
  1
strokes_ogs.tif
176
     1
290
     0
176
     1
 40
1.0
176
     1
 40
1.0
176
     1
  0
VISUALSTYLE
  5
32
102
{ACAD_REACTORS
330
2A
102
}
330
2A
100
AcDbVisualStyle
  2
Basic
 70
     7
177
     3
291
     1
 70
    58
 90
        1
176
     1
 90
        0
176
     1
 90
        1
176
     1
 90
        0
176
     1
 40
0.6
176
     1
 40
30.0
176
     1
 62
     7
420
 16777215
176
     1
 90
        0
176
     1
 90
        4
176
     1
 62
     7
176
     1
 62
   257
176
     1
 90
        1
176
     1
 90
        1
176
     1
 40
1.0
176
     1
 90
        8
176
     1
 62
     7
176
     1
 40
1.0
176
     1
 90
        1
176
     1
 90
        6
176
     1
 90
        2
176
     1
 62
     7
176
     1
 90
        5
176
     1
 90
        0
176
     1
 90
        0
176
     1
290
     0
176
     1
 90
        1
176
     1
 40
0.0
176
     1
 90
        0
176
     1
290
     0
176
     1
290
     1
176
     1
290
     1
176
     1
290
     0
176
     1
290
     0
176
     1
290
     0
176
     1
290
     0
176
     1
290
     0
176
     1
290
     0
176
     1
 90
       50
176
     1
 40
0.0
176
     1
 40
1.0
176
     1
 90
        0
176
     1
 62
    18
420
        0
176
     1
 90
       50
176
     1
 90
        3
176
     1
 62
     5
420
      255
176
     1
290
     0
176
     1
 90
       50
176
     1
 90
       50
176
     1
 90
       50
176
     1
290
     0
176
     1
 90
       50
176
     1
 62
   256
176
     0
 40
1.0
176
     0
 90
        2
176
     1
  1
strokes_ogs.tif
176
     1
290
     0
176
     1
 40
1.0
176
     1
 40
1.0
176
     1
  0
VISUALSTYLE
  5
36
102
{ACAD_REACTORS
330
2A
102
}
330
2A
100
AcDbVisualStyle
  2
Brighten
 70
    12
177
     3
291
     1
 70
    58
 90
        2
176
     1
 90
        2
176
     1
 90
        0
176
     1
 90
        0
176
     1
 40
0.6
176
     1
 40
30.0
176
     1
 62
     7
420
 16777215
176
     1
 90
        1
176
     1
 90
        4
176
     1
 62
     7
176
     1
 62
   257
176
     1
 90
        1
176
     1
 90
        1
176
     1
 40
1.0
176
     1
 90
        8
176
     1
 62
     7
176
     1
 40
1.0
176
     1
 90
        1
176
     1
 90
        6
176
     1
 90
        2
176
     1
 62
     7
176
     1
 90
        5
176
     1
 90
        0
176
     1
 90
        0
176
     1
290
     0
176
     1
 90
        1
176
     1
 40
50.0
176
     1
 90
        0
176
     1
290
     0
176
     1
290
     1
176
     1
290
     1
176
     1
290
     0
176
     1
290
     0
176
     1
290
     0
176
     1
290
     0
176
     1
290
     0
176
     1
290
     0
176
     1
 90
       50
176
     1
 40
0.0
176
     1
 40
1.0
176
     1
 90
        0
176
     1
 62
    18
420
        0
176
     1
 90
       50
176
     1
 90
        3
176
     1
 62
     5
420
      255
176
     1
290
     0
176
     1
 90
       50
176
     1
 90
       50
176
     1
 90
       50
176
     1
290
     0
176
     1
 90
       50
176
     1
 62
   256
176
     0
 40
1.0
176
     0
 90
        2
176
     1
  1
strokes_ogs.tif
176
     1
290
     0
176
     1
 40
1.0
176
     1
 40
1.0
176
     1
  0
VISUALSTYLE
  5
3A
102
{ACAD_REACTORS
330
2A
102
}
330
2A
100
AcDbVisualStyle
  2
ColorChange
 70
    16
177
     3
291
     1
 70
    58
 90
        2
176
     1
 90
        2
176
     1
 90
        3
176
     1
 90
        0
176
     1
 40
0.6
176
     1
 40
30.0
176
     1
 62
     8
420
  8421504
176
     1
 90
        1
176
     1
 90
        4
176
     1
 62
     7
176
     1
 62
   257
176
     1
 90
        1
176
     1
 90
        1
176
     1
 40
1.0
176
     1
 90
        8
176
     1
 62
     8
420
  8421504
176
     1
 40
1.0
176
     1
 90
        1
176
     1
 90
        6
176
     1
 90
        2
176
     1
 62
     7
176
     1
 90
        5
176
     1
 90
        0
176
     1
 90
        0
176
     1
290
     0
176
     1
 90
        1
176
     1
 40
0.0
176
     1
 90
        0
176
     1
290
     0
176
     1
290
     1
176
     1
290
     1
176
     1
290
     0
176
     1
290
     0
176
     1
290
     0
176
     1
290
     0
176
     1
290
     0
176
     1
290
     0
176
     1
 90
       50
176
     1
 40
0.0
176
     1
 40
1.0
176
     1
 90
        0
176
     1
 62
    18
420
        0
176
     1
 90
       50
176
     1
 90
        3
176
     1
 62
     5
420
      255
176
     1
290
     0
176
     1
 90
       50
176
     1
 90
       50
176
     1
 90
       50
176
     1
290
     0
176
     1
 90
       50
176
     1
 62
   256
176
     0
 40
1.0
176
     0
 90
        2
176
     1
  1
strokes_ogs.tif
176
     1
290
     0
176
     1
 40
1.0
176
     1
 40
1.0
176
     1
  0
VISUALSTYLE
  5
34
102
{ACAD_REACTORS
330
2A
102
}
330
2A
100
AcDbVisualStyle
  2
Conceptual
 70
     9
177
     3
291
     0
 70
    58
 90
        3
176
     1
 90
        2
176
     1
 90
        0
176
     1
 90
        0
176
     1
 40
0.6
176
     1
 40
30.0
176
     1
 62
     7
420
 16777215
176
     1
 90
        2
176
     1
 90
        2
176
     1
 62
     7
176
     1
 62
   257
176
     1
 90
        1
176
     1
 90
        1
176
     1
 40
179.0
176
     1
 90
        8
176
     1
 62
     7
176
     1
 40
1.0
176
     1
 90
        1
176
     1
 90
        6
176
     1
 90
        2
176
     1
 62
     7
176
     1
 90
        3
176
     1
 90
        0
176
     1
 90
        0
176
     1
290
     0
176
     1
 90
        1
176
     1
 40
0.0
176
     1
 90
        0
176
     1
290
     0
176
     1
290
     1
176
     1
290
     1
176
     1
290
     0
176
     1
290
     0
176
     1
290
     0
176
     1
290
     0
176
     1
290
     0
176
     1
290
     0
176
     1
 90
       50
176
     1
 40
0.0
176
     1
 40
1.0
176
     1
 90
        0
176
     1
 62
    18
420
        0
176
     1
 90
       50
176
     1
 90
        3
176
     1
 62
     5
420
      255
176
     1
290
     0
176
     1
 90
       50
176
     1
 90
       50
176
     1
 90
       50
176
     1
290
     0
176
     1
 90
       50
176
     1
 62
   256
176
     0
 40
1.0
176
     0
 90
        2
176
     1
  1
strokes_ogs.tif
176
     1
290
     0
176
     1
 40
1.0
176
     1
 40
1.0
176
     1
  0
VISUALSTYLE
  5
35
102
{ACAD_REACTORS
330
2A
102
}
330
2A
100
AcDbVisualStyle
  2
Dim
 70
    11
177
     3
291
     1
 70
    58
 90
        2
176
     1
 90
        2
176
     1
 90
        0
176
     1
 90
        0
176
     1
 40
0.6
176
     1
 40
30.0
176
     1
 62
     7
420
 16777215
176
     1
 90
        1
176
     1
 90
        4
176
     1
 62
     7
176
     1
 62
   257
176
     1
 90
        1
176
     1
 90
        1
176
     1
 40
1.0
176
     1
 90
        8
176
     1
 62
     7
176
     1
 40
1.0
176
     1
 90
        1
176
     1
 90
        6
176
     1
 90
        2
176
     1
 62
     7
176
     1
 90
        5
176
     1
 90
        0
176
     1
 90
        0
176
     1
290
     0
176
     1
 90
        1
176
     1
 40
-50.0
176
     1
 90
        0
176
     1
290
     0
176
     1
290
     1
176
     1
290
     1
176
     1
290
     0
176
     1
290
     0
176
     1
290
     0
176
     1
290
     0
176
     1
290
     0
176
     1
290
     0
176
     1
 90
       50
176
     1
 40
0.0
176
     1
 40
1.0
176
     1
 90
        0
176
     1
 62
    18
420
        0
176
     1
 90
       50
176
     1
 90
        3
176
     1
 62
     5
420
      255
176
     1
290
     0
176
     1
 90
       50
176
     1
 90
       50
176
     1
 90
       50
176
     1
290
     0
176
     1
 90
       50
176
     1
 62
   256
176
     0
 40
1.0
176
     0
 90
        2
176
     1
  1
strokes_ogs.tif
176
     1
290
     0
176
     1
 40
1.0
176
     1
 40
1.0
176
     1
  0
VISUALSTYLE
  5
3D
102
{ACAD_REACTORS
330
2A
102
}
330
2A
100
AcDbVisualStyle
  2
EdgeColorOff
 70
    22
177
     3
291
     1
 70
    58
 90
        2
176
     0
 90
        2
176
     0
 90
        0
176
     0
 90
        0
176
     0
 40
0.6
176
     0
 40
30.0
176
     0
 62
     7
420
 16777215
176
     0
 90
        1
176
     0
 90
        4
176
     0
 62
     7
176
     0
 62
   257
176
     0
 90
        1
176
     0
 90
        1
176
     0
 40
1.0
176
     0
 90
        8
176
     2
 62
     7
176
     0
 40
1.0
176
     0
 90
        1
176
     0
 90
        6
176
     0
 90
        2
176
     0
 62
     7
176
     0
 90
        5
176
     0
 90
        0
176
     0
 90
        0
176
     0
290
     0
176
     0
 90
        1
176
     0
 40
0.0
176
     0
 90
        0
176
     0
290
     0
176
     0
290
     1
176
     0
290
     1
176
     0
290
     0
176
     0
290
     0
176
     0
290
     0
176
     0
290
     0
176
     0
290
     0
176
     0
290
     0
176
     0
 90
       50
176
     0
 40
0.0
176
     0
 40
1.0
176
     0
 90
        0
176
     0
 62
    18
420
        0
176
     0
 90
       50
176
     0
 90
        3
176
     0
 62
     5
420
      255
176
     0
290
     0
176
     0
 90
       50
176
     0
 90
       50
176
     0
 90
       50
176
     0
290
     0
176
     0
 90
       50
176
     0
 62
   256
176
     0
 40
1.0
176
     0
 90
        2
176
     0
  1
strokes_ogs.tif
176
     0
290
     0
176
     0
 40
1.0
176
     0
 40
1.0
176
     0
  0
VISUALSTYLE
  5
39
102
{ACAD_REACTORS
330
2A
102
}
330
2A
100
AcDbVisualStyle
  2
Facepattern
 70
    15
177
     3
291
     1
 70
    58
 90
        2
176
     1
 90
        2
176
     1
 90
        0
176
     1
 90
        0
176
     1
 40
0.6
176
     1
 40
30.0
176
     1
 62
     7
420
 16777215
176
     1
 90
        1
176
     1
 90
        4
176
     1
 62
     7
176
     1
 62
   257
176
     1
 90
        1
176
     1
 90
        1
176
     1
 40
1.0
176
     1
 90
        8
176
     1
 62
     7
176
     1
 40
1.0
176
     1
 90
        1
176
     1
 90
        6
176
     1
 90
        2
176
     1
 62
     7
176
     1
 90
        5
176
     1
 90
        0
176
     1
 90
        0
176
     1
290
     0
176
     1
 90
        1
176
     1
 40
0.0
176
     1
 90
        0
176
     1
290
     0
176
     1
290
     1
176
     1
290
     1
176
     1
290
     0
176
     1
290
     0
176
     1
290
     0
176
     1
290
     0
176
     1
290
     0
176
     1
290
     0
176
     1
 90
       50
176
     1
 40
0.0
176
     1
 40
1.0
176
     1
 90
        0
176
     1
 62
    18
420
        0
176
     1
 90
       50
176
     1
 90
        3
176
     1
 62
     5
420
      255
176
     1
290
     0
176
     1
 90
       50
176
     1
 90
       50
176
     1
 90
       50
176
     1
290
     0
176
     1
 90
       50
176
     1
 62
   256
176
     0
 40
1.0
176
     0
 90
        2
176
     1
  1
strokes_ogs.tif
176
     1
290
     0
176
     1
 40
1.0
176
     1
 40
1.0
176
     1
  0
VISUALSTYLE
  5
2B
102
{ACAD_REACTORS
330
2A
102
}
330
2A
100
AcDbVisualStyle
  2
Flat
 70
     0
177
     3
291
     1
 70
    58
 90
        2
176
     1
 90
        1
176
     1
 90
        1
176
     1
 90
        2
176
     1
 40
0.6
176
     1
 40
30.0
176
     1
 62
     7
420
 16777215
176
     1
 90
        0
176
     1
 90
        0
176
     1
 62
     7
176
     1
 62
   257
176
     1
 90
        1
176
     1
 90
        1
176
     1
 40
1.0
176
     1
 90
        8
176
     1
 62
     7
176
     1
 40
1.0
176
     1
 90
        1
176
     1
 90
        6
176
     1
 90
        2
176
     1
 62
     7
176
     1
 90
        5
176
     1
 90
        0
176
     1
 90
        0
176
     1
290
     0
176
     1
 90
       13
176
     1
 40
0.0
176
     1
 90
        0
176
     1
290
     0
176
     1
290
     1
176
     1
290
     1
176
     1
290
     0
176
     1
290
     0
176
     1
290
     0
176
     1
290
     0
176
     1
290
     0
176
     1
290
     0
176
     1
 90
       50
176
     1
 40
0.0
176
     1
 40
1.0
176
     1
 90
        0
176
     1
 62
    18
420
        0
176
     1
 90
       50
176
     1
 90
        3
176
     1
 62
     5
420
      255
176
     1
290
     0
176
     1
 90
       50
176
     1
 90
       50
176
     1
 90
       50
176
     1
290
     0
176
     1
 90
       50
176
     1
 62
   256
176
     0
 40
1.0
176
     0
 90
        2
176
     1
  1
strokes_ogs.tif
176
     1
290
     0
176
     1
 40
1.0
176
     1
 40
1.0
176
     1
  0
VISUALSTYLE
  5
2C
102
{ACAD_REACTORS
330
2A
102
}
330
2A
100
AcDbVisualStyle
  2
FlatWithEdges
 70
     1
177
     3
291
     1
 70
    58
 90
        2
176
     1
 90
        1
176
     1
 90
        1
176
     1
 90
        2
176
     1
 40
0.6
176
     1
 40
30.0
176
     1
 62
     7
420
 16777215
176
     1
 90
        1
176
     1
 90
        0
176
     1
 62
     7
176
     1
 62
   257
176
     1
 90
        1
176
     1
 90
        1
176
     1
 40
1.0
176
     1
 90
        0
176
     1
 62
   257
176
     1
 40
1.0
176
     1
 90
        1
176
     1
 90
        6
176
     1
 90
        2
176
     1
 62
     7
176
     1
 90
        5
176
     1
 90
        0
176
     1
 90
        0
176
     1
290
     0
176
     1
 90
       13
176
     1
 40
0.0
176
     1
 90
        0
176
     1
290
     0
176
     1
290
     1
176
     1
290
     1
176
     1
290
     0
176
     1
290
     0
176
     1
290
     0
176
     1
290
     0
176
     1
290
     0
176
     1
290
     0
176
     1
 90
       50
176
     1
 40
0.0
176
     1
 40
1.0
176
     1
 90
        0
176
     1
 62
    18
420
        0
176
     1
 90
       50
176
     1
 90
        3
176
     1
 62
     5
420
      255
176
     1
290
     0
176
     1
 90
       50
176
     1
 90
       50
176
     1
 90
       50
176
     1
290
     0
176
     1
 90
       50
176
     1
 62
   256
176
     0
 40
1.0
176
     0
 90
        2
176
     1
  1
strokes_ogs.tif
176
     1
290
     0
176
     1
 40
1.0
176
     1
 40
1.0
176
     1
  0
VISUALSTYLE
  5
2D
102
{ACAD_REACTORS
330
2A
102
}
330
2A
100
AcDbVisualStyle
  2
Gouraud
 70
     2
177
     3
291
     1
 70
    58
 90
        2
176
     1
 90
        2
176
     1
 90
        1
176
     1
 90
        2
176
     1
 40
0.6
176
     1
 40
30.0
176
     1
 62
     7
420
 16777215
176
     1
 90
        0
176
     1
 90
        0
176
     1
 62
     7
176
     1
 62
   257
176
     1
 90
        1
176
     1
 90
        1
176
     1
 40
1.0
176
     1
 90
        0
176
     1
 62
     7
176
     1
 40
1.0
176
     1
 90
        1
176
     1
 90
        6
176
     1
 90
        2
176
     1
 62
     7
176
     1
 90
        5
176
     1
 90
        0
176
     1
 90
        0
176
     1
290
     0
176
     1
 90
       13
176
     1
 40
0.0
176
     1
 90
        0
176
     1
290
     0
176
     1
290
     1
176
     1
290
     1
176
     1
290
     0
176
     1
290
     0
176
     1
290
     0
176
     1
290
     0
176
     1
290
     0
176
     1
290
     0
176
     1
 90
       50
176
     1
 40
0.0
176
     1
 40
1.0
176
     1
 90
        0
176
     1
 62
    18
420
        0
176
     1
 90
       50
176
     1
 90
        3
176
     1
 62
     5
420
      255
176
     1
290
     0
176
     1
 90
       50
176
     1
 90
       50
176
     1
 90
       50
176
     1
290
     0
176
     1
 90
       50
176
     1
 62
   256
176
     0
 40
1.0
176
     0
 90
        2
176
     1
  1
strokes_ogs.tif
176
     1
290
     0
176
     1
 40
1.0
176
     1
 40
1.0
176
     1
  0
VISUALSTYLE
  5
2E
102
{ACAD_REACTORS
330
2A
102
}
330
2A
100
AcDbVisualStyle
  2
GouraudWithEdges
 70
     3
177
     3
291
     1
 70
    58
 90
        2
176
     1
 90
        2
176
     1
 90
        1
176
     1
 90
        2
176
     1
 40
0.6
176
     1
 40
30.0
176
     1
 62
     7
420
 16777215
176
     1
 90
        1
176
     1
 90
        0
176
     1
 62
     7
176
     1
 62
   257
176
     1
 90
        1
176
     1
 90
        1
176
     1
 40
1.0
176
     1
 90
        0
176
     1
 62
   257
176
     1
 40
1.0
176
     1
 90
        1
176
     1
 90
        6
176
     1
 90
        2
176
     1
 62
     7
176
     1
 90
        5
176
     1
 90
        0
176
     1
 90
        0
176
     1
290
     0
176
     1
 90
       13
176
     1
 40
0.0
176
     1
 90
        0
176
     1
290
     0
176
     1
290
     1
176
     1
290
     1
176
     1
290
     0
176
     1
290
     0
176
     1
290
     0
176
     1
290
     0
176
     1
290
     0
176
     1
290
     0
176
     1
 90
       50
176
     1
 40
0.0
176
     1
 40
1.0
176
     1
 90
        0
176
     1
 62
    18
420
        0
176
     1
 90
       50
176
     1
 90
        3
176
     1
 62
     5
420
      255
176
     1
290
     0
176
     1
 90
       50
176
     1
 90
       50
176
     1
 90
       50
176
     1
290
     0
176
     1
 90
       50
176
     1
 62
   256
176
     0
 40
1.0
176
     0
 90
        2
176
     1
  1
strokes_ogs.tif
176
     1
290
     0
176
     1
 40
1.0
176
     1
 40
1.0
176
     1
  0
VISUALSTYLE
  5
31
102
{ACAD_REACTORS
330
2A
102
}
330
2A
100
AcDbVisualStyle
  2
Hidden
 70
     6
177
     3
291
     0
 70
    58
 90
        1
176
     1
 90
        2
176
     1
 90
        2
176
     1
 90
        0
176
     1
 40
0.6
176
     1
 40
30.0
176
     1
 62
     7
420
 16777215
176
     1
 90
        2
176
     1
 90
        2
176
     1
 62
     7
176
     1
 62
   257
176
     1
 90
        2
176
     1
 90
        1
176
     1
 40
40.0
176
     1
 90
        0
176
     1
 62
   257
176
     1
 40
1.0
176
     1
 90
        1
176
     1
 90
        6
176
     1
 90
        2
176
     1
 62
     7
176
     1
 90
        3
176
     1
 90
        0
176
     1
 90
        0
176
     1
290
     0
176
     1
 90
        1
176
     1
 40
0.0
176
     1
 90
        0
176
     1
290
     0
176
     1
290
     1
176
     1
290
     1
176
     1
290
     0
176
     1
290
     0
176
     1
290
     0
176
     1
290
     0
176
     1
290
     0
176
     1
290
     0
176
     1
 90
       50
176
     1
 40
0.0
176
     1
 40
1.0
176
     1
 90
        0
176
     1
 62
    18
420
        0
176
     1
 90
       50
176
     1
 90
        3
176
     1
 62
     5
420
      255
176
     1
290
     0
176
     1
 90
       50
176
     1
 90
       50
176
     1
 90
       50
176
     1
290
     0
176
     1
 90
       50
176
     1
 62
   256
176
     0
 40
1.0
176
     0
 90
        2
176
     1
  1
strokes_ogs.tif
176
     1
290
     0
176
     1
 40
1.0
176
     1
 40
1.0
176
     1
  0
VISUALSTYLE
  5
3B
102
{ACAD_REACTORS
330
2A
102
}
330
2A
100
AcDbVisualStyle
  2
JitterOff
 70
    20
177
     3
291
     1
 70
    58
 90
        2
176
     0
 90
        2
176
     0
 90
        0
176
     0
 90
        0
176
     0
 40
0.6
176
     0
 40
30.0
176
     0
 62
     7
420
 16777215
176
     0
 90
        1
176
     0
 90
        4
176
     0
 62
     7
176
     0
 62
   257
176
     0
 90
        1
176
     0
 90
        1
176
     0
 40
1.0
176
     0
 90
       10
176
     2
 62
     7
176
     0
 40
1.0
176
     0
 90
        1
176
     0
 90
        6
176
     0
 90
        2
176
     0
 62
     7
176
     0
 90
        5
176
     0
 90
        0
176
     0
 90
        0
176
     0
290
     0
176
     0
 90
        1
176
     0
 40
0.0
176
     0
 90
        0
176
     0
290
     0
176
     0
290
     1
176
     0
290
     1
176
     0
290
     0
176
     0
290
     0
176
     0
290
     0
176
     0
290
     0
176
     0
290
     0
176
     0
290
     0
176
     0
 90
       50
176
     0
 40
0.0
176
     0
 40
1.0
176
     0
 90
        0
176
     0
 62
    18
420
        0
176
     0
 90
       50
176
     0
 90
        3
176
     0
 62
     5
420
      255
176
     0
290
     0
176
     0
 90
       50
176
     0
 90
       50
176
     0
 90
       50
176
     0
290
     0
176
     0
 90
       50
176
     0
 62
   256
176
     0
 40
1.0
176
     0
 90
        2
176
     0
  1
strokes_ogs.tif
176
     0
290
     0
176
     0
 40
1.0
176
     0
 40
1.0
176
     0
  0
VISUALSTYLE
  5
38
102
{ACAD_REACTORS
330
2A
102
}
330
2A
100
AcDbVisualStyle
  2
Linepattern
 70
    14
177
     3
291
     1
 70
    58
 90
        2
176
     1
 90
        2
176
     1
 90
        0
176
     1
 90
        0
176
     1
 40
0.6
176
     1
 40
30.0
176
     1
 62
     7
420
 16777215
176
     1
 90
        1
176
     1
 90
        4
176
     1
 62
     7
176
     1
 62
   257
176
     1
 90
        7
176
     1
 90
        7
176
     1
 40
1.0
176
     1
 90
        8
176
     1
 62
     7
176
     1
 40
1.0
176
     1
 90
        1
176
     1
 90
        6
176
     1
 90
        2
176
     1
 62
     7
176
     1
 90
        5
176
     1
 90
        0
176
     1
 90
        0
176
     1
290
     0
176
     1
 90
        1
176
     1
 40
0.0
176
     1
 90
        0
176
     1
290
     0
176
     1
290
     1
176
     1
290
     1
176
     1
290
     0
176
     1
290
     0
176
     1
290
     0
176
     1
290
     0
176
     1
290
     0
176
     1
290
     0
176
     1
 90
       50
176
     1
 40
0.0
176
     1
 40
1.0
176
     1
 90
        0
176
     1
 62
    18
420
        0
176
     1
 90
       50
176
     1
 90
        3
176
     1
 62
     5
420
      255
176
     1
290
     0
176
     1
 90
       50
176
     1
 90
       50
176
     1
 90
       50
176
     1
290
     0
176
     1
 90
       50
176
     1
 62
   256
176
     0
 40
1.0
176
     0
 90
        2
176
     1
  1
strokes_ogs.tif
176
     1
290
     0
176
     1
 40
1.0
176
     1
 40
1.0
176
     1
  0
VISUALSTYLE
  5
3C
102
{ACAD_REACTORS
330
2A
102
}
330
2A
100
AcDbVisualStyle
  2
OverhangOff
 70
    21
177
     3
291
     1
 70
    58
 90
        2
176
     0
 90
        2
176
     0
 90
        0
176
     0
 90
        0
176
     0
 40
0.6
176
     0
 40
30.0
176
     0
 62
     7
420
 16777215
176
     0
 90
        1
176
     0
 90
        4
176
     0
 62
     7
176
     0
 62
   257
176
     0
 90
        1
176
     0
 90
        1
176
     0
 40
1.0
176
     0
 90
        9
176
     2
 62
     7
176
     0
 40
1.0
176
     0
 90
        1
176
     0
 90
        6
176
     0
 90
        2
176
     0
 62
     7
176
     0
 90
        5
176
     0
 90
        0
176
     0
 90
        0
176
     0
290
     0
176
     0
 90
        1
176
     0
 40
0.0
176
     0
 90
        0
176
     0
290
     0
176
     0
290
     1
176
     0
290
     1
176
     0
290
     0
176
     0
290
     0
176
     0
290
     0
176
     0
290
     0
176
     0
290
     0
176
     0
290
     0
176
     0
 90
       50
176
     0
 40
0.0
176
     0
 40
1.0
176
     0
 90
        0
176
     0
 62
    18
420
        0
176
     0
 90
       50
176
     0
 90
        3
176
     0
 62
     5
420
      255
176
     0
290
     0
176
     0
 90
       50
176
     0
 90
       50
176
     0
 90
       50
176
     0
290
     0
176
     0
 90
       50
176
     0
 62
   256
176
     0
 40
1.0
176
     0
 90
        2
176
     0
  1
strokes_ogs.tif
176
     0
290
     0
176
     0
 40
1.0
176
     0
 40
1.0
176
     0
  0
VISUALSTYLE
  5
33
102
{ACAD_REACTORS
330
2A
102
}
330
2A
100
AcDbVisualStyle
  2
Realistic
 70
     8
177
     3
291
     0
 70
    58
 90
        2
176
     1
 90
        3
176
     1
 90
        0
176
     1
 90
        2
176
     1
 40
0.6
176
     1
 40
30.0
176
     1
 62
     7
420
 16777215
176
     1
 90
        0
176
     1
 90
        0
176
     1
 62
     7
176
     1
 62
   257
176
     1
 90
        1
176
     1
 90
        1
176
     1
 40
1.0
176
     1
 90
        8
176
     1
 62
   257
176
     1
 40
1.0
176
     1
 90
        1
176
     1
 90
        6
176
     1
 90
        2
176
     1
 62
     7
176
     1
 90
        3
176
     1
 90
        0
176
     1
 90
        0
176
     1
290
     0
176
     1
 90
       13
176
     1
 40
0.0
176
     1
 90
        0
176
     1
290
     0
176
     1
290
     1
176
     1
290
     1
176
     1
290
     0
176
     1
290
     0
176
     1
290
     0
176
     1
290
     0
176
     1
290
     0
176
     1
290
     0
176
     1
 90
       50
176
     1
 40
0.0
176
     1
 40
1.0
176
     1
 90
        0
176
     1
 62
    18
420
        0
176
     1
 90
       50
176
     1
 90
        3
176
     1
 62
     5
420
      255
176
     1
290
     0
176
     1
 90
       50
176
     1
 90
       50
176
     1
 90
       50
176
     1
290
     0
176
     1
 90
       50
176
     1
 62
   256
176
     0
 40
1.0
176
     0
 90
        2
176
     1
  1
strokes_ogs.tif
176
     1
290
     0
176
     1
 40
1.0
176
     1
 40
1.0
176
     1
  0
VISUALSTYLE
  5
42
102
{ACAD_REACTORS
330
2A
102
}
330
2A
100
AcDbVisualStyle
  2
Shaded
 70
    27
177
     3
291
     0
 70
    58
 90
        2
176
     1
 90
        2
176
     1
 90
        1
176
     1
 90
        2
176
     1
 40
0.6
176
     1
 40
30.0
176
     1
 62
     7
420
 16777215
176
     1
 90
        0
176
     1
 90
        4
176
     1
 62
     7
176
     1
 62
   257
176
     1
 90
        1
176
     1
 90
        1
176
     1
 40
1.0
176
     1
 90
        8
176
     1
 62
   257
176
     1
 40
1.0
176
     1
 90
        1
176
     1
 90
        6
176
     1
 90
        2
176
     1
 62
     8
420
  7895160
176
     1
 90
        3
176
     1
 90
        0
176
     1
 90
        0
176
     1
290
     0
176
     1
 90
        5
176
     1
 40
0.0
176
     1
 90
        0
176
     1
290
     0
176
     1
290
     1
176
     1
290
     1
176
     1
290
     0
176
     1
290
     0
176
     1
290
     0
176
     1
290
     0
176
     1
290
     0
176
     1
290
     0
176
     1
 90
       50
176
     1
 40
0.0
176
     1
 40
1.0
176
     1
 90
        0
176
     1
 62
    18
420
        0
176
     1
 90
       50
176
     1
 90
        3
176
     1
 62
     5
420
      255
176
     1
290
     0
176
     1
 90
       50
176
     1
 90
       50
176
     1
 90
       50
176
     1
290
     0
176
     1
 90
       50
176
     1
 62
   256
176
     0
 40
1.0
176
     0
 90
        2
176
     1
  1
strokes_ogs.tif
176
     1
290
     0
176
     1
 40
1.0
176
     1
 40
1.0
176
     1
  0
VISUALSTYLE
  5
41
102
{ACAD_REACTORS
330
2A
102
}
330
2A
100
AcDbVisualStyle
  2
Shaded with edges
 70
    26
177
     3
291
     0
 70
    58
 90
        2
176
     1
 90
        2
176
     1
 90
        1
176
     1
 90
        2
176
     1
 40
0.6
176
     1
 40
30.0
176
     1
 62
     7
420
 16777215
176
     1
 90
        1
176
     1
 90
       10
176
     1
 62
     7
176
     1
 62
   257
176
     1
 90
        2
176
     1
 90
        1
176
     1
 40
1.0
176
     1
 90
        8
176
     1
 62
   257
176
     1
 40
1.0
176
     1
 90
        1
176
     1
 90
        6
176
     1
 90
        2
176
     1
 62
     7
176
     1
 90
        3
176
     1
 90
        0
176
     1
 90
        0
176
     1
290
     0
176
     1
 90
        5
176
     1
 40
0.0
176
     1
 90
        0
176
     1
290
     0
176
     1
290
     1
176
     1
290
     1
176
     1
290
     0
176
     1
290
     0
176
     1
290
     0
176
     1
290
     0
176
     1
290
     0
176
     1
290
     0
176
     1
 90
       50
176
     1
 40
0.0
176
     1
 40
1.0
176
     1
 90
        0
176
     1
 62
    18
420
        0
176
     1
 90
       50
176
     1
 90
        3
176
     1
 62
     5
420
      255
176
     1
290
     0
176
     1
 90
       50
176
     1
 90
       50
176
     1
 90
       50
176
     1
290
     0
176
     1
 90
       50
176
     1
 62
   256
176
     0
 40
1.0
176
     0
 90
        2
176
     1
  1
strokes_ogs.tif
176
     1
290
     0
176
     1
 40
1.0
176
     1
 40
1.0
176
     1
  0
VISUALSTYLE
  5
3E
102
{ACAD_REACTORS
330
2A
102
}
330
2A
100
AcDbVisualStyle
  2
Shades of Gray
 70
    23
177
     3
291
     0
 70
    58
 90
        2
176
     1
 90
        2
176
     1
 90
        3
176
     1
 90
        0
176
     1
 40
0.6
176
     1
 40
30.0
176
     1
 62
     7
420
 16777215
176
     1
 90
        2
176
     1
 90
        2
176
     1
 62
     7
176
     1
 62
     7
176
     1
 90
        1
176
     1
 90
        1
176
     1
 40
40.0
176
     1
 90
        8
176
     1
 62
     7
176
     1
 40
1.0
176
     1
 90
        1
176
     1
 90
        6
176
     1
 90
        2
176
     1
 62
     7
176
     1
 90
        3
176
     1
 90
        0
176
     1
 90
        0
176
     1
290
     0
176
     1
 90
        1
176
     1
 40
0.0
176
     1
 90
        0
176
     1
290
     0
176
     1
290
     1
176
     1
290
     1
176
     1
290
     0
176
     1
290
     0
176
     1
290
     0
176
     1
290
     0
176
     1
290
     0
176
     1
290
     0
176
     1
 90
       50
176
     1
 40
0.0
176
     1
 40
1.0
176
     1
 90
        0
176
     1
 62
    18
420
        0
176
     1
 90
       50
176
     1
 90
        3
176
     1
 62
     5
420
      255
176
     1
290
     0
176
     1
 90
       50
176
     1
 90
       50
176
     1
 90
       50
176
     1
290
     0
176
     1
 90
       50
176
     1
 62
   256
176
     0
 40
1.0
176
     0
 90
        2
176
     1
  1
strokes_ogs.tif
176
     1
290
     0
176
     1
 40
1.0
176
     1
 40
1.0
176
     1
  0
VISUALSTYLE
  5
3F
102
{ACAD_REACTORS
330
2A
102
}
330
2A
100
AcDbVisualStyle
  2
Sketchy
 70
    24
177
     3
291
     0
 70
    58
 90
        1
176
     1
 90
        2
176
     1
 90
        2
176
     1
 90
        0
176
     1
 40
0.6
176
     1
 40
30.0
176
     1
 62
     7
420
 16777215
176
     1
 90
        2
176
     1
 90
        2
176
     1
 62
     7
176
     1
 62
     7
176
     1
 90
        1
176
     1
 90
        1
176
     1
 40
40.0
176
     1
 90
       11
176
     1
 62
     7
176
     1
 40
1.0
176
     1
 90
        1
176
     1
 90
        6
176
     1
 90
        2
176
     1
 62
     7
176
     1
 90
        6
176
     1
 90
        0
176
     1
 90
        0
176
     1
290
     0
176
     1
 90
        1
176
     1
 40
0.0
176
     1
 90
        0
176
     1
290
     0
176
     1
290
     1
176
     1
290
     1
176
     1
290
     0
176
     1
290
     0
176
     1
290
     0
176
     1
290
     0
176
     1
290
     0
176
     1
290
     0
176
     1
 90
       50
176
     1
 40
0.0
176
     1
 40
1.0
176
     1
 90
        0
176
     1
 62
    18
420
        0
176
     1
 90
       50
176
     1
 90
        3
176
     1
 62
     5
420
      255
176
     1
290
     0
176
     1
 90
       50
176
     1
 90
       50
176
     1
 90
       50
176
     1
290
     0
176
     1
 90
       50
176
     1
 62
   256
176
     0
 40
1.0
176
     0
 90
        2
176
     1
  1
strokes_ogs.tif
176
     1
290
     0
176
     1
 40
1.0
176
     1
 40
1.0
176
     1
  0
VISUALSTYLE
  5
37
102
{ACAD_REACTORS
330
2A
102
}
330
2A
100
AcDbVisualStyle
  2
Thicken
 70
    13
177
     3
291
     1
 70
    58
 90
        2
176
     1
 90
        2
176
     1
 90
        0
176
     1
 90
        0
176
     1
 40
0.6
176
     1
 40
30.0
176
     1
 62
     7
420
 16777215
176
     1
 90
        1
176
     1
 90
        4
176
     1
 62
     7
176
     1
 62
   257
176
     1
 90
        1
176
     1
 90
        1
176
     1
 40
1.0
176
     1
 90
       12
176
     1
 62
     7
176
     1
 40
1.0
176
     1
 90
        1
176
     1
 90
        6
176
     1
 90
        2
176
     1
 62
     7
176
     1
 90
        5
176
     1
 90
        0
176
     1
 90
        0
176
     1
290
     0
176
     1
 90
        1
176
     1
 40
0.0
176
     1
 90
        0
176
     1
290
     0
176
     1
290
     1
176
     1
290
     1
176
     1
290
     0
176
     1
290
     0
176
     1
290
     0
176
     1
290
     0
176
     1
290
     0
176
     1
290
     0
176
     1
 90
       50
176
     1
 40
0.0
176
     1
 40
1.0
176
     1
 90
        0
176
     1
 62
    18
420
        0
176
     1
 90
       50
176
     1
 90
        3
176
     1
 62
     5
420
      255
176
     1
290
     0
176
     1
 90
       50
176
     1
 90
       50
176
     1
 90
       50
176
     1
290
     0
176
     1
 90
       50
176
     1
 62
   256
176
     0
 40
1.0
176
     0
 90
        2
176
     1
  1
strokes_ogs.tif
176
     1
290
     0
176
     1
 40
1.0
176
     1
 40
1.0
176
     1
  0
VISUALSTYLE
  5
30
102
{ACAD_REACTORS
330
2A
102
}
330
2A
100
AcDbVisualStyle
  2
Wireframe
 70
     5
177
     3
291
     0
 70
    58
 90
        0
176
     1
 90
        2
176
     1
 90
        0
176
     1
 90
        0
176
     1
 40
0.6
176
     1
 40
30.0
176
     1
 62
     7
420
 16777215
176
     1
 90
        1
176
     1
 90
        4
176
     1
 62
     7
176
     1
 62
   257
176
     1
 90
        1
176
     1
 90
        1
176
     1
 40
1.0
176
     1
 90
        0
176
     1
 62
   257
176
     1
 40
1.0
176
     1
 90
        1
176
     1
 90
        6
176
     1
 90
        2
176
     1
 62
     7
176
     1
 90
        3
176
     1
 90
        0
176
     1
 90
        0
176
     1
290
     0
176
     1
 90
        1
176
     1
 40
0.0
176
     1
 90
        0
176
     1
290
     0
176
     1
290
     1
176
     1
290
     1
176
     1
290
     0
176
     1
290
     0
176
     1
290
     0
176
     1
290
     0
176
     1
290
     0
176
     1
290
     0
176
     1
 90
       50
176
     1
 40
0.0
176
     1
 40
1.0
176
     1
 90
        0
176
     1
 62
    18
420
        0
176
     1
 90
       50
176
     1
 90
        3
176
     1
 62
     5
420
      255
176
     1
290
     0
176
     1
 90
       50
176
     1
 90
       50
176
     1
 90
       50
176
     1
290
     0
176
     1
 90
       50
176
     1
 62
   256
176
     0
 40
1.0
176
     0
 90
        2
176
     1
  1
strokes_ogs.tif
176
     1
290
     0
176
     1
 40
1.0
176
     1
 40
1.0
176
     1
  0
VISUALSTYLE
  5
40
102
{ACAD_REACTORS
330
2A
102
}
330
2A
100
AcDbVisualStyle
  2
X-Ray
 70
    25
177
     3
291
     0
 70
    58
 90
        2
176
     1
 90
        2
176
     1
 90
        1
176
     1
 90
        1
176
     1
 40
0.5
176
     1
 40
30.0
176
     1
 62
     7
420
 16777215
176
     1
 90
        1
176
     1
 90
        0
176
     1
 62
     7
176
     1
 62
   257
176
     1
 90
        1
176
     1
 90
        1
176
     1
 40
1.0
176
     1
 90
        8
176
     1
 62
     7
176
     1
 40
1.0
176
     1
 90
        1
176
     1
 90
        6
176
     1
 90
        2
176
     1
 62
     7
176
     1
 90
        3
176
     1
 90
        0
176
     1
 90
        0
176
     1
290
     0
176
     1
 90
       13
176
     1
 40
0.0
176
     1
 90
        0
176
     1
290
     0
176
     1
290
     1
176
     1
290
     1
176
     1
290
     0
176
     1
290
     0
176
     1
290
     0
176
     1
290
     0
176
     1
290
     0
176
     1
290
     0
176
     1
 90
       50
176
     1
 40
0.0
176
     1
 40
1.0
176
     1
 90
        0
176
     1
 62
    18
420
        0
176
     1
 90
       50
176
     1
 90
        3
176
     1
 62
     5
420
      255
176
     1
290
     0
176
     1
 90
       50
176
     1
 90
       50
176
     1
 90
       50
176
     1
290
     0
176
     1
 90
       50
176
     1
 62
   256
176
     0
 40
1.0
176
     0
 90
        2
176
     1
  1
strokes_ogs.tif
176
     1
290
     0
176
     1
 40
1.0
176
     1
 40
1.0
176
     1
  0
DICTIONARYVAR
  5
1E1
102
{ACAD_REACTORS
330
1E0
102
}
330
1E0
100
DictionaryVariables
280
     0
  1
1:1
  0
DICTIONARYVAR
  5
1E6
102
{ACAD_REACTORS
330
1E0
102
}
330
1E0
100
DictionaryVariables
280
     0
  1
Standard
  0
DICTIONARYVAR
  5
1E5
102
{ACAD_REACTORS
330
1E0
102
}
330
1E0
100
DictionaryVariables
280
     0
  1
Standard
  0
DICTIONARY
  5
1E2
330
6A
100
AcDbDictionary
280
     1
281
     1
  3
ACAD_ROUNDTRIP_2008_TABLESTYLE_CELLSTYLEMAP
360
1E3
  0
CELLSTYLEMAP
  5
1E3
102
{ACAD_REACTORS
330
1E2
102
}
330
1E2
100
AcDbCellStyleMap
 90
        3
300
CELLSTYLE
  1
TABLEFORMAT_BEGIN
 90
        5
170
     1
 91
        0
 92
    32768
 62
   257
 93
        1
300
CONTENTFORMAT
  1
CONTENTFORMAT_BEGIN
 90
        0
 91
        0
 92
        4
 93
        0
300

 40
0.0
140
1.0
 94
        5
 62
     0
340
11
144
6.0
309
CONTENTFORMAT_END
171
     1
301
MARGIN
  1
CELLMARGIN_BEGIN
 40
1.5
 40
1.5
 40
1.5
 40
1.5
 40
1.5
 40
1.5
309
CELLMARGIN_END
 94
        6
 95
        1
302
GRIDFORMAT
  1
GRIDFORMAT_BEGIN
 90
        0
 91
        1
 62
     0
 92
       -2
340
14
 93
        0
 40
0.045
309
GRIDFORMAT_END
 95
        2
302
GRIDFORMAT
  1
GRIDFORMAT_BEGIN
 90
        0
 91
        1
 62
     0
 92
       -2
340
14
 93
        0
 40
0.045
309
GRIDFORMAT_END
 95
        4
302
GRIDFORMAT
  1
GRIDFORMAT_BEGIN
 90
        0
 91
        1
 62
     0
 92
       -2
340
14
 93
        0
 40
0.045
309
GRIDFORMAT_END
 95
        8
302
GRIDFORMAT
  1
GRIDFORMAT_BEGIN
 90
        0
 91
        1
 62
     0
 92
       -2
340
14
 93
        0
 40
0.045
309
GRIDFORMAT_END
 95
       16
302
GRIDFORMAT
  1
GRIDFORMAT_BEGIN
 90
        0
 91
        1
 62
     0
 92
       -2
340
14
 93
        0
 40
0.045
309
GRIDFORMAT_END
 95
       32
302
GRIDFORMAT
  1
GRIDFORMAT_BEGIN
 90
        0
 91
        1
 62
     0
 92
       -2
340
14
 93
        0
 40
0.045
309
GRIDFORMAT_END
309
TABLEFORMAT_END
  1
CELLSTYLE_BEGIN
 90
        1
 91
        1
300
_TITLE
309
CELLSTYLE_END
300
CELLSTYLE
  1
TABLEFORMAT_BEGIN
 90
        5
170
     1
 91
        0
 92
        0
 62
   257
 93
        1
300
CONTENTFORMAT
  1
CONTENTFORMAT_BEGIN
 90
        0
 91
        0
 92
        4
 93
        0
300

 40
0.0
140
1.0
 94
        5
 62
     0
340
11
144
4.5
309
CONTENTFORMAT_END
171
     1
301
MARGIN
  1
CELLMARGIN_BEGIN
 40
1.5
 40
1.5
 40
1.5
 40
1.5
 40
1.5
 40
1.5
309
CELLMARGIN_END
 94
        6
 95
        1
302
GRIDFORMAT
  1
GRIDFORMAT_BEGIN
 90
        0
 91
        1
 62
     0
 92
       -2
340
14
 93
        0
 40
0.045
309
GRIDFORMAT_END
 95
        2
302
GRIDFORMAT
  1
GRIDFORMAT_BEGIN
 90
        0
 91
        1
 62
     0
 92
       -2
340
14
 93
        0
 40
0.045
309
GRIDFORMAT_END
 95
        4
302
GRIDFORMAT
  1
GRIDFORMAT_BEGIN
 90
        0
 91
        1
 62
     0
 92
       -2
340
14
 93
        0
 40
0.045
309
GRIDFORMAT_END
 95
        8
302
GRIDFORMAT
  1
GRIDFORMAT_BEGIN
 90
        0
 91
        1
 62
     0
 92
       -2
340
14
 93
        0
 40
0.045
309
GRIDFORMAT_END
 95
       16
302
GRIDFORMAT
  1
GRIDFORMAT_BEGIN
 90
        0
 91
        1
 62
     0
 92
       -2
340
14
 93
        0
 40
0.045
309
GRIDFORMAT_END
 95
       32
302
GRIDFORMAT
  1
GRIDFORMAT_BEGIN
 90
        0
 91
        1
 62
     0
 92
       -2
340
14
 93
        0
 40
0.045
309
GRIDFORMAT_END
309
TABLEFORMAT_END
  1
CELLSTYLE_BEGIN
 90
        2
 91
        1
300
_HEADER
309
CELLSTYLE_END
300
CELLSTYLE
  1
TABLEFORMAT_BEGIN
 90
        5
170
     1
 91
        0
 92
        0
 62
   257
 93
        1
300
CONTENTFORMAT
  1
CONTENTFORMAT_BEGIN
 90
        0
 91
        0
 92
        4
 93
        0
300

 40
0.0
140
1.0
 94
        2
 62
     0
340
11
144
4.5
309
CONTENTFORMAT_END
171
     1
301
MARGIN
  1
CELLMARGIN_BEGIN
 40
1.5
 40
1.5
 40
1.5
 40
1.5
 40
1.5
 40
1.5
309
CELLMARGIN_END
 94
        6
 95
        1
302
GRIDFORMAT
  1
GRIDFORMAT_BEGIN
 90
        0
 91
        1
 62
     0
 92
       -2
340
14
 93
        0
 40
0.045
309
GRIDFORMAT_END
 95
        2
302
GRIDFORMAT
  1
GRIDFORMAT_BEGIN
 90
        0
 91
        1
 62
     0
 92
       -2
340
14
 93
        0
 40
0.045
309
GRIDFORMAT_END
 95
        4
302
GRIDFORMAT
  1
GRIDFORMAT_BEGIN
 90
        0
 91
        1
 62
     0
 92
       -2
340
14
 93
        0
 40
0.045
309
GRIDFORMAT_END
 95
        8
302
GRIDFORMAT
  1
GRIDFORMAT_BEGIN
 90
        0
 91
        1
 62
     0
 92
       -2
340
14
 93
        0
 40
0.045
309
GRIDFORMAT_END
 95
       16
302
GRIDFORMAT
  1
GRIDFORMAT_BEGIN
 90
        0
 91
        1
 62
     0
 92
       -2
340
14
 93
        0
 40
0.045
309
GRIDFORMAT_END
 95
       32
302
GRIDFORMAT
  1
GRIDFORMAT_BEGIN
 90
        0
 91
        1
 62
     0
 92
       -2
340
14
 93
        0
 40
0.045
309
GRIDFORMAT_END
309
TABLEFORMAT_END
  1
CELLSTYLE_BEGIN
 90
        3
 91
        2
300
_DATA
309
CELLSTYLE_END
  0
ENDSEC
  0
EOF