0
SECTION
  2
HEADER
  9
$ACADVER
  1
AC1027
  9
$ACADMAINTVER
 70
     8
  9
$DWGCODEPAGE
  3
ANSI_1252
  9
$REQUIREDVERSIONS
160
                 0
  9
$COMMENTS
  1
File was created by Cadenas
  9
$CUSTOMPROPERTYTAG
  1
NN
  9
$CUSTOMPROPERTY
  1
Set Screw Intermediate Duty Wide Slot Take Up Inch
  9
$CUSTOMPROPERTYTAG
  1
NT
  9
$CUSTOMPROPERTY
  1
VSC Intermediate Duty Wide Slot Take-Up Bearings
  9
$CUSTOMPROPERTYTAG
  1
NB
  9
$CUSTOMPROPERTY
  1
125564
  9
$CUSTOMPROPERTYTAG
  1
NBSYN
  9
$CUSTOMPROPERTY
  1
$PN.
  9
$CUSTOMPROPERTYTAG
  1
LINA
  9
$CUSTOMPROPERTY
  1
125564
  9
$CUSTOMPROPERTYTAG
  1
RS
  9
$CUSTOMPROPERTY
  1
211
  9
$CUSTOMPROPERTYTAG
  1
SS
  9
$CUSTOMPROPERTY
  1
2
  9
$CUSTOMPROPERTYTAG
  1
PN
  9
$CUSTOMPROPERTY
  1
125564
  9
$CUSTOMPROPERTYTAG
  1
DESCRIPTION
  9
$CUSTOMPROPERTY
  1
WSTU-VSC-200L
  9
$CUSTOMPROPERTYTAG
  1
WEIGHT
  9
$CUSTOMPROPERTY
  1
10.1
  9
$CUSTOMPROPERTYTAG
  1
A
  9
$CUSTOMPROPERTY
  1
2.22
  9
$CUSTOMPROPERTYTAG
  1
B
  9
$CUSTOMPROPERTY
  1
6.69
  9
$CUSTOMPROPERTYTAG
  1
C
  9
$CUSTOMPROPERTY
  1
1.063
  9
$CUSTOMPROPERTYTAG
  1
D
  9
$CUSTOMPROPERTY
  1
3.75
  9
$CUSTOMPROPERTYTAG
  1
E
  9
$CUSTOMPROPERTY
  1
4.19
  9
$CUSTOMPROPERTYTAG
  1
F
  9
$CUSTOMPROPERTY
  1
1-1/4
  9
$CUSTOMPROPERTYTAG
  1
G
  9
$CUSTOMPROPERTY
  1
0.75
  9
$CUSTOMPROPERTYTAG
  1
H
  9
$CUSTOMPROPERTY
  1
1.00
  9
$CUSTOMPROPERTYTAG
  1
J
  9
$CUSTOMPROPERTY
  1
4.00
  9
$CUSTOMPROPERTYTAG
  1
K
  9
$CUSTOMPROPERTY
  1
2.50
  9
$CUSTOMPROPERTYTAG
  1
L
  9
$CUSTOMPROPERTY
  1
2.71
  9
$CUSTOMPROPERTYTAG
  1
M
  9
$CUSTOMPROPERTY
  1
5.110/5.140
  9
$CUSTOMPROPERTYTAG
  1
N
  9
$CUSTOMPROPERTY
  1
5.88
  9
$CUSTOMPROPERTYTAG
  1
R
  9
$CUSTOMPROPERTY
  1
0.87
  9
$CUSTOMPROPERTYTAG
  1
S
  9
$CUSTOMPROPERTY
  1
1.35
  9
$CUSTOMPROPERTYTAG
  1
T
  9
$CUSTOMPROPERTY
  1
2.50
  9
$CUSTOMPROPERTYTAG
  1
COMPANY
  9
$CUSTOMPROPERTY
  1
baldor
  9
$INSBASE
 10
0.0
 20
0.0
 30
0.0
  9
$EXTMIN
 10
1.000000000000000E+20
 20
1.000000000000000E+20
 30
1.000000000000000E+20
  9
$EXTMAX
 10
-1.000000000000000E+20
 20
-1.000000000000000E+20
 30
-1.000000000000000E+20
  9
$LIMMIN
 10
0.0
 20
0.0
  9
$LIMMAX
 10
12.0
 20
9.0
  9
$ORTHOMODE
 70
     0
  9
$REGENMODE
 70
     1
  9
$FILLMODE
 70
     1
  9
$QTEXTMODE
 70
     0
  9
$MIRRTEXT
 70
     1
  9
$LTSCALE
 40
1.0
  9
$ATTMODE
 70
     1
  9
$TEXTSIZE
 40
0.2
  9
$TRACEWID
 40
0.05
  9
$TEXTSTYLE
  7
Standard
  9
$CLAYER
  8
0
  9
$CELTYPE
  6
ByLayer
  9
$CECOLOR
 62
   256
  9
$CELTSCALE
 40
1.0
  9
$DISPSILH
 70
     0
  9
$DIMSCALE
 40
1.0
  9
$DIMASZ
 40
0.18
  9
$DIMEXO
 40
0.0625
  9
$DIMDLI
 40
0.38
  9
$DIMRND
 40
0.0
  9
$DIMDLE
 40
0.0
  9
$DIMEXE
 40
0.18
  9
$DIMTP
 40
0.0
  9
$DIMTM
 40
0.0
  9
$DIMTXT
 40
0.18
  9
$DIMCEN
 40
0.09
  9
$DIMTSZ
 40
0.0
  9
$DIMTOL
 70
     0
  9
$DIMLIM
 70
     0
  9
$DIMTIH
 70
     1
  9
$DIMTOH
 70
     1
  9
$DIMSE1
 70
     0
  9
$DIMSE2
 70
     0
  9
$DIMTAD
 70
     0
  9
$DIMZIN
 70
     0
  9
$DIMBLK
  1

  9
$DIMASO
 70
     1
  9
$DIMSHO
 70
     1
  9
$DIMPOST
  1

  9
$DIMAPOST
  1

  9
$DIMALT
 70
     0
  9
$DIMALTD
 70
     2
  9
$DIMALTF
 40
25.4
  9
$DIMLFAC
 40
1.0
  9
$DIMTOFL
 70
     0
  9
$DIMTVP
 40
0.0
  9
$DIMTIX
 70
     0
  9
$DIMSOXD
 70
     0
  9
$DIMSAH
 70
     0
  9
$DIMBLK1
  1

  9
$DIMBLK2
  1

  9
$DIMSTYLE
  2
Standard
  9
$DIMCLRD
 70
     0
  9
$DIMCLRE
 70
     0
  9
$DIMCLRT
 70
     0
  9
$DIMTFAC
 40
1.0
  9
$DIMGAP
 40
0.09
  9
$DIMJUST
 70
     0
  9
$DIMSD1
 70
     0
  9
$DIMSD2
 70
     0
  9
$DIMTOLJ
 70
     1
  9
$DIMTZIN
 70
     0
  9
$DIMALTZ
 70
     0
  9
$DIMALTTZ
 70
     0
  9
$DIMUPT
 70
     0
  9
$DIMDEC
 70
     4
  9
$DIMTDEC
 70
     4
  9
$DIMALTU
 70
     2
  9
$DIMALTTD
 70
     2
  9
$DIMTXSTY
  7
Standard
  9
$DIMAUNIT
 70
     0
  9
$DIMADEC
 70
     0
  9
$DIMALTRND
 40
0.0
  9
$DIMAZIN
 70
     0
  9
$DIMDSEP
 70
    46
  9
$DIMATFIT
 70
     3
  9
$DIMFRAC
 70
     0
  9
$DIMLDRBLK
  1

  9
$DIMLUNIT
 70
     2
  9
$DIMLWD
 70
    -2
  9
$DIMLWE
 70
    -2
  9
$DIMTMOVE
 70
     0
  9
$DIMFXL
 40
1.0
  9
$DIMFXLON
 70
     0
  9
$DIMJOGANG
 40
0.7853981633974483
  9
$DIMTFILL
 70
     0
  9
$DIMTFILLCLR
 70
     0
  9
$DIMARCSYM
 70
     0
  9
$DIMLTYPE
  6

  9
$DIMLTEX1
  6

  9
$DIMLTEX2
  6

  9
$DIMTXTDIRECTION
 70
     0
  9
$LUNITS
 70
     2
  9
$LUPREC
 70
     4
  9
$SKETCHINC
 40
0.1
  9
$FILLETRAD
 40
0.5
  9
$AUNITS
 70
     0
  9
$AUPREC
 70
     0
  9
$MENU
  1
.
  9
$ELEVATION
 40
0.0
  9
$PELEVATION
 40
0.0
  9
$THICKNESS
 40
0.0
  9
$LIMCHECK
 70
     0
  9
$CHAMFERA
 40
0.0
  9
$CHAMFERB
 40
0.0
  9
$CHAMFERC
 40
0.0
  9
$CHAMFERD
 40
0.0
  9
$SKPOLY
 70
     0
  9
$TDCREATE
 40
2458168.998119236
  9
$TDUCREATE
 40
2458168.956452569
  9
$TDUPDATE
 40
2458168.998119421
  9
$TDUUPDATE
 40
2458168.956452755
  9
$TDINDWG
 40
0.0000000116
  9
$TDUSRTIMER
 40
0.0000000116
  9
$USRTIMER
 70
     1
  9
$ANGBASE
 50
0.0
  9
$ANGDIR
 70
     0
  9
$PDMODE
 70
     0
  9
$PDSIZE
 40
0.0
  9
$PLINEWID
 40
0.0
  9
$SPLFRAME
 70
     0
  9
$SPLINETYPE
 70
     6
  9
$SPLINESEGS
 70
     8
  9
$HANDSEED
  5
1D8
  9
$SURFTAB1
 70
     6
  9
$SURFTAB2
 70
     6
  9
$SURFTYPE
 70
     6
  9
$SURFU
 70
     6
  9
$SURFV
 70
     6
  9
$UCSBASE
  2

  9
$UCSNAME
  2

  9
$UCSORG
 10
0.0
 20
0.0
 30
0.0
  9
$UCSXDIR
 10
1.0
 20
0.0
 30
0.0
  9
$UCSYDIR
 10
0.0
 20
1.0
 30
0.0
  9
$UCSORTHOREF
  2

  9
$UCSORTHOVIEW
 70
     0
  9
$UCSORGTOP
 10
0.0
 20
0.0
 30
0.0
  9
$UCSORGBOTTOM
 10
0.0
 20
0.0
 30
0.0
  9
$UCSORGLEFT
 10
0.0
 20
0.0
 30
0.0
  9
$UCSORGRIGHT
 10
0.0
 20
0.0
 30
0.0
  9
$UCSORGFRONT
 10
0.0
 20
0.0
 30
0.0
  9
$UCSORGBACK
 10
0.0
 20
0.0
 30
0.0
  9
$PUCSBASE
  2

  9
$PUCSNAME
  2

  9
$PUCSORG
 10
0.0
 20
0.0
 30
0.0
  9
$PUCSXDIR
 10
1.0
 20
0.0
 30
0.0
  9
$PUCSYDIR
 10
0.0
 20
1.0
 30
0.0
  9
$PUCSORTHOREF
  2

  9
$PUCSORTHOVIEW
 70
     0
  9
$PUCSORGTOP
 10
0.0
 20
0.0
 30
0.0
  9
$PUCSORGBOTTOM
 10
0.0
 20
0.0
 30
0.0
  9
$PUCSORGLEFT
 10
0.0
 20
0.0
 30
0.0
  9
$PUCSORGRIGHT
 10
0.0
 20
0.0
 30
0.0
  9
$PUCSORGFRONT
 10
0.0
 20
0.0
 30
0.0
  9
$PUCSORGBACK
 10
0.0
 20
0.0
 30
0.0
  9
$USERI1
 70
     0
  9
$USERI2
 70
     0
  9
$USERI3
 70
     0
  9
$USERI4
 70
     0
  9
$USERI5
 70
     0
  9
$USERR1
 40
0.0
  9
$USERR2
 40
0.0
  9
$USERR3
 40
0.0
  9
$USERR4
 40
0.0
  9
$USERR5
 40
0.0
  9
$WORLDVIEW
 70
     1
  9
$SHADEDGE
 70
     3
  9
$SHADEDIF
 70
    70
  9
$TILEMODE
 70
     1
  9
$MAXACTVP
 70
    64
  9
$PINSBASE
 10
0.0
 20
0.0
 30
0.0
  9
$PLIMCHECK
 70
     0
  9
$PEXTMIN
 10
1.000000000000000E+20
 20
1.000000000000000E+20
 30
1.000000000000000E+20
  9
$PEXTMAX
 10
-1.000000000000000E+20
 20
-1.000000000000000E+20
 30
-1.000000000000000E+20
  9
$PLIMMIN
 10
0.0
 20
0.0
  9
$PLIMMAX
 10
12.0
 20
9.0
  9
$UNITMODE
 70
     0
  9
$VISRETAIN
 70
     1
  9
$PLINEGEN
 70
     0
  9
$PSLTSCALE
 70
     1
  9
$TREEDEPTH
 70
  3020
  9
$CMLSTYLE
  2
Standard
  9
$CMLJUST
 70
     0
  9
$CMLSCALE
 40
1.0
  9
$PROXYGRAPHICS
 70
     1
  9
$MEASUREMENT
 70
     0
  9
$CELWEIGHT
370
    -1
  9
$ENDCAPS
280
     0
  9
$JOINSTYLE
280
     0
  9
$LWDISPLAY
290
     0
  9
$INSUNITS
 70
     1
  9
$HYPERLINKBASE
  1

  9
$STYLESHEET
  1

  9
$XEDIT
290
     1
  9
$CEPSNTYPE
380
     0
  9
$PSTYLEMODE
290
     1
  9
$FINGERPRINTGUID
  2
{A6D54F2C-B4A2-4914-89E5-04D6CE1E5025}
  9
$VERSIONGUID
  2
{FAEB1C32-E019-11D5-929B-00C0DF256EC4}
  9
$EXTNAMES
290
     1
  9
$PSVPSCALE
 40
0.0
  9
$OLESTARTUP
290
     0
  9
$SORTENTS
280
   127
  9
$INDEXCTL
280
     0
  9
$HIDETEXT
280
     1
  9
$XCLIPFRAME
280
     2
  9
$HALOGAP
280
     0
  9
$OBSCOLOR
 70
   257
  9
$OBSLTYPE
280
     0
  9
$INTERSECTIONDISPLAY
280
     0
  9
$INTERSECTIONCOLOR
 70
   257
  9
$DIMASSOC
280
     2
  9
$PROJECTNAME
  1

  9
$CAMERADISPLAY
290
     0
  9
$LENSLENGTH
 40
50.0
  9
$CAMERAHEIGHT
 40
0.0
  9
$STEPSPERSEC
 40
2.0
  9
$STEPSIZE
 40
6.0
  9
$3DDWFPREC
 40
2.0
  9
$PSOLWIDTH
 40
0.25
  9
$PSOLHEIGHT
 40
4.0
  9
$LOFTANG1
 40
1.570796326794897
  9
$LOFTANG2
 40
1.570796326794897
  9
$LOFTMAG1
 40
0.0
  9
$LOFTMAG2
 40
0.0
  9
$LOFTPARAM
 70
     7
  9
$LOFTNORMALS
280
     1
  9
$LATITUDE
 40
37.795
  9
$LONGITUDE
 40
-122.394
  9
$NORTHDIRECTION
 40
0.0
  9
$TIMEZONE
 70
 -8000
  9
$LIGHTGLYPHDISPLAY
280
     1
  9
$TILEMODELIGHTSYNCH
280
     1
  9
$CMATERIAL
347
44
  9
$SOLIDHIST
280
     0
  9
$SHOWHIST
280
     1
  9
$DWFFRAME
280
     2
  9
$DGNFRAME
280
     2
  9
$REALWORLDSCALE
290
     1
  9
$INTERFERECOLOR
 62
   256
  9
$CSHADOW
280
     0
  9
$SHADOWPLANELOCATION
 40
0.0
  0
ENDSEC
  0
SECTION
  2
CLASSES
  0
CLASS
  1
ACDBDICTIONARYWDFLT
  2
AcDbDictionaryWithDefault
  3
ObjectDBX Classes
 90
        0
 91
        4
280
     0
281
     0
  0
CLASS
  1
VISUALSTYLE
  2
AcDbVisualStyle
  3
ObjectDBX Classes
 90
     4095
 91
        4
280
     0
281
     0
  0
CLASS
  1
MATERIAL
  2
AcDbMaterial
  3
ObjectDBX Classes
 90
     1153
 91
        4
280
     0
281
     0
  0
CLASS
  1
SCALE
  2
AcDbScale
  3
ObjectDBX Classes
 90
     1153
 91
        4
280
     0
281
     0
  0
CLASS
  1
TABLESTYLE
  2
AcDbTableStyle
  3
ObjectDBX Classes
 90
     4095
 91
        4
280
     0
281
     0
  0
CLASS
  1
MLEADERSTYLE
  2
AcDbMLeaderStyle
  3
ACDB_MLEADERSTYLE_CLASS
 90
     4095
 91
        4
280
     0
281
     0
  0
CLASS
  1
SUN
  2
AcDbSun
  3
SCENEOE
 90
     1153
 91
        4
280
     0
281
     0
  0
CLASS
  1
DICTIONARYVAR
  2
AcDbDictionaryVar
  3
ObjectDBX Classes
 90
        0
 91
        4
280
     0
281
     0
  0
CLASS
  1
CELLSTYLEMAP
  2
AcDbCellStyleMap
  3
ObjectDBX Classes
 90
     1152
 91
        4
280
     0
281
     0
  0
ENDSEC
  0
SECTION
  2
TABLES
  0
TABLE
  2
VPORT
  5
8
330
0
100
AcDbSymbolTable
 70
     1
  0
VPORT
  5
29
330
8
100
AcDbSymbolTableRecord
100
AcDbViewportTableRecord
  2
*Active
 70
     0
 10
0.0
 20
0.0
 11
1.0
 21
1.0
 12
0.7071531143983041
 22
-0.1055000000000001
 13
0.0
 23
0.0
 14
0.5
 24
0.5
 15
0.5
 25
0.5
 16
0.0
 26
0.0
 36
1.0
 17
0.0
 27
0.0
 37
0.0
 40
2.76522
 41
2.597083648544224
 42
50.0
 43
0.0
 44
0.0
 50
0.0
 51
0.0
 71
     0
 72
   100
 73
     1
 74
     3
 75
     0
 76
     0
 77
     0
 78
     0
281
     0
 65
     1
110
0.0
120
0.0
130
0.0
111
1.0
121
0.0
131
0.0
112
0.0
122
1.0
132
0.0
 79
     0
146
0.0
348
2F
 60
     3
 61
     5
292
     1
282
     1
141
0.0
142
0.0
 63
   250
361
6D
  0
ENDTAB
  0
TABLE
  2
LTYPE
  5
5
330
0
100
AcDbSymbolTable
 70
     3
  0
LTYPE
  5
14
330
5
100
AcDbSymbolTableRecord
100
AcDbLinetypeTableRecord
  2
ByBlock
 70
     0
  3

 72
    65
 73
     0
 40
0.0
  0
LTYPE
  5
15
330
5
100
AcDbSymbolTableRecord
100
AcDbLinetypeTableRecord
  2
ByLayer
 70
     0
  3

 72
    65
 73
     0
 40
0.0
  0
LTYPE
  5
16
330
5
100
AcDbSymbolTableRecord
100
AcDbLinetypeTableRecord
  2
Continuous
 70
     0
  3
Solid line
 72
    65
 73
     0
 40
0.0
  0
LTYPE
  5
A5
330
5
100
AcDbSymbolTableRecord
100
AcDbLinetypeTableRecord
  2
Dashed
 70
     0
  3

 72
    65
 73
     2
 40
2.0
 49
1.0
 74
     0
 49
-1.0
 74
     0
  0
LTYPE
  5
DE
330
5
100
AcDbSymbolTableRecord
100
AcDbLinetypeTableRecord
  2
Center
 70
     0
  3

 72
    65
 73
     4
 40
1.5
 49
0.45
 74
     0
 49
-0.5
 74
     0
 49
0.05
 74
     0
 49
-0.5
 74
     0
  0
ENDTAB
  0
TABLE
  2
LAYER
  5
2
330
0
100
AcDbSymbolTable
 70
     7
  0
LAYER
  5
10
330
2
100
AcDbSymbolTableRecord
100
AcDbLayerTableRecord
  2
0
 70
     0
 62
     7
  6
Continuous
370
    -3
390
F
347
46
348
0
  0
LAYER
  5
72
330
2
100
AcDbSymbolTableRecord
100
AcDbLayerTableRecord
  2
AM_6
 70
     0
 62
    -2
  6
Continuous
370
    35
390
F
347
46
348
0
  0
LAYER
  5
A6
330
2
100
AcDbSymbolTableRecord
100
AcDbLayerTableRecord
  2
AM_9
 70
     0
 62
     6
  6
Dashed
370
    25
390
F
347
46
348
0
  0
LAYER
  5
DF
330
2
100
AcDbSymbolTableRecord
100
AcDbLayerTableRecord
  2
AM_7
 70
     0
 62
     7
  6
Center
370
    25
390
F
347
46
348
0
  0
LAYER
  5
E2
330
2
100
AcDbSymbolTableRecord
100
AcDbLayerTableRecord
  2
AM_4
 70
     0
 62
     7
  6
Continuous
370
    50
390
F
347
46
348
0
  0
LAYER
  5
EE
330
2
100
AcDbSymbolTableRecord
100
AcDbLayerTableRecord
  2
AM_5
 70
     0
 62
     3
  6
Continuous
370
    25
390
F
347
46
348
0
  0
LAYER
  5
1CB
330
2
100
AcDbSymbolTableRecord
100
AcDbLayerTableRecord
  2
ConnectionPoints
 70
     0
 62
     7
  6
Continuous
370
    50
390
F
347
46
348
0
  0
ENDTAB
  0
TABLE
  2
STYLE
  5
3
330
0
100
AcDbSymbolTable
 70
     1
  0
STYLE
  5
11
330
3
100
AcDbSymbolTableRecord
100
AcDbTextStyleTableRecord
  2
Standard
 70
     0
 40
0.0
 41
1.0
 50
0.0
 71
     0
 42
0.2
  3
txt
  4

  0
ENDTAB
  0
TABLE
  2
VIEW
  5
6
330
0
100
AcDbSymbolTable
 70
     0
  0
ENDTAB
  0
TABLE
  2
UCS
  5
7
330
0
100
AcDbSymbolTable
 70
     0
  0
ENDTAB
  0
TABLE
  2
APPID
  5
9
330
0
100
AcDbSymbolTable
 70
     1
  0
APPID
  5
12
330
9
100
AcDbSymbolTableRecord
100
AcDbRegAppTableRecord
  2
ACAD
 70
     0
  0
ENDTAB
  0
TABLE
  2
DIMSTYLE
  5
A
330
0
100
AcDbSymbolTable
 70
     1
100
AcDbDimStyleTable
  0
DIMSTYLE
105
27
330
A
100
AcDbSymbolTableRecord
100
AcDbDimStyleTableRecord
  2
Standard
 70
     0
178
     0
340
11
  0
ENDTAB
  0
TABLE
  2
BLOCK_RECORD
  5
1
330
0
100
AcDbSymbolTable
 70
     5
  0
BLOCK_RECORD
  5
1F
330
1
100
AcDbSymbolTableRecord
100
AcDbBlockTableRecord
  2
*Model_Space
340
22
 70
     0
280
     1
281
     0
  0
BLOCK_RECORD
  5
1B
330
1
100
AcDbSymbolTableRecord
100
AcDbBlockTableRecord
  2
*Paper_Space
340
1E
 70
     0
280
     1
281
     0
  0
BLOCK_RECORD
  5
23
330
1
100
AcDbSymbolTableRecord
100
AcDbBlockTableRecord
  2
*Paper_Space0
340
26
 70
     0
280
     1
281
     0
  0
BLOCK_RECORD
  5
6E
330
1
100
AcDbSymbolTableRecord
100
AcDbBlockTableRecord
  2
1_125564_4
340
0
102
{BLKREFS
331
6F
102
}
 70
     0
280
     1
281
     0
  0
BLOCK_RECORD
  5
8E
330
1
100
AcDbSymbolTableRecord
100
AcDbBlockTableRecord
  2
2_389935_0_in_125564_4
340
0
102
{BLKREFS
331
8F
102
}
 70
     0
280
     1
281
     0
  0
BLOCK_RECORD
  5
F1
330
1
100
AcDbSymbolTableRecord
100
AcDbBlockTableRecord
  2
3_405016_Inch_0_in_125564_4
340
0
102
{BLKREFS
331
F2
102
}
 70
     0
280
     1
281
     0
  0
BLOCK_RECORD
  5
174
330
1
100
AcDbSymbolTableRecord
100
AcDbBlockTableRecord
  2
4_125547vscwd_0_in_125564_4
340
0
102
{BLKREFS
331
175
102
}
 70
     0
280
     1
281
     0
  0
ENDTAB
  0
ENDSEC
  0
SECTION
  2
BLOCKS
  0
BLOCK
  5
20
330
1F
100
AcDbEntity
  8
0
100
AcDbBlockBegin
  2
*Model_Space
 70
     0
 10
0.0
 20
0.0
 30
0.0
  3
*Model_Space
  1

  0
ENDBLK
  5
21
330
1F
100
AcDbEntity
  8
0
100
AcDbBlockEnd
  0
BLOCK
  5
1C
330
1B
100
AcDbEntity
 67
     1
  8
0
100
AcDbBlockBegin
  2
*Paper_Space
 70
     0
 10
0.0
 20
0.0
 30
0.0
  3
*Paper_Space
  1

  0
ENDBLK
  5
1D
330
1B
100
AcDbEntity
 67
     1
  8
0
100
AcDbBlockEnd
  0
BLOCK
  5
24
330
23
100
AcDbEntity
  8
0
100
AcDbBlockBegin
  2
*Paper_Space0
 70
     0
 10
0.0
 20
0.0
 30
0.0
  3
*Paper_Space0
  1

  0
ENDBLK
  5
25
330
23
100
AcDbEntity
  8
0
100
AcDbBlockEnd
  0
BLOCK
  5
70
330
6E
100
AcDbEntity
  8
0
100
AcDbBlockBegin
  2
1_125564_4
 70
     2
 10
0.0
 20
0.0
 30
0.0
  3
1_125564_4
  1

  0
ATTDEF
  5
73
330
6E
100
AcDbEntity
  8
AM_6
100
AcDbText
 10
9.2275
 20
1.25
 30
0.0
 40
0.5
  1
Set Screw Intermediate Duty Wide Slot Take Up Inch
100
AcDbAttributeDefinition
  3

  2
NN
 70
     8
280
     0
  0
ATTDEF
  5
74
330
6E
100
AcDbEntity
  8
AM_6
100
AcDbText
 10
9.2275
 20
0.75
 30
0.0
 40
0.5
  1
VSC Intermediate Duty Wide Slot Take-Up Bearings
100
AcDbAttributeDefinition
  3

  2
NT
 70
     8
280
     0
  0
ATTDEF
  5
75
330
6E
100
AcDbEntity
  8
AM_6
100
AcDbText
 10
9.2275
 20
0.25
 30
0.0
 40
0.5
  1
125564
100
AcDbAttributeDefinition
  3

  2
NB
 70
     8
280
     0
  0
ATTDEF
  5
76
330
6E
100
AcDbEntity
  8
AM_6
100
AcDbText
 10
9.2275
 20
-0.25
 30
0.0
 40
0.5
  1
$PN.
100
AcDbAttributeDefinition
  3

  2
NBSYN
 70
     8
280
     0
  0
ATTDEF
  5
77
330
6E
100
AcDbEntity
  8
AM_6
100
AcDbText
 10
9.2275
 20
-0.75
 30
0.0
 40
0.5
  1
125564
100
AcDbAttributeDefinition
  3

  2
LINA
 70
     8
280
     0
  0
ATTDEF
  5
78
330
6E
100
AcDbEntity
  8
AM_6
100
AcDbText
 10
9.2275
 20
-1.25
 30
0.0
 40
0.5
  1
211
100
AcDbAttributeDefinition
  3

  2
RS
 70
     8
280
     0
  0
ATTDEF
  5
79
330
6E
100
AcDbEntity
  8
AM_6
100
AcDbText
 10
9.2275
 20
-1.75
 30
0.0
 40
0.5
  1
2
100
AcDbAttributeDefinition
  3

  2
SS
 70
     8
280
     0
  0
ATTDEF
  5
7A
330
6E
100
AcDbEntity
  8
AM_6
100
AcDbText
 10
9.2275
 20
-2.25
 30
0.0
 40
0.5
  1
125564
100
AcDbAttributeDefinition
  3

  2
PN
 70
     8
280
     0
  0
ATTDEF
  5
7B
330
6E
100
AcDbEntity
  8
AM_6
100
AcDbText
 10
9.2275
 20
-2.75
 30
0.0
 40
0.5
  1
WSTU-VSC-200L
100
AcDbAttributeDefinition
  3

  2
DESCRIPTION
 70
     8
280
     0
  0
ATTDEF
  5
7C
330
6E
100
AcDbEntity
  8
AM_6
100
AcDbText
 10
9.2275
 20
-3.25
 30
0.0
 40
0.5
  1
10.1
100
AcDbAttributeDefinition
  3

  2
WEIGHT
 70
     8
280
     0
  0
ATTDEF
  5
7D
330
6E
100
AcDbEntity
  8
AM_6
100
AcDbText
 10
9.2275
 20
-3.75
 30
0.0
 40
0.5
  1
2.22
100
AcDbAttributeDefinition
  3

  2
A
 70
     8
280
     0
  0
ATTDEF
  5
7E
330
6E
100
AcDbEntity
  8
AM_6
100
AcDbText
 10
9.2275
 20
-4.25
 30
0.0
 40
0.5
  1
6.69
100
AcDbAttributeDefinition
  3

  2
B
 70
     8
280
     0
  0
ATTDEF
  5
7F
330
6E
100
AcDbEntity
  8
AM_6
100
AcDbText
 10
9.2275
 20
-4.75
 30
0.0
 40
0.5
  1
1.063
100
AcDbAttributeDefinition
  3

  2
C
 70
     8
280
     0
  0
ATTDEF
  5
80
330
6E
100
AcDbEntity
  8
AM_6
100
AcDbText
 10
9.2275
 20
-5.25
 30
0.0
 40
0.5
  1
3.75
100
AcDbAttributeDefinition
  3

  2
D
 70
     8
280
     0
  0
ATTDEF
  5
81
330
6E
100
AcDbEntity
  8
AM_6
100
AcDbText
 10
9.2275
 20
-5.75
 30
0.0
 40
0.5
  1
4.19
100
AcDbAttributeDefinition
  3

  2
E
 70
     8
280
     0
  0
ATTDEF
  5
82
330
6E
100
AcDbEntity
  8
AM_6
100
AcDbText
 10
9.2275
 20
-6.25
 30
0.0
 40
0.5
  1
1-1/4
100
AcDbAttributeDefinition
  3

  2
F
 70
     8
280
     0
  0
ATTDEF
  5
83
330
6E
100
AcDbEntity
  8
AM_6
100
AcDbText
 10
9.2275
 20
-6.75
 30
0.0
 40
0.5
  1
0.75
100
AcDbAttributeDefinition
  3

  2
G
 70
     8
280
     0
  0
ATTDEF
  5
84
330
6E
100
AcDbEntity
  8
AM_6
100
AcDbText
 10
9.2275
 20
-7.25
 30
0.0
 40
0.5
  1
1.00
100
AcDbAttributeDefinition
  3

  2
H
 70
     8
280
     0
  0
ATTDEF
  5
85
330
6E
100
AcDbEntity
  8
AM_6
100
AcDbText
 10
9.2275
 20
-7.75
 30
0.0
 40
0.5
  1
4.00
100
AcDbAttributeDefinition
  3

  2
J
 70
     8
280
     0
  0
ATTDEF
  5
86
330
6E
100
AcDbEntity
  8
AM_6
100
AcDbText
 10
9.2275
 20
-8.25
 30
0.0
 40
0.5
  1
2.50
100
AcDbAttributeDefinition
  3

  2
K
 70
     8
280
     0
  0
ATTDEF
  5
87
330
6E
100
AcDbEntity
  8
AM_6
100
AcDbText
 10
9.2275
 20
-8.75
 30
0.0
 40
0.5
  1
2.71
100
AcDbAttributeDefinition
  3

  2
L
 70
     8
280
     0
  0
ATTDEF
  5
88
330
6E
100
AcDbEntity
  8
AM_6
100
AcDbText
 10
9.2275
 20
-9.25
 30
0.0
 40
0.5
  1
5.110/5.140
100
AcDbAttributeDefinition
  3

  2
M
 70
     8
280
     0
  0
ATTDEF
  5
89
330
6E
100
AcDbEntity
  8
AM_6
100
AcDbText
 10
9.2275
 20
-9.75
 30
0.0
 40
0.5
  1
5.88
100
AcDbAttributeDefinition
  3

  2
N
 70
     8
280
     0
  0
ATTDEF
  5
8A
330
6E
100
AcDbEntity
  8
AM_6
100
AcDbText
 10
9.2275
 20
-10.25
 30
0.0
 40
0.5
  1
0.87
100
AcDbAttributeDefinition
  3

  2
R
 70
     8
280
     0
  0
ATTDEF
  5
8B
330
6E
100
AcDbEntity
  8
AM_6
100
AcDbText
 10
9.2275
 20
-10.75
 30
0.0
 40
0.5
  1
1.35
100
AcDbAttributeDefinition
  3

  2
S
 70
     8
280
     0
  0
ATTDEF
  5
8C
330
6E
100
AcDbEntity
  8
AM_6
100
AcDbText
 10
9.2275
 20
-11.25
 30
0.0
 40
0.5
  1
2.50
100
AcDbAttributeDefinition
  3

  2
T
 70
     8
280
     0
  0
ATTDEF
  5
8D
330
6E
100
AcDbEntity
  8
AM_6
100
AcDbText
 10
9.2275
 20
-11.75
 30
0.0
 40
0.5
  1
baldor
100
AcDbAttributeDefinition
  3

  2
COMPANY
 70
     8
280
     0
  0
INSERT
  5
8F
330
6E
100
AcDbEntity
  8
0
100
AcDbBlockReference
  2
2_389935_0_in_125564_4
 10
0.0
 20
0.0
 30
0.0
  0
INSERT
  5
F2
330
6E
100
AcDbEntity
  8
0
100
AcDbBlockReference
  2
3_405016_Inch_0_in_125564_4
 10
0.0
 20
0.0
 30
0.0
  0
INSERT
  5
175
330
6E
100
AcDbEntity
  8
0
100
AcDbBlockReference
  2
4_125547vscwd_0_in_125564_4
 10
0.0
 20
0.0
 30
0.0
  0
ENDBLK
  5
71
330
6E
100
AcDbEntity
  8
0
100
AcDbBlockEnd
  0
BLOCK
  5
90
330
8E
100
AcDbEntity
  8
0
100
AcDbBlockBegin
  2
2_389935_0_in_125564_4
 70
     2
 10
0.0
 20
0.0
 30
0.0
  3
2_389935_0_in_125564_4
  1

  0
ATTDEF
  5
92
330
8E
100
AcDbEntity
  8
AM_6
100
AcDbText
 10
6.968059542428216
 20
0.87
 30
0.0
 40
0.5
  1
Set Screw Intermediate Duty Insert Inch Bore
100
AcDbAttributeDefinition
  3

  2
NN
 70
     8
280
     0
  0
ATTDEF
  5
93
330
8E
100
AcDbEntity
  8
AM_6
100
AcDbText
 10
6.968059542428216
 20
0.37
 30
0.0
 40
0.5
  1
VSC Intermediate Duty Bearing Inserts
100
AcDbAttributeDefinition
  3

  2
NT
 70
     8
280
     0
  0
ATTDEF
  5
94
330
8E
100
AcDbEntity
  8
AM_6
100
AcDbText
 10
6.968059542428216
 20
-0.13
 30
0.0
 40
0.5
  1
389935
100
AcDbAttributeDefinition
  3

  2
NB
 70
     8
280
     0
  0
ATTDEF
  5
95
330
8E
100
AcDbEntity
  8
AM_6
100
AcDbText
 10
6.968059542428216
 20
-0.63
 30
0.0
 40
0.5
  1
$PN.
100
AcDbAttributeDefinition
  3

  2
NBSYN
 70
     8
280
     0
  0
ATTDEF
  5
96
330
8E
100
AcDbEntity
  8
AM_6
100
AcDbText
 10
6.968059542428216
 20
-1.13
 30
0.0
 40
0.5
  1
389935
100
AcDbAttributeDefinition
  3

  2
LINA
 70
     8
280
     0
  0
ATTDEF
  5
97
330
8E
100
AcDbEntity
  8
AM_6
100
AcDbText
 10
6.968059542428216
 20
-1.63
 30
0.0
 40
0.5
  1
211
100
AcDbAttributeDefinition
  3

  2
SERIES
 70
     8
280
     0
  0
ATTDEF
  5
98
330
8E
100
AcDbEntity
  8
AM_6
100
AcDbText
 10
6.968059542428216
 20
-2.13
 30
0.0
 40
0.5
  1
2
100
AcDbAttributeDefinition
  3

  2
SS
 70
     8
280
     0
  0
ATTDEF
  5
99
330
8E
100
AcDbEntity
  8
AM_6
100
AcDbText
 10
6.968059542428216
 20
-2.63
 30
0.0
 40
0.5
  1
389935
100
AcDbAttributeDefinition
  3

  2
PN
 70
     8
280
     0
  0
ATTDEF
  5
9A
330
8E
100
AcDbEntity
  8
AM_6
100
AcDbText
 10
6.968059542428216
 20
-3.13
 30
0.0
 40
0.5
  1
INS-VSC-200L
100
AcDbAttributeDefinition
  3

  2
DESCRIPTION
 70
     8
280
     0
  0
ATTDEF
  5
9B
330
8E
100
AcDbEntity
  8
AM_6
100
AcDbText
 10
6.968059542428216
 20
-3.63
 30
0.0
 40
0.5
  1
2.24
100
AcDbAttributeDefinition
  3

  2
WEIGHT
 70
     8
280
     0
  0
ATTDEF
  5
9C
330
8E
100
AcDbEntity
  8
AM_6
100
AcDbText
 10
6.968059542428216
 20
-4.13
 30
0.0
 40
0.5
  1
2.22
100
AcDbAttributeDefinition
  3

  2
A
 70
     8
280
     0
  0
ATTDEF
  5
9D
330
8E
100
AcDbEntity
  8
AM_6
100
AcDbText
 10
6.968059542428216
 20
-4.63
 30
0.0
 40
0.5
  1
0.94
100
AcDbAttributeDefinition
  3

  2
C
 70
     8
280
     0
  0
ATTDEF
  5
9E
330
8E
100
AcDbEntity
  8
AM_6
100
AcDbText
 10
6.968059542428216
 20
-5.13
 30
0.0
 40
0.5
  1
3.9370
100
AcDbAttributeDefinition
  3

  2
D
 70
     8
280
     0
  0
ATTDEF
  5
9F
330
8E
100
AcDbEntity
  8
AM_6
100
AcDbText
 10
6.968059542428216
 20
-5.63
 30
0.0
 40
0.5
  1
0.250
100
AcDbAttributeDefinition
  3

  2
J
 70
     8
280
     0
  0
ATTDEF
  5
A0
330
8E
100
AcDbEntity
  8
AM_6
100
AcDbText
 10
6.968059542428216
 20
-6.13
 30
0.0
 40
0.5
  1
2.71
100
AcDbAttributeDefinition
  3

  2
L
 70
     8
280
     0
  0
ATTDEF
  5
A1
330
8E
100
AcDbEntity
  8
AM_6
100
AcDbText
 10
6.968059542428216
 20
-6.63
 30
0.0
 40
0.5
  1
3/8-24
100
AcDbAttributeDefinition
  3

  2
N
 70
     8
280
     0
  0
ATTDEF
  5
A2
330
8E
100
AcDbEntity
  8
AM_6
100
AcDbText
 10
6.968059542428216
 20
-7.13
 30
0.0
 40
0.5
  1
0.87
100
AcDbAttributeDefinition
  3

  2
W
 70
     8
280
     0
  0
ATTDEF
  5
A3
330
8E
100
AcDbEntity
  8
AM_6
100
AcDbText
 10
6.968059542428216
 20
-7.63
 30
0.0
 40
0.5
  1
1.35
100
AcDbAttributeDefinition
  3

  2
Y
 70
     8
280
     0
  0
ATTDEF
  5
A4
330
8E
100
AcDbEntity
  8
AM_6
100
AcDbText
 10
6.968059542428216
 20
-8.129999999999999
 30
0.0
 40
0.5
  1
baldor
100
AcDbAttributeDefinition
  3

  2
COMPANY
 70
     8
280
     0
  0
LINE
  5
A7
330
8E
100
AcDbEntity
  8
AM_9
100
AcDbLine
 10
-2.0685
 20
0.2895454545454537
 30
0.0
 11
-2.0685
 21
0.2104545454545463
 31
0.0
  0
ARC
  5
A8
330
8E
100
AcDbEntity
  8
AM_9
100
AcDbCircle
 10
-1.983045454545455
 20
0.2104545454545454
 30
0.0
 40
0.0854545454545452
100
AcDbArc
 50
180.0
 51
270.0
  0
ARC
  5
A9
330
8E
100
AcDbEntity
  8
AM_9
100
AcDbCircle
 10
-1.983045454545455
 20
0.2895454545454548
 30
0.0
 40
0.0854545454545452
100
AcDbArc
 50
90.0
 51
180.0
  0
LINE
  5
AA
330
8E
100
AcDbEntity
  8
AM_9
100
AcDbLine
 10
-1.983045454545454
 20
0.3749999999999999
 30
0.0
 11
-1.983045454545454
 21
0.125
 31
0.0
  0
LINE
  5
AB
330
8E
100
AcDbEntity
  8
AM_9
100
AcDbLine
 10
-1.983045454545454
 20
0.125
 30
0.0
 11
-1.96452723320393
 21
0.125
 31
0.0
  0
LINE
  5
AC
330
8E
100
AcDbEntity
  8
AM_9
100
AcDbLine
 10
-1.932490302211718
 20
0.3749999999999999
 30
0.0
 11
-1.983045454545454
 21
0.3749999999999999
 31
0.0
  0
LINE
  5
AD
330
8E
100
AcDbEntity
  8
AM_9
100
AcDbLine
 10
0.9062254606848154
 20
-1.13995
 30
0.0
 11
1.207609810836984
 21
-1.13995
 31
0.0
  0
LINE
  5
AE
330
8E
100
AcDbEntity
  8
AM_9
100
AcDbLine
 10
1.207609810836984
 20
-0.8100500000000002
 30
0.0
 11
0.9062878834983065
 21
-0.8100500000000002
 31
0.0
  0
LWPOLYLINE
  5
AF
330
8E
100
AcDbEntity
  8
AM_9
100
AcDbPolyline
 90
       15
 70
     0
 43
0.0
 10
0.9563488709338598
 20
-1.063304746894628
 10
0.9588785986709321
 20
-1.047802626712242
 10
0.9617101306110967
 20
-1.022223461229676
 10
0.9632901021675682
 20
-0.9944924240971104
 10
0.9635553810580133
 20
-0.9673105569796657
 10
0.9625528913229822
 20
-0.9395602047656747
 10
0.9603408499887518
 20
-0.9137408970711839
 10
0.9567588034824985
 20
-0.8889310237329818
 10
0.9519196280577037
 20
-0.8669717899211279
 10
0.9455446629345039
 20
-0.8474632015292489
 10
0.9379055037030847
 20
-0.8318679617872435
 10
0.9286658913598205
 20
-0.8199575941129114
 10
0.9185215930524568
 20
-0.8127745366886413
 10
0.9070438729456755
 20
-0.810059230326073
 10
0.9063118531285629
 20
-0.810050000280598
  0
LWPOLYLINE
  5
B0
330
8E
100
AcDbEntity
  8
AM_9
100
AcDbPolyline
 90
        8
 70
     0
 43
0.0
 10
0.9063021295419829
 20
-1.139949999456804
 10
0.9137788174959802
 20
-1.138962040011972
 10
0.9242451129324032
 20
-1.133813045925902
 10
0.9338855130732157
 20
-1.124074494138954
 10
0.9420464213000936
 20
-1.110492762326361
 10
0.9490671152731963
 20
-1.092725187521032
 10
0.9545963079721672
 20
-1.07196737112191
 10
0.9563488709338598
 20
-1.063304746894628
  0
LWPOLYLINE
  5
B1
330
8E
100
AcDbEntity
  8
AM_9
100
AcDbPolyline
 90
       11
 70
     0
 43
0.0
 10
0.9063118531285629
 20
-0.810050000280598
 10
0.8953270306201285
 20
-0.8120012478356565
 10
0.8829229859242266
 20
-0.8185903808720878
 10
0.8709555462488108
 20
-0.8292537426574192
 10
0.8591894053104873
 20
-0.8442862225880478
 10
0.8486204569613766
 20
-0.8626756688852042
 10
0.8392576569930861
 20
-0.8848024420750776
 10
0.832004831176258
 20
-0.9090000683729859
 10
0.826877678253959
 20
-0.9358531645306528
 10
0.8248707785284889
 20
-0.9551367082420676
 10
0.8241822374279459
 20
-0.9750000000000001
  0
ELLIPSE
  5
B2
330
8E
100
AcDbEntity
  8
AM_9
100
AcDbEllipse
 10
1.207609810836984
 20
-0.9750000000000004
 30
0.0
 11
-3.030082342790331E-17
 21
-0.1649499999999996
 31
0.0
210
0.0
220
0.0
230
1.0
 40
0.4226182617407018
 41
1.008068955752409
 42
5.893523953042482
  0
LINE
  5
B3
330
8E
100
AcDbEntity
  8
AM_9
100
AcDbLine
 10
1.175103092575817
 20
-1.120918500062369
 30
0.0
 11
1.189148379461475
 21
-1.138436997987122
 31
0.0
  0
LINE
  5
B4
330
8E
100
AcDbEntity
  8
AM_9
100
AcDbLine
 10
1.18890576029697
 20
-0.8118656176421988
 30
0.0
 11
1.175103092575817
 21
-0.8290814999376308
 31
0.0
  0
LWPOLYLINE
  5
B5
330
8E
100
AcDbEntity
  8
AM_9
100
AcDbPolyline
 90
       11
 70
     0
 43
0.0
 10
1.154354554970391
 20
-1.063268033062331
 10
1.151332739057424
 20
-1.05080368779874
 10
1.146105656627616
 20
-1.020460161813843
 10
1.143516510606511
 20
-0.9889212445269634
 10
1.143759954044508
 20
-0.955932071284969
 10
1.146916664242262
 20
-0.9234750545551462
 10
1.15295268768528
 20
-0.8922880517450589
 10
1.161563663589691
 20
-0.8635091660304433
 10
1.172180191870249
 20
-0.8386087351667904
 10
1.184489108458831
 20
-0.8177757954264533
 10
1.189133506620971
 20
-0.8115815587654702
  0
LWPOLYLINE
  5
B6
330
8E
100
AcDbEntity
  8
AM_9
100
AcDbPolyline
 90
        9
 70
     0
 43
0.0
 10
1.189133506620971
 20
-0.8115815587654702
 10
1.197266787132109
 20
-0.8025982783701395
 10
1.210600240921377
 20
-0.7924246582131862
 10
1.223087869719477
 20
-0.7879321844023095
 10
1.235189368062639
 20
-0.7883931319046956
 10
1.246098182547132
 20
-0.7935640790923337
 10
1.256062239914536
 20
-0.8030971459992271
 10
1.262542247576108
 20
-0.8125119591389023
 10
1.268396877512762
 20
-0.8238580428904511
  0
LWPOLYLINE
  5
B7
330
8E
100
AcDbEntity
  8
AM_9
100
AcDbPolyline
 90
       11
 70
     0
 43
0.0
 10
0.8241822374279459
 20
-0.9750000000000001
 10
0.8254657525755811
 20
-1.002088501332361
 10
0.82939711158291
 20
-1.029177002664723
 10
0.8355548428183536
 20
-1.053982486056475
 10
0.843977844327316
 20
-1.077239794102886
 10
0.8539057667289528
 20
-1.097203740388344
 10
0.8653838052853206
 20
-1.114241457389439
 10
0.8773681735717617
 20
-1.12699815659119
 10
0.8900028791497459
 20
-1.135722726686377
 10
0.9020002497283887
 20
-1.139641507568749
 10
0.9063021295419829
 20
-1.139949999456804
  0
LINE
  5
B8
330
8E
100
AcDbEntity
  8
AM_9
100
AcDbLine
 10
1.0
 20
-1.2958
 30
0.0
 11
1.0
 21
0.8564499999999998
 31
0.0
  0
LINE
  5
B9
330
8E
100
AcDbEntity
  8
AM_9
100
AcDbLine
 10
-1.0
 20
0.8564499999999998
 30
0.0
 11
-1.0
 21
-1.2958
 31
0.0
  0
LINE
  5
BA
330
8E
100
AcDbEntity
  8
AM_9
100
AcDbLine
 10
1.0
 20
0.8564499999999998
 30
0.0
 11
1.01355
 21
0.87
 31
0.0
  0
LINE
  5
BB
330
8E
100
AcDbEntity
  8
AM_9
100
AcDbLine
 10
-1.01355
 20
0.87
 30
0.0
 11
-1.0
 21
0.8564499999999998
 31
0.0
  0
LINE
  5
BC
330
8E
100
AcDbEntity
  8
AM_9
100
AcDbLine
 10
-1.0
 20
-1.2958
 30
0.0
 11
-1.0542
 21
-1.35
 31
0.0
  0
LINE
  5
BD
330
8E
100
AcDbEntity
  8
AM_9
100
AcDbLine
 10
1.0542
 20
-1.35
 30
0.0
 11
1.0
 21
-1.2958
 31
0.0
  0
LINE
  5
BE
330
8E
100
AcDbEntity
  8
AM_9
100
AcDbLine
 10
-1.34145
 20
0.87
 30
0.0
 11
1.34145
 21
0.87
 31
0.0
  0
LINE
  5
BF
330
8E
100
AcDbEntity
  8
AM_9
100
AcDbLine
 10
-1.34145
 20
0.87
 30
0.0
 11
-1.355
 21
0.85645
 31
0.0
  0
LINE
  5
C0
330
8E
100
AcDbEntity
  8
AM_9
100
AcDbLine
 10
1.355
 20
0.85645
 30
0.0
 11
1.34145
 21
0.87
 31
0.0
  0
LWPOLYLINE
  5
C1
330
8E
100
AcDbEntity
  8
AM_9
100
AcDbPolyline
 90
       10
 70
     0
 43
0.0
 10
1.268396877512762
 20
-0.8238580428904511
 10
1.275346257421025
 20
-0.8421974358019797
 10
1.281067370400109
 20
-0.86330826340052
 10
1.286057473424227
 20
-0.8899030549765615
 10
1.289525915141454
 20
-0.9186373326905961
 10
1.291558952137441
 20
-0.9502987267060382
 10
1.291985755408416
 20
-0.9826239103620253
 10
1.290752272249859
 20
-1.01553060411455
 10
1.287819241683841
 20
-1.047288602157157
 10
1.285558300996017
 20
-1.063325537806352
  0
LINE
  5
C2
330
8E
100
AcDbEntity
  8
AM_9
100
AcDbLine
 10
1.355
 20
-1.063
 30
0.0
 11
1.355
 21
-0.4699999999999999
 31
0.0
  0
LINE
  5
C3
330
8E
100
AcDbEntity
  8
AM_9
100
AcDbLine
 10
-1.355
 20
-0.4699999999999999
 30
0.0
 11
-1.355
 21
-1.063
 31
0.0
  0
LINE
  5
C4
330
8E
100
AcDbEntity
  8
AM_9
100
AcDbLine
 10
-1.355
 20
0.85645
 30
0.0
 11
1.355
 21
0.85645
 31
0.0
  0
LINE
  5
C5
330
8E
100
AcDbEntity
  8
AM_9
100
AcDbLine
 10
1.355
 20
0.47
 30
0.0
 11
1.355
 21
0.85645
 31
0.0
  0
LINE
  5
C6
330
8E
100
AcDbEntity
  8
AM_9
100
AcDbLine
 10
-1.355
 20
0.85645
 30
0.0
 11
-1.355
 21
0.47
 31
0.0
  0
LWPOLYLINE
  5
C7
330
8E
100
AcDbEntity
  8
AM_9
100
AcDbPolyline
 90
        9
 70
     0
 43
0.0
 10
-0.1552340584977547
 20
-1.063276132455156
 10
-0.161234467219607
 20
-1.05011486164404
 10
-0.1708280542905512
 20
-1.020128802097995
 10
-0.1755695333980721
 20
-0.9883642821578058
 10
-0.1750462891674479
 20
-0.9553503652156239
 10
-0.1691382117212063
 20
-0.923167072425705
 10
-0.1575749695871352
 20
-0.891553394059578
 10
-0.144450131089978
 20
-0.8679745711908115
 10
-0.1277226104911701
 20
-0.8460922713567913
  0
LWPOLYLINE
  5
C8
330
8E
100
AcDbEntity
  8
AM_9
100
AcDbPolyline
 90
       19
 70
     0
 43
0.0
 10
-0.1277226104911701
 20
-0.8460922713567913
 10
-0.108642040524016
 20
-0.8275676937707963
 10
-0.0864961106118245
 20
-0.8117640369082026
 10
-0.059805024343355
 20
-0.7986872417780723
 10
-0.0302599005834632
 20
-0.790300295426692
 10
-0.0023653814289806
 20
-0.7875169854241567
 10
0.0264566516425467
 20
-0.7896368539483807
 10
0.0528644240068566
 20
-0.7961821975534679
 10
0.0785285565446545
 20
-0.8072482354004634
 10
0.1019483213755292
 20
-0.8222345264573858
 10
0.1232275026002678
 20
-0.8412197701560222
 10
0.1417974237398672
 20
-0.864026282494023
 10
0.1569123534517156
 20
-0.8901511075210646
 10
0.1680500461451654
 20
-0.9193056046841862
 10
0.1745309356331886
 20
-0.9507124413215345
 10
0.175853689405592
 20
-0.9831030594805197
 10
0.1717079447328812
 20
-1.016177766066314
 10
0.1622837008235548
 20
-1.047511596577799
 10
0.1552048444218606
 20
-1.063334296437497
  0
ARC
  5
C9
330
8E
100
AcDbEntity
  8
AM_9
100
AcDbCircle
 10
0.0
 20
-0.975
 30
0.0
 40
0.16495
100
AcDbArc
 50
327.7580966227729
 51
212.241903377227
  0
LINE
  5
CA
330
8E
100
AcDbEntity
  8
AM_9
100
AcDbLine
 10
1.885166666666667
 20
-0.3000000000000001
 30
0.0
 11
1.885166666666667
 21
-0.2
 31
0.0
  0
LINE
  5
CB
330
8E
100
AcDbEntity
  8
AM_9
100
AcDbLine
 10
-1.885166666666667
 20
-0.2
 30
0.0
 11
-1.885166666666667
 21
-0.3000000000000001
 31
0.0
  0
LINE
  5
CC
330
8E
100
AcDbEntity
  8
AM_9
100
AcDbLine
 10
-1.87196213904021
 20
-0.4699999999999999
 30
0.0
 11
1.871962139036492
 21
-0.4699999999999999
 31
0.0
  0
ARC
  5
CD
330
8E
100
AcDbEntity
  8
AM_9
100
AcDbCircle
 10
1.87196213904021
 20
-0.4199999999999994
 30
0.0
 40
0.0500000000000006
100
AcDbArc
 50
270.0
 51
347.3543320713402
  0
ARC
  5
CE
330
8E
100
AcDbEntity
  8
AM_9
100
AcDbCircle
 10
-1.8719621390402
 20
-0.4199999999999868
 30
0.0
 40
0.0500000000000131
100
AcDbArc
 50
192.6456679286712
 51
270.0
  0
LINE
  5
CF
330
8E
100
AcDbEntity
  8
AM_9
100
AcDbLine
 10
-1.87196213904021
 20
0.47
 30
0.0
 11
1.871962139036492
 21
0.47
 31
0.0
  0
ARC
  5
D0
330
8E
100
AcDbEntity
  8
AM_9
100
AcDbCircle
 10
1.871962139040179
 20
0.4199999999999615
 30
0.0
 40
0.0500000000000386
100
AcDbArc
 50
12.64566792869444
 51
90.0
  0
ARC
  5
D1
330
8E
100
AcDbEntity
  8
AM_9
100
AcDbCircle
 10
-1.87196213904021
 20
0.4199999999999994
 30
0.0
 40
0.0500000000000005
100
AcDbArc
 50
90.0
 51
167.3543320713402
  0
LINE
  5
D2
330
8E
100
AcDbEntity
  8
AM_9
100
AcDbLine
 10
-1.920749268022233
 20
-0.4309460516028147
 30
0.0
 11
1.920749268022035
 21
-0.4309460516028147
 31
0.0
  0
LINE
  5
D3
330
8E
100
AcDbEntity
  8
AM_9
100
AcDbLine
 10
-1.945505654065287
 20
-0.2999999999999999
 30
0.0
 11
1.945505654065089
 21
-0.2999999999999999
 31
0.0
  0
ARC
  5
D4
330
8E
100
AcDbEntity
  8
AM_9
100
AcDbCircle
 10
-0.0000000003330491
 20
0.0000000000629289
 30
0.0
 40
1.968500000338554
100
AcDbArc
 50
347.3543320716745
 51
351.233946551791
  0
ARC
  5
D5
330
8E
100
AcDbEntity
  8
AM_9
100
AcDbCircle
 10
0.0000000003330103
 20
0.0000000000629222
 30
0.0
 40
1.968500000338514
100
AcDbArc
 50
188.7660534482089
 51
192.6456679283256
  0
LINE
  5
D6
330
8E
100
AcDbEntity
  8
AM_9
100
AcDbLine
 10
-1.958313624014294
 20
-0.1999999999999998
 30
0.0
 11
1.95831362401428
 21
-0.1999999999999998
 31
0.0
  0
LINE
  5
D7
330
8E
100
AcDbEntity
  8
AM_9
100
AcDbLine
 10
-1.920749268022233
 20
0.4309460516028147
 30
0.0
 11
1.920749268022219
 21
0.4309460516028146
 31
0.0
  0
ARC
  5
D8
330
8E
100
AcDbEntity
  8
AM_9
100
AcDbCircle
 10
-0.0000000000004896
 20
-0.0000000000000283
 30
0.0
 40
1.96850000000047
100
AcDbArc
 50
354.1686752533603
 51
12.64566792865699
  0
ARC
  5
D9
330
8E
100
AcDbEntity
  8
AM_9
100
AcDbCircle
 10
0.0000000000622489
 20
-0.0000000000125208
 30
0.0
 40
1.968500000063466
100
AcDbArc
 50
167.3543320713818
 51
169.0269374748156
  0
ARC
  5
DA
330
8E
100
AcDbEntity
  8
AM_9
100
AcDbCircle
 10
-0.0000000000016498
 20
-0.0000000000001162
 30
0.0
 40
1.968499999998333
100
AcDbArc
 50
176.3471377465496
 51
185.8313247466434
  0
LINE
  5
DB
330
8E
100
AcDbEntity
  8
AM_9
100
AcDbLine
 10
-1.932451098998776
 20
0.3749999999566256
 30
0.0
 11
-1.964527233203527
 21
0.1250000000031664
 31
0.0
  0
LINE
  5
DC
330
8E
100
AcDbEntity
  8
AM_9
100
AcDbLine
 10
-1.939850193864618
 20
0.3176969507265741
 30
0.0
 11
-1.939531267826088
 21
0.3201714222496194
 31
0.0
  0
LINE
  5
DD
330
8E
100
AcDbEntity
  8
AM_9
100
AcDbLine
 10
-1.964527233203527
 20
0.1250000000031664
 30
0.0
 11
-1.964392405401414
 21
0.1260594552022707
 31
0.0
  0
LINE
  5
E0
330
8E
100
AcDbEntity
  8
AM_7
100
AcDbLine
 10
-2.104175
 20
0.25
 30
0.0
 11
-1.319325
 21
0.25
 31
0.0
  0
LINE
  5
E1
330
8E
100
AcDbEntity
  8
AM_7
100
AcDbLine
 10
-0.1731974999999996
 20
-0.9750000000000008
 30
0.0
 11
0.1731974999999989
 21
-0.9750000000000008
 31
0.0
  0
ELLIPSE
  5
E3
330
8E
100
AcDbEntity
  8
AM_4
100
AcDbEllipse
 10
1.207609810836984
 20
-0.9750000000000008
 30
0.0
 11
-3.030082342790325E-17
 21
-0.1649499999999993
 31
0.0
210
0.0
220
0.0
230
1.0
 40
0.4226182617407013
 41
5.893523953042481
 42
7.291254262931997
  0
LWPOLYLINE
  5
E4
330
8E
100
AcDbEntity
  8
AM_4
100
AcDbPolyline
 90
        6
 70
     0
 43
0.0
 10
1.189151519887494
 20
-1.138440914996165
 10
1.189104908287963
 20
-1.138382737348943
 10
1.177847671152172
 20
-1.12185362258813
 10
1.167707093448475
 20
-1.101903791804017
 10
1.158552328056517
 20
-1.077609424481321
 10
1.154354554970391
 20
-1.063268033062331
  0
LWPOLYLINE
  5
E5
330
8E
100
AcDbEntity
  8
AM_4
100
AcDbPolyline
 90
       11
 70
     0
 43
0.0
 10
1.285558300996017
 20
-1.063325537806352
 10
1.283141987336347
 20
-1.076881931242763
 10
1.276685941591488
 20
-1.10347650635961
 10
1.268686051805973
 20
-1.125462874198244
 10
1.25901984567672
 20
-1.142967792616353
 10
1.248489678137133
 20
-1.154603299703845
 10
1.236786497516795
 20
-1.161152756889304
 10
1.224991198753719
 20
-1.162322904313522
 10
1.212765248235041
 20
-1.158704971773966
 10
1.200766987336685
 20
-1.150612886054212
 10
1.189151519887494
 20
-1.138440914996165
  0
LINE
  5
E6
330
8E
100
AcDbEntity
  8
AM_4
100
AcDbLine
 10
1.355
 20
-1.2958
 30
0.0
 11
1.355
 21
-1.063
 31
0.0
  0
LINE
  5
E7
330
8E
100
AcDbEntity
  8
AM_4
100
AcDbLine
 10
-1.355
 20
-1.063
 30
0.0
 11
-1.355
 21
-1.2958
 31
0.0
  0
LWPOLYLINE
  5
E8
330
8E
100
AcDbEntity
  8
AM_4
100
AcDbPolyline
 90
       15
 70
     0
 43
0.0
 10
0.1552048444218606
 20
-1.063334296437497
 10
0.1472330121663114
 20
-1.077637649857581
 10
0.1281311628611112
 20
-1.103446924866897
 10
0.1040230439429928
 20
-1.126168422068478
 10
0.0783962312062404
 20
-1.142822117085323
 10
0.0492376432213848
 20
-1.154992006307455
 10
0.0213147187423435
 20
-1.161115797845278
 10
-0.0081677232062406
 20
-1.162297377172351
 10
-0.0352498323886879
 20
-1.158689795156672
 10
-0.0620967653989348
 20
-1.150409257213472
 10
-0.0866651633263499
 20
-1.13813401596996
 10
-0.1095362699496227
 20
-1.121679015152518
 10
-0.1299583545759584
 20
-1.101347273257551
 10
-0.1473526635749677
 20
-1.077442877652923
 10
-0.1552340584977547
 20
-1.063276132455156
  0
ARC
  5
E9
330
8E
100
AcDbEntity
  8
AM_4
100
AcDbCircle
 10
0.0
 20
-0.9750000000000003
 30
0.0
 40
0.1649499999999997
100
AcDbArc
 50
212.241903377227
 51
327.7580966227731
  0
LINE
  5
EA
330
8E
100
AcDbEntity
  8
AM_4
100
AcDbLine
 10
-1.3008
 20
-1.35
 30
0.0
 11
1.3008
 21
-1.35
 31
0.0
  0
LINE
  5
EB
330
8E
100
AcDbEntity
  8
AM_4
100
AcDbLine
 10
-1.355
 20
-1.2958
 30
0.0
 11
1.355
 21
-1.2958
 31
0.0
  0
LINE
  5
EC
330
8E
100
AcDbEntity
  8
AM_4
100
AcDbLine
 10
1.3008
 20
-1.35
 30
0.0
 11
1.355
 21
-1.2958
 31
0.0
  0
LINE
  5
ED
330
8E
100
AcDbEntity
  8
AM_4
100
AcDbLine
 10
-1.355
 20
-1.2958
 30
0.0
 11
-1.3008
 21
-1.35
 31
0.0
  0
ARC
  5
EF
330
8E
100
AcDbEntity
  8
AM_5
100
AcDbCircle
 10
0.0000000000000001
 20
-0.975
 30
0.0
 40
0.1875000000000001
100
AcDbArc
 50
165.0000000000001
 51
105.0
  0
ARC
  5
F0
330
8E
100
AcDbEntity
  8
AM_5
100
AcDbCircle
 10
0.0
 20
-0.9749999999999999
 30
0.0
 40
0.1874999999999999
100
AcDbArc
 50
105.0
 51
14.99999999999997
  0
ENDBLK
  5
91
330
8E
100
AcDbEntity
  8
0
100
AcDbBlockEnd
  0
BLOCK
  5
F3
330
F1
100
AcDbEntity
  8
0
100
AcDbBlockBegin
  2
3_405016_Inch_0_in_125564_4
 70
     2
 10
0.0
 20
0.0
 30
0.0
  3
3_405016_Inch_0_in_125564_4
  1

  0
ATTDEF
  5
F5
330
F1
100
AcDbEntity
  8
AM_6
100
AcDbText
 10
3.009914462012195
 20
0.2187500000000011
 30
0.0
 40
0.5
  1
405016 -Inch
100
AcDbAttributeDefinition
  3

  2
NN
 70
     8
280
     0
  0
ATTDEF
  5
F6
330
F1
100
AcDbEntity
  8
AM_6
100
AcDbText
 10
3.009914462012195
 20
-0.2812499999999989
 30
0.0
 40
0.5
  1
Grease Fitting
100
AcDbAttributeDefinition
  3

  2
NT
 70
     8
280
     0
  0
ATTDEF
  5
F7
330
F1
100
AcDbEntity
  8
AM_6
100
AcDbText
 10
3.009914462012195
 20
-0.7812499999999989
 30
0.0
 40
0.5
  1
405016-Inch
100
AcDbAttributeDefinition
  3

  2
NB
 70
     8
280
     0
  0
ATTDEF
  5
F8
330
F1
100
AcDbEntity
  8
AM_6
100
AcDbText
 10
3.009914462012195
 20
-1.281249999999999
 30
0.0
 40
0.5
  1
$MN.-Inch
100
AcDbAttributeDefinition
  3

  2
NBSYN
 70
     8
280
     0
  0
ATTDEF
  5
F9
330
F1
100
AcDbEntity
  8
AM_6
100
AcDbText
 10
3.009914462012195
 20
-1.781249999999999
 30
0.0
 40
0.5
  1
405016
100
AcDbAttributeDefinition
  3

  2
LINA
 70
     8
280
     0
  0
ATTDEF
  5
FA
330
F1
100
AcDbEntity
  8
AM_6
100
AcDbText
 10
3.009914462012195
 20
-2.281249999999999
 30
0.0
 40
0.5
  1
405016
100
AcDbAttributeDefinition
  3

  2
MN
 70
     8
280
     0
  0
ATTDEF
  5
FB
330
F1
100
AcDbEntity
  8
AM_6
100
AcDbText
 10
3.009914462012195
 20
-2.781249999999999
 30
0.0
 40
0.5
  1
7/16 HEX
100
AcDbAttributeDefinition
  3

  2
H
 70
     8
280
     0
  0
ATTDEF
  5
FC
330
F1
100
AcDbEntity
  8
AM_6
100
AcDbText
 10
3.009914462012195
 20
-3.281249999999999
 30
0.0
 40
0.5
  1
0.383
100
AcDbAttributeDefinition
  3

  2
NDR
 70
     8
280
     0
  0
ATTDEF
  5
FD
330
F1
100
AcDbEntity
  8
AM_6
100
AcDbText
 10
3.009914462012195
 20
-3.781249999999999
 30
0.0
 40
0.5
  1
0.337
100
AcDbAttributeDefinition
  3

  2
KDR
 70
     8
280
     0
  0
ATTDEF
  5
FE
330
F1
100
AcDbEntity
  8
AM_6
100
AcDbText
 10
3.009914462012195
 20
-4.281249999999999
 30
0.0
 40
0.5
  1
0.1575
100
AcDbAttributeDefinition
  3

  2
BZE
 70
     8
280
     0
  0
ATTDEF
  5
FF
330
F1
100
AcDbEntity
  8
AM_6
100
AcDbText
 10
3.009914462012195
 20
-4.781249999999999
 30
0.0
 40
0.5
  1
0.4375
100
AcDbAttributeDefinition
  3

  2
HEX
 70
     8
280
     0
  0
ATTDEF
  5
100
330
F1
100
AcDbEntity
  8
AM_6
100
AcDbText
 10
3.009914462012195
 20
-5.281249999999999
 30
0.0
 40
0.5
  1
0.281250
100
AcDbAttributeDefinition
  3

  2
HEX2
 70
     8
280
     0
  0
ATTDEF
  5
101
330
F1
100
AcDbEntity
  8
AM_6
100
AcDbText
 10
3.009914462012195
 20
-5.781249999999999
 30
0.0
 40
0.5
  1
baldor
100
AcDbAttributeDefinition
  3

  2
COMPANY
 70
     8
280
     0
  0
LINE
  5
102
330
F1
100
AcDbEntity
  8
AM_9
100
AcDbLine
 10
-2.678533947653623
 20
-0.151074129835757
 30
0.0
 11
-2.6898555208775
 21
-0.1791093260592887
 31
0.0
  0
LINE
  5
103
330
F1
100
AcDbEntity
  8
AM_9
100
AcDbLine
 10
-2.527359101615127
 20
-0.2099962668917053
 30
0.0
 11
-2.539046347834672
 21
-0.2389369657326276
 31
0.0
  0
LWPOLYLINE
  5
104
330
F1
100
AcDbEntity
  8
AM_9
100
AcDbPolyline
 90
        4
 70
     0
 43
0.0
 10
-2.311205296349721
 20
0.1093749999999999
 10
-2.302785799680066
 20
0.0820312499999999
 10
-2.293345646365797
 20
0.0546874999999999
 10
-2.271778681814797
 20
-0.0000000000000001
  0
LWPOLYLINE
  5
105
330
F1
100
AcDbEntity
  8
AM_9
100
AcDbPolyline
 90
        4
 70
     0
 43
0.0
 10
-2.271778681814797
 20
-0.0000000000000001
 10
-2.29325635273242
 20
-0.0544416102741497
 10
-2.30273306094425
 20
-0.0818700010907652
 10
-2.311205296349721
 20
-0.109375
  0
LWPOLYLINE
  5
106
330
F1
100
AcDbEntity
  8
AM_9
100
AcDbPolyline
 90
        3
 70
     0
 43
0.0
 10
-2.469428253193036
 20
-0.2987675689889718
 10
-2.485315537756133
 20
-0.2912216284034024
 10
-2.500525539454147
 20
-0.2813919000363599
  0
LWPOLYLINE
  5
107
330
F1
100
AcDbEntity
  8
AM_9
100
AcDbPolyline
 90
        4
 70
     0
 43
0.0
 10
-2.200881684813586
 20
-0.0000000000000001
 10
-2.21083589224286
 20
0.0544416102741495
 10
-2.21719497285244
 20
0.081870001090765
 10
-2.224602755971277
 20
0.1093749999999999
  0
LWPOLYLINE
  5
108
330
F1
100
AcDbEntity
  8
AM_9
100
AcDbPolyline
 90
        4
 70
     0
 43
0.0
 10
-2.224602755971277
 20
-0.1093750000000001
 10
-2.217235331217778
 20
-0.0820312500000001
 10
-2.210888563108893
 20
-0.0546875000000001
 10
-2.200881684813586
 20
-0.0000000000000001
  0
LWPOLYLINE
  5
109
330
F1
100
AcDbEntity
  8
AM_9
100
AcDbPolyline
 90
        4
 70
     0
 43
0.0
 10
-2.482225631915613
 20
-0.2360765106845277
 10
-2.473060645339056
 20
-0.2462091938631851
 10
-2.464969374560069
 20
-0.2570505402207574
 10
-2.457372603882058
 20
-0.2689146070947222
  0
LWPOLYLINE
  5
10A
330
F1
100
AcDbEntity
  8
AM_9
100
AcDbPolyline
 90
        4
 70
     0
 43
0.0
 10
-2.311205296349721
 20
-0.109375
 10
-2.31857272110322
 20
-0.1367187500000001
 10
-2.324919489212105
 20
-0.1640625
 10
-2.334926367507412
 20
-0.2187500000000001
  0
LINE
  5
10B
330
F1
100
AcDbEntity
  8
AM_9
100
AcDbLine
 10
-2.271778681814797
 20
-0.0000000000000001
 30
0.0
 11
-2.200881684813586
 21
-0.0000000000000001
 31
0.0
  0
LWPOLYLINE
  5
10C
330
F1
100
AcDbEntity
  8
AM_9
100
AcDbPolyline
 90
        4
 70
     0
 43
0.0
 10
-2.334926367507412
 20
0.2187499999999999
 10
-2.324972160078138
 20
0.1643083897258503
 10
-2.318613079468558
 20
0.1368799989092348
 10
-2.311205296349721
 20
0.1093749999999999
  0
LWPOLYLINE
  5
10D
330
F1
100
AcDbEntity
  8
AM_9
100
AcDbPolyline
 90
        3
 70
     0
 43
0.0
 10
-2.457372603882058
 20
-0.2689146070947222
 10
-2.47036849173167
 20
-0.2634308483997528
 10
-2.48458239184591
 20
-0.2602304684431305
  0
LWPOLYLINE
  5
10E
330
F1
100
AcDbEntity
  8
AM_9
100
AcDbPolyline
 90
        3
 70
     0
 43
0.0
 10
-2.50005508869205
 20
-0.3052608483640279
 10
-2.486500344765465
 20
-0.3030753670497808
 10
-2.469428253193036
 20
-0.2987675689889718
  0
LINE
  5
10F
330
F1
100
AcDbEntity
  8
AM_9
100
AcDbLine
 10
-2.457372603882058
 20
-0.2689146070947222
 30
0.0
 11
-2.469428253193036
 21
-0.2987675689889718
 31
0.0
  0
ELLIPSE
  5
110
330
F1
100
AcDbEntity
  8
AM_9
100
AcDbEllipse
 10
-2.711709896042127
 20
-0.4687500000000001
 30
0.0
 11
-0.09595382955731814
 21
0.03874944547499717
 31
0.0
210
0.0
220
0.0
230
1.0
 40
0.2113091308703516
 41
3.040609649696542
 42
6.384168311072829
  0
ELLIPSE
  5
111
330
F1
100
AcDbEntity
  8
AM_9
100
AcDbEllipse
 10
-2.683716233844644
 20
-0.399430321788976
 30
0.0
 11
-0.1290248947933268
 21
0.05210467522533575
 31
0.0
210
0.0
220
0.0
230
1.0
 40
0.2113091308703473
 41
3.036109991016017
 42
5.801105639492172
  0
ELLIPSE
  5
112
330
F1
100
AcDbEntity
  8
AM_9
100
AcDbEllipse
 10
-2.673041252367321
 20
-0.3729962569746275
 30
0.0
 11
-0.1235034625625695
 21
0.04987493162720099
 31
0.0
210
0.0
220
0.0
230
1.0
 40
0.2113091308702865
 41
3.399597435589605
 42
6.028372755122349
  0
LWPOLYLINE
  5
113
330
F1
100
AcDbEntity
  8
AM_9
100
AcDbPolyline
 90
        5
 70
     0
 43
0.0
 10
-2.6898555208775
 20
-0.1791093260592887
 10
-2.711717909376127
 20
-0.1842540823997054
 10
-2.73261399630612
 20
-0.1862220679364951
 10
-2.752531615861029
 20
-0.1844124966919381
 10
-2.771045402482291
 20
-0.1791093260592887
  0
LWPOLYLINE
  5
114
330
F1
100
AcDbEntity
  8
AM_9
100
AcDbPolyline
 90
        5
 70
     0
 43
0.0
 10
-2.539046347834672
 20
-0.2389369657326276
 10
-2.5778876365221
 20
-0.2295338871417796
 10
-2.616022683234019
 20
-0.216687117104632
 10
-2.653641477595203
 20
-0.1996402057054678
 10
-2.6898555208775
 20
-0.1791093260592887
  0
LWPOLYLINE
  5
115
330
F1
100
AcDbEntity
  8
AM_9
100
AcDbPolyline
 90
        3
 70
     0
 43
0.0
 10
-2.512547069635954
 20
-0.2711532636537956
 10
-2.526282247400527
 20
-0.2561815527589921
 10
-2.539046347834672
 20
-0.2389369657326276
  0
ELLIPSE
  5
116
330
F1
100
AcDbEntity
  8
AM_9
100
AcDbEllipse
 10
-2.622040349103319
 20
-0.2467045921760228
 30
0.0
 11
-0.1303939210191692
 21
0.052657534942735
 31
0.0
210
0.0
220
0.0
230
1.0
 40
0.2113091308703408
 41
3.806340372003001
 42
6.919181903097272
  0
LINE
  5
117
330
F1
100
AcDbEntity
  8
AM_9
100
AcDbLine
 10
-2.256289852499516
 20
0.2000413016192557
 30
0.0
 11
-2.264029370506201
 21
0.2187499999999999
 31
0.0
  0
LWPOLYLINE
  5
118
330
F1
100
AcDbEntity
  8
AM_9
100
AcDbPolyline
 90
        4
 70
     0
 43
0.0
 10
-2.224602755971277
 20
0.1093749999999999
 10
-2.233022252640931
 20
0.1367187499999999
 10
-2.2424624059552
 20
0.1640624999999999
 10
-2.256289852499516
 20
0.2000413016192557
  0
LWPOLYLINE
  5
119
330
F1
100
AcDbEntity
  8
AM_9
100
AcDbPolyline
 90
        4
 70
     0
 43
0.0
 10
-2.256289730417551
 20
-0.2000409996967266
 10
-2.242551699588578
 20
-0.1643083897258505
 10
-2.233074991376747
 20
-0.136879998909235
 10
-2.224602755971277
 20
-0.1093750000000001
  0
LINE
  5
11A
330
F1
100
AcDbEntity
  8
AM_9
100
AcDbLine
 10
-2.264029370506201
 20
-0.2187500000000001
 30
0.0
 11
-2.256289730417551
 21
-0.2000409996967266
 31
0.0
  0
LINE
  5
11B
330
F1
100
AcDbEntity
  8
AM_9
100
AcDbLine
 10
-2.689668748505513
 20
-0.1204089378707286
 30
0.0
 11
-2.690754193495225
 21
-0.1230967854582228
 31
0.0
  0
LINE
  5
11C
330
F1
100
AcDbEntity
  8
AM_9
100
AcDbLine
 10
-2.5
 20
-0.2382619325905788
 30
0.0
 11
-2.481880040734935
 21
-0.193392142543456
 31
0.0
  0
ELLIPSE
  5
11D
330
F1
100
AcDbEntity
  8
AM_9
100
AcDbEllipse
 10
-2.603740441564782
 20
-0.2013892028241844
 30
0.0
 11
-0.1019970226638858
 21
0.041189893999646
 31
0.0
210
0.0
220
0.0
230
1.0
 40
0.2113091308703445
 41
3.141592653589793
 42
6.283185307179586
  0
LWPOLYLINE
  5
11E
330
F1
100
AcDbEntity
  8
AM_9
100
AcDbPolyline
 90
        4
 70
     0
 43
0.0
 10
-2.689673478160533
 20
-0.1204206514110939
 10
-2.689812644145062
 20
-0.1208367673933812
 10
-2.689235060187936
 20
-0.1245107513506023
 10
-2.687330482561211
 20
-0.1273595206852383
  0
LWPOLYLINE
  5
11F
330
F1
100
AcDbEntity
  8
AM_9
100
AcDbPolyline
 90
        5
 70
     0
 43
0.0
 10
-2.481879096533447
 20
-0.1933898041312626
 10
-2.481972432664598
 20
-0.1936098952159724
 10
-2.485187969617237
 20
-0.1971856748420371
 10
-2.491206332860019
 20
-0.1994144431868155
 10
-2.498070303440462
 20
-0.1999999999699529
  0
LWPOLYLINE
  5
120
330
F1
100
AcDbEntity
  8
AM_9
100
AcDbPolyline
 90
        3
 70
     0
 43
0.0
 10
-2.5913674346529
 20
-0.1745741884610188
 10
-2.56397835927947
 20
-0.1876759562813858
 10
-2.527359101615127
 20
-0.2099962668917053
  0
LWPOLYLINE
  5
121
330
F1
100
AcDbEntity
  8
AM_9
100
AcDbPolyline
 90
        3
 70
     0
 43
0.0
 10
-2.678533947653623
 20
-0.151074129835757
 10
-2.6493293401541
 20
-0.1564222384464442
 10
-2.620658841211806
 20
-0.1639312493177433
  0
LWPOLYLINE
  5
122
330
F1
100
AcDbEntity
  8
AM_9
100
AcDbPolyline
 90
        3
 70
     0
 43
0.0
 10
-2.527359101615127
 20
-0.2099962668917053
 10
-2.510385419281604
 20
-0.2163479371246913
 10
-2.49424716209742
 20
-0.2258378743019629
  0
LWPOLYLINE
  5
123
330
F1
100
AcDbEntity
  8
AM_9
100
AcDbPolyline
 90
        5
 70
     0
 43
0.0
 10
-2.715444827998119
 20
-0.141958509815605
 10
-2.71156970855207
 20
-0.1420496512545706
 10
-2.697080793437319
 20
-0.1441228263802215
 10
-2.687562919138726
 20
-0.1470795994472237
 10
-2.678533947653623
 20
-0.1510741298357571
  0
ELLIPSE
  5
124
330
F1
100
AcDbEntity
  8
AM_9
100
AcDbEllipse
 10
-2.603740441564874
 20
-0.2013892028241067
 30
0.0
 11
-0.1303939210192935
 21
0.0526575349428343
 31
0.0
210
0.0
220
0.0
230
1.0
 40
0.2113091308700863
 41
3.814164134970124
 42
4.695774602486281
  0
ELLIPSE
  5
125
330
F1
100
AcDbEntity
  8
AM_9
100
AcDbEllipse
 10
-2.603740441564781
 20
-0.2013892028241852
 30
0.0
 11
-0.1303939210191722
 21
0.05265753494273166
 31
0.0
210
0.0
220
0.0
230
1.0
 40
0.2113091308703381
 41
-1.289465641335562
 42
-0.6725714813802766
  0
LINE
  5
126
330
F1
100
AcDbEntity
  8
AM_9
100
AcDbLine
 10
-2.500525539454147
 20
-0.2813919000363599
 30
0.0
 11
-2.512547069635954
 21
-0.2711532636537956
 31
0.0
  0
ELLIPSE
  5
127
330
F1
100
AcDbEntity
  8
AM_9
100
AcDbEllipse
 10
-2.622040349103314
 20
-0.2467045921760212
 30
0.0
 11
-0.1303939210191745
 21
0.05265753494273351
 31
0.0
210
0.0
220
0.0
230
1.0
 40
0.2113091308703496
 41
2.800469246484375
 42
3.607080702195131
  0
ELLIPSE
  5
128
330
F1
100
AcDbEntity
  8
AM_9
100
AcDbEllipse
 10
-2.622040349110849
 20
-0.2467045921629074
 30
0.0
 11
-0.1303939210304419
 21
0.05265753495413519
 31
0.0
210
0.0
220
0.0
230
1.0
 40
0.2113091309017716
 41
-3.777589249497233
 42
-3.764628581850301
  0
LINE
  5
129
330
F1
100
AcDbEntity
  8
AM_9
100
AcDbLine
 10
-2.48458239184591
 20
-0.2602304684431305
 30
0.0
 11
-2.5
 21
-0.260230468443123
 31
0.0
  0
ELLIPSE
  5
12A
330
F1
100
AcDbEntity
  8
AM_9
100
AcDbEllipse
 10
-2.60374044156478
 20
-0.2013892028241869
 30
0.0
 11
-0.1303939210191745
 21
0.05265753494273526
 31
0.0
210
0.0
220
0.0
230
1.0
 40
0.2113091308703492
 41
2.800469246484378
 42
3.607080702195127
  0
LINE
  5
12B
330
F1
100
AcDbEntity
  8
AM_9
100
AcDbLine
 10
-2.49424716209742
 20
-0.2258378743019629
 30
0.0
 11
-2.482225631915613
 21
-0.2360765106845277
 31
0.0
  0
LWPOLYLINE
  5
12C
330
F1
100
AcDbEntity
  8
AM_9
100
AcDbPolyline
 90
       17
 70
     0
 43
0.0
 10
-2.488555205885523
 20
-0.1790373738501779
 10
-2.496522670961716
 20
-0.1733931390117467
 10
-2.507278744395897
 20
-0.1670729780242511
 10
-2.519921795918341
 20
-0.1606047421316795
 10
-2.534812219064182
 20
-0.1538031670974777
 10
-2.550714095871062
 20
-0.1472336073736393
 10
-2.568075065692781
 20
-0.1407130262602577
 10
-2.585430542823026
 20
-0.1347930597680667
 10
-2.603288254407314
 20
-0.1293028157827817
 10
-2.620118015907389
 20
-0.1247141396218193
 10
-2.636434759808094
 20
-0.1208880884981781
 10
-2.650833810667927
 20
-0.1181545989145989
 10
-2.663766163533675
 20
-0.1164278875396128
 10
-2.674125891693375
 20
-0.1158549073091554
 10
-2.682236066510072
 20
-0.1164156227038168
 10
-2.687412707700914
 20
-0.1180609686233502
 10
-2.689673478160533
 20
-0.1204206514110939
  0
LWPOLYLINE
  5
12D
330
F1
100
AcDbEntity
  8
AM_9
100
AcDbPolyline
 90
        4
 70
     0
 43
0.0
 10
-2.488555205885523
 20
-0.1790373738501784
 10
-2.483600545413455
 20
-0.1842628795203941
 10
-2.481492660946712
 20
-0.1891729979031393
 10
-2.481879096533447
 20
-0.1933898041312626
  0
LINE
  5
12E
330
F1
100
AcDbEntity
  8
AM_9
100
AcDbLine
 10
-2.405926824888644
 20
0.1999999999999999
 30
0.0
 11
-2.5
 21
0.1999999999999999
 31
0.0
  0
LINE
  5
12F
330
F1
100
AcDbEntity
  8
AM_9
100
AcDbLine
 10
-2.498218087667369
 20
-0.2
 30
0.0
 11
-2.405926824888644
 21
-0.2
 31
0.0
  0
LWPOLYLINE
  5
130
330
F1
100
AcDbEntity
  8
AM_9
100
AcDbPolyline
 90
        3
 70
     0
 43
0.0
 10
-2.498070303440462
 20
-0.1999999999699529
 10
-2.499557420679765
 20
-0.1999786710855128
 10
-2.499955045741818
 20
-0.1999660950801365
  0
LINE
  5
131
330
F1
100
AcDbEntity
  8
AM_9
100
AcDbLine
 10
-2.251666049839541
 20
0.1999999999999999
 30
0.0
 11
-2.3193242845102
 21
0.1999999999999999
 31
0.0
  0
LINE
  5
132
330
F1
100
AcDbEntity
  8
AM_9
100
AcDbLine
 10
-2.3193242845102
 20
-0.2
 30
0.0
 11
-2.251666049839541
 21
-0.2
 31
0.0
  0
LWPOLYLINE
  5
133
330
F1
100
AcDbEntity
  8
AM_9
100
AcDbPolyline
 90
        4
 70
     0
 43
0.0
 10
-2.461221738892643
 20
-0.2187500000000001
 10
-2.482699409810265
 20
-0.1643083897258504
 10
-2.492176118022096
 20
-0.1368799989092349
 10
-2.500037563792203
 20
-0.1114799826573406
  0
LINE
  5
134
330
F1
100
AcDbEntity
  8
AM_9
100
AcDbLine
 10
-2.461221738892643
 20
-0.2187500000000001
 30
0.0
 11
-2.264029370506201
 21
-0.2187500000000001
 31
0.0
  0
LWPOLYLINE
  5
135
330
F1
100
AcDbEntity
  8
AM_9
100
AcDbPolyline
 90
        4
 70
     0
 43
0.0
 10
-2.414045813049123
 20
-0.109375
 10
-2.406678388295624
 20
-0.13671875
 10
-2.400331620186738
 20
-0.1640625
 10
-2.390324741891432
 20
-0.2187500000000001
  0
LWPOLYLINE
  5
136
330
F1
100
AcDbEntity
  8
AM_9
100
AcDbPolyline
 90
        4
 70
     0
 43
0.0
 10
-2.453472427584046
 20
-0.0000000000000001
 10
-2.431994756666424
 20
-0.0544416102741496
 10
-2.422518048454593
 20
-0.0818700010907651
 10
-2.414045813049123
 20
-0.109375
  0
LINE
  5
137
330
F1
100
AcDbEntity
  8
AM_9
100
AcDbLine
 10
-2.461221738892643
 20
0.2187499999999999
 30
0.0
 11
-2.264029370506201
 21
0.2187499999999999
 31
0.0
  0
LWPOLYLINE
  5
138
330
F1
100
AcDbEntity
  8
AM_9
100
AcDbPolyline
 90
        4
 70
     0
 43
0.0
 10
-2.500037340132101
 20
0.1114807495284577
 10
-2.492228856757912
 20
0.1367187499999999
 10
-2.482788703443644
 20
0.1640624999999999
 10
-2.461221738892643
 20
0.2187499999999999
  0
LINE
  5
139
330
F1
100
AcDbEntity
  8
AM_9
100
AcDbLine
 10
-2.5
 20
-0.0000000000000001
 30
0.0
 11
-2.453472427584046
 21
-0.0000000000000001
 31
0.0
  0
LWPOLYLINE
  5
13A
330
F1
100
AcDbEntity
  8
AM_9
100
AcDbPolyline
 90
        4
 70
     0
 43
0.0
 10
-2.414045813049123
 20
0.1093749999999999
 10
-2.422465309718777
 20
0.0820312499999999
 10
-2.431905463033046
 20
0.0546874999999999
 10
-2.453472427584046
 20
-0.0000000000000001
  0
LWPOLYLINE
  5
13B
330
F1
100
AcDbEntity
  8
AM_9
100
AcDbPolyline
 90
        4
 70
     0
 43
0.0
 10
-2.390324741891432
 20
0.2187499999999999
 10
-2.400278949320706
 20
0.1643083897258503
 10
-2.406638029930286
 20
0.1368799989092348
 10
-2.414045813049123
 20
0.1093749999999999
  0
LINE
  5
13C
330
F1
100
AcDbEntity
  8
AM_9
100
AcDbLine
 10
-2.081121432217138
 20
0.1853871066562612
 30
0.0
 11
-2.249938321901206
 21
0.1914800577488989
 31
0.0
  0
LINE
  5
13D
330
F1
100
AcDbEntity
  8
AM_9
100
AcDbLine
 10
-2.249938321901206
 20
-0.191480057748899
 30
0.0
 11
-2.081121432217138
 21
-0.1853871066562613
 31
0.0
  0
LINE
  5
13E
330
F1
100
AcDbEntity
  8
AM_9
100
AcDbLine
 10
-2.015554694934988
 20
0.1319978794387896
 30
0.0
 11
-2.029268821994056
 21
0.1513925839218323
 31
0.0
  0
LINE
  5
13F
330
F1
100
AcDbEntity
  8
AM_9
100
AcDbLine
 10
-2.029268821994056
 20
-0.1513925839218325
 30
0.0
 11
-2.015554694934988
 21
-0.1319978794387898
 31
0.0
  0
ELLIPSE
  5
140
330
F1
100
AcDbEntity
  8
AM_9
100
AcDbEllipse
 10
-2.405926824888644
 20
-0.0000000000000001
 30
0.0
 11
1.339457436567418E-17
 21
0.21875
 31
0.0
210
0.0
220
0.0
230
1.0
 40
0.5
 41
0.0
 42
6.283185307179586
  0
ELLIPSE
  5
141
330
F1
100
AcDbEntity
  8
AM_9
100
AcDbEllipse
 10
-2.405926824888643
 20
0.0000000000000002
 30
0.0
 11
1.224646799147355E-17
 21
0.2000000000000003
 31
0.0
210
0.0
220
0.0
230
1.0
 40
0.4999999999999996
 41
0.0
 42
6.283185307179586
  0
ELLIPSE
  5
142
330
F1
100
AcDbEntity
  8
AM_9
100
AcDbEllipse
 10
-2.319324284510234
 20
0.0000000000000003
 30
0.0
 11
1.339457436567422E-17
 21
0.2187500000000008
 31
0.0
210
0.0
220
0.0
230
1.0
 40
0.4999999999998743
 41
0.0
 42
6.283185307179586
  0
ELLIPSE
  5
143
330
F1
100
AcDbEntity
  8
AM_9
100
AcDbEllipse
 10
-2.3193242845102
 20
-0.0000000000000002
 30
0.0
 11
1.224646799147354E-17
 21
0.2000000000000001
 31
0.0
210
0.0
220
0.0
230
1.0
 40
0.5000000000000001
 41
0.0
 42
6.283185307179586
  0
ELLIPSE
  5
144
330
F1
100
AcDbEntity
  8
AM_9
100
AcDbEllipse
 10
-2.251666049839541
 20
-0.0000000000000004
 30
0.0
 11
1.224646799147357E-17
 21
0.2000000000000006
 31
0.0
210
0.0
220
0.0
230
1.0
 40
0.5000000000000034
 41
0.0
 42
6.283185307179586
  0
ELLIPSE
  5
145
330
F1
100
AcDbEntity
  8
AM_9
100
AcDbEllipse
 10
-2.25166604983954
 20
0.0000000000000002
 30
0.0
 11
1.172668097677217E-17
 21
0.1915112338502291
 31
0.0
210
0.0
220
0.0
230
1.0
 40
0.5000000000000024
 41
0.0
 42
6.283185307179586
  0
ELLIPSE
  5
146
330
F1
100
AcDbEntity
  8
AM_9
100
AcDbEllipse
 10
-2.082794183350297
 20
0.0
 30
0.0
 11
1.135353457964642E-17
 21
0.1854172907249861
 31
0.0
210
0.0
220
0.0
230
1.0
 40
0.4999999999999963
 41
0.0
 42
6.283185307179586
  0
LINE
  5
147
330
F1
100
AcDbEntity
  8
AM_4
100
AcDbLine
 10
-2.502882299384443
 20
-0.3055458577949631
 30
0.0
 11
-2.50005508869205
 21
-0.3052608483640279
 31
0.0
  0
LINE
  5
148
330
F1
100
AcDbEntity
  8
AM_4
100
AcDbLine
 10
-2.617070354170781
 20
-0.5093460834378319
 30
0.0
 11
-2.556458603903517
 21
-0.4540180898723598
 31
0.0
  0
LINE
  5
149
330
F1
100
AcDbEntity
  8
AM_4
100
AcDbLine
 10
-2.813193771203392
 20
-0.3503396289636352
 30
0.0
 11
-2.808000348912662
 21
-0.4322420068738781
 31
0.0
  0
ELLIPSE
  5
14A
330
F1
100
AcDbEntity
  8
AM_4
100
AcDbEllipse
 10
-2.711709896042127
 20
-0.4687500000000001
 30
0.0
 11
-0.09595382955731811
 21
0.03874944547499725
 31
0.0
210
0.0
220
0.0
230
1.0
 40
0.2113091308703426
 41
0.100983003893254
 42
3.040609649696542
  0
LINE
  5
14B
330
F1
100
AcDbEntity
  8
AM_4
100
AcDbLine
 10
-2.759723829258415
 20
-0.151074129835757
 30
0.0
 11
-2.771045402482291
 21
-0.1791093260592887
 31
0.0
  0
LWPOLYLINE
  5
14C
330
F1
100
AcDbEntity
  8
AM_4
100
AcDbPolyline
 90
        8
 70
     0
 43
0.0
 10
-2.789361549129669
 20
-0.3179814421847934
 10
-2.792330757068989
 20
-0.3190121955982924
 10
-2.798433932383653
 20
-0.3220563705687118
 10
-2.803855983862982
 20
-0.3262688652294465
 10
-2.808331799319831
 20
-0.3316713322028826
 10
-2.811496185244377
 20
-0.3380586837213987
 10
-2.813108648213094
 20
-0.3452871907846642
 10
-2.813154851868728
 20
-0.3508808097999251
  0
LWPOLYLINE
  5
14D
330
F1
100
AcDbEntity
  8
AM_4
100
AcDbPolyline
 90
        8
 70
     0
 43
0.0
 10
-2.556892960589718
 20
-0.4544073945959003
 10
-2.554182325193783
 20
-0.4517163949731791
 10
-2.55011670925
 20
-0.4459415142299746
 10
-2.547320692275307
 20
-0.4387068975508238
 10
-2.546441709745819
 20
-0.4315746000121405
 10
-2.547096379269645
 20
-0.4249268563764364
 10
-2.548944956740977
 20
-0.4187830611144581
 10
-2.551267590178176
 20
-0.4139511810179956
  0
ELLIPSE
  5
14E
330
F1
100
AcDbEntity
  8
AM_4
100
AcDbEllipse
 10
-2.683716233844644
 20
-0.399430321788976
 30
0.0
 11
-0.1290248947933272
 21
0.05210467522533585
 31
0.0
210
0.0
220
0.0
230
1.0
 40
0.2113091308703542
 41
0.10526053667206
 42
3.036109991016021
  0
LWPOLYLINE
  5
14F
330
F1
100
AcDbEntity
  8
AM_4
100
AcDbPolyline
 90
        3
 70
     0
 43
0.0
 10
-2.550618134797828
 20
-0.2987675689889718
 10
-2.537084869297438
 20
-0.3030606061861223
 10
-2.523525584672452
 20
-0.305456396233367
  0
ELLIPSE
  5
150
330
F1
100
AcDbEntity
  8
AM_4
100
AcDbEllipse
 10
-2.622040349103315
 20
-0.2467045921760183
 30
0.0
 11
-0.1303939210191781
 21
0.05265753494273576
 31
0.0
210
0.0
220
0.0
230
1.0
 40
0.2113091308703554
 41
1.711945269609648
 42
2.505596057672098
  0
LWPOLYLINE
  5
151
330
F1
100
AcDbEntity
  8
AM_4
100
AcDbPolyline
 90
        4
 70
     0
 43
0.0
 10
-2.771045402482291
 20
-0.1791093260592887
 10
-2.756168284439216
 20
-0.1988355121406939
 10
-2.739739012196542
 20
-0.2156330920108724
 10
-2.734241993585198
 20
-0.2201680623457972
  0
LWPOLYLINE
  5
152
330
F1
100
AcDbEntity
  8
AM_4
100
AcDbPolyline
 90
        3
 70
     0
 43
0.0
 10
-2.734241993585198
 20
-0.2201680623457972
 10
-2.721301471986571
 20
-0.2290462109660021
 10
-2.701426111044255
 20
-0.2389369657326275
  0
LWPOLYLINE
  5
153
330
F1
100
AcDbEntity
  8
AM_4
100
AcDbPolyline
 90
        4
 70
     0
 43
0.0
 10
-2.504338791799178
 20
-0.2602304684431209
 10
-2.513587427213072
 20
-0.2616913382589203
 10
-2.525884944662706
 20
-0.2647402074337707
 10
-2.53856248548685
 20
-0.2689146070947222
  0
LINE
  5
154
330
F1
100
AcDbEntity
  8
AM_4
100
AcDbLine
 10
-2.690754193495225
 20
-0.1230967854582228
 30
0.0
 11
-2.705737464228668
 21
-0.1601993088245384
 31
0.0
  0
LINE
  5
155
330
F1
100
AcDbEntity
  8
AM_4
100
AcDbLine
 10
-2.501743418900893
 20
-0.2425790968238377
 30
0.0
 11
-2.5
 21
-0.2382619325905788
 31
0.0
  0
ELLIPSE
  5
156
330
F1
100
AcDbEntity
  8
AM_4
100
AcDbEllipse
 10
-2.603740441564781
 20
-0.2013892028241881
 30
0.0
 11
-0.1019970226638876
 21
0.04118989399964963
 31
0.0
210
0.0
220
0.0
230
1.0
 40
0.2113091308703492
 41
0.0
 42
3.141592653589793
  0
LWPOLYLINE
  5
157
330
F1
100
AcDbEntity
  8
AM_4
100
AcDbPolyline
 90
        4
 70
     0
 43
0.0
 10
-2.759723829258415
 20
-0.151074129835757
 10
-2.743107987270886
 20
-0.145877822676052
 10
-2.727053374615753
 20
-0.1427138007556462
 10
-2.715444827998119
 20
-0.141958509815605
  0
LWPOLYLINE
  5
158
330
F1
100
AcDbEntity
  8
AM_4
100
AcDbPolyline
 90
        7
 70
     0
 43
0.0
 10
-2.689738864824709
 20
-0.2099962668917053
 10
-2.700048001182038
 20
-0.1943573015029059
 10
-2.711391828016249
 20
-0.1805491420332303
 10
-2.724105802593056
 20
-0.1688997677199809
 10
-2.738001728782747
 20
-0.1598729403210871
 10
-2.74867506842339
 20
-0.1549033058439656
 10
-2.759723829258415
 20
-0.151074129835757
  0
LINE
  5
159
330
F1
100
AcDbEntity
  8
AM_4
100
AcDbLine
 10
-2.714114974455289
 20
-0.1419585097669024
 30
0.0
 11
-2.715553451103443
 21
-0.1419585097669024
 31
0.0
  0
ELLIPSE
  5
15A
330
F1
100
AcDbEntity
  8
AM_4
100
AcDbEllipse
 10
-2.603740441564805
 20
-0.2013892028241276
 30
0.0
 11
-0.1303939210191376
 21
0.05265753494268036
 31
0.0
210
0.0
220
0.0
230
1.0
 40
0.2113091308701928
 41
5.610613825799212
 42
7.795870906981919
  0
ELLIPSE
  5
15B
330
F1
100
AcDbEntity
  8
AM_4
100
AcDbEllipse
 10
-2.622040349103314
 20
-0.2467045921760216
 30
0.0
 11
-0.1303939210191749
 21
0.0526575349427345
 31
0.0
210
0.0
220
0.0
230
1.0
 40
0.2113091308703425
 41
0.6359965959176881
 42
1.512685599801936
  0
LWPOLYLINE
  5
15C
330
F1
100
AcDbEntity
  8
AM_4
100
AcDbPolyline
 90
        3
 70
     0
 43
0.0
 10
-2.522638699337713
 20
-0.3055458577949631
 10
-2.513188500451404
 20
-0.3064767622622302
 10
-2.502882299384443
 20
-0.3055458577949631
  0
LWPOLYLINE
  5
15D
330
F1
100
AcDbEntity
  8
AM_4
100
AcDbPolyline
 90
       16
 70
     0
 43
0.0
 10
-2.550803027621412
 20
-0.4147936024610238
 10
-2.552922817797635
 20
-0.4102407093274853
 10
-2.555535139097312
 20
-0.4028714785117585
 10
-2.557579102113446
 20
-0.3938515902899424
 10
-2.558551069515608
 20
-0.3835356971856454
 10
-2.558077357872261
 20
-0.3724607383754603
 10
-2.555975457708251
 20
-0.361166209630677
 10
-2.551826336080023
 20
-0.3491975668055052
 10
-2.546108923675173
 20
-0.3384139296352896
 10
-2.539242277709546
 20
-0.3290992739735075
 10
-2.531664861172894
 20
-0.3213799921596718
 10
-2.52387071130709
 20
-0.3153120282533063
 10
-2.516410268196267
 20
-0.3108638177108025
 10
-2.509802990361305
 20
-0.3078728819644093
 10
-2.504401775213365
 20
-0.3060523165475683
 10
-2.500946468229791
 20
-0.305193384906282
  0
LWPOLYLINE
  5
15E
330
F1
100
AcDbEntity
  8
AM_4
100
AcDbPolyline
 90
       17
 70
     0
 43
0.0
 10
-2.749796098576669
 20
-0.204694543208676
 10
-2.749124856503853
 20
-0.2057134616018222
 10
-2.746647992651125
 20
-0.2099940827246329
 10
-2.743935604984367
 20
-0.2159015541032383
 10
-2.741376685801693
 20
-0.2235340905618617
 10
-2.739465489753561
 20
-0.2327816177233479
 10
-2.738694856249135
 20
-0.2432499418514177
 10
-2.7394099519034
 20
-0.2543918355074535
 10
-2.741765839648863
 20
-0.2656767495772404
 10
-2.746153571949291
 20
-0.2775017988430109
 10
-2.752055138279407
 20
-0.2880941978444252
 10
-2.759047010546747
 20
-0.2971940018969785
 10
-2.766685385596637
 20
-0.3046868236197094
 10
-2.774466879072489
 20
-0.310526475258696
 10
-2.781837862963113
 20
-0.3147602853674957
 10
-2.78829455890839
 20
-0.3175703455996127
 10
-2.79021245285262
 20
-0.318250947645823
  0
ELLIPSE
  5
15F
330
F1
100
AcDbEntity
  8
AM_4
100
AcDbEllipse
 10
-2.673041252367299
 20
-0.3729962569746642
 30
0.0
 11
-0.1235034625625957
 21
0.04987493162723566
 31
0.0
210
0.0
220
0.0
230
1.0
 40
0.2113091308703484
 41
6.04085884897187
 42
9.665484954481597
  0
ELLIPSE
  5
160
330
F1
100
AcDbEntity
  8
AM_4
100
AcDbEllipse
 10
-2.60374044156478
 20
-0.2013892028241894
 30
0.0
 11
-0.1303939210191807
 21
0.05265753494271945
 31
0.0
210
0.0
220
0.0
230
1.0
 40
0.2113091308703544
 41
1.711945269609608
 42
2.51855672532034
  0
LINE
  5
161
330
F1
100
AcDbEntity
  8
AM_4
100
AcDbLine
 10
-2.5
 20
-0.260230468443123
 30
0.0
 11
-2.504338791799178
 21
-0.2602304684431209
 31
0.0
  0
LWPOLYLINE
  5
162
330
F1
100
AcDbEntity
  8
AM_4
100
AcDbPolyline
 90
        3
 70
     0
 43
0.0
 10
-2.53856248548685
 20
-0.2689146070947222
 10
-2.566624785455693
 20
-0.251275593729576
 10
-2.59641289029368
 20
-0.2360765106845275
  0
LINE
  5
163
330
F1
100
AcDbEntity
  8
AM_4
100
AcDbLine
 10
-2.59641289029368
 20
-0.2360765106845275
 30
0.0
 11
-2.622421699319664
 21
-0.2258378743019627
 31
0.0
  0
LWPOLYLINE
  5
164
330
F1
100
AcDbEntity
  8
AM_4
100
AcDbPolyline
 90
        4
 70
     0
 43
0.0
 10
-2.622421699319664
 20
-0.2258378743019627
 10
-2.645411734011904
 20
-0.2189176876709014
 10
-2.667417603872589
 20
-0.2138633349839127
 10
-2.689738864824709
 20
-0.2099962668917053
  0
LINE
  5
165
330
F1
100
AcDbEntity
  8
AM_4
100
AcDbLine
 10
-2.689738864824709
 20
-0.2099962668917053
 30
0.0
 11
-2.701426111044254
 21
-0.2389369657326276
 31
0.0
  0
LWPOLYLINE
  5
166
330
F1
100
AcDbEntity
  8
AM_4
100
AcDbPolyline
 90
        3
 70
     0
 43
0.0
 10
-2.701426111044254
 20
-0.2389369657326276
 10
-2.671746289810452
 20
-0.2560939713202353
 10
-2.640721606858196
 20
-0.2711532636537956
  0
LINE
  5
167
330
F1
100
AcDbEntity
  8
AM_4
100
AcDbLine
 10
-2.640721606858196
 20
-0.2711532636537956
 30
0.0
 11
-2.614712797832213
 21
-0.2813919000363599
 31
0.0
  0
LWPOLYLINE
  5
168
330
F1
100
AcDbEntity
  8
AM_4
100
AcDbPolyline
 90
        3
 70
     0
 43
0.0
 10
-2.614712797832213
 20
-0.2813919000363599
 10
-2.583062246978189
 20
-0.2911775952746243
 10
-2.550618134797828
 20
-0.2987675689889718
  0
LINE
  5
169
330
F1
100
AcDbEntity
  8
AM_4
100
AcDbLine
 10
-2.53856248548685
 20
-0.2689146070947222
 30
0.0
 11
-2.550618134797828
 21
-0.2987675689889718
 31
0.0
  0
ARC
  5
16A
330
F1
100
AcDbEntity
  8
AM_4
100
AcDbCircle
 10
-2.533124306069482
 20
-0.0000000000000005
 30
0.0
 40
0.2000000000000004
100
AcDbArc
 50
90.0
 51
219.6370468790475
  0
LWPOLYLINE
  5
16B
330
F1
100
AcDbEntity
  8
AM_4
100
AcDbPolyline
 90
       10
 70
     0
 43
0.0
 10
-2.687330482561211
 20
-0.1273595206852383
 10
-2.685663356378812
 20
-0.1291842652280563
 10
-2.679385809111149
 20
-0.134472979061152
 10
-2.670228210048428
 20
-0.1405186270901959
 10
-2.658932020886416
 20
-0.1468270783017121
 10
-2.645190869745667
 20
-0.1535654953592165
 10
-2.630129380006185
 20
-0.1601799433259583
 10
-2.613335957186525
 20
-0.1668493358980661
 10
-2.595936621032529
 20
-0.1731116383367606
 10
-2.577693406253426
 20
-0.1790373738502115
  0
ELLIPSE
  5
16C
330
F1
100
AcDbEntity
  8
AM_4
100
AcDbEllipse
 10
-2.533124306069483
 20
-0.0000000000000001
 30
0.0
 11
1.224646799147353E-17
 21
0.2
 31
0.0
210
0.0
220
0.0
230
1.0
 40
0.5000000000000004
 41
0.0
 42
2.679646633022825
  0
LINE
  5
16D
330
F1
100
AcDbEntity
  8
AM_4
100
AcDbLine
 10
-2.5
 20
0.1999999999999999
 30
0.0
 11
-2.533124306069483
 21
0.1999999999999999
 31
0.0
  0
LWPOLYLINE
  5
16E
330
F1
100
AcDbEntity
  8
AM_4
100
AcDbPolyline
 90
        7
 70
     0
 43
0.0
 10
-2.499955045741818
 20
-0.1999660950801365
 10
-2.510431021156515
 20
-0.1988321115509053
 10
-2.522829342870497
 20
-0.1961649429984259
 10
-2.537252773236489
 20
-0.1920694300574958
 10
-2.552765753097307
 20
-0.1870948030566195
 10
-2.569859156884277
 20
-0.181500594761393
 10
-2.577693406253443
 20
-0.1790373738501784
  0
LWPOLYLINE
  5
16F
330
F1
100
AcDbEntity
  8
AM_4
100
AcDbPolyline
 90
        4
 70
     0
 43
0.0
 10
-2.500648353427567
 20
-0.109375
 10
-2.508015778181066
 20
-0.08203125
 10
-2.514362546289951
 20
-0.0546875
 10
-2.524369424585259
 20
-0.0000000000000001
  0
LINE
  5
170
330
F1
100
AcDbEntity
  8
AM_4
100
AcDbLine
 10
-2.500037563792203
 20
-0.1114799826573406
 30
0.0
 11
-2.500648353427567
 21
-0.109375
 31
0.0
  0
LINE
  5
171
330
F1
100
AcDbEntity
  8
AM_4
100
AcDbLine
 10
-2.500648353427567
 20
0.1093749999999999
 30
0.0
 11
-2.500037340132101
 21
0.1114807495284577
 31
0.0
  0
LWPOLYLINE
  5
172
330
F1
100
AcDbEntity
  8
AM_4
100
AcDbPolyline
 90
        4
 70
     0
 43
0.0
 10
-2.524369424585259
 20
-0.0000000000000001
 10
-2.514415217155984
 20
0.0544416102741495
 10
-2.508056136546403
 20
0.081870001090765
 10
-2.500648353427567
 20
0.1093749999999999
  0
LINE
  5
173
330
F1
100
AcDbEntity
  8
AM_4
100
AcDbLine
 10
-2.524369424585259
 20
-0.0000000000000001
 30
0.0
 11
-2.5
 21
-0.0000000000000001
 31
0.0
  0
ENDBLK
  5
F4
330
F1
100
AcDbEntity
  8
0
100
AcDbBlockEnd
  0
BLOCK
  5
176
330
174
100
AcDbEntity
  8
0
100
AcDbBlockBegin
  2
4_125547vscwd_0_in_125564_4
 70
     2
 10
0.0
 20
0.0
 30
0.0
  3
4_125547vscwd_0_in_125564_4
  1

  0
ATTDEF
  5
178
330
174
100
AcDbEntity
  8
AM_6
100
AcDbText
 10
9.2275
 20
1.25
 30
0.0
 40
0.5
  1
WSTU-VSC - Body
100
AcDbAttributeDefinition
  3

  2
NN
 70
     8
280
     0
  0
ATTDEF
  5
179
330
174
100
AcDbEntity
  8
AM_6
100
AcDbText
 10
9.2275
 20
0.75
 30
0.0
 40
0.5
  1
VSC Intermediate Duty Wide Slot Take-Up Bearings
100
AcDbAttributeDefinition
  3

  2
NT
 70
     8
280
     0
  0
ATTDEF
  5
17A
330
174
100
AcDbEntity
  8
AM_6
100
AcDbText
 10
9.2275
 20
0.25
 30
0.0
 40
0.5
  1
125547vscwd
100
AcDbAttributeDefinition
  3

  2
NB
 70
     8
280
     0
  0
ATTDEF
  5
17B
330
174
100
AcDbEntity
  8
AM_6
100
AcDbText
 10
9.2275
 20
-0.25
 30
0.0
 40
0.5
  1
$PN.
100
AcDbAttributeDefinition
  3

  2
NBSYN
 70
     8
280
     0
  0
ATTDEF
  5
17C
330
174
100
AcDbEntity
  8
AM_6
100
AcDbText
 10
9.2275
 20
-0.75
 30
0.0
 40
0.5
  1
125547vscwd
100
AcDbAttributeDefinition
  3

  2
LINA
 70
     8
280
     0
  0
ATTDEF
  5
17D
330
174
100
AcDbEntity
  8
AM_6
100
AcDbText
 10
9.2275
 20
-1.25
 30
0.0
 40
0.5
  1
211
100
AcDbAttributeDefinition
  3

  2
RS
 70
     8
280
     0
  0
ATTDEF
  5
17E
330
174
100
AcDbEntity
  8
AM_6
100
AcDbText
 10
9.2275
 20
-1.75
 30
0.0
 40
0.5
  1
2
100
AcDbAttributeDefinition
  3

  2
SS
 70
     8
280
     0
  0
ATTDEF
  5
17F
330
174
100
AcDbEntity
  8
AM_6
100
AcDbText
 10
9.2275
 20
-2.25
 30
0.0
 40
0.5
  1
125547vscwd
100
AcDbAttributeDefinition
  3

  2
PN
 70
     8
280
     0
  0
ATTDEF
  5
180
330
174
100
AcDbEntity
  8
AM_6
100
AcDbText
 10
9.2275
 20
-2.75
 30
0.0
 40
0.5
  1
WSTU-VSC-200L
100
AcDbAttributeDefinition
  3

  2
DESCRIPTION
 70
     8
280
     0
  0
ATTDEF
  5
181
330
174
100
AcDbEntity
  8
AM_6
100
AcDbText
 10
9.2275
 20
-3.25
 30
0.0
 40
0.5
  1
2.22
100
AcDbAttributeDefinition
  3

  2
A
 70
     8
280
     0
  0
ATTDEF
  5
182
330
174
100
AcDbEntity
  8
AM_6
100
AcDbText
 10
9.2275
 20
-3.75
 30
0.0
 40
0.5
  1
6.69
100
AcDbAttributeDefinition
  3

  2
B
 70
     8
280
     0
  0
ATTDEF
  5
183
330
174
100
AcDbEntity
  8
AM_6
100
AcDbText
 10
9.2275
 20
-4.25
 30
0.0
 40
0.5
  1
1.063
100
AcDbAttributeDefinition
  3

  2
C
 70
     8
280
     0
  0
ATTDEF
  5
184
330
174
100
AcDbEntity
  8
AM_6
100
AcDbText
 10
9.2275
 20
-4.75
 30
0.0
 40
0.5
  1
3.75
100
AcDbAttributeDefinition
  3

  2
D
 70
     8
280
     0
  0
ATTDEF
  5
185
330
174
100
AcDbEntity
  8
AM_6
100
AcDbText
 10
9.2275
 20
-5.25
 30
0.0
 40
0.5
  1
4.19
100
AcDbAttributeDefinition
  3

  2
E
 70
     8
280
     0
  0
ATTDEF
  5
186
330
174
100
AcDbEntity
  8
AM_6
100
AcDbText
 10
9.2275
 20
-5.75
 30
0.0
 40
0.5
  1
1-1/4
100
AcDbAttributeDefinition
  3

  2
F
 70
     8
280
     0
  0
ATTDEF
  5
187
330
174
100
AcDbEntity
  8
AM_6
100
AcDbText
 10
9.2275
 20
-6.25
 30
0.0
 40
0.5
  1
0.75
100
AcDbAttributeDefinition
  3

  2
G
 70
     8
280
     0
  0
ATTDEF
  5
188
330
174
100
AcDbEntity
  8
AM_6
100
AcDbText
 10
9.2275
 20
-6.75
 30
0.0
 40
0.5
  1
1.00
100
AcDbAttributeDefinition
  3

  2
H
 70
     8
280
     0
  0
ATTDEF
  5
189
330
174
100
AcDbEntity
  8
AM_6
100
AcDbText
 10
9.2275
 20
-7.25
 30
0.0
 40
0.5
  1
4.00
100
AcDbAttributeDefinition
  3

  2
J
 70
     8
280
     0
  0
ATTDEF
  5
18A
330
174
100
AcDbEntity
  8
AM_6
100
AcDbText
 10
9.2275
 20
-7.75
 30
0.0
 40
0.5
  1
2.50
100
AcDbAttributeDefinition
  3

  2
K
 70
     8
280
     0
  0
ATTDEF
  5
18B
330
174
100
AcDbEntity
  8
AM_6
100
AcDbText
 10
9.2275
 20
-8.25
 30
0.0
 40
0.5
  1
2.71
100
AcDbAttributeDefinition
  3

  2
L
 70
     8
280
     0
  0
ATTDEF
  5
18C
330
174
100
AcDbEntity
  8
AM_6
100
AcDbText
 10
9.2275
 20
-8.75
 30
0.0
 40
0.5
  1
5.110/5.140
100
AcDbAttributeDefinition
  3

  2
M
 70
     8
280
     0
  0
ATTDEF
  5
18D
330
174
100
AcDbEntity
  8
AM_6
100
AcDbText
 10
9.2275
 20
-9.25
 30
0.0
 40
0.5
  1
5.88
100
AcDbAttributeDefinition
  3

  2
N
 70
     8
280
     0
  0
ATTDEF
  5
18E
330
174
100
AcDbEntity
  8
AM_6
100
AcDbText
 10
9.2275
 20
-9.75
 30
0.0
 40
0.5
  1
0.87
100
AcDbAttributeDefinition
  3

  2
R
 70
     8
280
     0
  0
ATTDEF
  5
18F
330
174
100
AcDbEntity
  8
AM_6
100
AcDbText
 10
9.2275
 20
-10.25
 30
0.0
 40
0.5
  1
1.35
100
AcDbAttributeDefinition
  3

  2
S
 70
     8
280
     0
  0
ATTDEF
  5
190
330
174
100
AcDbEntity
  8
AM_6
100
AcDbText
 10
9.2275
 20
-10.75
 30
0.0
 40
0.5
  1
2.50
100
AcDbAttributeDefinition
  3

  2
T
 70
     8
280
     0
  0
ATTDEF
  5
191
330
174
100
AcDbEntity
  8
AM_6
100
AcDbText
 10
9.2275
 20
-11.25
 30
0.0
 40
0.5
  1
baldor
100
AcDbAttributeDefinition
  3

  2
COMPANY
 70
     8
280
     0
  0
ELLIPSE
  5
192
330
174
100
AcDbEntity
  8
AM_9
100
AcDbEllipse
 10
-2.251666049839541
 20
-0.0000000000000001
 30
0.0
 11
1.836970198721029E-17
 21
0.2999999999999999
 31
0.0
210
0.0
220
0.0
230
1.0
 40
0.4999999999999999
 41
0.0
 42
6.283185307179586
  0
LINE
  5
193
330
174
100
AcDbEntity
  8
AM_9
100
AcDbLine
 10
-2.166994960691328
 20
-0.3999893411972966
 30
0.0
 11
-2.165002174036916
 21
-0.3999999892513309
 31
0.0
  0
LWPOLYLINE
  5
194
330
174
100
AcDbEntity
  8
AM_9
100
AcDbPolyline
 90
       24
 70
     0
 43
0.0
 10
-2.415063509461096
 20
-0.0000000000000001
 10
-2.414912106405356
 20
-0.0145561813692837
 10
-2.413824186322959
 20
-0.041588098832464
 10
-2.411687085084401
 20
-0.0684568484656737
 10
-2.408499075495562
 20
-0.0950618804824672
 10
-2.404255621187771
 20
-0.1213091346910659
 10
-2.398948453138991
 20
-0.1471069633754141
 10
-2.392564277476656
 20
-0.1723658467672787
 10
-2.385083377416971
 20
-0.1969971273739656
 10
-2.376478537471335
 20
-0.2209101379802826
 10
-2.366715213033818
 20
-0.2440068797975007
 10
-2.355754692321206
 20
-0.2661734046997302
 10
-2.343562979484734
 20
-0.2872679246385957
 10
-2.330141051024344
 20
-0.3070911032025171
 10
-2.315556294529515
 20
-0.3253885194934197
 10
-2.299930097788541
 20
-0.3419173700313409
 10
-2.285171942946515
 20
-0.3550682209730684
 10
-2.269896604428148
 20
-0.3665087118058524
 10
-2.252359637884223
 20
-0.3772496165853448
 10
-2.234399629747266
 20
-0.3858842841315159
 10
-2.216188820221992
 20
-0.3924216374761974
 10
-2.19784875560775
 20
-0.3969104967061701
 10
-2.17949503216842
 20
-0.3994042585383101
 10
-2.166994960691328
 20
-0.3999893411972966
  0
LWPOLYLINE
  5
195
330
174
100
AcDbEntity
  8
AM_9
100
AcDbPolyline
 90
       25
 70
     0
 43
0.0
 10
-2.165089910102658
 20
0.3999999980085893
 10
-2.166370072444408
 20
0.3999951225057933
 10
-2.184459206134458
 20
0.3989229163341628
 10
-2.202248011834169
 20
0.3960188785878478
 10
-2.219646867547753
 20
0.3913437740214952
 10
-2.236600830626771
 20
0.3849466212610353
 10
-2.253072455325627
 20
0.376859222503279
 10
-2.26903810902183
 20
0.3670916866647756
 10
-2.284480698325936
 20
0.355631464877453
 10
-2.299378917565631
 20
0.3424490609104318
 10
-2.313694472767252
 20
0.327513563472972
 10
-2.327361309696635
 20
0.3108184044091779
 10
-2.340283595097991
 20
0.2924104170464785
 10
-2.352348040788971
 20
0.2724064966417824
 10
-2.363447458009842
 20
0.250983595469396
 10
-2.373497477855273
 20
0.2283575838447277
 10
-2.382448972611235
 20
0.204745260994271
 10
-2.390295553802031
 20
0.1803044386778417
 10
-2.397044148712665
 20
0.1551680080348306
 10
-2.402706379518897
 20
0.1294515144579294
 10
-2.40729380717513
 20
0.1032605218454492
 10
-2.410815968069527
 20
0.0766957990466613
 10
-2.413279931362054
 20
0.049856364277123
 10
-2.414690505327187
 20
0.0228409493882267
 10
-2.415063509461096
 20
-0.0000000000000001
  0
LINE
  5
196
330
174
100
AcDbEntity
  8
AM_9
100
AcDbLine
 10
3.44
 20
-0.625
 30
0.0
 11
4.19
 21
-0.625
 31
0.0
  0
LINE
  5
197
330
174
100
AcDbEntity
  8
AM_9
100
AcDbLine
 10
4.19
 20
0.625
 30
0.0
 11
3.44
 21
0.625
 31
0.0
  0
LINE
  5
198
330
174
100
AcDbEntity
  8
AM_9
100
AcDbLine
 10
2.546300000000001
 20
-0.9035499999999995
 30
0.0
 11
2.5463
 21
0.9035500000000005
 31
0.0
  0
LINE
  5
199
330
174
100
AcDbEntity
  8
AM_9
100
AcDbLine
 10
2.440000000000001
 20
-0.9035499999999995
 30
0.0
 11
2.440000000000001
 21
0.9035500000000005
 31
0.0
  0
LINE
  5
19A
330
174
100
AcDbEntity
  8
AM_9
100
AcDbLine
 10
3.44
 20
-0.9035499999999995
 30
0.0
 11
3.44
 21
0.9035500000000005
 31
0.0
  0
LINE
  5
19B
330
174
100
AcDbEntity
  8
AM_9
100
AcDbLine
 10
3.333699999999999
 20
-0.9035499999999995
 30
0.0
 11
3.333699999999999
 21
0.9035500000000005
 31
0.0
  0
LWPOLYLINE
  5
19C
330
174
100
AcDbEntity
  8
AM_9
100
AcDbPolyline
 90
       29
 70
     0
 43
0.0
 10
-2.165063509461096
 20
0.4000000000000002
 10
-2.14245255905712
 20
0.3974825792881012
 10
-2.119388170482065
 20
0.3900281917624354
 10
-2.0963427551247
 20
0.3777836493380495
 10
-2.07359544963
 20
0.3608147423472551
 10
-2.05142937664621
 20
0.3393482788552584
 10
-2.030343615557866
 20
0.3137857917313499
 10
-2.010499840894465
 20
0.2840651668961824
 10
-1.992347178347372
 20
0.2506964168919281
 10
-1.976335345766934
 20
0.2142913708391695
 10
-1.962692898373634
 20
0.1749136993358901
 10
-1.951712762605126
 20
0.1331638498896274
 10
-1.943695391459017
 20
0.0898319568087915
 10
-1.93887257010722
 20
0.0456982889556048
 10
-1.937197159768718
 20
0.0008378402959013
 10
-1.93871661421668
 20
-0.0438900747507035
 10
-1.943400136844952
 20
-0.0876316241896307
 10
-1.951104990155827
 20
-0.1304113201901559
 10
-1.961622495945279
 20
-0.1714377066241372
 10
-1.974878630411257
 20
-0.2104768218064377
 10
-1.990567109642231
 20
-0.2470190710411611
 10
-2.008292633270282
 20
-0.2804038473162725
 10
-2.028038490251014
 20
-0.310607019036048
 10
-2.049292875611157
 20
-0.3369966743537681
 10
-2.071552428884095
 20
-0.3590774467628436
 10
-2.094531833668261
 20
-0.3765836039298276
 10
-2.117913689523902
 20
-0.3893860878712642
 10
-2.141187932801919
 20
-0.3972307724000377
 10
-2.165063509461096
 20
-0.4000000000000003
  0
LWPOLYLINE
  5
19D
330
174
100
AcDbEntity
  8
AM_9
100
AcDbPolyline
 90
       29
 70
     0
 43
0.0
 10
-2.165063509461096
 20
-0.4000000000000003
 10
-2.18643547445343
 20
-0.3976312147145509
 10
-2.206912684722355
 20
-0.3905843710857741
 10
-2.226655098600667
 20
-0.3786088413231544
 10
-2.245120119950119
 20
-0.3619643645683352
 10
-2.262047170952764
 20
-0.3409657574315985
 10
-2.277469283051481
 20
-0.3155307321631596
 10
-2.291235990065492
 20
-0.2861075106489711
 10
-2.303209998028442
 20
-0.2532345709191229
 10
-2.313462906979062
 20
-0.2168069277605287
 10
-2.321910334433274
 20
-0.1774991033991914
 10
-2.328493020166415
 20
-0.1360454075507347
 10
-2.333200473859894
 20
-0.0929825286262342
 10
-2.33609644143703
 20
-0.0485844318052021
 10
-2.337164862562809
 20
-0.0037031378093775
 10
-2.33641573392012
 20
0.0407116512392042
 10
-2.333882259131097
 20
0.0847520971665694
 10
-2.329578067382709
 20
0.1275909752432982
 10
-2.32347865945684
 20
0.1687676676494921
 10
-2.31557626271976
 20
0.2079730830085636
 10
-2.305923235287881
 20
0.2444969051656445
 10
-2.294345178245673
 20
0.2783262017899336
 10
-2.280951838259087
 20
0.3087762728460792
 10
-2.265873643680023
 20
0.3352866618281573
 10
-2.249004684944253
 20
0.3576718319218113
 10
-2.23051312257078
 20
0.3756031043647798
 10
-2.210663393631025
 20
0.3887303439826393
 10
-2.18841134694667
 20
0.3971612817907318
 10
-2.165063509461097
 20
0.4000000000000002
  0
LINE
  5
19E
330
174
100
AcDbEntity
  8
AM_9
100
AcDbLine
 10
-0.6666666666666666
 20
-0.4783499999999997
 30
0.0
 11
-0.6666666666666666
 21
0.9035500000000001
 31
0.0
  0
LINE
  5
19F
330
174
100
AcDbEntity
  8
AM_9
100
AcDbLine
 10
0.6666666666666666
 20
-0.4783499999999997
 30
0.0
 11
0.6666666666666666
 21
0.9035500000000001
 31
0.0
  0
LINE
  5
1A0
330
174
100
AcDbEntity
  8
AM_9
100
AcDbLine
 10
1.9685
 20
-0.90355
 30
0.0
 11
1.9685
 21
0.9035500000000001
 31
0.0
  0
LINE
  5
1A1
330
174
100
AcDbEntity
  8
AM_9
100
AcDbLine
 10
-1.9685
 20
0.9035500000000001
 30
0.0
 11
-1.9685
 21
-0.90355
 31
0.0
  0
LINE
  5
1A2
330
174
100
AcDbEntity
  8
AM_9
100
AcDbLine
 10
0.6666666666666666
 20
-0.4783499999999997
 30
0.0
 11
-0.6666666666666666
 21
-0.4783499999999997
 31
0.0
  0
LINE
  5
1A3
330
174
100
AcDbEntity
  8
AM_9
100
AcDbLine
 10
1.875
 20
-0.9035499999999994
 30
0.0
 11
-1.875
 21
-0.9035499999999994
 31
0.0
  0
LINE
  5
1A4
330
174
100
AcDbEntity
  8
AM_9
100
AcDbLine
 10
1.875
 20
0.9035500000000006
 30
0.0
 11
-1.875
 21
0.9035500000000006
 31
0.0
  0
ELLIPSE
  5
1A5
330
174
100
AcDbEntity
  8
AM_9
100
AcDbEllipse
 10
-2.165063509461096
 20
-0.0000000000000001
 30
0.0
 11
-7.347880794884123E-17
 21
-0.4000000000000002
 31
0.0
210
0.0
220
0.0
230
1.0
 40
0.5000000000000001
 41
0.0
 42
6.283185307179586
  0
LINE
  5
1A6
330
174
100
AcDbEntity
  8
AM_7
100
AcDbLine
 10
4.2275
 20
0.0
 30
0.0
 11
3.4025
 21
0.0
 31
0.0
  0
LINE
  5
1A7
330
174
100
AcDbEntity
  8
AM_7
100
AcDbLine
 10
0.0
 20
1.1693
 30
0.0
 11
0.0
 21
-1.461
 31
0.0
  0
LINE
  5
1A8
330
174
100
AcDbEntity
  8
AM_4
100
AcDbLine
 10
4.19
 20
1.25
 30
0.0
 11
3.44
 21
1.25
 31
0.0
  0
LINE
  5
1A9
330
174
100
AcDbEntity
  8
AM_4
100
AcDbLine
 10
3.44
 20
1.25
 30
0.0
 11
3.44
 21
0.9035500000000001
 31
0.0
  0
LINE
  5
1AA
330
174
100
AcDbEntity
  8
AM_4
100
AcDbLine
 10
4.19
 20
1.25
 30
0.0
 11
4.19
 21
-1.25
 31
0.0
  0
LINE
  5
1AB
330
174
100
AcDbEntity
  8
AM_4
100
AcDbLine
 10
3.44
 20
-0.9035499999999999
 30
0.0
 11
3.44
 21
-1.25
 31
0.0
  0
LINE
  5
1AC
330
174
100
AcDbEntity
  8
AM_4
100
AcDbLine
 10
3.44
 20
-1.25
 30
0.0
 11
4.19
 21
-1.25
 31
0.0
  0
LINE
  5
1AD
330
174
100
AcDbEntity
  8
AM_4
100
AcDbLine
 10
-2.5
 20
0.8535500000000004
 30
0.0
 11
-2.5
 21
-0.8535499999999995
 31
0.0
  0
LINE
  5
1AE
330
174
100
AcDbEntity
  8
AM_4
100
AcDbLine
 10
-2.45
 20
0.9035500000000003
 30
0.0
 11
-2.5
 21
0.8535500000000004
 31
0.0
  0
LINE
  5
1AF
330
174
100
AcDbEntity
  8
AM_4
100
AcDbLine
 10
-2.5
 20
0.8535500000000004
 30
0.0
 11
-1.875
 21
0.8535500000000005
 31
0.0
  0
LINE
  5
1B0
330
174
100
AcDbEntity
  8
AM_4
100
AcDbLine
 10
-2.45
 20
0.9035500000000003
 30
0.0
 11
-1.875
 21
0.9035500000000004
 31
0.0
  0
LINE
  5
1B1
330
174
100
AcDbEntity
  8
AM_4
100
AcDbLine
 10
-2.5
 20
-0.8535499999999995
 30
0.0
 11
-2.45
 21
-0.9035499999999997
 31
0.0
  0
LINE
  5
1B2
330
174
100
AcDbEntity
  8
AM_4
100
AcDbLine
 10
-2.5
 20
-0.8535499999999995
 30
0.0
 11
-1.875
 21
-0.8535499999999993
 31
0.0
  0
LINE
  5
1B3
330
174
100
AcDbEntity
  8
AM_4
100
AcDbLine
 10
-2.45
 20
-0.9035499999999997
 30
0.0
 11
-1.875
 21
-0.9035499999999995
 31
0.0
  0
LINE
  5
1B4
330
174
100
AcDbEntity
  8
AM_4
100
AcDbLine
 10
4.190000000000001
 20
0.9035500000000001
 30
0.0
 11
1.875
 21
0.9035500000000001
 31
0.0
  0
LINE
  5
1B5
330
174
100
AcDbEntity
  8
AM_4
100
AcDbLine
 10
4.083700000000001
 20
0.7972499999999993
 30
0.0
 11
4.190000000000001
 21
0.9035499999999995
 31
0.0
  0
LINE
  5
1B6
330
174
100
AcDbEntity
  8
AM_4
100
AcDbLine
 10
4.0837
 20
0.7972499999999999
 30
0.0
 11
1.875
 21
0.7972499999999999
 31
0.0
  0
LINE
  5
1B7
330
174
100
AcDbEntity
  8
AM_4
100
AcDbLine
 10
4.0837
 20
-0.7972499999999983
 30
0.0
 11
4.0837
 21
0.7972499999999999
 31
0.0
  0
LINE
  5
1B8
330
174
100
AcDbEntity
  8
AM_4
100
AcDbLine
 10
4.19
 20
-0.9035499999999995
 30
0.0
 11
1.875
 21
-0.9035499999999995
 31
0.0
  0
LINE
  5
1B9
330
174
100
AcDbEntity
  8
AM_4
100
AcDbLine
 10
4.190000000000001
 20
-0.9035499999999989
 30
0.0
 11
4.083700005253514
 21
-0.7972500052535115
 31
0.0
  0
LINE
  5
1BA
330
174
100
AcDbEntity
  8
AM_4
100
AcDbLine
 10
4.0837
 20
-0.7972499999999983
 30
0.0
 11
1.875
 21
-0.7972499999999996
 31
0.0
  0
LINE
  5
1BB
330
174
100
AcDbEntity
  8
AM_4
100
AcDbLine
 10
-1.7687
 20
-0.9566999999999998
 30
0.0
 11
-1.7687
 21
-0.5314999999999999
 31
0.0
  0
LINE
  5
1BC
330
174
100
AcDbEntity
  8
AM_4
100
AcDbLine
 10
1.7687
 20
-0.9566999999999998
 30
0.0
 11
-1.7687
 21
-0.9566999999999998
 31
0.0
  0
LINE
  5
1BD
330
174
100
AcDbEntity
  8
AM_4
100
AcDbLine
 10
-1.7687
 20
-0.9566999999999996
 30
0.0
 11
-1.875
 21
-1.063
 31
0.0
  0
LINE
  5
1BE
330
174
100
AcDbEntity
  8
AM_4
100
AcDbLine
 10
1.875
 20
-1.063
 30
0.0
 11
-1.875
 21
-1.063
 31
0.0
  0
LINE
  5
1BF
330
174
100
AcDbEntity
  8
AM_4
100
AcDbLine
 10
1.875
 20
1.063
 30
0.0
 11
-1.875
 21
1.063
 31
0.0
  0
LINE
  5
1C0
330
174
100
AcDbEntity
  8
AM_4
100
AcDbLine
 10
1.7687
 20
0.9566999999999998
 30
0.0
 11
-1.7687
 21
0.9566999999999998
 31
0.0
  0
LINE
  5
1C1
330
174
100
AcDbEntity
  8
AM_4
100
AcDbLine
 10
1.875
 20
1.063
 30
0.0
 11
1.875
 21
-1.063
 31
0.0
  0
LINE
  5
1C2
330
174
100
AcDbEntity
  8
AM_4
100
AcDbLine
 10
1.7687
 20
0.9566999999999998
 30
0.0
 11
1.875
 21
1.063
 31
0.0
  0
LINE
  5
1C3
330
174
100
AcDbEntity
  8
AM_4
100
AcDbLine
 10
1.7687
 20
0.5315000000000003
 30
0.0
 11
1.7687
 21
0.9566999999999998
 31
0.0
  0
LINE
  5
1C4
330
174
100
AcDbEntity
  8
AM_4
100
AcDbLine
 10
-1.875
 20
-0.5314999999999998
 30
0.0
 11
1.875
 21
-0.5314999999999998
 31
0.0
  0
LINE
  5
1C5
330
174
100
AcDbEntity
  8
AM_4
100
AcDbLine
 10
1.7687
 20
-0.9566999999999998
 30
0.0
 11
1.7687
 21
-0.5314999999999999
 31
0.0
  0
LINE
  5
1C6
330
174
100
AcDbEntity
  8
AM_4
100
AcDbLine
 10
1.875
 20
-1.063
 30
0.0
 11
1.7687
 21
-0.9567000000000001
 31
0.0
  0
LINE
  5
1C7
330
174
100
AcDbEntity
  8
AM_4
100
AcDbLine
 10
1.875
 20
0.5315000000000003
 30
0.0
 11
-1.875
 21
0.5315000000000002
 31
0.0
  0
LINE
  5
1C8
330
174
100
AcDbEntity
  8
AM_4
100
AcDbLine
 10
-1.7687
 20
0.5315000000000002
 30
0.0
 11
-1.7687
 21
0.9566999999999998
 31
0.0
  0
LINE
  5
1C9
330
174
100
AcDbEntity
  8
AM_4
100
AcDbLine
 10
-1.875
 20
1.063
 30
0.0
 11
-1.7687
 21
0.9566999999999997
 31
0.0
  0
LINE
  5
1CA
330
174
100
AcDbEntity
  8
AM_4
100
AcDbLine
 10
-1.875
 20
1.063
 30
0.0
 11
-1.875
 21
-1.063
 31
0.0
  0
ENDBLK
  5
177
330
174
100
AcDbEntity
  8
0
100
AcDbBlockEnd
  0
ENDSEC
  0
SECTION
  2
ENTITIES
  0
INSERT
  5
6F
330
1F
100
AcDbEntity
  8
0
100
AcDbBlockReference
  2
1_125564_4
 10
0.0
 20
0.0
 30
0.0
  0
POINT
  5
1CC
330
1F
100
AcDbEntity
  8
ConnectionPoints
100
AcDbPoint
 10
-2.251666049839541
 20
-0.0000000000000001
 30
-1.3
  0
POINT
  5
1CD
330
1F
100
AcDbEntity
  8
ConnectionPoints
100
AcDbPoint
 10
-2.251666049839541
 20
-0.0000000000000001
 30
-1.3
  0
POINT
  5
1CE
330
1F
100
AcDbEntity
  8
ConnectionPoints
100
AcDbPoint
 10
0.0
 20
-1.35
 30
0.0000000000000001
  0
ENDSEC
  0
SECTION
  2
OBJECTS
  0
DICTIONARY
  5
C
330
0
100
AcDbDictionary
281
     1
  3
ACAD_DETAILVIEWSTYLE
350
1D6
  3
ACAD_GROUP
350
D
  3
ACAD_LAYOUT
350
1A
  3
ACAD_MATERIAL
350
43
  3
ACAD_MLEADERSTYLE
350
6B
  3
ACAD_MLINESTYLE
350
17
  3
ACAD_PLOTSETTINGS
350
19
  3
ACAD_PLOTSTYLENAME
350
E
  3
ACAD_SCALELIST
350
47
  3
ACAD_SECTIONVIEWSTYLE
350
1D7
  3
ACAD_TABLESTYLE
350
69
  3
ACAD_VISUALSTYLE
350
2A
  3
ACDB_RECOMPOSE_DATA
350
1D3
  3
AcDbVariableDictionary
350
1CF
  0
SUN
  5
6D
330
29
100
AcDbSun
 90
        1
290
     0
 63
     7
421
 16777215
 40
1.0
291
     1
 91
  2455826
 92
 54000000
292
     0
 70
     2
 71
   256
280
     1
  0
DICTIONARY
  5
1D6
102
{ACAD_REACTORS
330
C
102
}
330
C
100
AcDbDictionary
281
     1
  0
DICTIONARY
  5
D
102
{ACAD_REACTORS
330
C
102
}
330
C
100
AcDbDictionary
281
     1
  0
DICTIONARY
  5
1A
102
{ACAD_REACTORS
330
C
102
}
330
C
100
AcDbDictionary
281
     1
  3
Layout1
350
1E
  3
Layout2
350
26
  3
Model
350
22
  0
DICTIONARY
  5
43
102
{ACAD_REACTORS
330
C
102
}
330
C
100
AcDbDictionary
281
     1
  3
ByBlock
350
45
  3
ByLayer
350
44
  3
Global
350
46
  0
DICTIONARY
  5
6B
102
{ACAD_REACTORS
330
C
102
}
330
C
100
AcDbDictionary
281
     1
  3
Standard
350
6C
  0
DICTIONARY
  5
17
102
{ACAD_REACTORS
330
C
102
}
330
C
100
AcDbDictionary
281
     1
  3
Standard
350
18
  0
DICTIONARY
  5
19
102
{ACAD_REACTORS
330
C
102
}
330
C
100
AcDbDictionary
281
     1
  0
ACDBDICTIONARYWDFLT
  5
E
102
{ACAD_REACTORS
330
C
102
}
330
C
100
AcDbDictionary
281
     1
  3
Normal
350
F
100
AcDbDictionaryWithDefault
340
F
  0
DICTIONARY
  5
47
102
{ACAD_REACTORS
330
C
102
}
330
C
100
AcDbDictionary
281
     1
  3
A0
350
48
  3
A1
350
49
  3
A2
350
4A
  3
A3
350
4B
  3
A4
350
4C
  3
A5
350
4D
  3
A6
350
4E
  3
A7
350
4F
  3
A8
350
50
  3
A9
350
51
  3
B0
350
52
  3
B1
350
53
  3
B2
350
54
  3
B3
350
55
  3
B4
350
56
  3
B5
350
57
  3
B6
350
58
  3
B7
350
59
  3
B8
350
5A
  3
B9
350
5B
  3
C0
350
5C
  3
C1
350
5D
  3
C2
350
5E
  3
C3
350
5F
  3
C4
350
60
  3
C5
350
61
  3
C6
350
62
  3
C7
350
63
  3
C8
350
64
  3
C9
350
65
  3
D0
350
66
  3
D1
350
67
  3
D2
350
68
  0
DICTIONARY
  5
1D7
102
{ACAD_REACTORS
330
C
102
}
330
C
100
AcDbDictionary
281
     1
  0
DICTIONARY
  5
69
102
{ACAD_REACTORS
330
C
102
}
330
C
100
AcDbDictionary
281
     1
  3
Standard
350
6A
  0
DICTIONARY
  5
2A
102
{ACAD_REACTORS
330
C
102
}
330
C
100
AcDbDictionary
281
     1
  3
2dWireframe
350
2F
  3
Basic
350
32
  3
Brighten
350
36
  3
ColorChange
350
3A
  3
Conceptual
350
34
  3
Dim
350
35
  3
EdgeColorOff
350
3D
  3
Facepattern
350
39
  3
Flat
350
2B
  3
FlatWithEdges
350
2C
  3
Gouraud
350
2D
  3
GouraudWithEdges
350
2E
  3
Hidden
350
31
  3
JitterOff
350
3B
  3
Linepattern
350
38
  3
OverhangOff
350
3C
  3
Realistic
350
33
  3
Shaded
350
42
  3
Shaded with edges
350
41
  3
Shades of Gray
350
3E
  3
Sketchy
350
3F
  3
Thicken
350
37
  3
Wireframe
350
30
  3
X-Ray
350
40
  0
XRECORD
  5
1D3
102
{ACAD_REACTORS
330
C
102
}
330
C
100
AcDbXrecord
280
     1
 90
        1
330
6A
  0
DICTIONARY
  5
1CF
102
{ACAD_REACTORS
330
C
102
}
330
C
100
AcDbDictionary
281
     1
  3
CANNOSCALE
350
1D0
  3
CMLEADERSTYLE
350
1D5
  3
CTABLESTYLE
350
1D4
  0
LAYOUT
  5
1E
102
{ACAD_REACTORS
330
1A
102
}
330
1A
100
AcDbPlotSettings
  1

  2
none_device
  4

  6

 40
0.0
 41
0.0
 42
0.0
 43
0.0
 44
0.0
 45
0.0
 46
0.0
 47
0.0
 48
0.0
 49
0.0
140
0.0
141
0.0
142
1.0
143
1.0
 70
   688
 72
     0
 73
     0
 74
     5
  7

 75
    16
 76
     0
 77
     2
 78
   300
147
1.0
148
0.0
149
0.0
100
AcDbLayout
  1
Layout1
 70
     1
 71
     1
 10
0.0
 20
0.0
 11
12.0
 21
9.0
 12
0.0
 22
0.0
 32
0.0
 14
1.000000000000000E+20
 24
1.000000000000000E+20
 34
1.000000000000000E+20
 15
-1.000000000000000E+20
 25
-1.000000000000000E+20
 35
-1.000000000000000E+20
146
0.0
 13
0.0
 23
0.0
 33
0.0
 16
1.0
 26
0.0
 36
0.0
 17
0.0
 27
1.0
 37
0.0
 76
     0
330
1B
  0
LAYOUT
  5
26
102
{ACAD_REACTORS
330
1A
102
}
330
1A
100
AcDbPlotSettings
  1

  2
none_device
  4

  6

 40
0.0
 41
0.0
 42
0.0
 43
0.0
 44
0.0
 45
0.0
 46
0.0
 47
0.0
 48
0.0
 49
0.0
140
0.0
141
0.0
142
1.0
143
1.0
 70
   688
 72
     0
 73
     0
 74
     5
  7

 75
    16
 76
     0
 77
     2
 78
   300
147
1.0
148
0.0
149
0.0
100
AcDbLayout
  1
Layout2
 70
     1
 71
     2
 10
0.0
 20
0.0
 11
0.0
 21
0.0
 12
0.0
 22
0.0
 32
0.0
 14
0.0
 24
0.0
 34
0.0
 15
0.0
 25
0.0
 35
0.0
146
0.0
 13
0.0
 23
0.0
 33
0.0
 16
1.0
 26
0.0
 36
0.0
 17
0.0
 27
1.0
 37
0.0
 76
     0
330
23
  0
LAYOUT
  5
22
102
{ACAD_REACTORS
330
1A
102
}
330
1A
100
AcDbPlotSettings
  1

  2
none_device
  4
Letter_(8.50_x_11.00_Inches)
  6

 40
6.35
 41
6.35
 42
6.35000508
 43
6.35000508
 44
215.9
 45
279.4
 46
0.0
 47
0.0
 48
0.0
 49
0.0
140
0.0
141
0.0
142
1.0
143
1.0
 70
  1712
 72
     0
 73
     0
 74
     0
  7

 75
     0
 76
     0
 77
     2
 78
   300
147
1.0
148
0.0
149
0.0
100
AcDbLayout
  1
Model
 70
     1
 71
     0
 10
0.0
 20
0.0
 11
12.0
 21
9.0
 12
0.0
 22
0.0
 32
0.0
 14
1.000000000000000E+20
 24
1.000000000000000E+20
 34
1.000000000000000E+20
 15
-1.000000000000000E+20
 25
-1.000000000000000E+20
 35
-1.000000000000000E+20
146
0.0
 13
0.0
 23
0.0
 33
0.0
 16
1.0
 26
0.0
 36
0.0
 17
0.0
 27
1.0
 37
0.0
 76
     0
330
1F
331
29
  0
MATERIAL
  5
45
102
{ACAD_REACTORS
330
43
102
}
330
43
100
AcDbMaterial
  1
ByBlock
 72
     1
 94
      127
  0
MATERIAL
  5
44
102
{ACAD_REACTORS
330
43
102
}
330
43
100
AcDbMaterial
  1
ByLayer
 72
     1
 94
      127
  0
MATERIAL
  5
46
102
{ACAD_REACTORS
330
43
102
}
330
43
100
AcDbMaterial
  1
Global
 72
     1
 94
      127
  0
MLEADERSTYLE
  5
6C
102
{ACAD_REACTORS
330
6B
102
}
330
6B
100
AcDbMLeaderStyle
179
     2
170
     2
171
     1
172
     0
 90
        2
 40
0.0
 41
0.0
173
     1
 91
-1056964608
340
14
 92
       -2
290
     1
 42
0.09
291
     1
 43
0.36
  3
Standard
341
0
 44
0.18
300

342
11
174
     1
178
     6
175
     1
176
     0
 93
-1056964608
 45
0.18
292
     0
297
     0
 46
0.18
343
0
 94
-1056964608
 47
1.0
 49
1.0
140
1.0
293
     1
141
0.0
294
     1
177
     0
142
1.0
295
     0
296
     0
143
0.125
271
     0
272
     9
273
     9
298
     0
  0
MLINESTYLE
  5
18
102
{ACAD_REACTORS
330
17
102
}
330
17
100
AcDbMlineStyle
  2
Standard
 70
     0
  3

 62
   256
 51
90.0
 52
90.0
 71
     2
 49
0.5
 62
   256
  6
BYLAYER
 49
-0.5
 62
   256
  6
BYLAYER
  0
ACDBPLACEHOLDER
  5
F
102
{ACAD_REACTORS
330
E
102
}
330
E
  0
SCALE
  5
48
102
{ACAD_REACTORS
330
47
102
}
330
47
100
AcDbScale
 70
     0
300
1:1
140
1.0
141
1.0
290
     1
  0
SCALE
  5
49
102
{ACAD_REACTORS
330
47
102
}
330
47
100
AcDbScale
 70
     0
300
1:2
140
1.0
141
2.0
290
     0
  0
SCALE
  5
4A
102
{ACAD_REACTORS
330
47
102
}
330
47
100
AcDbScale
 70
     0
300
1:4
140
1.0
141
4.0
290
     0
  0
SCALE
  5
4B
102
{ACAD_REACTORS
330
47
102
}
330
47
100
AcDbScale
 70
     0
300
1:5
140
1.0
141
5.0
290
     0
  0
SCALE
  5
4C
102
{ACAD_REACTORS
330
47
102
}
330
47
100
AcDbScale
 70
     0
300
1:8
140
1.0
141
8.0
290
     0
  0
SCALE
  5
4D
102
{ACAD_REACTORS
330
47
102
}
330
47
100
AcDbScale
 70
     0
300
1:10
140
1.0
141
10.0
290
     0
  0
SCALE
  5
4E
102
{ACAD_REACTORS
330
47
102
}
330
47
100
AcDbScale
 70
     0
300
1:16
140
1.0
141
16.0
290
     0
  0
SCALE
  5
4F
102
{ACAD_REACTORS
330
47
102
}
330
47
100
AcDbScale
 70
     0
300
1:20
140
1.0
141
20.0
290
     0
  0
SCALE
  5
50
102
{ACAD_REACTORS
330
47
102
}
330
47
100
AcDbScale
 70
     0
300
1:30
140
1.0
141
30.0
290
     0
  0
SCALE
  5
51
102
{ACAD_REACTORS
330
47
102
}
330
47
100
AcDbScale
 70
     0
300
1:40
140
1.0
141
40.0
290
     0
  0
SCALE
  5
52
102
{ACAD_REACTORS
330
47
102
}
330
47
100
AcDbScale
 70
     0
300
1:50
140
1.0
141
50.0
290
     0
  0
SCALE
  5
53
102
{ACAD_REACTORS
330
47
102
}
330
47
100
AcDbScale
 70
     0
300
1:100
140
1.0
141
100.0
290
     0
  0
SCALE
  5
54
102
{ACAD_REACTORS
330
47
102
}
330
47
100
AcDbScale
 70
     0
300
2:1
140
2.0
141
1.0
290
     0
  0
SCALE
  5
55
102
{ACAD_REACTORS
330
47
102
}
330
47
100
AcDbScale
 70
     0
300
4:1
140
4.0
141
1.0
290
     0
  0
SCALE
  5
56
102
{ACAD_REACTORS
330
47
102
}
330
47
100
AcDbScale
 70
     0
300
8:1
140
8.0
141
1.0
290
     0
  0
SCALE
  5
57
102
{ACAD_REACTORS
330
47
102
}
330
47
100
AcDbScale
 70
     0
300
10:1
140
10.0
141
1.0
290
     0
  0
SCALE
  5
58
102
{ACAD_REACTORS
330
47
102
}
330
47
100
AcDbScale
 70
     0
300
100:1
140
100.0
141
1.0
290
     0
  0
SCALE
  5
59
102
{ACAD_REACTORS
330
47
102
}
330
47
100
AcDbScale
 70
     0
300
1/128" = 1'-0"
140
0.0078125
141
12.0
290
     0
  0
SCALE
  5
5A
102
{ACAD_REACTORS
330
47
102
}
330
47
100
AcDbScale
 70
     0
300
1/64" = 1'-0"
140
0.015625
141
12.0
290
     0
  0
SCALE
  5
5B
102
{ACAD_REACTORS
330
47
102
}
330
47
100
AcDbScale
 70
     0
300
1/32" = 1'-0"
140
0.03125
141
12.0
290
     0
  0
SCALE
  5
5C
102
{ACAD_REACTORS
330
47
102
}
330
47
100
AcDbScale
 70
     0
300
1/16" = 1'-0"
140
0.0625
141
12.0
290
     0
  0
SCALE
  5
5D
102
{ACAD_REACTORS
330
47
102
}
330
47
100
AcDbScale
 70
     0
300
3/32" = 1'-0"
140
0.09375
141
12.0
290
     0
  0
SCALE
  5
5E
102
{ACAD_REACTORS
330
47
102
}
330
47
100
AcDbScale
 70
     0
300
1/8" = 1'-0"
140
0.125
141
12.0
290
     0
  0
SCALE
  5
5F
102
{ACAD_REACTORS
330
47
102
}
330
47
100
AcDbScale
 70
     0
300
3/16" = 1'-0"
140
0.1875
141
12.0
290
     0
  0
SCALE
  5
60
102
{ACAD_REACTORS
330
47
102
}
330
47
100
AcDbScale
 70
     0
300
1/4" = 1'-0"
140
0.25
141
12.0
290
     0
  0
SCALE
  5
61
102
{ACAD_REACTORS
330
47
102
}
330
47
100
AcDbScale
 70
     0
300
3/8" = 1'-0"
140
0.375
141
12.0
290
     0
  0
SCALE
  5
62
102
{ACAD_REACTORS
330
47
102
}
330
47
100
AcDbScale
 70
     0
300
1/2" = 1'-0"
140
0.5
141
12.0
290
     0
  0
SCALE
  5
63
102
{ACAD_REACTORS
330
47
102
}
330
47
100
AcDbScale
 70
     0
300
3/4" = 1'-0"
140
0.75
141
12.0
290
     0
  0
SCALE
  5
64
102
{ACAD_REACTORS
330
47
102
}
330
47
100
AcDbScale
 70
     0
300
1" = 1'-0"
140
1.0
141
12.0
290
     0
  0
SCALE
  5
65
102
{ACAD_REACTORS
330
47
102
}
330
47
100
AcDbScale
 70
     0
300
1-1/2" = 1'-0"
140
1.5
141
12.0
290
     0
  0
SCALE
  5
66
102
{ACAD_REACTORS
330
47
102
}
330
47
100
AcDbScale
 70
     0
300
3" = 1'-0"
140
3.0
141
12.0
290
     0
  0
SCALE
  5
67
102
{ACAD_REACTORS
330
47
102
}
330
47
100
AcDbScale
 70
     0
300
6" = 1'-0"
140
6.0
141
12.0
290
     0
  0
SCALE
  5
68
102
{ACAD_REACTORS
330
47
102
}
330
47
100
AcDbScale
 70
     0
300
1'-0" = 1'-0"
140
12.0
141
12.0
290
     0
  0
TABLESTYLE
  5
6A
102
{ACAD_REACTORS
330
69
102
}
102
{ACAD_XDICTIONARY
360
1D1
102
}
330
69
100
AcDbTableStyle
  3
Standard
 70
     0
 71
     0
 40
0.06
 41
0.06
280
     0
281
     0
  7
Standard
140
0.18
170
     2
 62
     0
 63
   257
283
     0
 90
        4
 91
        0
  1

274
    -2
284
     1
 64
     0
275
    -2
285
     1
 65
     0
276
    -2
286
     1
 66
     0
277
    -2
287
     1
 67
     0
278
    -2
288
     1
 68
     0
279
    -2
289
     1
 69
     0
  7
Standard
140
0.25
170
     5
 62
     0
 63
   257
283
     0
 90
        4
 91
        0
  1

274
    -2
284
     1
 64
     0
275
    -2
285
     1
 65
     0
276
    -2
286
     1
 66
     0
277
    -2
287
     1
 67
     0
278
    -2
288
     1
 68
     0
279
    -2
289
     1
 69
     0
  7
Standard
140
0.18
170
     5
 62
     0
 63
   257
283
     0
 90
        4
 91
        0
  1

274
    -2
284
     1
 64
     0
275
    -2
285
     1
 65
     0
276
    -2
286
     1
 66
     0
277
    -2
287
     1
 67
     0
278
    -2
288
     1
 68
     0
279
    -2
289
     1
 69
     0
  0
VISUALSTYLE
  5
2F
102
{ACAD_REACTORS
330
2A
102
}
330
2A
100
AcDbVisualStyle
  2
2dWireframe
 70
     4
177
     3
291
     0
 70
    58
 90
        0
176
     1
 90
        2
176
     1
 90
        0
176
     1
 90
        0
176
     1
 40
0.6
176
     1
 40
30.0
176
     1
 62
     7
420
 16777215
176
     1
 90
        1
176
     1
 90
        4
176
     1
 62
     7
176
     1
 62
   257
176
     1
 90
        1
176
     1
 90
        1
176
     1
 40
1.0
176
     1
 90
        0
176
     1
 62
   257
176
     1
 40
1.0
176
     1
 90
        1
176
     1
 90
        6
176
     1
 90
        2
176
     1
 62
     7
176
     1
 90
        5
176
     1
 90
        0
176
     1
 90
        0
176
     1
290
     0
176
     1
 90
        1
176
     1
 40
0.0
176
     1
 90
        0
176
     1
290
     1
176
     1
290
     1
176
     1
290
     0
176
     1
290
     0
176
     1
290
     0
176
     1
290
     0
176
     1
290
     0
176
     1
290
     0
176
     1
290
     0
176
     1
 90
       50
176
     1
 40
0.0
176
     1
 40
1.0
176
     1
 90
        0
176
     1
 62
    18
420
        0
176
     1
 90
       50
176
     1
 90
        3
176
     1
 62
     5
420
      255
176
     1
290
     0
176
     1
 90
       50
176
     1
 90
       50
176
     1
 90
       50
176
     1
290
     0
176
     1
 90
       50
176
     1
 62
   256
176
     0
 40
1.0
176
     0
 90
        2
176
     1
  1
strokes_ogs.tif
176
     1
290
     0
176
     1
 40
1.0
176
     1
 40
1.0
176
     1
  0
VISUALSTYLE
  5
32
102
{ACAD_REACTORS
330
2A
102
}
330
2A
100
AcDbVisualStyle
  2
Basic
 70
     7
177
     3
291
     1
 70
    58
 90
        1
176
     1
 90
        0
176
     1
 90
        1
176
     1
 90
        0
176
     1
 40
0.6
176
     1
 40
30.0
176
     1
 62
     7
420
 16777215
176
     1
 90
        0
176
     1
 90
        4
176
     1
 62
     7
176
     1
 62
   257
176
     1
 90
        1
176
     1
 90
        1
176
     1
 40
1.0
176
     1
 90
        8
176
     1
 62
     7
176
     1
 40
1.0
176
     1
 90
        1
176
     1
 90
        6
176
     1
 90
        2
176
     1
 62
     7
176
     1
 90
        5
176
     1
 90
        0
176
     1
 90
        0
176
     1
290
     0
176
     1
 90
        1
176
     1
 40
0.0
176
     1
 90
        0
176
     1
290
     0
176
     1
290
     1
176
     1
290
     1
176
     1
290
     0
176
     1
290
     0
176
     1
290
     0
176
     1
290
     0
176
     1
290
     0
176
     1
290
     0
176
     1
 90
       50
176
     1
 40
0.0
176
     1
 40
1.0
176
     1
 90
        0
176
     1
 62
    18
420
        0
176
     1
 90
       50
176
     1
 90
        3
176
     1
 62
     5
420
      255
176
     1
290
     0
176
     1
 90
       50
176
     1
 90
       50
176
     1
 90
       50
176
     1
290
     0
176
     1
 90
       50
176
     1
 62
   256
176
     0
 40
1.0
176
     0
 90
        2
176
     1
  1
strokes_ogs.tif
176
     1
290
     0
176
     1
 40
1.0
176
     1
 40
1.0
176
     1
  0
VISUALSTYLE
  5
36
102
{ACAD_REACTORS
330
2A
102
}
330
2A
100
AcDbVisualStyle
  2
Brighten
 70
    12
177
     3
291
     1
 70
    58
 90
        2
176
     1
 90
        2
176
     1
 90
        0
176
     1
 90
        0
176
     1
 40
0.6
176
     1
 40
30.0
176
     1
 62
     7
420
 16777215
176
     1
 90
        1
176
     1
 90
        4
176
     1
 62
     7
176
     1
 62
   257
176
     1
 90
        1
176
     1
 90
        1
176
     1
 40
1.0
176
     1
 90
        8
176
     1
 62
     7
176
     1
 40
1.0
176
     1
 90
        1
176
     1
 90
        6
176
     1
 90
        2
176
     1
 62
     7
176
     1
 90
        5
176
     1
 90
        0
176
     1
 90
        0
176
     1
290
     0
176
     1
 90
        1
176
     1
 40
50.0
176
     1
 90
        0
176
     1
290
     0
176
     1
290
     1
176
     1
290
     1
176
     1
290
     0
176
     1
290
     0
176
     1
290
     0
176
     1
290
     0
176
     1
290
     0
176
     1
290
     0
176
     1
 90
       50
176
     1
 40
0.0
176
     1
 40
1.0
176
     1
 90
        0
176
     1
 62
    18
420
        0
176
     1
 90
       50
176
     1
 90
        3
176
     1
 62
     5
420
      255
176
     1
290
     0
176
     1
 90
       50
176
     1
 90
       50
176
     1
 90
       50
176
     1
290
     0
176
     1
 90
       50
176
     1
 62
   256
176
     0
 40
1.0
176
     0
 90
        2
176
     1
  1
strokes_ogs.tif
176
     1
290
     0
176
     1
 40
1.0
176
     1
 40
1.0
176
     1
  0
VISUALSTYLE
  5
3A
102
{ACAD_REACTORS
330
2A
102
}
330
2A
100
AcDbVisualStyle
  2
ColorChange
 70
    16
177
     3
291
     1
 70
    58
 90
        2
176
     1
 90
        2
176
     1
 90
        3
176
     1
 90
        0
176
     1
 40
0.6
176
     1
 40
30.0
176
     1
 62
     8
420
  8421504
176
     1
 90
        1
176
     1
 90
        4
176
     1
 62
     7
176
     1
 62
   257
176
     1
 90
        1
176
     1
 90
        1
176
     1
 40
1.0
176
     1
 90
        8
176
     1
 62
     8
420
  8421504
176
     1
 40
1.0
176
     1
 90
        1
176
     1
 90
        6
176
     1
 90
        2
176
     1
 62
     7
176
     1
 90
        5
176
     1
 90
        0
176
     1
 90
        0
176
     1
290
     0
176
     1
 90
        1
176
     1
 40
0.0
176
     1
 90
        0
176
     1
290
     0
176
     1
290
     1
176
     1
290
     1
176
     1
290
     0
176
     1
290
     0
176
     1
290
     0
176
     1
290
     0
176
     1
290
     0
176
     1
290
     0
176
     1
 90
       50
176
     1
 40
0.0
176
     1
 40
1.0
176
     1
 90
        0
176
     1
 62
    18
420
        0
176
     1
 90
       50
176
     1
 90
        3
176
     1
 62
     5
420
      255
176
     1
290
     0
176
     1
 90
       50
176
     1
 90
       50
176
     1
 90
       50
176
     1
290
     0
176
     1
 90
       50
176
     1
 62
   256
176
     0
 40
1.0
176
     0
 90
        2
176
     1
  1
strokes_ogs.tif
176
     1
290
     0
176
     1
 40
1.0
176
     1
 40
1.0
176
     1
  0
VISUALSTYLE
  5
34
102
{ACAD_REACTORS
330
2A
102
}
330
2A
100
AcDbVisualStyle
  2
Conceptual
 70
     9
177
     3
291
     0
 70
    58
 90
        3
176
     1
 90
        2
176
     1
 90
        0
176
     1
 90
        0
176
     1
 40
0.6
176
     1
 40
30.0
176
     1
 62
     7
420
 16777215
176
     1
 90
        2
176
     1
 90
        2
176
     1
 62
     7
176
     1
 62
   257
176
     1
 90
        1
176
     1
 90
        1
176
     1
 40
179.0
176
     1
 90
        8
176
     1
 62
     7
176
     1
 40
1.0
176
     1
 90
        1
176
     1
 90
        6
176
     1
 90
        2
176
     1
 62
     7
176
     1
 90
        3
176
     1
 90
        0
176
     1
 90
        0
176
     1
290
     0
176
     1
 90
        1
176
     1
 40
0.0
176
     1
 90
        0
176
     1
290
     0
176
     1
290
     1
176
     1
290
     1
176
     1
290
     0
176
     1
290
     0
176
     1
290
     0
176
     1
290
     0
176
     1
290
     0
176
     1
290
     0
176
     1
 90
       50
176
     1
 40
0.0
176
     1
 40
1.0
176
     1
 90
        0
176
     1
 62
    18
420
        0
176
     1
 90
       50
176
     1
 90
        3
176
     1
 62
     5
420
      255
176
     1
290
     0
176
     1
 90
       50
176
     1
 90
       50
176
     1
 90
       50
176
     1
290
     0
176
     1
 90
       50
176
     1
 62
   256
176
     0
 40
1.0
176
     0
 90
        2
176
     1
  1
strokes_ogs.tif
176
     1
290
     0
176
     1
 40
1.0
176
     1
 40
1.0
176
     1
  0
VISUALSTYLE
  5
35
102
{ACAD_REACTORS
330
2A
102
}
330
2A
100
AcDbVisualStyle
  2
Dim
 70
    11
177
     3
291
     1
 70
    58
 90
        2
176
     1
 90
        2
176
     1
 90
        0
176
     1
 90
        0
176
     1
 40
0.6
176
     1
 40
30.0
176
     1
 62
     7
420
 16777215
176
     1
 90
        1
176
     1
 90
        4
176
     1
 62
     7
176
     1
 62
   257
176
     1
 90
        1
176
     1
 90
        1
176
     1
 40
1.0
176
     1
 90
        8
176
     1
 62
     7
176
     1
 40
1.0
176
     1
 90
        1
176
     1
 90
        6
176
     1
 90
        2
176
     1
 62
     7
176
     1
 90
        5
176
     1
 90
        0
176
     1
 90
        0
176
     1
290
     0
176
     1
 90
        1
176
     1
 40
-50.0
176
     1
 90
        0
176
     1
290
     0
176
     1
290
     1
176
     1
290
     1
176
     1
290
     0
176
     1
290
     0
176
     1
290
     0
176
     1
290
     0
176
     1
290
     0
176
     1
290
     0
176
     1
 90
       50
176
     1
 40
0.0
176
     1
 40
1.0
176
     1
 90
        0
176
     1
 62
    18
420
        0
176
     1
 90
       50
176
     1
 90
        3
176
     1
 62
     5
420
      255
176
     1
290
     0
176
     1
 90
       50
176
     1
 90
       50
176
     1
 90
       50
176
     1
290
     0
176
     1
 90
       50
176
     1
 62
   256
176
     0
 40
1.0
176
     0
 90
        2
176
     1
  1
strokes_ogs.tif
176
     1
290
     0
176
     1
 40
1.0
176
     1
 40
1.0
176
     1
  0
VISUALSTYLE
  5
3D
102
{ACAD_REACTORS
330
2A
102
}
330
2A
100
AcDbVisualStyle
  2
EdgeColorOff
 70
    22
177
     3
291
     1
 70
    58
 90
        2
176
     0
 90
        2
176
     0
 90
        0
176
     0
 90
        0
176
     0
 40
0.6
176
     0
 40
30.0
176
     0
 62
     7
420
 16777215
176
     0
 90
        1
176
     0
 90
        4
176
     0
 62
     7
176
     0
 62
   257
176
     0
 90
        1
176
     0
 90
        1
176
     0
 40
1.0
176
     0
 90
        8
176
     2
 62
     7
176
     0
 40
1.0
176
     0
 90
        1
176
     0
 90
        6
176
     0
 90
        2
176
     0
 62
     7
176
     0
 90
        5
176
     0
 90
        0
176
     0
 90
        0
176
     0
290
     0
176
     0
 90
        1
176
     0
 40
0.0
176
     0
 90
        0
176
     0
290
     0
176
     0
290
     1
176
     0
290
     1
176
     0
290
     0
176
     0
290
     0
176
     0
290
     0
176
     0
290
     0
176
     0
290
     0
176
     0
290
     0
176
     0
 90
       50
176
     0
 40
0.0
176
     0
 40
1.0
176
     0
 90
        0
176
     0
 62
    18
420
        0
176
     0
 90
       50
176
     0
 90
        3
176
     0
 62
     5
420
      255
176
     0
290
     0
176
     0
 90
       50
176
     0
 90
       50
176
     0
 90
       50
176
     0
290
     0
176
     0
 90
       50
176
     0
 62
   256
176
     0
 40
1.0
176
     0
 90
        2
176
     0
  1
strokes_ogs.tif
176
     0
290
     0
176
     0
 40
1.0
176
     0
 40
1.0
176
     0
  0
VISUALSTYLE
  5
39
102
{ACAD_REACTORS
330
2A
102
}
330
2A
100
AcDbVisualStyle
  2
Facepattern
 70
    15
177
     3
291
     1
 70
    58
 90
        2
176
     1
 90
        2
176
     1
 90
        0
176
     1
 90
        0
176
     1
 40
0.6
176
     1
 40
30.0
176
     1
 62
     7
420
 16777215
176
     1
 90
        1
176
     1
 90
        4
176
     1
 62
     7
176
     1
 62
   257
176
     1
 90
        1
176
     1
 90
        1
176
     1
 40
1.0
176
     1
 90
        8
176
     1
 62
     7
176
     1
 40
1.0
176
     1
 90
        1
176
     1
 90
        6
176
     1
 90
        2
176
     1
 62
     7
176
     1
 90
        5
176
     1
 90
        0
176
     1
 90
        0
176
     1
290
     0
176
     1
 90
        1
176
     1
 40
0.0
176
     1
 90
        0
176
     1
290
     0
176
     1
290
     1
176
     1
290
     1
176
     1
290
     0
176
     1
290
     0
176
     1
290
     0
176
     1
290
     0
176
     1
290
     0
176
     1
290
     0
176
     1
 90
       50
176
     1
 40
0.0
176
     1
 40
1.0
176
     1
 90
        0
176
     1
 62
    18
420
        0
176
     1
 90
       50
176
     1
 90
        3
176
     1
 62
     5
420
      255
176
     1
290
     0
176
     1
 90
       50
176
     1
 90
       50
176
     1
 90
       50
176
     1
290
     0
176
     1
 90
       50
176
     1
 62
   256
176
     0
 40
1.0
176
     0
 90
        2
176
     1
  1
strokes_ogs.tif
176
     1
290
     0
176
     1
 40
1.0
176
     1
 40
1.0
176
     1
  0
VISUALSTYLE
  5
2B
102
{ACAD_REACTORS
330
2A
102
}
330
2A
100
AcDbVisualStyle
  2
Flat
 70
     0
177
     3
291
     1
 70
    58
 90
        2
176
     1
 90
        1
176
     1
 90
        1
176
     1
 90
        2
176
     1
 40
0.6
176
     1
 40
30.0
176
     1
 62
     7
420
 16777215
176
     1
 90
        0
176
     1
 90
        0
176
     1
 62
     7
176
     1
 62
   257
176
     1
 90
        1
176
     1
 90
        1
176
     1
 40
1.0
176
     1
 90
        8
176
     1
 62
     7
176
     1
 40
1.0
176
     1
 90
        1
176
     1
 90
        6
176
     1
 90
        2
176
     1
 62
     7
176
     1
 90
        5
176
     1
 90
        0
176
     1
 90
        0
176
     1
290
     0
176
     1
 90
       13
176
     1
 40
0.0
176
     1
 90
        0
176
     1
290
     0
176
     1
290
     1
176
     1
290
     1
176
     1
290
     0
176
     1
290
     0
176
     1
290
     0
176
     1
290
     0
176
     1
290
     0
176
     1
290
     0
176
     1
 90
       50
176
     1
 40
0.0
176
     1
 40
1.0
176
     1
 90
        0
176
     1
 62
    18
420
        0
176
     1
 90
       50
176
     1
 90
        3
176
     1
 62
     5
420
      255
176
     1
290
     0
176
     1
 90
       50
176
     1
 90
       50
176
     1
 90
       50
176
     1
290
     0
176
     1
 90
       50
176
     1
 62
   256
176
     0
 40
1.0
176
     0
 90
        2
176
     1
  1
strokes_ogs.tif
176
     1
290
     0
176
     1
 40
1.0
176
     1
 40
1.0
176
     1
  0
VISUALSTYLE
  5
2C
102
{ACAD_REACTORS
330
2A
102
}
330
2A
100
AcDbVisualStyle
  2
FlatWithEdges
 70
     1
177
     3
291
     1
 70
    58
 90
        2
176
     1
 90
        1
176
     1
 90
        1
176
     1
 90
        2
176
     1
 40
0.6
176
     1
 40
30.0
176
     1
 62
     7
420
 16777215
176
     1
 90
        1
176
     1
 90
        0
176
     1
 62
     7
176
     1
 62
   257
176
     1
 90
        1
176
     1
 90
        1
176
     1
 40
1.0
176
     1
 90
        0
176
     1
 62
   257
176
     1
 40
1.0
176
     1
 90
        1
176
     1
 90
        6
176
     1
 90
        2
176
     1
 62
     7
176
     1
 90
        5
176
     1
 90
        0
176
     1
 90
        0
176
     1
290
     0
176
     1
 90
       13
176
     1
 40
0.0
176
     1
 90
        0
176
     1
290
     0
176
     1
290
     1
176
     1
290
     1
176
     1
290
     0
176
     1
290
     0
176
     1
290
     0
176
     1
290
     0
176
     1
290
     0
176
     1
290
     0
176
     1
 90
       50
176
     1
 40
0.0
176
     1
 40
1.0
176
     1
 90
        0
176
     1
 62
    18
420
        0
176
     1
 90
       50
176
     1
 90
        3
176
     1
 62
     5
420
      255
176
     1
290
     0
176
     1
 90
       50
176
     1
 90
       50
176
     1
 90
       50
176
     1
290
     0
176
     1
 90
       50
176
     1
 62
   256
176
     0
 40
1.0
176
     0
 90
        2
176
     1
  1
strokes_ogs.tif
176
     1
290
     0
176
     1
 40
1.0
176
     1
 40
1.0
176
     1
  0
VISUALSTYLE
  5
2D
102
{ACAD_REACTORS
330
2A
102
}
330
2A
100
AcDbVisualStyle
  2
Gouraud
 70
     2
177
     3
291
     1
 70
    58
 90
        2
176
     1
 90
        2
176
     1
 90
        1
176
     1
 90
        2
176
     1
 40
0.6
176
     1
 40
30.0
176
     1
 62
     7
420
 16777215
176
     1
 90
        0
176
     1
 90
        0
176
     1
 62
     7
176
     1
 62
   257
176
     1
 90
        1
176
     1
 90
        1
176
     1
 40
1.0
176
     1
 90
        0
176
     1
 62
     7
176
     1
 40
1.0
176
     1
 90
        1
176
     1
 90
        6
176
     1
 90
        2
176
     1
 62
     7
176
     1
 90
        5
176
     1
 90
        0
176
     1
 90
        0
176
     1
290
     0
176
     1
 90
       13
176
     1
 40
0.0
176
     1
 90
        0
176
     1
290
     0
176
     1
290
     1
176
     1
290
     1
176
     1
290
     0
176
     1
290
     0
176
     1
290
     0
176
     1
290
     0
176
     1
290
     0
176
     1
290
     0
176
     1
 90
       50
176
     1
 40
0.0
176
     1
 40
1.0
176
     1
 90
        0
176
     1
 62
    18
420
        0
176
     1
 90
       50
176
     1
 90
        3
176
     1
 62
     5
420
      255
176
     1
290
     0
176
     1
 90
       50
176
     1
 90
       50
176
     1
 90
       50
176
     1
290
     0
176
     1
 90
       50
176
     1
 62
   256
176
     0
 40
1.0
176
     0
 90
        2
176
     1
  1
strokes_ogs.tif
176
     1
290
     0
176
     1
 40
1.0
176
     1
 40
1.0
176
     1
  0
VISUALSTYLE
  5
2E
102
{ACAD_REACTORS
330
2A
102
}
330
2A
100
AcDbVisualStyle
  2
GouraudWithEdges
 70
     3
177
     3
291
     1
 70
    58
 90
        2
176
     1
 90
        2
176
     1
 90
        1
176
     1
 90
        2
176
     1
 40
0.6
176
     1
 40
30.0
176
     1
 62
     7
420
 16777215
176
     1
 90
        1
176
     1
 90
        0
176
     1
 62
     7
176
     1
 62
   257
176
     1
 90
        1
176
     1
 90
        1
176
     1
 40
1.0
176
     1
 90
        0
176
     1
 62
   257
176
     1
 40
1.0
176
     1
 90
        1
176
     1
 90
        6
176
     1
 90
        2
176
     1
 62
     7
176
     1
 90
        5
176
     1
 90
        0
176
     1
 90
        0
176
     1
290
     0
176
     1
 90
       13
176
     1
 40
0.0
176
     1
 90
        0
176
     1
290
     0
176
     1
290
     1
176
     1
290
     1
176
     1
290
     0
176
     1
290
     0
176
     1
290
     0
176
     1
290
     0
176
     1
290
     0
176
     1
290
     0
176
     1
 90
       50
176
     1
 40
0.0
176
     1
 40
1.0
176
     1
 90
        0
176
     1
 62
    18
420
        0
176
     1
 90
       50
176
     1
 90
        3
176
     1
 62
     5
420
      255
176
     1
290
     0
176
     1
 90
       50
176
     1
 90
       50
176
     1
 90
       50
176
     1
290
     0
176
     1
 90
       50
176
     1
 62
   256
176
     0
 40
1.0
176
     0
 90
        2
176
     1
  1
strokes_ogs.tif
176
     1
290
     0
176
     1
 40
1.0
176
     1
 40
1.0
176
     1
  0
VISUALSTYLE
  5
31
102
{ACAD_REACTORS
330
2A
102
}
330
2A
100
AcDbVisualStyle
  2
Hidden
 70
     6
177
     3
291
     0
 70
    58
 90
        1
176
     1
 90
        2
176
     1
 90
        2
176
     1
 90
        0
176
     1
 40
0.6
176
     1
 40
30.0
176
     1
 62
     7
420
 16777215
176
     1
 90
        2
176
     1
 90
        2
176
     1
 62
     7
176
     1
 62
   257
176
     1
 90
        2
176
     1
 90
        1
176
     1
 40
40.0
176
     1
 90
        0
176
     1
 62
   257
176
     1
 40
1.0
176
     1
 90
        1
176
     1
 90
        6
176
     1
 90
        2
176
     1
 62
     7
176
     1
 90
        3
176
     1
 90
        0
176
     1
 90
        0
176
     1
290
     0
176
     1
 90
        1
176
     1
 40
0.0
176
     1
 90
        0
176
     1
290
     0
176
     1
290
     1
176
     1
290
     1
176
     1
290
     0
176
     1
290
     0
176
     1
290
     0
176
     1
290
     0
176
     1
290
     0
176
     1
290
     0
176
     1
 90
       50
176
     1
 40
0.0
176
     1
 40
1.0
176
     1
 90
        0
176
     1
 62
    18
420
        0
176
     1
 90
       50
176
     1
 90
        3
176
     1
 62
     5
420
      255
176
     1
290
     0
176
     1
 90
       50
176
     1
 90
       50
176
     1
 90
       50
176
     1
290
     0
176
     1
 90
       50
176
     1
 62
   256
176
     0
 40
1.0
176
     0
 90
        2
176
     1
  1
strokes_ogs.tif
176
     1
290
     0
176
     1
 40
1.0
176
     1
 40
1.0
176
     1
  0
VISUALSTYLE
  5
3B
102
{ACAD_REACTORS
330
2A
102
}
330
2A
100
AcDbVisualStyle
  2
JitterOff
 70
    20
177
     3
291
     1
 70
    58
 90
        2
176
     0
 90
        2
176
     0
 90
        0
176
     0
 90
        0
176
     0
 40
0.6
176
     0
 40
30.0
176
     0
 62
     7
420
 16777215
176
     0
 90
        1
176
     0
 90
        4
176
     0
 62
     7
176
     0
 62
   257
176
     0
 90
        1
176
     0
 90
        1
176
     0
 40
1.0
176
     0
 90
       10
176
     2
 62
     7
176
     0
 40
1.0
176
     0
 90
        1
176
     0
 90
        6
176
     0
 90
        2
176
     0
 62
     7
176
     0
 90
        5
176
     0
 90
        0
176
     0
 90
        0
176
     0
290
     0
176
     0
 90
        1
176
     0
 40
0.0
176
     0
 90
        0
176
     0
290
     0
176
     0
290
     1
176
     0
290
     1
176
     0
290
     0
176
     0
290
     0
176
     0
290
     0
176
     0
290
     0
176
     0
290
     0
176
     0
290
     0
176
     0
 90
       50
176
     0
 40
0.0
176
     0
 40
1.0
176
     0
 90
        0
176
     0
 62
    18
420
        0
176
     0
 90
       50
176
     0
 90
        3
176
     0
 62
     5
420
      255
176
     0
290
     0
176
     0
 90
       50
176
     0
 90
       50
176
     0
 90
       50
176
     0
290
     0
176
     0
 90
       50
176
     0
 62
   256
176
     0
 40
1.0
176
     0
 90
        2
176
     0
  1
strokes_ogs.tif
176
     0
290
     0
176
     0
 40
1.0
176
     0
 40
1.0
176
     0
  0
VISUALSTYLE
  5
38
102
{ACAD_REACTORS
330
2A
102
}
330
2A
100
AcDbVisualStyle
  2
Linepattern
 70
    14
177
     3
291
     1
 70
    58
 90
        2
176
     1
 90
        2
176
     1
 90
        0
176
     1
 90
        0
176
     1
 40
0.6
176
     1
 40
30.0
176
     1
 62
     7
420
 16777215
176
     1
 90
        1
176
     1
 90
        4
176
     1
 62
     7
176
     1
 62
   257
176
     1
 90
        7
176
     1
 90
        7
176
     1
 40
1.0
176
     1
 90
        8
176
     1
 62
     7
176
     1
 40
1.0
176
     1
 90
        1
176
     1
 90
        6
176
     1
 90
        2
176
     1
 62
     7
176
     1
 90
        5
176
     1
 90
        0
176
     1
 90
        0
176
     1
290
     0
176
     1
 90
        1
176
     1
 40
0.0
176
     1
 90
        0
176
     1
290
     0
176
     1
290
     1
176
     1
290
     1
176
     1
290
     0
176
     1
290
     0
176
     1
290
     0
176
     1
290
     0
176
     1
290
     0
176
     1
290
     0
176
     1
 90
       50
176
     1
 40
0.0
176
     1
 40
1.0
176
     1
 90
        0
176
     1
 62
    18
420
        0
176
     1
 90
       50
176
     1
 90
        3
176
     1
 62
     5
420
      255
176
     1
290
     0
176
     1
 90
       50
176
     1
 90
       50
176
     1
 90
       50
176
     1
290
     0
176
     1
 90
       50
176
     1
 62
   256
176
     0
 40
1.0
176
     0
 90
        2
176
     1
  1
strokes_ogs.tif
176
     1
290
     0
176
     1
 40
1.0
176
     1
 40
1.0
176
     1
  0
VISUALSTYLE
  5
3C
102
{ACAD_REACTORS
330
2A
102
}
330
2A
100
AcDbVisualStyle
  2
OverhangOff
 70
    21
177
     3
291
     1
 70
    58
 90
        2
176
     0
 90
        2
176
     0
 90
        0
176
     0
 90
        0
176
     0
 40
0.6
176
     0
 40
30.0
176
     0
 62
     7
420
 16777215
176
     0
 90
        1
176
     0
 90
        4
176
     0
 62
     7
176
     0
 62
   257
176
     0
 90
        1
176
     0
 90
        1
176
     0
 40
1.0
176
     0
 90
        9
176
     2
 62
     7
176
     0
 40
1.0
176
     0
 90
        1
176
     0
 90
        6
176
     0
 90
        2
176
     0
 62
     7
176
     0
 90
        5
176
     0
 90
        0
176
     0
 90
        0
176
     0
290
     0
176
     0
 90
        1
176
     0
 40
0.0
176
     0
 90
        0
176
     0
290
     0
176
     0
290
     1
176
     0
290
     1
176
     0
290
     0
176
     0
290
     0
176
     0
290
     0
176
     0
290
     0
176
     0
290
     0
176
     0
290
     0
176
     0
 90
       50
176
     0
 40
0.0
176
     0
 40
1.0
176
     0
 90
        0
176
     0
 62
    18
420
        0
176
     0
 90
       50
176
     0
 90
        3
176
     0
 62
     5
420
      255
176
     0
290
     0
176
     0
 90
       50
176
     0
 90
       50
176
     0
 90
       50
176
     0
290
     0
176
     0
 90
       50
176
     0
 62
   256
176
     0
 40
1.0
176
     0
 90
        2
176
     0
  1
strokes_ogs.tif
176
     0
290
     0
176
     0
 40
1.0
176
     0
 40
1.0
176
     0
  0
VISUALSTYLE
  5
33
102
{ACAD_REACTORS
330
2A
102
}
330
2A
100
AcDbVisualStyle
  2
Realistic
 70
     8
177
     3
291
     0
 70
    58
 90
        2
176
     1
 90
        3
176
     1
 90
        0
176
     1
 90
        2
176
     1
 40
0.6
176
     1
 40
30.0
176
     1
 62
     7
420
 16777215
176
     1
 90
        0
176
     1
 90
        0
176
     1
 62
     7
176
     1
 62
   257
176
     1
 90
        1
176
     1
 90
        1
176
     1
 40
1.0
176
     1
 90
        8
176
     1
 62
   257
176
     1
 40
1.0
176
     1
 90
        1
176
     1
 90
        6
176
     1
 90
        2
176
     1
 62
     7
176
     1
 90
        3
176
     1
 90
        0
176
     1
 90
        0
176
     1
290
     0
176
     1
 90
       13
176
     1
 40
0.0
176
     1
 90
        0
176
     1
290
     0
176
     1
290
     1
176
     1
290
     1
176
     1
290
     0
176
     1
290
     0
176
     1
290
     0
176
     1
290
     0
176
     1
290
     0
176
     1
290
     0
176
     1
 90
       50
176
     1
 40
0.0
176
     1
 40
1.0
176
     1
 90
        0
176
     1
 62
    18
420
        0
176
     1
 90
       50
176
     1
 90
        3
176
     1
 62
     5
420
      255
176
     1
290
     0
176
     1
 90
       50
176
     1
 90
       50
176
     1
 90
       50
176
     1
290
     0
176
     1
 90
       50
176
     1
 62
   256
176
     0
 40
1.0
176
     0
 90
        2
176
     1
  1
strokes_ogs.tif
176
     1
290
     0
176
     1
 40
1.0
176
     1
 40
1.0
176
     1
  0
VISUALSTYLE
  5
42
102
{ACAD_REACTORS
330
2A
102
}
330
2A
100
AcDbVisualStyle
  2
Shaded
 70
    27
177
     3
291
     0
 70
    58
 90
        2
176
     1
 90
        2
176
     1
 90
        1
176
     1
 90
        2
176
     1
 40
0.6
176
     1
 40
30.0
176
     1
 62
     7
420
 16777215
176
     1
 90
        0
176
     1
 90
        4
176
     1
 62
     7
176
     1
 62
   257
176
     1
 90
        1
176
     1
 90
        1
176
     1
 40
1.0
176
     1
 90
        8
176
     1
 62
   257
176
     1
 40
1.0
176
     1
 90
        1
176
     1
 90
        6
176
     1
 90
        2
176
     1
 62
     8
420
  7895160
176
     1
 90
        3
176
     1
 90
        0
176
     1
 90
        0
176
     1
290
     0
176
     1
 90
        5
176
     1
 40
0.0
176
     1
 90
        0
176
     1
290
     0
176
     1
290
     1
176
     1
290
     1
176
     1
290
     0
176
     1
290
     0
176
     1
290
     0
176
     1
290
     0
176
     1
290
     0
176
     1
290
     0
176
     1
 90
       50
176
     1
 40
0.0
176
     1
 40
1.0
176
     1
 90
        0
176
     1
 62
    18
420
        0
176
     1
 90
       50
176
     1
 90
        3
176
     1
 62
     5
420
      255
176
     1
290
     0
176
     1
 90
       50
176
     1
 90
       50
176
     1
 90
       50
176
     1
290
     0
176
     1
 90
       50
176
     1
 62
   256
176
     0
 40
1.0
176
     0
 90
        2
176
     1
  1
strokes_ogs.tif
176
     1
290
     0
176
     1
 40
1.0
176
     1
 40
1.0
176
     1
  0
VISUALSTYLE
  5
41
102
{ACAD_REACTORS
330
2A
102
}
330
2A
100
AcDbVisualStyle
  2
Shaded with edges
 70
    26
177
     3
291
     0
 70
    58
 90
        2
176
     1
 90
        2
176
     1
 90
        1
176
     1
 90
        2
176
     1
 40
0.6
176
     1
 40
30.0
176
     1
 62
     7
420
 16777215
176
     1
 90
        1
176
     1
 90
       10
176
     1
 62
     7
176
     1
 62
   257
176
     1
 90
        2
176
     1
 90
        1
176
     1
 40
1.0
176
     1
 90
        8
176
     1
 62
   257
176
     1
 40
1.0
176
     1
 90
        1
176
     1
 90
        6
176
     1
 90
        2
176
     1
 62
     7
176
     1
 90
        3
176
     1
 90
        0
176
     1
 90
        0
176
     1
290
     0
176
     1
 90
        5
176
     1
 40
0.0
176
     1
 90
        0
176
     1
290
     0
176
     1
290
     1
176
     1
290
     1
176
     1
290
     0
176
     1
290
     0
176
     1
290
     0
176
     1
290
     0
176
     1
290
     0
176
     1
290
     0
176
     1
 90
       50
176
     1
 40
0.0
176
     1
 40
1.0
176
     1
 90
        0
176
     1
 62
    18
420
        0
176
     1
 90
       50
176
     1
 90
        3
176
     1
 62
     5
420
      255
176
     1
290
     0
176
     1
 90
       50
176
     1
 90
       50
176
     1
 90
       50
176
     1
290
     0
176
     1
 90
       50
176
     1
 62
   256
176
     0
 40
1.0
176
     0
 90
        2
176
     1
  1
strokes_ogs.tif
176
     1
290
     0
176
     1
 40
1.0
176
     1
 40
1.0
176
     1
  0
VISUALSTYLE
  5
3E
102
{ACAD_REACTORS
330
2A
102
}
330
2A
100
AcDbVisualStyle
  2
Shades of Gray
 70
    23
177
     3
291
     0
 70
    58
 90
        2
176
     1
 90
        2
176
     1
 90
        3
176
     1
 90
        0
176
     1
 40
0.6
176
     1
 40
30.0
176
     1
 62
     7
420
 16777215
176
     1
 90
        2
176
     1
 90
        2
176
     1
 62
     7
176
     1
 62
     7
176
     1
 90
        1
176
     1
 90
        1
176
     1
 40
40.0
176
     1
 90
        8
176
     1
 62
     7
176
     1
 40
1.0
176
     1
 90
        1
176
     1
 90
        6
176
     1
 90
        2
176
     1
 62
     7
176
     1
 90
        3
176
     1
 90
        0
176
     1
 90
        0
176
     1
290
     0
176
     1
 90
        1
176
     1
 40
0.0
176
     1
 90
        0
176
     1
290
     0
176
     1
290
     1
176
     1
290
     1
176
     1
290
     0
176
     1
290
     0
176
     1
290
     0
176
     1
290
     0
176
     1
290
     0
176
     1
290
     0
176
     1
 90
       50
176
     1
 40
0.0
176
     1
 40
1.0
176
     1
 90
        0
176
     1
 62
    18
420
        0
176
     1
 90
       50
176
     1
 90
        3
176
     1
 62
     5
420
      255
176
     1
290
     0
176
     1
 90
       50
176
     1
 90
       50
176
     1
 90
       50
176
     1
290
     0
176
     1
 90
       50
176
     1
 62
   256
176
     0
 40
1.0
176
     0
 90
        2
176
     1
  1
strokes_ogs.tif
176
     1
290
     0
176
     1
 40
1.0
176
     1
 40
1.0
176
     1
  0
VISUALSTYLE
  5
3F
102
{ACAD_REACTORS
330
2A
102
}
330
2A
100
AcDbVisualStyle
  2
Sketchy
 70
    24
177
     3
291
     0
 70
    58
 90
        1
176
     1
 90
        2
176
     1
 90
        2
176
     1
 90
        0
176
     1
 40
0.6
176
     1
 40
30.0
176
     1
 62
     7
420
 16777215
176
     1
 90
        2
176
     1
 90
        2
176
     1
 62
     7
176
     1
 62
     7
176
     1
 90
        1
176
     1
 90
        1
176
     1
 40
40.0
176
     1
 90
       11
176
     1
 62
     7
176
     1
 40
1.0
176
     1
 90
        1
176
     1
 90
        6
176
     1
 90
        2
176
     1
 62
     7
176
     1
 90
        6
176
     1
 90
        0
176
     1
 90
        0
176
     1
290
     0
176
     1
 90
        1
176
     1
 40
0.0
176
     1
 90
        0
176
     1
290
     0
176
     1
290
     1
176
     1
290
     1
176
     1
290
     0
176
     1
290
     0
176
     1
290
     0
176
     1
290
     0
176
     1
290
     0
176
     1
290
     0
176
     1
 90
       50
176
     1
 40
0.0
176
     1
 40
1.0
176
     1
 90
        0
176
     1
 62
    18
420
        0
176
     1
 90
       50
176
     1
 90
        3
176
     1
 62
     5
420
      255
176
     1
290
     0
176
     1
 90
       50
176
     1
 90
       50
176
     1
 90
       50
176
     1
290
     0
176
     1
 90
       50
176
     1
 62
   256
176
     0
 40
1.0
176
     0
 90
        2
176
     1
  1
strokes_ogs.tif
176
     1
290
     0
176
     1
 40
1.0
176
     1
 40
1.0
176
     1
  0
VISUALSTYLE
  5
37
102
{ACAD_REACTORS
330
2A
102
}
330
2A
100
AcDbVisualStyle
  2
Thicken
 70
    13
177
     3
291
     1
 70
    58
 90
        2
176
     1
 90
        2
176
     1
 90
        0
176
     1
 90
        0
176
     1
 40
0.6
176
     1
 40
30.0
176
     1
 62
     7
420
 16777215
176
     1
 90
        1
176
     1
 90
        4
176
     1
 62
     7
176
     1
 62
   257
176
     1
 90
        1
176
     1
 90
        1
176
     1
 40
1.0
176
     1
 90
       12
176
     1
 62
     7
176
     1
 40
1.0
176
     1
 90
        1
176
     1
 90
        6
176
     1
 90
        2
176
     1
 62
     7
176
     1
 90
        5
176
     1
 90
        0
176
     1
 90
        0
176
     1
290
     0
176
     1
 90
        1
176
     1
 40
0.0
176
     1
 90
        0
176
     1
290
     0
176
     1
290
     1
176
     1
290
     1
176
     1
290
     0
176
     1
290
     0
176
     1
290
     0
176
     1
290
     0
176
     1
290
     0
176
     1
290
     0
176
     1
 90
       50
176
     1
 40
0.0
176
     1
 40
1.0
176
     1
 90
        0
176
     1
 62
    18
420
        0
176
     1
 90
       50
176
     1
 90
        3
176
     1
 62
     5
420
      255
176
     1
290
     0
176
     1
 90
       50
176
     1
 90
       50
176
     1
 90
       50
176
     1
290
     0
176
     1
 90
       50
176
     1
 62
   256
176
     0
 40
1.0
176
     0
 90
        2
176
     1
  1
strokes_ogs.tif
176
     1
290
     0
176
     1
 40
1.0
176
     1
 40
1.0
176
     1
  0
VISUALSTYLE
  5
30
102
{ACAD_REACTORS
330
2A
102
}
330
2A
100
AcDbVisualStyle
  2
Wireframe
 70
     5
177
     3
291
     0
 70
    58
 90
        0
176
     1
 90
        2
176
     1
 90
        0
176
     1
 90
        0
176
     1
 40
0.6
176
     1
 40
30.0
176
     1
 62
     7
420
 16777215
176
     1
 90
        1
176
     1
 90
        4
176
     1
 62
     7
176
     1
 62
   257
176
     1
 90
        1
176
     1
 90
        1
176
     1
 40
1.0
176
     1
 90
        0
176
     1
 62
   257
176
     1
 40
1.0
176
     1
 90
        1
176
     1
 90
        6
176
     1
 90
        2
176
     1
 62
     7
176
     1
 90
        3
176
     1
 90
        0
176
     1
 90
        0
176
     1
290
     0
176
     1
 90
        1
176
     1
 40
0.0
176
     1
 90
        0
176
     1
290
     0
176
     1
290
     1
176
     1
290
     1
176
     1
290
     0
176
     1
290
     0
176
     1
290
     0
176
     1
290
     0
176
     1
290
     0
176
     1
290
     0
176
     1
 90
       50
176
     1
 40
0.0
176
     1
 40
1.0
176
     1
 90
        0
176
     1
 62
    18
420
        0
176
     1
 90
       50
176
     1
 90
        3
176
     1
 62
     5
420
      255
176
     1
290
     0
176
     1
 90
       50
176
     1
 90
       50
176
     1
 90
       50
176
     1
290
     0
176
     1
 90
       50
176
     1
 62
   256
176
     0
 40
1.0
176
     0
 90
        2
176
     1
  1
strokes_ogs.tif
176
     1
290
     0
176
     1
 40
1.0
176
     1
 40
1.0
176
     1
  0
VISUALSTYLE
  5
40
102
{ACAD_REACTORS
330
2A
102
}
330
2A
100
AcDbVisualStyle
  2
X-Ray
 70
    25
177
     3
291
     0
 70
    58
 90
        2
176
     1
 90
        2
176
     1
 90
        1
176
     1
 90
        1
176
     1
 40
0.5
176
     1
 40
30.0
176
     1
 62
     7
420
 16777215
176
     1
 90
        1
176
     1
 90
        0
176
     1
 62
     7
176
     1
 62
   257
176
     1
 90
        1
176
     1
 90
        1
176
     1
 40
1.0
176
     1
 90
        8
176
     1
 62
     7
176
     1
 40
1.0
176
     1
 90
        1
176
     1
 90
        6
176
     1
 90
        2
176
     1
 62
     7
176
     1
 90
        3
176
     1
 90
        0
176
     1
 90
        0
176
     1
290
     0
176
     1
 90
       13
176
     1
 40
0.0
176
     1
 90
        0
176
     1
290
     0
176
     1
290
     1
176
     1
290
     1
176
     1
290
     0
176
     1
290
     0
176
     1
290
     0
176
     1
290
     0
176
     1
290
     0
176
     1
290
     0
176
     1
 90
       50
176
     1
 40
0.0
176
     1
 40
1.0
176
     1
 90
        0
176
     1
 62
    18
420
        0
176
     1
 90
       50
176
     1
 90
        3
176
     1
 62
     5
420
      255
176
     1
290
     0
176
     1
 90
       50
176
     1
 90
       50
176
     1
 90
       50
176
     1
290
     0
176
     1
 90
       50
176
     1
 62
   256
176
     0
 40
1.0
176
     0
 90
        2
176
     1
  1
strokes_ogs.tif
176
     1
290
     0
176
     1
 40
1.0
176
     1
 40
1.0
176
     1
  0
DICTIONARYVAR
  5
1D0
102
{ACAD_REACTORS
330
1CF
102
}
330
1CF
100
DictionaryVariables
280
     0
  1
1:1
  0
DICTIONARYVAR
  5
1D5
102
{ACAD_REACTORS
330
1CF
102
}
330
1CF
100
DictionaryVariables
280
     0
  1
Standard
  0
DICTIONARYVAR
  5
1D4
102
{ACAD_REACTORS
330
1CF
102
}
330
1CF
100
DictionaryVariables
280
     0
  1
Standard
  0
DICTIONARY
  5
1D1
330
6A
100
AcDbDictionary
280
     1
281
     1
  3
ACAD_ROUNDTRIP_2008_TABLESTYLE_CELLSTYLEMAP
360
1D2
  0
CELLSTYLEMAP
  5
1D2
102
{ACAD_REACTORS
330
1D1
102
}
330
1D1
100
AcDbCellStyleMap
 90
        3
300
CELLSTYLE
  1
TABLEFORMAT_BEGIN
 90
        5
170
     1
 91
        0
 92
    32768
 62
   257
 93
        1
300
CONTENTFORMAT
  1
CONTENTFORMAT_BEGIN
 90
        0
 91
        0
 92
        4
 93
        0
300

 40
0.0
140
1.0
 94
        5
 62
     0
340
11
144
0.25
309
CONTENTFORMAT_END
171
     1
301
MARGIN
  1
CELLMARGIN_BEGIN
 40
0.06
 40
0.06
 40
0.06
 40
0.06
 40
0.06
 40
0.06
309
CELLMARGIN_END
 94
        6
 95
        1
302
GRIDFORMAT
  1
GRIDFORMAT_BEGIN
 90
        0
 91
        1
 62
     0
 92
       -2
340
14
 93
        0
 40
0.045
309
GRIDFORMAT_END
 95
        2
302
GRIDFORMAT
  1
GRIDFORMAT_BEGIN
 90
        0
 91
        1
 62
     0
 92
       -2
340
14
 93
        0
 40
0.045
309
GRIDFORMAT_END
 95
        4
302
GRIDFORMAT
  1
GRIDFORMAT_BEGIN
 90
        0
 91
        1
 62
     0
 92
       -2
340
14
 93
        0
 40
0.045
309
GRIDFORMAT_END
 95
        8
302
GRIDFORMAT
  1
GRIDFORMAT_BEGIN
 90
        0
 91
        1
 62
     0
 92
       -2
340
14
 93
        0
 40
0.045
309
GRIDFORMAT_END
 95
       16
302
GRIDFORMAT
  1
GRIDFORMAT_BEGIN
 90
        0
 91
        1
 62
     0
 92
       -2
340
14
 93
        0
 40
0.045
309
GRIDFORMAT_END
 95
       32
302
GRIDFORMAT
  1
GRIDFORMAT_BEGIN
 90
        0
 91
        1
 62
     0
 92
       -2
340
14
 93
        0
 40
0.045
309
GRIDFORMAT_END
309
TABLEFORMAT_END
  1
CELLSTYLE_BEGIN
 90
        1
 91
        1
300
_TITLE
309
CELLSTYLE_END
300
CELLSTYLE
  1
TABLEFORMAT_BEGIN
 90
        5
170
     1
 91
        0
 92
        0
 62
   257
 93
        1
300
CONTENTFORMAT
  1
CONTENTFORMAT_BEGIN
 90
        0
 91
        0
 92
        4
 93
        0
300

 40
0.0
140
1.0
 94
        5
 62
     0
340
11
144
0.18
309
CONTENTFORMAT_END
171
     1
301
MARGIN
  1
CELLMARGIN_BEGIN
 40
0.06
 40
0.06
 40
0.06
 40
0.06
 40
0.06
 40
0.06
309
CELLMARGIN_END
 94
        6
 95
        1
302
GRIDFORMAT
  1
GRIDFORMAT_BEGIN
 90
        0
 91
        1
 62
     0
 92
       -2
340
14
 93
        0
 40
0.045
309
GRIDFORMAT_END
 95
        2
302
GRIDFORMAT
  1
GRIDFORMAT_BEGIN
 90
        0
 91
        1
 62
     0
 92
       -2
340
14
 93
        0
 40
0.045
309
GRIDFORMAT_END
 95
        4
302
GRIDFORMAT
  1
GRIDFORMAT_BEGIN
 90
        0
 91
        1
 62
     0
 92
       -2
340
14
 93
        0
 40
0.045
309
GRIDFORMAT_END
 95
        8
302
GRIDFORMAT
  1
GRIDFORMAT_BEGIN
 90
        0
 91
        1
 62
     0
 92
       -2
340
14
 93
        0
 40
0.045
309
GRIDFORMAT_END
 95
       16
302
GRIDFORMAT
  1
GRIDFORMAT_BEGIN
 90
        0
 91
        1
 62
     0
 92
       -2
340
14
 93
        0
 40
0.045
309
GRIDFORMAT_END
 95
       32
302
GRIDFORMAT
  1
GRIDFORMAT_BEGIN
 90
        0
 91
        1
 62
     0
 92
       -2
340
14
 93
        0
 40
0.045
309
GRIDFORMAT_END
309
TABLEFORMAT_END
  1
CELLSTYLE_BEGIN
 90
        2
 91
        1
300
_HEADER
309
CELLSTYLE_END
300
CELLSTYLE
  1
TABLEFORMAT_BEGIN
 90
        5
170
     1
 91
        0
 92
        0
 62
   257
 93
        1
300
CONTENTFORMAT
  1
CONTENTFORMAT_BEGIN
 90
        0
 91
        0
 92
        4
 93
        0
300

 40
0.0
140
1.0
 94
        2
 62
     0
340
11
144
0.18
309
CONTENTFORMAT_END
171
     1
301
MARGIN
  1
CELLMARGIN_BEGIN
 40
0.06
 40
0.06
 40
0.06
 40
0.06
 40
0.06
 40
0.06
309
CELLMARGIN_END
 94
        6
 95
        1
302
GRIDFORMAT
  1
GRIDFORMAT_BEGIN
 90
        0
 91
        1
 62
     0
 92
       -2
340
14
 93
        0
 40
0.045
309
GRIDFORMAT_END
 95
        2
302
GRIDFORMAT
  1
GRIDFORMAT_BEGIN
 90
        0
 91
        1
 62
     0
 92
       -2
340
14
 93
        0
 40
0.045
309
GRIDFORMAT_END
 95
        4
302
GRIDFORMAT
  1
GRIDFORMAT_BEGIN
 90
        0
 91
        1
 62
     0
 92
       -2
340
14
 93
        0
 40
0.045
309
GRIDFORMAT_END
 95
        8
302
GRIDFORMAT
  1
GRIDFORMAT_BEGIN
 90
        0
 91
        1
 62
     0
 92
       -2
340
14
 93
        0
 40
0.045
309
GRIDFORMAT_END
 95
       16
302
GRIDFORMAT
  1
GRIDFORMAT_BEGIN
 90
        0
 91
        1
 62
     0
 92
       -2
340
14
 93
        0
 40
0.045
309
GRIDFORMAT_END
 95
       32
302
GRIDFORMAT
  1
GRIDFORMAT_BEGIN
 90
        0
 91
        1
 62
     0
 92
       -2
340
14
 93
        0
 40
0.045
309
GRIDFORMAT_END
309
TABLEFORMAT_END
  1
CELLSTYLE_BEGIN
 90
        3
 91
        2
300
_DATA
309
CELLSTYLE_END
  0
ENDSEC
  0
EOF