0
SECTION
  2
HEADER
  9
$ACADVER
  1
AC1027
  9
$ACADMAINTVER
 70
     8
  9
$DWGCODEPAGE
  3
ANSI_1252
  9
$REQUIREDVERSIONS
160
                 0
  9
$COMMENTS
  1
File was created by Cadenas
  9
$CUSTOMPROPERTYTAG
  1
NN
  9
$CUSTOMPROPERTY
  1
Set Screw Intermediate Duty Wide Slot Take Up Inch
  9
$CUSTOMPROPERTYTAG
  1
NT
  9
$CUSTOMPROPERTY
  1
VSC Intermediate Duty Wide Slot Take-Up Bearings
  9
$CUSTOMPROPERTYTAG
  1
NB
  9
$CUSTOMPROPERTY
  1
125552
  9
$CUSTOMPROPERTYTAG
  1
NBSYN
  9
$CUSTOMPROPERTY
  1
$PN.
  9
$CUSTOMPROPERTYTAG
  1
LINA
  9
$CUSTOMPROPERTY
  1
125552
  9
$CUSTOMPROPERTYTAG
  1
RS
  9
$CUSTOMPROPERTY
  1
205
  9
$CUSTOMPROPERTYTAG
  1
SS
  9
$CUSTOMPROPERTY
  1
1
  9
$CUSTOMPROPERTYTAG
  1
PN
  9
$CUSTOMPROPERTY
  1
125552
  9
$CUSTOMPROPERTYTAG
  1
DESCRIPTION
  9
$CUSTOMPROPERTY
  1
WSTU-VSC-100
  9
$CUSTOMPROPERTYTAG
  1
WEIGHT
  9
$CUSTOMPROPERTY
  1
2.0
  9
$CUSTOMPROPERTYTAG
  1
A
  9
$CUSTOMPROPERTY
  1
1.34
  9
$CUSTOMPROPERTYTAG
  1
B
  9
$CUSTOMPROPERTY
  1
3.81
  9
$CUSTOMPROPERTYTAG
  1
C
  9
$CUSTOMPROPERTY
  1
0.531
  9
$CUSTOMPROPERTYTAG
  1
D
  9
$CUSTOMPROPERTY
  1
2.00
  9
$CUSTOMPROPERTYTAG
  1
E
  9
$CUSTOMPROPERTY
  1
2.44
  9
$CUSTOMPROPERTYTAG
  1
F
  9
$CUSTOMPROPERTY
  1
5/8
  9
$CUSTOMPROPERTYTAG
  1
G
  9
$CUSTOMPROPERTY
  1
0.38
  9
$CUSTOMPROPERTYTAG
  1
H
  9
$CUSTOMPROPERTY
  1
0.63
  9
$CUSTOMPROPERTYTAG
  1
J
  9
$CUSTOMPROPERTY
  1
2.00
  9
$CUSTOMPROPERTYTAG
  1
K
  9
$CUSTOMPROPERTY
  1
1.31
  9
$CUSTOMPROPERTYTAG
  1
L
  9
$CUSTOMPROPERTY
  1
1.32
  9
$CUSTOMPROPERTYTAG
  1
M
  9
$CUSTOMPROPERTY
  1
2.985/3.015
  9
$CUSTOMPROPERTYTAG
  1
N
  9
$CUSTOMPROPERTY
  1
3.63
  9
$CUSTOMPROPERTYTAG
  1
R
  9
$CUSTOMPROPERTY
  1
0.56
  9
$CUSTOMPROPERTYTAG
  1
S
  9
$CUSTOMPROPERTY
  1
0.78
  9
$CUSTOMPROPERTYTAG
  1
T
  9
$CUSTOMPROPERTY
  1
1.38
  9
$CUSTOMPROPERTYTAG
  1
COMPANY
  9
$CUSTOMPROPERTY
  1
baldor
  9
$INSBASE
 10
0.0
 20
0.0
 30
0.0
  9
$EXTMIN
 10
1.000000000000000E+20
 20
1.000000000000000E+20
 30
1.000000000000000E+20
  9
$EXTMAX
 10
-1.000000000000000E+20
 20
-1.000000000000000E+20
 30
-1.000000000000000E+20
  9
$LIMMIN
 10
0.0
 20
0.0
  9
$LIMMAX
 10
12.0
 20
9.0
  9
$ORTHOMODE
 70
     0
  9
$REGENMODE
 70
     1
  9
$FILLMODE
 70
     1
  9
$QTEXTMODE
 70
     0
  9
$MIRRTEXT
 70
     1
  9
$LTSCALE
 40
1.0
  9
$ATTMODE
 70
     1
  9
$TEXTSIZE
 40
0.2
  9
$TRACEWID
 40
0.05
  9
$TEXTSTYLE
  7
Standard
  9
$CLAYER
  8
0
  9
$CELTYPE
  6
ByLayer
  9
$CECOLOR
 62
   256
  9
$CELTSCALE
 40
1.0
  9
$DISPSILH
 70
     0
  9
$DIMSCALE
 40
1.0
  9
$DIMASZ
 40
0.18
  9
$DIMEXO
 40
0.0625
  9
$DIMDLI
 40
0.38
  9
$DIMRND
 40
0.0
  9
$DIMDLE
 40
0.0
  9
$DIMEXE
 40
0.18
  9
$DIMTP
 40
0.0
  9
$DIMTM
 40
0.0
  9
$DIMTXT
 40
0.18
  9
$DIMCEN
 40
0.09
  9
$DIMTSZ
 40
0.0
  9
$DIMTOL
 70
     0
  9
$DIMLIM
 70
     0
  9
$DIMTIH
 70
     1
  9
$DIMTOH
 70
     1
  9
$DIMSE1
 70
     0
  9
$DIMSE2
 70
     0
  9
$DIMTAD
 70
     0
  9
$DIMZIN
 70
     0
  9
$DIMBLK
  1

  9
$DIMASO
 70
     1
  9
$DIMSHO
 70
     1
  9
$DIMPOST
  1

  9
$DIMAPOST
  1

  9
$DIMALT
 70
     0
  9
$DIMALTD
 70
     2
  9
$DIMALTF
 40
25.4
  9
$DIMLFAC
 40
1.0
  9
$DIMTOFL
 70
     0
  9
$DIMTVP
 40
0.0
  9
$DIMTIX
 70
     0
  9
$DIMSOXD
 70
     0
  9
$DIMSAH
 70
     0
  9
$DIMBLK1
  1

  9
$DIMBLK2
  1

  9
$DIMSTYLE
  2
Standard
  9
$DIMCLRD
 70
     0
  9
$DIMCLRE
 70
     0
  9
$DIMCLRT
 70
     0
  9
$DIMTFAC
 40
1.0
  9
$DIMGAP
 40
0.09
  9
$DIMJUST
 70
     0
  9
$DIMSD1
 70
     0
  9
$DIMSD2
 70
     0
  9
$DIMTOLJ
 70
     1
  9
$DIMTZIN
 70
     0
  9
$DIMALTZ
 70
     0
  9
$DIMALTTZ
 70
     0
  9
$DIMUPT
 70
     0
  9
$DIMDEC
 70
     4
  9
$DIMTDEC
 70
     4
  9
$DIMALTU
 70
     2
  9
$DIMALTTD
 70
     2
  9
$DIMTXSTY
  7
Standard
  9
$DIMAUNIT
 70
     0
  9
$DIMADEC
 70
     0
  9
$DIMALTRND
 40
0.0
  9
$DIMAZIN
 70
     0
  9
$DIMDSEP
 70
    46
  9
$DIMATFIT
 70
     3
  9
$DIMFRAC
 70
     0
  9
$DIMLDRBLK
  1

  9
$DIMLUNIT
 70
     2
  9
$DIMLWD
 70
    -2
  9
$DIMLWE
 70
    -2
  9
$DIMTMOVE
 70
     0
  9
$DIMFXL
 40
1.0
  9
$DIMFXLON
 70
     0
  9
$DIMJOGANG
 40
0.7853981633974483
  9
$DIMTFILL
 70
     0
  9
$DIMTFILLCLR
 70
     0
  9
$DIMARCSYM
 70
     0
  9
$DIMLTYPE
  6

  9
$DIMLTEX1
  6

  9
$DIMLTEX2
  6

  9
$DIMTXTDIRECTION
 70
     0
  9
$LUNITS
 70
     2
  9
$LUPREC
 70
     4
  9
$SKETCHINC
 40
0.1
  9
$FILLETRAD
 40
0.5
  9
$AUNITS
 70
     0
  9
$AUPREC
 70
     0
  9
$MENU
  1
.
  9
$ELEVATION
 40
0.0
  9
$PELEVATION
 40
0.0
  9
$THICKNESS
 40
0.0
  9
$LIMCHECK
 70
     0
  9
$CHAMFERA
 40
0.0
  9
$CHAMFERB
 40
0.0
  9
$CHAMFERC
 40
0.0
  9
$CHAMFERD
 40
0.0
  9
$SKPOLY
 70
     0
  9
$TDCREATE
 40
2458168.998078542
  9
$TDUCREATE
 40
2458168.956411875
  9
$TDUPDATE
 40
2458168.998078542
  9
$TDUUPDATE
 40
2458168.956411875
  9
$TDINDWG
 40
0.0000000116
  9
$TDUSRTIMER
 40
0.0000000116
  9
$USRTIMER
 70
     1
  9
$ANGBASE
 50
0.0
  9
$ANGDIR
 70
     0
  9
$PDMODE
 70
     0
  9
$PDSIZE
 40
0.0
  9
$PLINEWID
 40
0.0
  9
$SPLFRAME
 70
     0
  9
$SPLINETYPE
 70
     6
  9
$SPLINESEGS
 70
     8
  9
$HANDSEED
  5
1DB
  9
$SURFTAB1
 70
     6
  9
$SURFTAB2
 70
     6
  9
$SURFTYPE
 70
     6
  9
$SURFU
 70
     6
  9
$SURFV
 70
     6
  9
$UCSBASE
  2

  9
$UCSNAME
  2

  9
$UCSORG
 10
0.0
 20
0.0
 30
0.0
  9
$UCSXDIR
 10
1.0
 20
0.0
 30
0.0
  9
$UCSYDIR
 10
0.0
 20
1.0
 30
0.0
  9
$UCSORTHOREF
  2

  9
$UCSORTHOVIEW
 70
     0
  9
$UCSORGTOP
 10
0.0
 20
0.0
 30
0.0
  9
$UCSORGBOTTOM
 10
0.0
 20
0.0
 30
0.0
  9
$UCSORGLEFT
 10
0.0
 20
0.0
 30
0.0
  9
$UCSORGRIGHT
 10
0.0
 20
0.0
 30
0.0
  9
$UCSORGFRONT
 10
0.0
 20
0.0
 30
0.0
  9
$UCSORGBACK
 10
0.0
 20
0.0
 30
0.0
  9
$PUCSBASE
  2

  9
$PUCSNAME
  2

  9
$PUCSORG
 10
0.0
 20
0.0
 30
0.0
  9
$PUCSXDIR
 10
1.0
 20
0.0
 30
0.0
  9
$PUCSYDIR
 10
0.0
 20
1.0
 30
0.0
  9
$PUCSORTHOREF
  2

  9
$PUCSORTHOVIEW
 70
     0
  9
$PUCSORGTOP
 10
0.0
 20
0.0
 30
0.0
  9
$PUCSORGBOTTOM
 10
0.0
 20
0.0
 30
0.0
  9
$PUCSORGLEFT
 10
0.0
 20
0.0
 30
0.0
  9
$PUCSORGRIGHT
 10
0.0
 20
0.0
 30
0.0
  9
$PUCSORGFRONT
 10
0.0
 20
0.0
 30
0.0
  9
$PUCSORGBACK
 10
0.0
 20
0.0
 30
0.0
  9
$USERI1
 70
     0
  9
$USERI2
 70
     0
  9
$USERI3
 70
     0
  9
$USERI4
 70
     0
  9
$USERI5
 70
     0
  9
$USERR1
 40
0.0
  9
$USERR2
 40
0.0
  9
$USERR3
 40
0.0
  9
$USERR4
 40
0.0
  9
$USERR5
 40
0.0
  9
$WORLDVIEW
 70
     1
  9
$SHADEDGE
 70
     3
  9
$SHADEDIF
 70
    70
  9
$TILEMODE
 70
     1
  9
$MAXACTVP
 70
    64
  9
$PINSBASE
 10
0.0
 20
0.0
 30
0.0
  9
$PLIMCHECK
 70
     0
  9
$PEXTMIN
 10
1.000000000000000E+20
 20
1.000000000000000E+20
 30
1.000000000000000E+20
  9
$PEXTMAX
 10
-1.000000000000000E+20
 20
-1.000000000000000E+20
 30
-1.000000000000000E+20
  9
$PLIMMIN
 10
0.0
 20
0.0
  9
$PLIMMAX
 10
12.0
 20
9.0
  9
$UNITMODE
 70
     0
  9
$VISRETAIN
 70
     1
  9
$PLINEGEN
 70
     0
  9
$PSLTSCALE
 70
     1
  9
$TREEDEPTH
 70
  3020
  9
$CMLSTYLE
  2
Standard
  9
$CMLJUST
 70
     0
  9
$CMLSCALE
 40
1.0
  9
$PROXYGRAPHICS
 70
     1
  9
$MEASUREMENT
 70
     0
  9
$CELWEIGHT
370
    -1
  9
$ENDCAPS
280
     0
  9
$JOINSTYLE
280
     0
  9
$LWDISPLAY
290
     0
  9
$INSUNITS
 70
     1
  9
$HYPERLINKBASE
  1

  9
$STYLESHEET
  1

  9
$XEDIT
290
     1
  9
$CEPSNTYPE
380
     0
  9
$PSTYLEMODE
290
     1
  9
$FINGERPRINTGUID
  2
{783F26DE-FCE8-4788-9FD5-223448D9BC11}
  9
$VERSIONGUID
  2
{FAEB1C32-E019-11D5-929B-00C0DF256EC4}
  9
$EXTNAMES
290
     1
  9
$PSVPSCALE
 40
0.0
  9
$OLESTARTUP
290
     0
  9
$SORTENTS
280
   127
  9
$INDEXCTL
280
     0
  9
$HIDETEXT
280
     1
  9
$XCLIPFRAME
280
     2
  9
$HALOGAP
280
     0
  9
$OBSCOLOR
 70
   257
  9
$OBSLTYPE
280
     0
  9
$INTERSECTIONDISPLAY
280
     0
  9
$INTERSECTIONCOLOR
 70
   257
  9
$DIMASSOC
280
     2
  9
$PROJECTNAME
  1

  9
$CAMERADISPLAY
290
     0
  9
$LENSLENGTH
 40
50.0
  9
$CAMERAHEIGHT
 40
0.0
  9
$STEPSPERSEC
 40
2.0
  9
$STEPSIZE
 40
6.0
  9
$3DDWFPREC
 40
2.0
  9
$PSOLWIDTH
 40
0.25
  9
$PSOLHEIGHT
 40
4.0
  9
$LOFTANG1
 40
1.570796326794897
  9
$LOFTANG2
 40
1.570796326794897
  9
$LOFTMAG1
 40
0.0
  9
$LOFTMAG2
 40
0.0
  9
$LOFTPARAM
 70
     7
  9
$LOFTNORMALS
280
     1
  9
$LATITUDE
 40
37.795
  9
$LONGITUDE
 40
-122.394
  9
$NORTHDIRECTION
 40
0.0
  9
$TIMEZONE
 70
 -8000
  9
$LIGHTGLYPHDISPLAY
280
     1
  9
$TILEMODELIGHTSYNCH
280
     1
  9
$CMATERIAL
347
44
  9
$SOLIDHIST
280
     0
  9
$SHOWHIST
280
     1
  9
$DWFFRAME
280
     2
  9
$DGNFRAME
280
     2
  9
$REALWORLDSCALE
290
     1
  9
$INTERFERECOLOR
 62
   256
  9
$CSHADOW
280
     0
  9
$SHADOWPLANELOCATION
 40
0.0
  0
ENDSEC
  0
SECTION
  2
CLASSES
  0
CLASS
  1
ACDBDICTIONARYWDFLT
  2
AcDbDictionaryWithDefault
  3
ObjectDBX Classes
 90
        0
 91
        4
280
     0
281
     0
  0
CLASS
  1
VISUALSTYLE
  2
AcDbVisualStyle
  3
ObjectDBX Classes
 90
     4095
 91
        4
280
     0
281
     0
  0
CLASS
  1
MATERIAL
  2
AcDbMaterial
  3
ObjectDBX Classes
 90
     1153
 91
        4
280
     0
281
     0
  0
CLASS
  1
SCALE
  2
AcDbScale
  3
ObjectDBX Classes
 90
     1153
 91
        4
280
     0
281
     0
  0
CLASS
  1
TABLESTYLE
  2
AcDbTableStyle
  3
ObjectDBX Classes
 90
     4095
 91
        4
280
     0
281
     0
  0
CLASS
  1
MLEADERSTYLE
  2
AcDbMLeaderStyle
  3
ACDB_MLEADERSTYLE_CLASS
 90
     4095
 91
        4
280
     0
281
     0
  0
CLASS
  1
SUN
  2
AcDbSun
  3
SCENEOE
 90
     1153
 91
        4
280
     0
281
     0
  0
CLASS
  1
DICTIONARYVAR
  2
AcDbDictionaryVar
  3
ObjectDBX Classes
 90
        0
 91
        4
280
     0
281
     0
  0
CLASS
  1
CELLSTYLEMAP
  2
AcDbCellStyleMap
  3
ObjectDBX Classes
 90
     1152
 91
        4
280
     0
281
     0
  0
ENDSEC
  0
SECTION
  2
TABLES
  0
TABLE
  2
VPORT
  5
8
330
0
100
AcDbSymbolTable
 70
     1
  0
VPORT
  5
29
330
8
100
AcDbSymbolTableRecord
100
AcDbViewportTableRecord
  2
*Active
 70
     0
 10
0.0
 20
0.0
 11
1.0
 21
1.0
 12
0.3121836703160259
 22
-0.0785
 13
0.0
 23
0.0
 14
0.5
 24
0.5
 15
0.5
 25
0.5
 16
0.0
 26
0.0
 36
1.0
 17
0.0
 27
0.0
 37
0.0
 40
1.567739999999999
 41
2.793515067903676
 42
50.0
 43
0.0
 44
0.0
 50
0.0
 51
0.0
 71
     0
 72
   100
 73
     1
 74
     3
 75
     0
 76
     0
 77
     0
 78
     0
281
     0
 65
     1
110
0.0
120
0.0
130
0.0
111
1.0
121
0.0
131
0.0
112
0.0
122
1.0
132
0.0
 79
     0
146
0.0
348
2F
 60
     3
 61
     5
292
     1
282
     1
141
0.0
142
0.0
 63
   250
361
6D
  0
ENDTAB
  0
TABLE
  2
LTYPE
  5
5
330
0
100
AcDbSymbolTable
 70
     3
  0
LTYPE
  5
14
330
5
100
AcDbSymbolTableRecord
100
AcDbLinetypeTableRecord
  2
ByBlock
 70
     0
  3

 72
    65
 73
     0
 40
0.0
  0
LTYPE
  5
15
330
5
100
AcDbSymbolTableRecord
100
AcDbLinetypeTableRecord
  2
ByLayer
 70
     0
  3

 72
    65
 73
     0
 40
0.0
  0
LTYPE
  5
16
330
5
100
AcDbSymbolTableRecord
100
AcDbLinetypeTableRecord
  2
Continuous
 70
     0
  3
Solid line
 72
    65
 73
     0
 40
0.0
  0
LTYPE
  5
A5
330
5
100
AcDbSymbolTableRecord
100
AcDbLinetypeTableRecord
  2
Dashed
 70
     0
  3

 72
    65
 73
     2
 40
2.0
 49
1.0
 74
     0
 49
-1.0
 74
     0
  0
LTYPE
  5
D7
330
5
100
AcDbSymbolTableRecord
100
AcDbLinetypeTableRecord
  2
Center
 70
     0
  3

 72
    65
 73
     4
 40
1.5
 49
0.45
 74
     0
 49
-0.5
 74
     0
 49
0.05
 74
     0
 49
-0.5
 74
     0
  0
ENDTAB
  0
TABLE
  2
LAYER
  5
2
330
0
100
AcDbSymbolTable
 70
     7
  0
LAYER
  5
10
330
2
100
AcDbSymbolTableRecord
100
AcDbLayerTableRecord
  2
0
 70
     0
 62
     7
  6
Continuous
370
    -3
390
F
347
46
348
0
  0
LAYER
  5
72
330
2
100
AcDbSymbolTableRecord
100
AcDbLayerTableRecord
  2
AM_6
 70
     0
 62
    -2
  6
Continuous
370
    35
390
F
347
46
348
0
  0
LAYER
  5
A6
330
2
100
AcDbSymbolTableRecord
100
AcDbLayerTableRecord
  2
AM_9
 70
     0
 62
     6
  6
Dashed
370
    25
390
F
347
46
348
0
  0
LAYER
  5
D8
330
2
100
AcDbSymbolTableRecord
100
AcDbLayerTableRecord
  2
AM_7
 70
     0
 62
     7
  6
Center
370
    25
390
F
347
46
348
0
  0
LAYER
  5
DC
330
2
100
AcDbSymbolTableRecord
100
AcDbLayerTableRecord
  2
AM_4
 70
     0
 62
     7
  6
Continuous
370
    50
390
F
347
46
348
0
  0
LAYER
  5
EE
330
2
100
AcDbSymbolTableRecord
100
AcDbLayerTableRecord
  2
AM_5
 70
     0
 62
     3
  6
Continuous
370
    25
390
F
347
46
348
0
  0
LAYER
  5
1CE
330
2
100
AcDbSymbolTableRecord
100
AcDbLayerTableRecord
  2
ConnectionPoints
 70
     0
 62
     7
  6
Continuous
370
    50
390
F
347
46
348
0
  0
ENDTAB
  0
TABLE
  2
STYLE
  5
3
330
0
100
AcDbSymbolTable
 70
     1
  0
STYLE
  5
11
330
3
100
AcDbSymbolTableRecord
100
AcDbTextStyleTableRecord
  2
Standard
 70
     0
 40
0.0
 41
1.0
 50
0.0
 71
     0
 42
0.2
  3
txt
  4

  0
ENDTAB
  0
TABLE
  2
VIEW
  5
6
330
0
100
AcDbSymbolTable
 70
     0
  0
ENDTAB
  0
TABLE
  2
UCS
  5
7
330
0
100
AcDbSymbolTable
 70
     0
  0
ENDTAB
  0
TABLE
  2
APPID
  5
9
330
0
100
AcDbSymbolTable
 70
     1
  0
APPID
  5
12
330
9
100
AcDbSymbolTableRecord
100
AcDbRegAppTableRecord
  2
ACAD
 70
     0
  0
ENDTAB
  0
TABLE
  2
DIMSTYLE
  5
A
330
0
100
AcDbSymbolTable
 70
     1
100
AcDbDimStyleTable
  0
DIMSTYLE
105
27
330
A
100
AcDbSymbolTableRecord
100
AcDbDimStyleTableRecord
  2
Standard
 70
     0
178
     0
340
11
  0
ENDTAB
  0
TABLE
  2
BLOCK_RECORD
  5
1
330
0
100
AcDbSymbolTable
 70
     5
  0
BLOCK_RECORD
  5
1F
330
1
100
AcDbSymbolTableRecord
100
AcDbBlockTableRecord
  2
*Model_Space
340
22
 70
     0
280
     1
281
     0
  0
BLOCK_RECORD
  5
1B
330
1
100
AcDbSymbolTableRecord
100
AcDbBlockTableRecord
  2
*Paper_Space
340
1E
 70
     0
280
     1
281
     0
  0
BLOCK_RECORD
  5
23
330
1
100
AcDbSymbolTableRecord
100
AcDbBlockTableRecord
  2
*Paper_Space0
340
26
 70
     0
280
     1
281
     0
  0
BLOCK_RECORD
  5
6E
330
1
100
AcDbSymbolTableRecord
100
AcDbBlockTableRecord
  2
1_125552_4
340
0
102
{BLKREFS
331
6F
102
}
 70
     0
280
     1
281
     0
  0
BLOCK_RECORD
  5
8E
330
1
100
AcDbSymbolTableRecord
100
AcDbBlockTableRecord
  2
2_389926_0_in_125552_4
340
0
102
{BLKREFS
331
8F
102
}
 70
     0
280
     1
281
     0
  0
BLOCK_RECORD
  5
F0
330
1
100
AcDbSymbolTableRecord
100
AcDbBlockTableRecord
  2
3_405016_Inch_0_in_125552_4
340
0
102
{BLKREFS
331
F1
102
}
 70
     0
280
     1
281
     0
  0
BLOCK_RECORD
  5
174
330
1
100
AcDbSymbolTableRecord
100
AcDbBlockTableRecord
  2
4_125536vscwd_0_in_125552_4
340
0
102
{BLKREFS
331
175
102
}
 70
     0
280
     1
281
     0
  0
ENDTAB
  0
ENDSEC
  0
SECTION
  2
BLOCKS
  0
BLOCK
  5
20
330
1F
100
AcDbEntity
  8
0
100
AcDbBlockBegin
  2
*Model_Space
 70
     0
 10
0.0
 20
0.0
 30
0.0
  3
*Model_Space
  1

  0
ENDBLK
  5
21
330
1F
100
AcDbEntity
  8
0
100
AcDbBlockEnd
  0
BLOCK
  5
1C
330
1B
100
AcDbEntity
 67
     1
  8
0
100
AcDbBlockBegin
  2
*Paper_Space
 70
     0
 10
0.0
 20
0.0
 30
0.0
  3
*Paper_Space
  1

  0
ENDBLK
  5
1D
330
1B
100
AcDbEntity
 67
     1
  8
0
100
AcDbBlockEnd
  0
BLOCK
  5
24
330
23
100
AcDbEntity
  8
0
100
AcDbBlockBegin
  2
*Paper_Space0
 70
     0
 10
0.0
 20
0.0
 30
0.0
  3
*Paper_Space0
  1

  0
ENDBLK
  5
25
330
23
100
AcDbEntity
  8
0
100
AcDbBlockEnd
  0
BLOCK
  5
70
330
6E
100
AcDbEntity
  8
0
100
AcDbBlockBegin
  2
1_125552_4
 70
     2
 10
0.0
 20
0.0
 30
0.0
  3
1_125552_4
  1

  0
ATTDEF
  5
73
330
6E
100
AcDbEntity
  8
AM_6
100
AcDbText
 10
7.459
 20
0.6899999999999998
 30
0.0
 40
0.5
  1
Set Screw Intermediate Duty Wide Slot Take Up Inch
100
AcDbAttributeDefinition
  3

  2
NN
 70
     8
280
     0
  0
ATTDEF
  5
74
330
6E
100
AcDbEntity
  8
AM_6
100
AcDbText
 10
7.459
 20
0.1899999999999998
 30
0.0
 40
0.5
  1
VSC Intermediate Duty Wide Slot Take-Up Bearings
100
AcDbAttributeDefinition
  3

  2
NT
 70
     8
280
     0
  0
ATTDEF
  5
75
330
6E
100
AcDbEntity
  8
AM_6
100
AcDbText
 10
7.459
 20
-0.3100000000000002
 30
0.0
 40
0.5
  1
125552
100
AcDbAttributeDefinition
  3

  2
NB
 70
     8
280
     0
  0
ATTDEF
  5
76
330
6E
100
AcDbEntity
  8
AM_6
100
AcDbText
 10
7.459
 20
-0.8100000000000002
 30
0.0
 40
0.5
  1
$PN.
100
AcDbAttributeDefinition
  3

  2
NBSYN
 70
     8
280
     0
  0
ATTDEF
  5
77
330
6E
100
AcDbEntity
  8
AM_6
100
AcDbText
 10
7.459
 20
-1.31
 30
0.0
 40
0.5
  1
125552
100
AcDbAttributeDefinition
  3

  2
LINA
 70
     8
280
     0
  0
ATTDEF
  5
78
330
6E
100
AcDbEntity
  8
AM_6
100
AcDbText
 10
7.459
 20
-1.81
 30
0.0
 40
0.5
  1
205
100
AcDbAttributeDefinition
  3

  2
RS
 70
     8
280
     0
  0
ATTDEF
  5
79
330
6E
100
AcDbEntity
  8
AM_6
100
AcDbText
 10
7.459
 20
-2.31
 30
0.0
 40
0.5
  1
1
100
AcDbAttributeDefinition
  3

  2
SS
 70
     8
280
     0
  0
ATTDEF
  5
7A
330
6E
100
AcDbEntity
  8
AM_6
100
AcDbText
 10
7.459
 20
-2.81
 30
0.0
 40
0.5
  1
125552
100
AcDbAttributeDefinition
  3

  2
PN
 70
     8
280
     0
  0
ATTDEF
  5
7B
330
6E
100
AcDbEntity
  8
AM_6
100
AcDbText
 10
7.459
 20
-3.31
 30
0.0
 40
0.5
  1
WSTU-VSC-100
100
AcDbAttributeDefinition
  3

  2
DESCRIPTION
 70
     8
280
     0
  0
ATTDEF
  5
7C
330
6E
100
AcDbEntity
  8
AM_6
100
AcDbText
 10
7.459
 20
-3.81
 30
0.0
 40
0.5
  1
2.0
100
AcDbAttributeDefinition
  3

  2
WEIGHT
 70
     8
280
     0
  0
ATTDEF
  5
7D
330
6E
100
AcDbEntity
  8
AM_6
100
AcDbText
 10
7.459
 20
-4.31
 30
0.0
 40
0.5
  1
1.34
100
AcDbAttributeDefinition
  3

  2
A
 70
     8
280
     0
  0
ATTDEF
  5
7E
330
6E
100
AcDbEntity
  8
AM_6
100
AcDbText
 10
7.459
 20
-4.81
 30
0.0
 40
0.5
  1
3.81
100
AcDbAttributeDefinition
  3

  2
B
 70
     8
280
     0
  0
ATTDEF
  5
7F
330
6E
100
AcDbEntity
  8
AM_6
100
AcDbText
 10
7.459
 20
-5.31
 30
0.0
 40
0.5
  1
0.531
100
AcDbAttributeDefinition
  3

  2
C
 70
     8
280
     0
  0
ATTDEF
  5
80
330
6E
100
AcDbEntity
  8
AM_6
100
AcDbText
 10
7.459
 20
-5.81
 30
0.0
 40
0.5
  1
2.00
100
AcDbAttributeDefinition
  3

  2
D
 70
     8
280
     0
  0
ATTDEF
  5
81
330
6E
100
AcDbEntity
  8
AM_6
100
AcDbText
 10
7.459
 20
-6.31
 30
0.0
 40
0.5
  1
2.44
100
AcDbAttributeDefinition
  3

  2
E
 70
     8
280
     0
  0
ATTDEF
  5
82
330
6E
100
AcDbEntity
  8
AM_6
100
AcDbText
 10
7.459
 20
-6.81
 30
0.0
 40
0.5
  1
5/8
100
AcDbAttributeDefinition
  3

  2
F
 70
     8
280
     0
  0
ATTDEF
  5
83
330
6E
100
AcDbEntity
  8
AM_6
100
AcDbText
 10
7.459
 20
-7.31
 30
0.0
 40
0.5
  1
0.38
100
AcDbAttributeDefinition
  3

  2
G
 70
     8
280
     0
  0
ATTDEF
  5
84
330
6E
100
AcDbEntity
  8
AM_6
100
AcDbText
 10
7.459
 20
-7.81
 30
0.0
 40
0.5
  1
0.63
100
AcDbAttributeDefinition
  3

  2
H
 70
     8
280
     0
  0
ATTDEF
  5
85
330
6E
100
AcDbEntity
  8
AM_6
100
AcDbText
 10
7.459
 20
-8.31
 30
0.0
 40
0.5
  1
2.00
100
AcDbAttributeDefinition
  3

  2
J
 70
     8
280
     0
  0
ATTDEF
  5
86
330
6E
100
AcDbEntity
  8
AM_6
100
AcDbText
 10
7.459
 20
-8.81
 30
0.0
 40
0.5
  1
1.31
100
AcDbAttributeDefinition
  3

  2
K
 70
     8
280
     0
  0
ATTDEF
  5
87
330
6E
100
AcDbEntity
  8
AM_6
100
AcDbText
 10
7.459
 20
-9.31
 30
0.0
 40
0.5
  1
1.32
100
AcDbAttributeDefinition
  3

  2
L
 70
     8
280
     0
  0
ATTDEF
  5
88
330
6E
100
AcDbEntity
  8
AM_6
100
AcDbText
 10
7.459
 20
-9.81
 30
0.0
 40
0.5
  1
2.985/3.015
100
AcDbAttributeDefinition
  3

  2
M
 70
     8
280
     0
  0
ATTDEF
  5
89
330
6E
100
AcDbEntity
  8
AM_6
100
AcDbText
 10
7.459
 20
-10.31
 30
0.0
 40
0.5
  1
3.63
100
AcDbAttributeDefinition
  3

  2
N
 70
     8
280
     0
  0
ATTDEF
  5
8A
330
6E
100
AcDbEntity
  8
AM_6
100
AcDbText
 10
7.459
 20
-10.81
 30
0.0
 40
0.5
  1
0.56
100
AcDbAttributeDefinition
  3

  2
R
 70
     8
280
     0
  0
ATTDEF
  5
8B
330
6E
100
AcDbEntity
  8
AM_6
100
AcDbText
 10
7.459
 20
-11.31
 30
0.0
 40
0.5
  1
0.78
100
AcDbAttributeDefinition
  3

  2
S
 70
     8
280
     0
  0
ATTDEF
  5
8C
330
6E
100
AcDbEntity
  8
AM_6
100
AcDbText
 10
7.459
 20
-11.81
 30
0.0
 40
0.5
  1
1.38
100
AcDbAttributeDefinition
  3

  2
T
 70
     8
280
     0
  0
ATTDEF
  5
8D
330
6E
100
AcDbEntity
  8
AM_6
100
AcDbText
 10
7.459
 20
-12.31
 30
0.0
 40
0.5
  1
baldor
100
AcDbAttributeDefinition
  3

  2
COMPANY
 70
     8
280
     0
  0
INSERT
  5
8F
330
6E
100
AcDbEntity
  8
0
100
AcDbBlockReference
  2
2_389926_0_in_125552_4
 10
0.0
 20
0.0
 30
0.0
  0
INSERT
  5
F1
330
6E
100
AcDbEntity
  8
0
100
AcDbBlockReference
  2
3_405016_Inch_0_in_125552_4
 10
0.0
 20
0.0
 30
0.0
  0
INSERT
  5
175
330
6E
100
AcDbEntity
  8
0
100
AcDbBlockReference
  2
4_125536vscwd_0_in_125552_4
 10
0.0
 20
0.0
 30
0.0
  0
ENDBLK
  5
71
330
6E
100
AcDbEntity
  8
0
100
AcDbBlockEnd
  0
BLOCK
  5
90
330
8E
100
AcDbEntity
  8
0
100
AcDbBlockBegin
  2
2_389926_0_in_125552_4
 70
     2
 10
0.0
 20
0.0
 30
0.0
  3
2_389926_0_in_125552_4
  1

  0
ATTDEF
  5
92
330
8E
100
AcDbEntity
  8
AM_6
100
AcDbText
 10
6.02307104152457
 20
0.6269999999999999
 30
0.0
 40
0.5
  1
Set Screw Intermediate Duty Insert Inch Bore
100
AcDbAttributeDefinition
  3

  2
NN
 70
     8
280
     0
  0
ATTDEF
  5
93
330
8E
100
AcDbEntity
  8
AM_6
100
AcDbText
 10
6.02307104152457
 20
0.1269999999999999
 30
0.0
 40
0.5
  1
VSC Intermediate Duty Bearing Inserts
100
AcDbAttributeDefinition
  3

  2
NT
 70
     8
280
     0
  0
ATTDEF
  5
94
330
8E
100
AcDbEntity
  8
AM_6
100
AcDbText
 10
6.02307104152457
 20
-0.3730000000000001
 30
0.0
 40
0.5
  1
389926
100
AcDbAttributeDefinition
  3

  2
NB
 70
     8
280
     0
  0
ATTDEF
  5
95
330
8E
100
AcDbEntity
  8
AM_6
100
AcDbText
 10
6.02307104152457
 20
-0.8730000000000001
 30
0.0
 40
0.5
  1
$PN.
100
AcDbAttributeDefinition
  3

  2
NBSYN
 70
     8
280
     0
  0
ATTDEF
  5
96
330
8E
100
AcDbEntity
  8
AM_6
100
AcDbText
 10
6.02307104152457
 20
-1.373
 30
0.0
 40
0.5
  1
389926
100
AcDbAttributeDefinition
  3

  2
LINA
 70
     8
280
     0
  0
ATTDEF
  5
97
330
8E
100
AcDbEntity
  8
AM_6
100
AcDbText
 10
6.02307104152457
 20
-1.873
 30
0.0
 40
0.5
  1
205
100
AcDbAttributeDefinition
  3

  2
SERIES
 70
     8
280
     0
  0
ATTDEF
  5
98
330
8E
100
AcDbEntity
  8
AM_6
100
AcDbText
 10
6.02307104152457
 20
-2.373
 30
0.0
 40
0.5
  1
1
100
AcDbAttributeDefinition
  3

  2
SS
 70
     8
280
     0
  0
ATTDEF
  5
99
330
8E
100
AcDbEntity
  8
AM_6
100
AcDbText
 10
6.02307104152457
 20
-2.873
 30
0.0
 40
0.5
  1
389926
100
AcDbAttributeDefinition
  3

  2
PN
 70
     8
280
     0
  0
ATTDEF
  5
9A
330
8E
100
AcDbEntity
  8
AM_6
100
AcDbText
 10
6.02307104152457
 20
-3.373
 30
0.0
 40
0.5
  1
INS-VSC-100
100
AcDbAttributeDefinition
  3

  2
DESCRIPTION
 70
     8
280
     0
  0
ATTDEF
  5
9B
330
8E
100
AcDbEntity
  8
AM_6
100
AcDbText
 10
6.02307104152457
 20
-3.873
 30
0.0
 40
0.5
  1
0.25
100
AcDbAttributeDefinition
  3

  2
WEIGHT
 70
     8
280
     0
  0
ATTDEF
  5
9C
330
8E
100
AcDbEntity
  8
AM_6
100
AcDbText
 10
6.02307104152457
 20
-4.373
 30
0.0
 40
0.5
  1
1.34
100
AcDbAttributeDefinition
  3

  2
A
 70
     8
280
     0
  0
ATTDEF
  5
9D
330
8E
100
AcDbEntity
  8
AM_6
100
AcDbText
 10
6.02307104152457
 20
-4.873
 30
0.0
 40
0.5
  1
0.59
100
AcDbAttributeDefinition
  3

  2
C
 70
     8
280
     0
  0
ATTDEF
  5
9E
330
8E
100
AcDbEntity
  8
AM_6
100
AcDbText
 10
6.02307104152457
 20
-5.373
 30
0.0
 40
0.5
  1
2.0472
100
AcDbAttributeDefinition
  3

  2
D
 70
     8
280
     0
  0
ATTDEF
  5
9F
330
8E
100
AcDbEntity
  8
AM_6
100
AcDbText
 10
6.02307104152457
 20
-5.873
 30
0.0
 40
0.5
  1
0.160
100
AcDbAttributeDefinition
  3

  2
J
 70
     8
280
     0
  0
ATTDEF
  5
A0
330
8E
100
AcDbEntity
  8
AM_6
100
AcDbText
 10
6.02307104152457
 20
-6.373
 30
0.0
 40
0.5
  1
1.32
100
AcDbAttributeDefinition
  3

  2
L
 70
     8
280
     0
  0
ATTDEF
  5
A1
330
8E
100
AcDbEntity
  8
AM_6
100
AcDbText
 10
6.02307104152457
 20
-6.873
 30
0.0
 40
0.5
  1
1/4-28
100
AcDbAttributeDefinition
  3

  2
N
 70
     8
280
     0
  0
ATTDEF
  5
A2
330
8E
100
AcDbEntity
  8
AM_6
100
AcDbText
 10
6.02307104152457
 20
-7.373
 30
0.0
 40
0.5
  1
0.56
100
AcDbAttributeDefinition
  3

  2
W
 70
     8
280
     0
  0
ATTDEF
  5
A3
330
8E
100
AcDbEntity
  8
AM_6
100
AcDbText
 10
6.02307104152457
 20
-7.873
 30
0.0
 40
0.5
  1
0.78
100
AcDbAttributeDefinition
  3

  2
Y
 70
     8
280
     0
  0
ATTDEF
  5
A4
330
8E
100
AcDbEntity
  8
AM_6
100
AcDbText
 10
6.02307104152457
 20
-8.373000000000001
 30
0.0
 40
0.5
  1
baldor
100
AcDbAttributeDefinition
  3

  2
COMPANY
 70
     8
280
     0
  0
LINE
  5
A7
330
8E
100
AcDbEntity
  8
AM_9
100
AcDbLine
 10
-1.0736
 20
0.1896969696969725
 30
0.0
 11
-1.0736
 21
0.1303030303030275
 31
0.0
  0
ARC
  5
A8
330
8E
100
AcDbEntity
  8
AM_9
100
AcDbCircle
 10
-1.019963636363639
 20
0.1303030303030228
 30
0.0
 40
0.0536363636363608
100
AcDbArc
 50
180.0
 51
269.2024788670966
  0
ARC
  5
A9
330
8E
100
AcDbEntity
  8
AM_9
100
AcDbCircle
 10
-1.019963636363637
 20
0.1896969696969744
 30
0.0
 40
0.0536363636363636
100
AcDbArc
 50
90.0
 51
180.0
  0
LINE
  5
AA
330
8E
100
AcDbEntity
  8
AM_9
100
AcDbLine
 10
-0.9943012214369336
 20
0.2433333333333381
 30
0.0
 11
-1.019963636363636
 21
0.2433333333333381
 31
0.0
  0
LINE
  5
AB
330
8E
100
AcDbEntity
  8
AM_9
100
AcDbLine
 10
-1.019963636363636
 20
0.2433333333333381
 30
0.0
 11
-1.019963636363636
 21
0.0815209251606402
 31
0.0
  0
LINE
  5
AC
330
8E
100
AcDbEntity
  8
AM_9
100
AcDbLine
 10
0.4530847272134706
 20
-0.63565
 30
0.0
 11
0.5806260837650298
 21
-0.63565
 31
0.0
  0
LINE
  5
AD
330
8E
100
AcDbEntity
  8
AM_9
100
AcDbLine
 10
0.5806260837650298
 20
-0.42435
 30
0.0
 11
0.4531200743985571
 21
-0.42435
 31
0.0
  0
LWPOLYLINE
  5
AE
330
8E
100
AcDbEntity
  8
AM_9
100
AcDbPolyline
 90
       12
 70
     0
 43
0.0
 10
0.4875707876091
 20
-0.5310028989499923
 10
0.4875549379289871
 20
-0.5260290087852666
 10
0.4870564455828195
 20
-0.5083027457005156
 10
0.485908102802791
 20
-0.4918645927766148
 10
0.4840007657914244
 20
-0.4760405810434422
 10
0.4813407302006629
 20
-0.4619117905743674
 10
0.4777399424557277
 20
-0.4493075961819847
 10
0.4732695100966638
 20
-0.4390918948917212
 10
0.4677093094151281
 20
-0.4312115583928435
 10
0.4614608577922082
 20
-0.426370465342104
 10
0.4542253533004395
 20
-0.4243807595832794
 10
0.4531582258430057
 20
-0.4243500004973533
  0
LWPOLYLINE
  5
AF
330
8E
100
AcDbEntity
  8
AM_9
100
AcDbPolyline
 90
       11
 70
     0
 43
0.0
 10
0.4531508018086208
 20
-0.6356499997467278
 10
0.4577375169423671
 20
-0.63506416365523
 10
0.4642740417566245
 20
-0.6318736115392217
 10
0.4701828364002413
 20
-0.6257928578384371
 10
0.475097137294864
 20
-0.6172642748277783
 10
0.4792345766890908
 20
-0.6060900193432602
 10
0.4824491497392687
 20
-0.5929033419482065
 10
0.4848904962096341
 20
-0.5775108583104115
 10
0.4864857943079051
 20
-0.561150551364748
 10
0.4873788545450317
 20
-0.5433617630827468
 10
0.4875707876091
 20
-0.5310028989499923
  0
LWPOLYLINE
  5
B0
330
8E
100
AcDbEntity
  8
AM_9
100
AcDbPolyline
 90
       11
 70
     0
 43
0.0
 10
0.4531582258430057
 20
-0.4243500004973533
 10
0.4467527554616621
 20
-0.425375405274183
 10
0.4387054131520874
 20
-0.4293098965250542
 10
0.4308336703701692
 20
-0.4358251214971192
 10
0.422982967585285
 20
-0.4450984640276008
 10
0.4157774305461806
 20
-0.4565965095460203
 10
0.4092958119094853
 20
-0.4705038609886502
 10
0.4041552788996835
 20
-0.4858739674719564
 10
0.4004278356817134
 20
-0.5030180556792408
 10
0.3988257983878748
 20
-0.5162729715897824
 10
0.398272628021481
 20
-0.53
  0
ELLIPSE
  5
B1
330
8E
100
AcDbEntity
  8
AM_9
100
AcDbEllipse
 10
0.5806260837650298
 20
-0.5300000000000002
 30
0.0
 11
-1.940759014948762E-17
 21
-0.1056499999999997
 31
0.0
210
0.0
220
0.0
230
1.0
 40
0.4226182617407007
 41
1.561330970123639
 42
5.932504108762193
  0
LINE
  5
B2
330
8E
100
AcDbEntity
  8
AM_9
100
AcDbLine
 10
0.5598056243270647
 20
-0.6234603790942064
 30
0.0
 11
0.5716510487626276
 21
-0.6382350180945748
 31
0.0
  0
LINE
  5
B3
330
8E
100
AcDbEntity
  8
AM_9
100
AcDbLine
 10
0.571680387452696
 20
-0.4217283881508608
 30
0.0
 11
0.5598056243270647
 21
-0.4365396209057936
 31
0.0
  0
LWPOLYLINE
  5
B4
330
8E
100
AcDbEntity
  8
AM_9
100
AcDbPolyline
 90
        7
 70
     0
 43
0.0
 10
0.540461596494448
 20
-0.5310003141794287
 10
0.5414013589421517
 20
-0.5092443513647493
 10
0.5444226168551913
 20
-0.4875672557166605
 10
0.5494378245016198
 20
-0.4670739420501252
 10
0.5561844154396917
 20
-0.4484361916272086
 10
0.5641080572955591
 20
-0.4327903403299716
 10
0.5717672285620309
 20
-0.4216200730318505
  0
LWPOLYLINE
  5
B5
330
8E
100
AcDbEntity
  8
AM_9
100
AcDbPolyline
 90
       10
 70
     0
 43
0.0
 10
0.5717672285620309
 20
-0.4216200730318505
 10
0.5730174654441575
 20
-0.4200996928965134
 10
0.581786109027769
 20
-0.4115480300595137
 10
0.5906782225892249
 20
-0.4064200541492312
 10
0.5985666563686665
 20
-0.4050189388150076
 10
0.6059958053379472
 20
-0.4067527842300928
 10
0.6124942900758985
 20
-0.4113428561050147
 10
0.6182661454985693
 20
-0.4185679347481684
 10
0.6221244588061103
 20
-0.4256895640043806
 10
0.6255193933268447
 20
-0.4340554067771153
  0
LWPOLYLINE
  5
B6
330
8E
100
AcDbEntity
  8
AM_9
100
AcDbPolyline
 90
       11
 70
     0
 43
0.0
 10
0.398272628021481
 20
-0.53
 10
0.3991489352636245
 20
-0.5472628413068286
 10
0.4018279937513092
 20
-0.5645256826136572
 10
0.4060071550634992
 20
-0.5803296844092549
 10
0.4116918298803861
 20
-0.5951516688403824
 10
0.4183912992500497
 20
-0.6079649036496112
 10
0.4260825237043312
 20
-0.6189206355066136
 10
0.4340782981874073
 20
-0.6271808139762766
 10
0.4424258143207902
 20
-0.6328563500004803
 10
0.4502073024202906
 20
-0.635426335056166
 10
0.4531508018086208
 20
-0.6356499997467278
  0
LINE
  5
B7
330
8E
100
AcDbEntity
  8
AM_9
100
AcDbLine
 10
0.5
 20
-0.7535999999999998
 30
0.0
 11
0.5
 21
0.5534
 31
0.0
  0
LINE
  5
B8
330
8E
100
AcDbEntity
  8
AM_9
100
AcDbLine
 10
-0.5
 20
0.5534
 30
0.0
 11
-0.5
 21
-0.7535999999999998
 31
0.0
  0
LINE
  5
B9
330
8E
100
AcDbEntity
  8
AM_9
100
AcDbLine
 10
0.5
 20
0.5534
 30
0.0
 11
0.5066
 21
0.56
 31
0.0
  0
LINE
  5
BA
330
8E
100
AcDbEntity
  8
AM_9
100
AcDbLine
 10
-0.5066
 20
0.56
 30
0.0
 11
-0.5
 21
0.5534
 31
0.0
  0
LINE
  5
BB
330
8E
100
AcDbEntity
  8
AM_9
100
AcDbLine
 10
-0.4999999999999999
 20
-0.7535999999999998
 30
0.0
 11
-0.5264
 21
-0.7799999999999999
 31
0.0
  0
LINE
  5
BC
330
8E
100
AcDbEntity
  8
AM_9
100
AcDbLine
 10
0.5264
 20
-0.7799999999999999
 30
0.0
 11
0.4999999999999999
 21
-0.7535999999999998
 31
0.0
  0
ARC
  5
BD
330
8E
100
AcDbEntity
  8
AM_9
100
AcDbCircle
 10
0.0
 20
-0.5299999999999999
 30
0.0
 40
0.10565
100
AcDbArc
 50
359.4576750111493
 51
180.5423249888487
  0
LWPOLYLINE
  5
BE
330
8E
100
AcDbEntity
  8
AM_9
100
AcDbPolyline
 90
        6
 70
     0
 43
0.0
 10
-0.1149145692955352
 20
-0.5310034276850116
 10
-0.1146292610800407
 20
-0.5211637225964619
 10
-0.1113910404503684
 20
-0.4993453703591053
 10
-0.1043619934686881
 20
-0.4777822681577245
 10
-0.0955742296378133
 20
-0.460719483206748
 10
-0.0840236021089277
 20
-0.4448454487422768
  0
LWPOLYLINE
  5
BF
330
8E
100
AcDbEntity
  8
AM_9
100
AcDbPolyline
 90
       16
 70
     0
 43
0.0
 10
-0.0840236021089277
 20
-0.4448454487422768
 10
-0.071699766428973
 20
-0.4324148338870338
 10
-0.0573261894930261
 20
-0.4217348276805664
 10
-0.0398670551602996
 20
-0.4128002732701106
 10
-0.0204063116920399
 20
-0.4069967634910969
 10
-0.0024416098683618
 20
-0.405028365243839
 10
0.0161679079540656
 20
-0.4062497566106859
 10
0.0329751801501511
 20
-0.4102826312771355
 10
0.0493311296066976
 20
-0.4171580709581538
 10
0.0644102708122745
 20
-0.4265658316009544
 10
0.0781704950631792
 20
-0.4384874195460285
 10
0.090529082723491
 20
-0.4531309604706891
 10
0.1007178789344989
 20
-0.4699323890258
 10
0.1085719967234437
 20
-0.4891331025944339
 10
0.1134135668557052
 20
-0.5098906675554677
 10
0.1149145918697178
 20
-0.5310003806939609
  0
LWPOLYLINE
  5
C0
330
8E
100
AcDbEntity
  8
AM_9
100
AcDbPolyline
 90
        7
 70
     0
 43
0.0
 10
0.6255193933268447
 20
-0.4340554067771153
 10
0.629361460048702
 20
-0.4470317071143995
 10
0.6324149030042895
 20
-0.4616581250022724
 10
0.6350186711707987
 20
-0.4802089797452905
 10
0.6366986982296932
 20
-0.500000885198194
 10
0.6375250447197738
 20
-0.5216997359020535
 10
0.6375916010854804
 20
-0.5310033774420436
  0
LINE
  5
C1
330
8E
100
AcDbEntity
  8
AM_9
100
AcDbLine
 10
0.6599999999999998
 20
-0.5310000000000002
 30
0.0
 11
0.6599999999999998
 21
-0.295
 31
0.0
  0
LINE
  5
C2
330
8E
100
AcDbEntity
  8
AM_9
100
AcDbLine
 10
-0.6599999999999998
 20
-0.295
 30
0.0
 11
-0.6599999999999998
 21
-0.5310000000000002
 31
0.0
  0
LINE
  5
C3
330
8E
100
AcDbEntity
  8
AM_9
100
AcDbLine
 10
0.6599999999999998
 20
0.295
 30
0.0
 11
0.6599999999999998
 21
0.5309999999999998
 31
0.0
  0
LINE
  5
C4
330
8E
100
AcDbEntity
  8
AM_9
100
AcDbLine
 10
-0.6599999999999998
 20
0.5309999999999997
 30
0.0
 11
-0.6599999999999998
 21
0.295
 31
0.0
  0
LINE
  5
C5
330
8E
100
AcDbEntity
  8
AM_9
100
AcDbLine
 10
0.9702666666666667
 20
-0.192
 30
0.0
 11
0.9702666666666667
 21
-0.128
 31
0.0
  0
LINE
  5
C6
330
8E
100
AcDbEntity
  8
AM_9
100
AcDbLine
 10
-0.9702666666666667
 20
-0.128
 30
0.0
 11
-0.9702666666666667
 21
-0.192
 31
0.0
  0
LINE
  5
C7
330
8E
100
AcDbEntity
  8
AM_9
100
AcDbLine
 10
-0.9560865860370598
 20
0.295
 30
0.0
 11
0.9560865860333977
 21
0.295
 31
0.0
  0
ARC
  5
C8
330
8E
100
AcDbEntity
  8
AM_9
100
AcDbCircle
 10
0.9560865860370601
 20
0.2630000000000001
 30
0.0
 40
0.0319999999999998
100
AcDbArc
 50
15.38049883735852
 51
90.0
  0
ARC
  5
C9
330
8E
100
AcDbEntity
  8
AM_9
100
AcDbCircle
 10
-0.9560865860370601
 20
0.2630000000000001
 30
0.0
 40
0.0319999999999999
100
AcDbArc
 50
90.0
 51
164.6195011626415
  0
LINE
  5
CA
330
8E
100
AcDbEntity
  8
AM_9
100
AcDbLine
 10
-0.9560865860370598
 20
-0.295
 30
0.0
 11
0.9560865860333977
 21
-0.295
 31
0.0
  0
ARC
  5
CB
330
8E
100
AcDbEntity
  8
AM_9
100
AcDbCircle
 10
0.9560865860370598
 20
-0.2629999999999999
 30
0.0
 40
0.0320000000000001
100
AcDbArc
 50
270.0
 51
344.6195040508822
  0
ARC
  5
CC
330
8E
100
AcDbEntity
  8
AM_9
100
AcDbCircle
 10
-0.9560865860370598
 20
-0.2629999999999999
 30
0.0
 40
0.032
100
AcDbArc
 50
195.3804959491178
 51
270.0
  0
LINE
  5
CD
330
8E
100
AcDbEntity
  8
AM_9
100
AcDbLine
 10
-1.005431728164573
 20
-0.192
 30
0.0
 11
1.005431728164509
 21
-0.192
 31
0.0
  0
LINE
  5
CE
330
8E
100
AcDbEntity
  8
AM_9
100
AcDbLine
 10
-0.9869405299188527
 20
-0.2714872932634126
 30
0.0
 11
0.9869405299187886
 21
-0.2714872932634126
 31
0.0
  0
ARC
  5
CF
330
8E
100
AcDbEntity
  8
AM_9
100
AcDbCircle
 10
0.0000000051047341
 20
-0.0000000011875346
 30
0.0
 40
1.023599994763059
100
AcDbArc
 50
344.6195040391875
 51
349.1888031988424
  0
ARC
  5
D0
330
8E
100
AcDbEntity
  8
AM_9
100
AcDbCircle
 10
-0.0000000000030829
 20
-0.0000000000007327
 30
0.0
 40
1.023599999996771
100
AcDbArc
 50
190.8111968128453
 51
195.3804959491248
  0
LINE
  5
D1
330
8E
100
AcDbEntity
  8
AM_9
100
AcDbLine
 10
-1.015565340093881
 20
-0.1279999999999998
 30
0.0
 11
1.015565340093876
 21
-0.1279999999999998
 31
0.0
  0
LINE
  5
D2
330
8E
100
AcDbEntity
  8
AM_9
100
AcDbLine
 10
-0.9869405294910142
 20
0.2714872948187388
 30
0.0
 11
0.9869405294910095
 21
0.2714872948187388
 31
0.0
  0
ARC
  5
D3
330
8E
100
AcDbEntity
  8
AM_9
100
AcDbCircle
 10
-0.0000000000001328
 20
-0.0000000000000093
 30
0.0
 40
1.023600000000126
100
AcDbArc
 50
352.8164233462908
 51
15.3804960394091
  0
ARC
  5
D4
330
8E
100
AcDbEntity
  8
AM_9
100
AcDbCircle
 10
0.0000000000194597
 20
-0.0000000000048985
 30
0.0
 40
1.023600000020058
100
AcDbArc
 50
164.619503960614
 51
166.2635331618666
  0
ARC
  5
D5
330
8E
100
AcDbEntity
  8
AM_9
100
AcDbCircle
 10
-0.000000000000284
 20
-0.0000000000000283
 30
0.0
 40
1.02359999999971
100
AcDbArc
 50
175.6977403945621
 51
187.1835766537112
  0
LINE
  5
D6
330
8E
100
AcDbEntity
  8
AM_9
100
AcDbLine
 10
-0.9942564301471084
 20
0.2433333333333286
 30
0.0
 11
-1.02072442647431
 21
0.0766720626198741
 31
0.0
  0
LINE
  5
D9
330
8E
100
AcDbEntity
  8
AM_7
100
AcDbLine
 10
0.0
 20
-0.847
 30
0.0
 11
0.0
 21
0.6269999999999999
 31
0.0
  0
LINE
  5
DA
330
8E
100
AcDbEntity
  8
AM_7
100
AcDbLine
 10
-1.09428
 20
0.16
 30
0.0
 11
-0.63932
 21
0.16
 31
0.0
  0
LINE
  5
DB
330
8E
100
AcDbEntity
  8
AM_7
100
AcDbLine
 10
-0.1109325
 20
-0.5299999999999999
 30
0.0
 11
0.1109325
 21
-0.5299999999999999
 31
0.0
  0
ELLIPSE
  5
DD
330
8E
100
AcDbEntity
  8
AM_4
100
AcDbEllipse
 10
0.5806260837650298
 20
-0.5299999999999998
 30
0.0
 11
-1.940759014948772E-17
 21
-0.1056500000000002
 31
0.0
210
0.0
220
0.0
230
1.0
 40
0.4226182617406985
 41
5.932504108762194
 42
7.844516277303221
  0
LWPOLYLINE
  5
DE
330
8E
100
AcDbEntity
  8
AM_4
100
AcDbPolyline
 90
        9
 70
     0
 43
0.0
 10
0.5717601928237113
 20
-0.6383711483467279
 10
0.5692077173397686
 20
-0.6350170899647678
 10
0.5618216115303579
 20
-0.6231964427591247
 10
0.5552391006101328
 20
-0.6093218264051855
 10
0.5492651716438326
 20
-0.5923598504437779
 10
0.5447087443648462
 20
-0.5739031177619759
 10
0.5416149677330959
 20
-0.5530078399281236
 10
0.5404643257368549
 20
-0.5315056768546422
 10
0.540461596494448
 20
-0.5310003141794287
  0
ARC
  5
DF
330
8E
100
AcDbEntity
  8
AM_4
100
AcDbCircle
 10
0.0
 20
-0.5299999999999999
 30
0.0
 40
0.10565
100
AcDbArc
 50
180.54232498885
 51
359.45767501115
  0
LINE
  5
E0
330
8E
100
AcDbEntity
  8
AM_4
100
AcDbLine
 10
-0.6336
 20
-0.7799999999999999
 30
0.0
 11
0.6336
 21
-0.7799999999999999
 31
0.0
  0
LINE
  5
E1
330
8E
100
AcDbEntity
  8
AM_4
100
AcDbLine
 10
0.6336
 20
-0.7799999999999999
 30
0.0
 11
0.66
 21
-0.7535999999999998
 31
0.0
  0
LINE
  5
E2
330
8E
100
AcDbEntity
  8
AM_4
100
AcDbLine
 10
-0.66
 20
-0.7535999999999998
 30
0.0
 11
-0.6336
 21
-0.7799999999999999
 31
0.0
  0
LINE
  5
E3
330
8E
100
AcDbEntity
  8
AM_4
100
AcDbLine
 10
-0.6533999999999999
 20
0.56
 30
0.0
 11
0.6533999999999999
 21
0.56
 31
0.0
  0
LINE
  5
E4
330
8E
100
AcDbEntity
  8
AM_4
100
AcDbLine
 10
-0.6533999999999999
 20
0.56
 30
0.0
 11
-0.66
 21
0.5534
 31
0.0
  0
LINE
  5
E5
330
8E
100
AcDbEntity
  8
AM_4
100
AcDbLine
 10
0.66
 20
0.5534
 30
0.0
 11
0.6533999999999999
 21
0.56
 31
0.0
  0
LINE
  5
E6
330
8E
100
AcDbEntity
  8
AM_4
100
AcDbLine
 10
-0.66
 20
-0.7535999999999998
 30
0.0
 11
0.6599999999999998
 21
-0.7535999999999998
 31
0.0
  0
LWPOLYLINE
  5
E7
330
8E
100
AcDbEntity
  8
AM_4
100
AcDbPolyline
 90
       21
 70
     0
 43
0.0
 10
0.1149145918697178
 20
-0.5310003806939609
 10
0.1149083966535909
 20
-0.5316359471495274
 10
0.1127791960298606
 20
-0.5539437931083389
 10
0.1070806090983379
 20
-0.5752668471147546
 10
0.0975847700610143
 20
-0.5958886189212017
 10
0.085258208041201
 20
-0.6136906761706191
 10
0.0694535661512924
 20
-0.6294911540510669
 10
0.0526436872383372
 20
-0.6410511069280205
 10
0.03331580181242
 20
-0.6496052457587017
 10
0.0152036922813859
 20
-0.6538954953508318
 10
-0.0040137652398635
 20
-0.6549233309434455
 10
-0.021295089234968
 20
-0.6528239731290949
 10
-0.0384602860901557
 20
-0.6477568500676164
 10
-0.0541995057754507
 20
-0.6401593423708042
 10
-0.0689061148867275
 20
-0.62994118516779
 10
-0.0823583144304544
 20
-0.6170576908940438
 10
-0.093934907108095
 20
-0.6018794731007775
 10
-0.1035549129143009
 20
-0.5840791928713969
 10
-0.1104384340652358
 20
-0.5644756893880618
 10
-0.1142633065121405
 20
-0.5432915039624903
 10
-0.1149145692955352
 20
-0.5310034276850116
  0
LWPOLYLINE
  5
E8
330
8E
100
AcDbEntity
  8
AM_4
100
AcDbPolyline
 90
       14
 70
     0
 43
0.0
 10
0.6375916010854804
 20
-0.5310033774420436
 10
0.6374116801847991
 20
-0.5436232754506065
 10
0.6363172369693815
 20
-0.565636514517231
 10
0.6341937212908221
 20
-0.586630016052454
 10
0.6309885224119929
 20
-0.605804176056843
 10
0.6266101078792513
 20
-0.62271047748194
 10
0.6212503819854605
 20
-0.6360976124239904
 10
0.6147324170024561
 20
-0.6462741641795461
 10
0.6077875922747367
 20
-0.6522828053287977
 10
0.6000563343220292
 20
-0.654903074861399
 10
0.5924109988532571
 20
-0.654140598963848
 10
0.5845133072413053
 20
-0.6504160433876555
 10
0.5767306282658231
 20
-0.6439572993267995
 10
0.5717601928237113
 20
-0.6383711483467279
  0
LINE
  5
E9
330
8E
100
AcDbEntity
  8
AM_4
100
AcDbLine
 10
0.6599999999999998
 20
-0.7535999999999998
 30
0.0
 11
0.6599999999999998
 21
-0.5310000000000002
 31
0.0
  0
LINE
  5
EA
330
8E
100
AcDbEntity
  8
AM_4
100
AcDbLine
 10
-0.6599999999999998
 20
-0.5310000000000002
 30
0.0
 11
-0.6599999999999998
 21
-0.7535999999999998
 31
0.0
  0
LINE
  5
EB
330
8E
100
AcDbEntity
  8
AM_4
100
AcDbLine
 10
-0.66
 20
0.5534
 30
0.0
 11
0.6599999999999998
 21
0.5534
 31
0.0
  0
LINE
  5
EC
330
8E
100
AcDbEntity
  8
AM_4
100
AcDbLine
 10
0.6599999999999998
 20
0.5309999999999998
 30
0.0
 11
0.6599999999999998
 21
0.5534
 31
0.0
  0
LINE
  5
ED
330
8E
100
AcDbEntity
  8
AM_4
100
AcDbLine
 10
-0.6599999999999998
 20
0.5534
 30
0.0
 11
-0.6599999999999998
 21
0.5309999999999997
 31
0.0
  0
CIRCLE
  5
EF
330
8E
100
AcDbEntity
  8
AM_5
100
AcDbCircle
 10
0.0000000000000001
 20
-0.5300000000000001
 30
0.0
 40
0.1250000000000001
  0
ENDBLK
  5
91
330
8E
100
AcDbEntity
  8
0
100
AcDbBlockEnd
  0
BLOCK
  5
F2
330
F0
100
AcDbEntity
  8
0
100
AcDbBlockBegin
  2
3_405016_Inch_0_in_125552_4
 70
     2
 10
0.0
 20
0.0
 30
0.0
  3
3_405016_Inch_0_in_125552_4
  1

  0
ATTDEF
  5
F4
330
F0
100
AcDbEntity
  8
AM_6
100
AcDbText
 10
3.997217576453334
 20
0.2187499999999999
 30
0.0
 40
0.5
  1
405016 -Inch
100
AcDbAttributeDefinition
  3

  2
NN
 70
     8
280
     0
  0
ATTDEF
  5
F5
330
F0
100
AcDbEntity
  8
AM_6
100
AcDbText
 10
3.997217576453334
 20
-0.2812500000000001
 30
0.0
 40
0.5
  1
Grease Fitting
100
AcDbAttributeDefinition
  3

  2
NT
 70
     8
280
     0
  0
ATTDEF
  5
F6
330
F0
100
AcDbEntity
  8
AM_6
100
AcDbText
 10
3.997217576453334
 20
-0.78125
 30
0.0
 40
0.5
  1
405016-Inch
100
AcDbAttributeDefinition
  3

  2
NB
 70
     8
280
     0
  0
ATTDEF
  5
F7
330
F0
100
AcDbEntity
  8
AM_6
100
AcDbText
 10
3.997217576453334
 20
-1.28125
 30
0.0
 40
0.5
  1
$MN.-Inch
100
AcDbAttributeDefinition
  3

  2
NBSYN
 70
     8
280
     0
  0
ATTDEF
  5
F8
330
F0
100
AcDbEntity
  8
AM_6
100
AcDbText
 10
3.997217576453334
 20
-1.78125
 30
0.0
 40
0.5
  1
405016
100
AcDbAttributeDefinition
  3

  2
LINA
 70
     8
280
     0
  0
ATTDEF
  5
F9
330
F0
100
AcDbEntity
  8
AM_6
100
AcDbText
 10
3.997217576453334
 20
-2.28125
 30
0.0
 40
0.5
  1
405016
100
AcDbAttributeDefinition
  3

  2
MN
 70
     8
280
     0
  0
ATTDEF
  5
FA
330
F0
100
AcDbEntity
  8
AM_6
100
AcDbText
 10
3.997217576453334
 20
-2.78125
 30
0.0
 40
0.5
  1
7/16 HEX
100
AcDbAttributeDefinition
  3

  2
H
 70
     8
280
     0
  0
ATTDEF
  5
FB
330
F0
100
AcDbEntity
  8
AM_6
100
AcDbText
 10
3.997217576453334
 20
-3.28125
 30
0.0
 40
0.5
  1
0.383
100
AcDbAttributeDefinition
  3

  2
NDR
 70
     8
280
     0
  0
ATTDEF
  5
FC
330
F0
100
AcDbEntity
  8
AM_6
100
AcDbText
 10
3.997217576453334
 20
-3.78125
 30
0.0
 40
0.5
  1
0.337
100
AcDbAttributeDefinition
  3

  2
KDR
 70
     8
280
     0
  0
ATTDEF
  5
FD
330
F0
100
AcDbEntity
  8
AM_6
100
AcDbText
 10
3.997217576453334
 20
-4.28125
 30
0.0
 40
0.5
  1
0.1575
100
AcDbAttributeDefinition
  3

  2
BZE
 70
     8
280
     0
  0
ATTDEF
  5
FE
330
F0
100
AcDbEntity
  8
AM_6
100
AcDbText
 10
3.997217576453334
 20
-4.78125
 30
0.0
 40
0.5
  1
0.4375
100
AcDbAttributeDefinition
  3

  2
HEX
 70
     8
280
     0
  0
ATTDEF
  5
FF
330
F0
100
AcDbEntity
  8
AM_6
100
AcDbText
 10
3.997217576453334
 20
-5.28125
 30
0.0
 40
0.5
  1
0.281250
100
AcDbAttributeDefinition
  3

  2
HEX2
 70
     8
280
     0
  0
ATTDEF
  5
100
330
F0
100
AcDbEntity
  8
AM_6
100
AcDbText
 10
3.997217576453334
 20
-5.78125
 30
0.0
 40
0.5
  1
baldor
100
AcDbAttributeDefinition
  3

  2
COMPANY
 70
     8
280
     0
  0
LINE
  5
101
330
F0
100
AcDbEntity
  8
AM_9
100
AcDbLine
 10
-1.699925241377208
 20
-0.151074129835757
 30
0.0
 11
-1.711246814601085
 21
-0.1791093260592887
 31
0.0
  0
LINE
  5
102
330
F0
100
AcDbEntity
  8
AM_9
100
AcDbLine
 10
-1.548750395338711
 20
-0.2099962668917053
 30
0.0
 11
-1.560437641558256
 21
-0.2389369657326276
 31
0.0
  0
LWPOLYLINE
  5
103
330
F0
100
AcDbEntity
  8
AM_9
100
AcDbPolyline
 90
        4
 70
     0
 43
0.0
 10
-1.332596590073305
 20
0.1093749999999999
 10
-1.324177093403651
 20
0.0820312499999999
 10
-1.314736940089382
 20
0.0546874999999999
 10
-1.293169975538382
 20
-0.0000000000000001
  0
LWPOLYLINE
  5
104
330
F0
100
AcDbEntity
  8
AM_9
100
AcDbPolyline
 90
        4
 70
     0
 43
0.0
 10
-1.293169975538382
 20
-0.0000000000000001
 10
-1.314647646456004
 20
-0.0544416102741496
 10
-1.324124354667835
 20
-0.0818700010907651
 10
-1.332596590073305
 20
-0.109375
  0
LWPOLYLINE
  5
105
330
F0
100
AcDbEntity
  8
AM_9
100
AcDbPolyline
 90
        3
 70
     0
 43
0.0
 10
-1.490819546916621
 20
-0.2987675689889718
 10
-1.506706831479717
 20
-0.2912216284034024
 10
-1.521916833177732
 20
-0.2813919000363599
  0
LWPOLYLINE
  5
106
330
F0
100
AcDbEntity
  8
AM_9
100
AcDbPolyline
 90
        4
 70
     0
 43
0.0
 10
-1.22227297853717
 20
-0.0000000000000001
 10
-1.232227185966444
 20
0.0544416102741495
 10
-1.238586266576025
 20
0.081870001090765
 10
-1.245994049694862
 20
0.1093749999999999
  0
LWPOLYLINE
  5
107
330
F0
100
AcDbEntity
  8
AM_9
100
AcDbPolyline
 90
        4
 70
     0
 43
0.0
 10
-1.245994049694862
 20
-0.109375
 10
-1.238626624941362
 20
-0.0820312500000001
 10
-1.232279856832477
 20
-0.0546875000000001
 10
-1.22227297853717
 20
-0.0000000000000001
  0
LWPOLYLINE
  5
108
330
F0
100
AcDbEntity
  8
AM_9
100
AcDbPolyline
 90
        4
 70
     0
 43
0.0
 10
-1.332596590073305
 20
-0.109375
 10
-1.339964014826805
 20
-0.13671875
 10
-1.34631078293569
 20
-0.1640625
 10
-1.356317661230997
 20
-0.21875
  0
LINE
  5
109
330
F0
100
AcDbEntity
  8
AM_9
100
AcDbLine
 10
-1.293169975538382
 20
-0.0000000000000001
 30
0.0
 11
-1.22227297853717
 21
-0.0000000000000001
 31
0.0
  0
LWPOLYLINE
  5
10A
330
F0
100
AcDbEntity
  8
AM_9
100
AcDbPolyline
 90
        4
 70
     0
 43
0.0
 10
-1.356317661230997
 20
0.2187499999999999
 10
-1.346363453801722
 20
0.1643083897258504
 10
-1.340004373192142
 20
0.1368799989092348
 10
-1.332596590073305
 20
0.1093749999999999
  0
ELLIPSE
  5
10B
330
F0
100
AcDbEntity
  8
AM_9
100
AcDbEllipse
 10
-1.733101189765712
 20
-0.4687500000000001
 30
0.0
 11
-0.09595382955731789
 21
0.03874944547499722
 31
0.0
210
0.0
220
0.0
230
1.0
 40
0.2113091308703506
 41
3.040609649696544
 42
6.384168311072838
  0
ELLIPSE
  5
10C
330
F0
100
AcDbEntity
  8
AM_9
100
AcDbEllipse
 10
-1.705107527568229
 20
-0.399430321788976
 30
0.0
 11
-0.129024894793327
 21
0.05210467522533588
 31
0.0
210
0.0
220
0.0
230
1.0
 40
0.2113091308703475
 41
3.040317266205562
 42
5.801105639492178
  0
ELLIPSE
  5
10D
330
F0
100
AcDbEntity
  8
AM_9
100
AcDbEllipse
 10
-1.694432546090884
 20
-0.3729962569746626
 30
0.0
 11
-0.1235034625625943
 21
0.04987493162723405
 31
0.0
210
0.0
220
0.0
230
1.0
 40
0.2113091308703469
 41
3.389980826830127
 42
6.034618401293391
  0
LWPOLYLINE
  5
10E
330
F0
100
AcDbEntity
  8
AM_9
100
AcDbPolyline
 90
        5
 70
     0
 43
0.0
 10
-1.711246814601085
 20
-0.1791093260592887
 10
-1.733109203099711
 20
-0.1842540823997054
 10
-1.754005290029704
 20
-0.1862220679364951
 10
-1.773922909584614
 20
-0.1844124966919381
 10
-1.792436696205876
 20
-0.1791093260592887
  0
LWPOLYLINE
  5
10F
330
F0
100
AcDbEntity
  8
AM_9
100
AcDbPolyline
 90
        5
 70
     0
 43
0.0
 10
-1.560437641558256
 20
-0.2389369657326276
 10
-1.599278930245685
 20
-0.2295338871417796
 10
-1.637413976957604
 20
-0.216687117104632
 10
-1.675032771318787
 20
-0.1996402057054678
 10
-1.711246814601085
 20
-0.1791093260592887
  0
LWPOLYLINE
  5
110
330
F0
100
AcDbEntity
  8
AM_9
100
AcDbPolyline
 90
        3
 70
     0
 43
0.0
 10
-1.533938363359538
 20
-0.2711532636537956
 10
-1.547673541124111
 20
-0.256181552758992
 10
-1.560437641558256
 20
-0.2389369657326276
  0
ELLIPSE
  5
111
330
F0
100
AcDbEntity
  8
AM_9
100
AcDbEllipse
 10
-1.643431642826899
 20
-0.2467045921760194
 30
0.0
 11
-0.1303939210191736
 21
0.05265753494273249
 31
0.0
210
0.0
220
0.0
230
1.0
 40
0.211309130870356
 41
3.806340372002765
 42
6.919181903097266
  0
LWPOLYLINE
  5
112
330
F0
100
AcDbEntity
  8
AM_9
100
AcDbPolyline
 90
        4
 70
     0
 43
0.0
 10
-1.277681024141135
 20
-0.2000409996967265
 10
-1.263942993312163
 20
-0.1643083897258504
 10
-1.254466285100332
 20
-0.1368799989092349
 10
-1.245994049694862
 20
-0.109375
  0
LINE
  5
113
330
F0
100
AcDbEntity
  8
AM_9
100
AcDbLine
 10
-1.285420664229785
 20
-0.21875
 30
0.0
 11
-1.277681024141135
 21
-0.2000409996967265
 31
0.0
  0
LINE
  5
114
330
F0
100
AcDbEntity
  8
AM_9
100
AcDbLine
 10
-1.277681146223101
 20
0.2000413016192557
 30
0.0
 11
-1.285420664229785
 21
0.2187499999999999
 31
0.0
  0
LWPOLYLINE
  5
115
330
F0
100
AcDbEntity
  8
AM_9
100
AcDbPolyline
 90
        4
 70
     0
 43
0.0
 10
-1.245994049694862
 20
0.1093749999999999
 10
-1.254413546364516
 20
0.1367187499999999
 10
-1.263853699678785
 20
0.1640624999999999
 10
-1.277681146223101
 20
0.2000413016192557
  0
LINE
  5
116
330
F0
100
AcDbEntity
  8
AM_9
100
AcDbLine
 10
-1.711060042229098
 20
-0.1204089378707286
 30
0.0
 11
-1.71214548721881
 21
-0.1230967854582223
 31
0.0
  0
LINE
  5
117
330
F0
100
AcDbEntity
  8
AM_9
100
AcDbLine
 10
-1.505939813803223
 20
-0.2
 30
0.0
 11
-1.50327133445852
 21
-0.1933921425434559
 31
0.0
  0
ELLIPSE
  5
118
330
F0
100
AcDbEntity
  8
AM_9
100
AcDbEllipse
 10
-1.625131735288362
 20
-0.2013892028241903
 30
0.0
 11
-0.1019970226638904
 21
0.04118989399965185
 31
0.0
210
0.0
220
0.0
230
1.0
 40
0.2113091308703489
 41
3.141592653589793
 42
6.283185307179586
  0
LWPOLYLINE
  5
119
330
F0
100
AcDbEntity
  8
AM_9
100
AcDbPolyline
 90
        4
 70
     0
 43
0.0
 10
-1.711064771884118
 20
-0.1204206514110939
 10
-1.711203937868647
 20
-0.1208367673933812
 10
-1.71062635391152
 20
-0.1245107513506023
 10
-1.708719284081761
 20
-0.1273625300416625
  0
LWPOLYLINE
  5
11A
330
F0
100
AcDbEntity
  8
AM_9
100
AcDbPolyline
 90
        5
 70
     0
 43
0.0
 10
-1.503270390257032
 20
-0.1933898041312626
 10
-1.503363726388183
 20
-0.1936098952159723
 10
-1.506579263340821
 20
-0.1971856748420371
 10
-1.512597626583604
 20
-0.1994144431868154
 10
-1.519461597164047
 20
-0.1999999999699528
  0
LWPOLYLINE
  5
11B
330
F0
100
AcDbEntity
  8
AM_9
100
AcDbPolyline
 90
        4
 70
     0
 43
0.0
 10
-1.612758728376485
 20
-0.1745741884610188
 10
-1.585369653003054
 20
-0.1876759562813857
 10
-1.566762720930148
 20
-0.1983617847082468
 10
-1.548750395338711
 20
-0.2099962668917053
  0
LWPOLYLINE
  5
11C
330
F0
100
AcDbEntity
  8
AM_9
100
AcDbPolyline
 90
        3
 70
     0
 43
0.0
 10
-1.699925241377208
 20
-0.151074129835757
 10
-1.670720633877685
 20
-0.1564222384464442
 10
-1.642050134935391
 20
-0.1639312493177431
  0
LWPOLYLINE
  5
11D
330
F0
100
AcDbEntity
  8
AM_9
100
AcDbPolyline
 90
        3
 70
     0
 43
0.0
 10
-1.548750395338711
 20
-0.2099962668917053
 10
-1.531776713005188
 20
-0.2163479371246912
 10
-1.515638455821005
 20
-0.2258378743019628
  0
LWPOLYLINE
  5
11E
330
F0
100
AcDbEntity
  8
AM_9
100
AcDbPolyline
 90
        5
 70
     0
 43
0.0
 10
-1.736836121721703
 20
-0.141958509815605
 10
-1.732961002275654
 20
-0.1420496512545706
 10
-1.718472087160904
 20
-0.1441228263802214
 10
-1.708954212862311
 20
-0.1470795994472237
 10
-1.699925241377208
 20
-0.151074129835757
  0
ELLIPSE
  5
11F
330
F0
100
AcDbEntity
  8
AM_9
100
AcDbEllipse
 10
-1.625131735288366
 20
-0.201389202824188
 30
0.0
 11
-0.1303939210191765
 21
0.05265753494273472
 31
0.0
210
0.0
220
0.0
230
1.0
 40
0.2113091308703484
 41
3.814164134970081
 42
4.680688069878551
  0
ELLIPSE
  5
120
330
F0
100
AcDbEntity
  8
AM_9
100
AcDbEllipse
 10
-1.625131735288365
 20
-0.2013892028241899
 30
0.0
 11
-0.1303939210191754
 21
0.05265753494273522
 31
0.0
210
0.0
220
0.0
230
1.0
 40
0.211309130870358
 41
-1.276847990582197
 42
-0.6725714813802837
  0
LINE
  5
121
330
F0
100
AcDbEntity
  8
AM_9
100
AcDbLine
 10
-1.521916833177732
 20
-0.2813919000363599
 30
0.0
 11
-1.533938363359538
 21
-0.2711532636537956
 31
0.0
  0
ELLIPSE
  5
122
330
F0
100
AcDbEntity
  8
AM_9
100
AcDbEllipse
 10
-1.643431642826902
 20
-0.2467045921760186
 30
0.0
 11
-0.1303939210191774
 21
0.05265753494273603
 31
0.0
210
0.0
220
0.0
230
1.0
 40
0.21130913087035
 41
2.800469246484381
 42
3.607080702195122
  0
ELLIPSE
  5
123
330
F0
100
AcDbEntity
  8
AM_9
100
AcDbEllipse
 10
-1.643431642832107
 20
-0.2467045921722577
 30
0.0
 11
-0.1303939210261338
 21
0.05265753494608124
 31
0.0
210
0.0
220
0.0
230
1.0
 40
0.2113091308727472
 41
-3.777589249506265
 42
-3.764628581858685
  0
LWPOLYLINE
  5
124
330
F0
100
AcDbEntity
  8
AM_9
100
AcDbPolyline
 90
        3
 70
     0
 43
0.0
 10
-1.771067437703785
 20
-0.2048725510586232
 10
-1.770248458491903
 20
-0.2061355419168174
 10
-1.770017885119065
 20
-0.2065064774506113
  0
LWPOLYLINE
  5
125
330
F0
100
AcDbEntity
  8
AM_9
100
AcDbPolyline
 90
       17
 70
     0
 43
0.0
 10
-1.509946499609108
 20
-0.1790373738501778
 10
-1.5179139646853
 20
-0.1733931390117467
 10
-1.528670038119482
 20
-0.167072978024251
 10
-1.541313089641926
 20
-0.1606047421316795
 10
-1.556203512787767
 20
-0.1538031670974776
 10
-1.572105389594647
 20
-0.1472336073736393
 10
-1.589466359416366
 20
-0.1407130262602576
 10
-1.606821836546611
 20
-0.1347930597680667
 10
-1.624679548130899
 20
-0.1293028157827817
 10
-1.641509309630973
 20
-0.1247141396218192
 10
-1.657826053531678
 20
-0.1208880884981781
 10
-1.672225104391512
 20
-0.1181545989145989
 10
-1.68515745725726
 20
-0.1164278875396128
 10
-1.69551718541696
 20
-0.1158549073091554
 10
-1.703627360233657
 20
-0.1164156227038167
 10
-1.708804001424499
 20
-0.1180609686233501
 10
-1.711064771884118
 20
-0.1204206514110939
  0
LWPOLYLINE
  5
126
330
F0
100
AcDbEntity
  8
AM_9
100
AcDbPolyline
 90
        4
 70
     0
 43
0.0
 10
-1.509946499609108
 20
-0.1790373738501783
 10
-1.50499183913704
 20
-0.1842628795203941
 10
-1.502883954670297
 20
-0.1891729979031393
 10
-1.503270390257032
 20
-0.1933898041312626
  0
LINE
  5
127
330
F0
100
AcDbEntity
  8
AM_9
100
AcDbLine
 10
-1.427318118612228
 20
0.2
 30
0.0
 11
-1.490007420462285
 21
0.2
 31
0.0
  0
LINE
  5
128
330
F0
100
AcDbEntity
  8
AM_9
100
AcDbLine
 10
-1.490010064549661
 20
-0.2
 30
0.0
 11
-1.427318118612228
 21
-0.2
 31
0.0
  0
LINE
  5
129
330
F0
100
AcDbEntity
  8
AM_9
100
AcDbLine
 10
-1.369878062988759
 20
-0.21875
 30
0.0
 11
-1.285420664229785
 21
-0.21875
 31
0.0
  0
LINE
  5
12A
330
F0
100
AcDbEntity
  8
AM_9
100
AcDbLine
 10
-1.285420664229785
 20
0.2187499999999999
 30
0.0
 11
-1.369875478790417
 21
0.2187499999999999
 31
0.0
  0
ELLIPSE
  5
12B
330
F0
100
AcDbEntity
  8
AM_9
100
AcDbEllipse
 10
-1.340715578233781
 20
0.0000000000000034
 30
0.0
 11
1.339457436567439E-17
 21
0.2187500000000035
 31
0.0
210
0.0
220
0.0
230
1.0
 40
0.499999999999995
 41
2.870542616421448
 42
6.554235344347938
  0
LINE
  5
12C
330
F0
100
AcDbEntity
  8
AM_9
100
AcDbLine
 10
-1.273057343563125
 20
0.1999999999999999
 30
0.0
 11
-1.340715578233785
 21
0.1999999999999999
 31
0.0
  0
LINE
  5
12D
330
F0
100
AcDbEntity
  8
AM_9
100
AcDbLine
 10
-1.340715578233785
 20
-0.2
 30
0.0
 11
-1.273057343563125
 21
-0.2
 31
0.0
  0
ELLIPSE
  5
12E
330
F0
100
AcDbEntity
  8
AM_9
100
AcDbEllipse
 10
-1.340715578233777
 20
-0.0000000000000027
 30
0.0
 11
1.224646799147369E-17
 21
0.2000000000000026
 31
0.0
210
0.0
220
0.0
230
1.0
 40
0.5000000000000039
 41
2.844392540519165
 42
6.580385420250208
  0
LINE
  5
12F
330
F0
100
AcDbEntity
  8
AM_9
100
AcDbLine
 10
-1.102512725940722
 20
0.1853871066562612
 30
0.0
 11
-1.271329615624791
 21
0.1914800577488989
 31
0.0
  0
LINE
  5
130
330
F0
100
AcDbEntity
  8
AM_9
100
AcDbLine
 10
-1.271329615624791
 20
-0.191480057748899
 30
0.0
 11
-1.102512725940722
 21
-0.1853871066562613
 31
0.0
  0
LINE
  5
131
330
F0
100
AcDbEntity
  8
AM_9
100
AcDbLine
 10
-1.036945988658572
 20
0.1319978794387896
 30
0.0
 11
-1.050660115717641
 21
0.1513925839218323
 31
0.0
  0
LINE
  5
132
330
F0
100
AcDbEntity
  8
AM_9
100
AcDbLine
 10
-1.050660115717641
 20
-0.1513925839218324
 30
0.0
 11
-1.036945988658572
 21
-0.1319978794387897
 31
0.0
  0
ELLIPSE
  5
133
330
F0
100
AcDbEntity
  8
AM_9
100
AcDbEllipse
 10
-1.427318118612228
 20
0.0
 30
0.0
 11
1.339457436567416E-17
 21
0.2187499999999997
 31
0.0
210
0.0
220
0.0
230
1.0
 40
0.5000000000000028
 41
0.0
 42
6.283185307179586
  0
ELLIPSE
  5
134
330
F0
100
AcDbEntity
  8
AM_9
100
AcDbEllipse
 10
-1.427318118612228
 20
0.0000000000000001
 30
0.0
 11
1.224646799147355E-17
 21
0.2000000000000002
 31
0.0
210
0.0
220
0.0
230
1.0
 40
0.4999999999999988
 41
0.0
 42
6.283185307179586
  0
ELLIPSE
  5
135
330
F0
100
AcDbEntity
  8
AM_9
100
AcDbEllipse
 10
-1.273057343563125
 20
0.0000000000000001
 30
0.0
 11
1.224646799147352E-17
 21
0.1999999999999998
 31
0.0
210
0.0
220
0.0
230
1.0
 40
0.4999999999999976
 41
0.0
 42
6.283185307179586
  0
ELLIPSE
  5
136
330
F0
100
AcDbEntity
  8
AM_9
100
AcDbEllipse
 10
-1.273057343563125
 20
-0.0000000000000002
 30
0.0
 11
1.172668097677218E-17
 21
0.1915112338502293
 31
0.0
210
0.0
220
0.0
230
1.0
 40
0.5000000000000008
 41
0.0
 42
6.283185307179586
  0
ELLIPSE
  5
137
330
F0
100
AcDbEntity
  8
AM_9
100
AcDbEllipse
 10
-1.104185477073881
 20
-0.0000000000000003
 30
0.0
 11
1.135353457964640E-17
 21
0.1854172907249857
 31
0.0
210
0.0
220
0.0
230
1.0
 40
0.4999999999999961
 41
0.0
 42
6.283185307179586
  0
ELLIPSE
  5
138
330
F0
100
AcDbEntity
  8
AM_9
100
AcDbEllipse
 10
-1.083614286485276
 20
0.0000000000000009
 30
0.0
 11
9.899048221688798E-18
 21
0.1616637258772227
 31
0.0
210
0.0
220
0.0
230
1.0
 40
0.4999999999999942
 41
0.0
 42
6.283185307179586
  0
LWPOLYLINE
  5
139
330
F0
100
AcDbEntity
  8
AM_4
100
AcDbPolyline
 90
        4
 70
     0
 43
0.0
 10
-1.503616925639198
 20
-0.2360765106845276
 10
-1.494451939062641
 20
-0.2462091938631851
 10
-1.486360668283654
 20
-0.2570505402207574
 10
-1.478763897605643
 20
-0.2689146070947222
  0
LWPOLYLINE
  5
13A
330
F0
100
AcDbEntity
  8
AM_4
100
AcDbPolyline
 90
        3
 70
     0
 43
0.0
 10
-1.478763897605643
 20
-0.2689146070947222
 10
-1.491759785455254
 20
-0.2634308483997528
 10
-1.505973685569494
 20
-0.2602304684431305
  0
LWPOLYLINE
  5
13B
330
F0
100
AcDbEntity
  8
AM_4
100
AcDbPolyline
 90
        3
 70
     0
 43
0.0
 10
-1.524273593108028
 20
-0.3055458577949631
 10
-1.50789163848905
 20
-0.3030753670497808
 10
-1.490819546916621
 20
-0.2987675689889718
  0
LINE
  5
13C
330
F0
100
AcDbEntity
  8
AM_4
100
AcDbLine
 10
-1.478763897605643
 20
-0.2689146070947222
 30
0.0
 11
-1.490819546916621
 21
-0.2987675689889718
 31
0.0
  0
LINE
  5
13D
330
F0
100
AcDbEntity
  8
AM_4
100
AcDbLine
 10
-1.638461647894366
 20
-0.5093460834378319
 30
0.0
 11
-1.577849897627102
 21
-0.4540180898723598
 31
0.0
  0
LINE
  5
13E
330
F0
100
AcDbEntity
  8
AM_4
100
AcDbLine
 10
-1.834585064926977
 20
-0.3503396289636352
 30
0.0
 11
-1.829391642636246
 21
-0.4322420068738781
 31
0.0
  0
ELLIPSE
  5
13F
330
F0
100
AcDbEntity
  8
AM_4
100
AcDbEllipse
 10
-1.733101189765712
 20
-0.4687500000000001
 30
0.0
 11
-0.09595382955731768
 21
0.03874944547499717
 31
0.0
210
0.0
220
0.0
230
1.0
 40
0.2113091308703453
 41
0.1009830038932584
 42
3.040609649696539
  0
LINE
  5
140
330
F0
100
AcDbEntity
  8
AM_4
100
AcDbLine
 10
-1.781115122981999
 20
-0.151074129835757
 30
0.0
 11
-1.792436696205876
 21
-0.1791093260592887
 31
0.0
  0
LWPOLYLINE
  5
141
330
F0
100
AcDbEntity
  8
AM_4
100
AcDbPolyline
 90
       10
 70
     0
 43
0.0
 10
-1.811294147865312
 20
-0.3181510377553937
 10
-1.815180920956667
 20
-0.3196158821787441
 10
-1.819818253842665
 20
-0.3220520242562966
 10
-1.824014860416653
 20
-0.3251431240682409
 10
-1.827691786585919
 20
-0.3289074589157382
 10
-1.830709414590856
 20
-0.3332924469079873
 10
-1.833076602352788
 20
-0.3386068500980574
 10
-1.834350651800157
 20
-0.3440331658096441
 10
-1.834632659367948
 20
-0.3493418112023429
 10
-1.834580156729715
 20
-0.3504156019201342
  0
LWPOLYLINE
  5
142
330
F0
100
AcDbEntity
  8
AM_4
100
AcDbPolyline
 90
       11
 70
     0
 43
0.0
 10
-1.577879153120681
 20
-0.45404476188692
 10
-1.577586681339743
 20
-0.4537751002066705
 10
-1.574045487485568
 20
-0.4498634031536204
 10
-1.571196887064464
 20
-0.4453531783363237
 10
-1.569058412618742
 20
-0.4399972587838273
 10
-1.567996990691451
 20
-0.4345785138124388
 10
-1.567899937944328
 20
-0.4293104910027659
 10
-1.568624758439764
 20
-0.424283509229041
 10
-1.570054460709704
 20
-0.4195086970722571
 10
-1.572136052690753
 20
-0.4149090039721414
 10
-1.572243510293522
 20
-0.414707397647698
  0
ELLIPSE
  5
143
330
F0
100
AcDbEntity
  8
AM_4
100
AcDbEllipse
 10
-1.705107527568228
 20
-0.399430321788976
 30
0.0
 11
-0.129024894793327
 21
0.05210467522533588
 31
0.0
210
0.0
220
0.0
230
1.0
 40
0.2113091308703519
 41
0.1015435724789437
 42
3.040317266205564
  0
LWPOLYLINE
  5
144
330
F0
100
AcDbEntity
  8
AM_4
100
AcDbPolyline
 90
        3
 70
     0
 43
0.0
 10
-1.572009428521412
 20
-0.2987675689889718
 10
-1.558476163021022
 20
-0.3030606061861223
 10
-1.544916878396037
 20
-0.305456396233367
  0
ELLIPSE
  5
145
330
F0
100
AcDbEntity
  8
AM_4
100
AcDbEllipse
 10
-1.643431642826899
 20
-0.2467045921760201
 30
0.0
 11
-0.1303939210191756
 21
0.05265753494273437
 31
0.0
210
0.0
220
0.0
230
1.0
 40
0.21130913087035
 41
1.711945269609638
 42
2.505596057672105
  0
LWPOLYLINE
  5
146
330
F0
100
AcDbEntity
  8
AM_4
100
AcDbPolyline
 90
        4
 70
     0
 43
0.0
 10
-1.792436696205876
 20
-0.1791093260592887
 10
-1.777559578162801
 20
-0.1988355121406938
 10
-1.761130305920126
 20
-0.2156330920108724
 10
-1.755633287308783
 20
-0.2201680623457971
  0
LWPOLYLINE
  5
147
330
F0
100
AcDbEntity
  8
AM_4
100
AcDbPolyline
 90
        3
 70
     0
 43
0.0
 10
-1.755633287308783
 20
-0.2201680623457971
 10
-1.742692765710155
 20
-0.229046210966002
 10
-1.722817404767839
 20
-0.2389369657326275
  0
LWPOLYLINE
  5
148
330
F0
100
AcDbEntity
  8
AM_4
100
AcDbPolyline
 90
        4
 70
     0
 43
0.0
 10
-1.525730085522762
 20
-0.2602304684431209
 10
-1.534978720936656
 20
-0.2616913382589203
 10
-1.547276238386291
 20
-0.2647402074337706
 10
-1.559953779210434
 20
-0.2689146070947222
  0
LINE
  5
149
330
F0
100
AcDbEntity
  8
AM_4
100
AcDbLine
 10
-1.71214548721881
 20
-0.1230967854582223
 30
0.0
 11
-1.727128757952253
 21
-0.1601993088245384
 31
0.0
  0
LINE
  5
14A
330
F0
100
AcDbEntity
  8
AM_4
100
AcDbLine
 10
-1.523134712624477
 20
-0.2425790968238376
 30
0.0
 11
-1.505939813803223
 21
-0.2
 31
0.0
  0
ELLIPSE
  5
14B
330
F0
100
AcDbEntity
  8
AM_4
100
AcDbEllipse
 10
-1.625131735288365
 20
-0.201389202824188
 30
0.0
 11
-0.1019970226638878
 21
0.04118989399964965
 31
0.0
210
0.0
220
0.0
230
1.0
 40
0.2113091308703497
 41
0.0
 42
3.141592653589793
  0
LWPOLYLINE
  5
14C
330
F0
100
AcDbEntity
  8
AM_4
100
AcDbPolyline
 90
        4
 70
     0
 43
0.0
 10
-1.781115122981999
 20
-0.151074129835757
 10
-1.764499280994471
 20
-0.145877822676052
 10
-1.748444668339338
 20
-0.1427138007556462
 10
-1.736836121721703
 20
-0.141958509815605
  0
LWPOLYLINE
  5
14D
330
F0
100
AcDbEntity
  8
AM_4
100
AcDbPolyline
 90
        7
 70
     0
 43
0.0
 10
-1.711130158548293
 20
-0.2099962668917053
 10
-1.721439294905623
 20
-0.1943573015029058
 10
-1.732783121739833
 20
-0.1805491420332303
 10
-1.74549709631664
 20
-0.1688997677199809
 10
-1.759393022506332
 20
-0.159872940321087
 10
-1.770066362146975
 20
-0.1549033058439655
 10
-1.781115122981999
 20
-0.151074129835757
  0
LINE
  5
14E
330
F0
100
AcDbEntity
  8
AM_4
100
AcDbLine
 10
-1.735506268178874
 20
-0.1419585097669023
 30
0.0
 11
-1.736944744827027
 21
-0.1419585097669023
 31
0.0
  0
ELLIPSE
  5
14F
330
F0
100
AcDbEntity
  8
AM_4
100
AcDbEllipse
 10
-1.625131735288363
 20
-0.2013892028241939
 30
0.0
 11
-0.1303939210191776
 21
0.05265753494273889
 31
0.0
210
0.0
220
0.0
230
1.0
 40
0.211309130870367
 41
5.61061382579931
 42
7.795870906981477
  0
ELLIPSE
  5
150
330
F0
100
AcDbEntity
  8
AM_4
100
AcDbEllipse
 10
-1.643431642826898
 20
-0.246704592176021
 30
0.0
 11
-0.1303939210191756
 21
0.05265753494273437
 31
0.0
210
0.0
220
0.0
230
1.0
 40
0.2113091308703474
 41
0.6359965959176836
 42
1.512685599801934
  0
LWPOLYLINE
  5
151
330
F0
100
AcDbEntity
  8
AM_4
100
AcDbPolyline
 90
        3
 70
     0
 43
0.0
 10
-1.544029993061298
 20
-0.3055458577949631
 10
-1.534579794174989
 20
-0.3064767622622301
 10
-1.524273593108028
 20
-0.3055458577949631
  0
LWPOLYLINE
  5
152
330
F0
100
AcDbEntity
  8
AM_4
100
AcDbPolyline
 90
       21
 70
     0
 43
0.0
 10
-1.572054524257865
 20
-0.4150635358998769
 10
-1.573100087621259
 20
-0.4129605177586503
 10
-1.575154855822213
 20
-0.4081392192781306
 10
-1.577083213425249
 20
-0.4023295348159264
 10
-1.578668052935807
 20
-0.3955839289821685
 10
-1.579687882988947
 20
-0.3880537435696202
 10
-1.579959058535195
 20
-0.3799621868857491
 10
-1.57936080680304
 20
-0.3715521454466585
 10
-1.577624368396092
 20
-0.3621799318393068
 10
-1.574810250945509
 20
-0.3531179221982481
 10
-1.571038226780926
 20
-0.344608572695229
 10
-1.566452814245097
 20
-0.3367980099288286
 10
-1.561219704905236
 20
-0.3297923889048104
 10
-1.555525287067287
 20
-0.3236676675241597
 10
-1.549585688592476
 20
-0.3184775927909618
 10
-1.543648012344119
 20
-0.3142462549937557
 10
-1.53797381905428
 20
-0.3109532770808642
 10
-1.532799852852326
 20
-0.3085219756559928
 10
-1.528297123246922
 20
-0.3068262748638513
 10
-1.524561062137021
 20
-0.3057172978785985
 10
-1.522348169374777
 20
-0.3051955835686572
  0
LWPOLYLINE
  5
153
330
F0
100
AcDbEntity
  8
AM_4
100
AcDbPolyline
 90
       20
 70
     0
 43
0.0
 10
-1.770017885119065
 20
-0.2065064774506113
 10
-1.768377918976024
 20
-0.2093556439938787
 10
-1.766346167611145
 20
-0.2134942157764937
 10
-1.764307949936564
 20
-0.2186082782310591
 10
-1.762457712310148
 20
-0.2247050794189788
 10
-1.761018067777976
 20
-0.2317029928593113
 10
-1.760203439652948
 20
-0.239424579889725
 10
-1.760180161515668
 20
-0.2476354686622226
 10
-1.761207322153236
 20
-0.2570618556131397
 10
-1.763357151615504
 20
-0.2663677463173257
 10
-1.766542547511376
 20
-0.275245324020458
 10
-1.770634835211237
 20
-0.2835098843905158
 10
-1.775480973107741
 20
-0.2910317419844334
 10
-1.780908623585908
 20
-0.2977179238480896
 10
-1.786721082337405
 20
-0.3035004579127317
 10
-1.79269019653618
 20
-0.3083352504194735
 10
-1.798560254110301
 20
-0.3122128161145364
 10
-1.804073470346118
 20
-0.3151737648238851
 10
-1.809013846694683
 20
-0.3173152332190284
 10
-1.811699102951998
 20
-0.3182829445810871
  0
ELLIPSE
  5
154
330
F0
100
AcDbEntity
  8
AM_4
100
AcDbEllipse
 10
-1.694432546090883
 20
-0.3729962569746642
 30
0.0
 11
-0.1235034625625955
 21
0.04987493162723571
 31
0.0
210
0.0
220
0.0
230
1.0
 40
0.2113091308703509
 41
6.040285032562402
 42
9.667730510579272
  0
ELLIPSE
  5
155
330
F0
100
AcDbEntity
  8
AM_4
100
AcDbEllipse
 10
-1.625131735288366
 20
-0.201389202824187
 30
0.0
 11
-0.1303939210191831
 21
0.05265753494272145
 31
0.0
210
0.0
220
0.0
230
1.0
 40
0.2113091308703633
 41
1.711945269609621
 42
2.518556725320336
  0
LINE
  5
156
330
F0
100
AcDbEntity
  8
AM_4
100
AcDbLine
 10
-1.505973685569494
 20
-0.2602304684431305
 30
0.0
 11
-1.525730085522762
 21
-0.2602304684431209
 31
0.0
  0
ELLIPSE
  5
157
330
F0
100
AcDbEntity
  8
AM_4
100
AcDbEllipse
 10
-1.625131735288364
 20
-0.2013892028241889
 30
0.0
 11
-0.1303939210191734
 21
0.05265753494273319
 31
0.0
210
0.0
220
0.0
230
1.0
 40
0.2113091308703484
 41
2.800469246484368
 42
3.607080702195131
  0
LINE
  5
158
330
F0
100
AcDbEntity
  8
AM_4
100
AcDbLine
 10
-1.515638455821005
 20
-0.2258378743019628
 30
0.0
 11
-1.503616925639198
 21
-0.2360765106845276
 31
0.0
  0
LWPOLYLINE
  5
159
330
F0
100
AcDbEntity
  8
AM_4
100
AcDbPolyline
 90
        3
 70
     0
 43
0.0
 10
-1.559953779210434
 20
-0.2689146070947222
 10
-1.588016079179278
 20
-0.251275593729576
 10
-1.617804184017264
 20
-0.2360765106845274
  0
LINE
  5
15A
330
F0
100
AcDbEntity
  8
AM_4
100
AcDbLine
 10
-1.617804184017264
 20
-0.2360765106845274
 30
0.0
 11
-1.643812993043249
 21
-0.2258378743019626
 31
0.0
  0
LWPOLYLINE
  5
15B
330
F0
100
AcDbEntity
  8
AM_4
100
AcDbPolyline
 90
        4
 70
     0
 43
0.0
 10
-1.643812993043249
 20
-0.2258378743019626
 10
-1.666803027735489
 20
-0.2189176876709014
 10
-1.688808897596174
 20
-0.2138633349839127
 10
-1.711130158548293
 20
-0.2099962668917053
  0
LINE
  5
15C
330
F0
100
AcDbEntity
  8
AM_4
100
AcDbLine
 10
-1.711130158548293
 20
-0.2099962668917053
 30
0.0
 11
-1.722817404767838
 21
-0.2389369657326276
 31
0.0
  0
LWPOLYLINE
  5
15D
330
F0
100
AcDbEntity
  8
AM_4
100
AcDbPolyline
 90
        3
 70
     0
 43
0.0
 10
-1.722817404767838
 20
-0.2389369657326276
 10
-1.693137583534037
 20
-0.2560939713202353
 10
-1.662112900581781
 20
-0.2711532636537956
  0
LINE
  5
15E
330
F0
100
AcDbEntity
  8
AM_4
100
AcDbLine
 10
-1.662112900581781
 20
-0.2711532636537956
 30
0.0
 11
-1.636104091555798
 21
-0.2813919000363599
 31
0.0
  0
LWPOLYLINE
  5
15F
330
F0
100
AcDbEntity
  8
AM_4
100
AcDbPolyline
 90
        3
 70
     0
 43
0.0
 10
-1.636104091555798
 20
-0.2813919000363599
 10
-1.604453540701774
 20
-0.2911775952746242
 10
-1.572009428521412
 20
-0.2987675689889718
  0
LINE
  5
160
330
F0
100
AcDbEntity
  8
AM_4
100
AcDbLine
 10
-1.559953779210434
 20
-0.2689146070947222
 30
0.0
 11
-1.572009428521412
 21
-0.2987675689889718
 31
0.0
  0
ARC
  5
161
330
F0
100
AcDbEntity
  8
AM_4
100
AcDbCircle
 10
-1.554515599793067
 20
-0.0000000000000004
 30
0.0
 40
0.2000000000000003
100
AcDbArc
 50
90.0
 51
219.6389005324226
  0
LWPOLYLINE
  5
162
330
F0
100
AcDbEntity
  8
AM_4
100
AcDbPolyline
 90
       10
 70
     0
 43
0.0
 10
-1.708719284081761
 20
-0.1273625300416625
 10
-1.707054650102397
 20
-0.1291842652280562
 10
-1.700777102834733
 20
-0.1344729790611519
 10
-1.691619503772012
 20
-0.1405186270901959
 10
-1.680323314610001
 20
-0.146827078301712
 10
-1.666582163469251
 20
-0.1535654953592165
 10
-1.651520673729769
 20
-0.1601799433259583
 10
-1.63472725091011
 20
-0.1668493358980661
 10
-1.617327914756114
 20
-0.1731116383367605
 10
-1.599084699977011
 20
-0.1790373738502115
  0
ELLIPSE
  5
163
330
F0
100
AcDbEntity
  8
AM_4
100
AcDbEllipse
 10
-1.554515599793068
 20
-0.0000000000000001
 30
0.0
 11
1.224646799147354E-17
 21
0.2000000000000001
 31
0.0
210
0.0
220
0.0
230
1.0
 40
0.4999999999999991
 41
0.0
 42
2.679646633022824
  0
LINE
  5
164
330
F0
100
AcDbEntity
  8
AM_4
100
AcDbLine
 10
-1.490007420462285
 20
0.2
 30
0.0
 11
-1.554515599793068
 21
0.2
 31
0.0
  0
LINE
  5
165
330
F0
100
AcDbEntity
  8
AM_4
100
AcDbLine
 10
-1.519609381390954
 20
-0.2
 30
0.0
 11
-1.490010064549661
 21
-0.2
 31
0.0
  0
LWPOLYLINE
  5
166
330
F0
100
AcDbEntity
  8
AM_4
100
AcDbPolyline
 90
        8
 70
     0
 43
0.0
 10
-1.519461597164047
 20
-0.1999999999699528
 10
-1.52094871440335
 20
-0.1999786710855127
 10
-1.531822314880099
 20
-0.1988321115509052
 10
-1.544220636594082
 20
-0.1961649429984259
 10
-1.558644066960074
 20
-0.1920694300574957
 10
-1.574157046820891
 20
-0.1870948030566195
 10
-1.591250450607862
 20
-0.181500594761393
 10
-1.599084699977028
 20
-0.1790373738501784
  0
LINE
  5
167
330
F0
100
AcDbEntity
  8
AM_4
100
AcDbLine
 10
-1.482613032616228
 20
-0.21875
 30
0.0
 11
-1.369878062988759
 21
-0.21875
 31
0.0
  0
LINE
  5
168
330
F0
100
AcDbEntity
  8
AM_4
100
AcDbLine
 10
-1.369875478790417
 20
0.2187499999999999
 30
0.0
 11
-1.482613032616228
 21
0.2187499999999999
 31
0.0
  0
ELLIPSE
  5
169
330
F0
100
AcDbEntity
  8
AM_4
100
AcDbEllipse
 10
-1.340715578233784
 20
0.0
 30
0.0
 11
1.339457436567418E-17
 21
0.21875
 31
0.0
210
0.0
220
0.0
230
1.0
 40
0.500000000000001
 41
0.2710500371683162
 42
2.870542616421477
  0
ELLIPSE
  5
16A
330
F0
100
AcDbEntity
  8
AM_4
100
AcDbEllipse
 10
-1.340715578233785
 20
0.0
 30
0.0
 11
1.224646799147352E-17
 21
0.1999999999999998
 31
0.0
210
0.0
220
0.0
230
1.0
 40
0.4999999999999986
 41
0.2972001130705566
 42
2.844392540519237
  0
LWPOLYLINE
  5
16B
330
F0
100
AcDbEntity
  8
AM_4
100
AcDbPolyline
 90
        4
 70
     0
 43
0.0
 10
-1.522039647151151
 20
0.1093749999999999
 10
-1.513620150481497
 20
0.1367187499999999
 10
-1.504179997167228
 20
0.1640624999999999
 10
-1.482613032616228
 20
0.2187499999999999
  0
LWPOLYLINE
  5
16C
330
F0
100
AcDbEntity
  8
AM_4
100
AcDbPolyline
 90
        4
 70
     0
 43
0.0
 10
-1.545760718308843
 20
0.0
 10
-1.535806510879568
 20
0.0544416102741495
 10
-1.529447430269988
 20
0.0818700010907651
 10
-1.522039647151151
 20
0.1093749999999999
  0
LWPOLYLINE
  5
16D
330
F0
100
AcDbEntity
  8
AM_4
100
AcDbPolyline
 90
        4
 70
     0
 43
0.0
 10
-1.411716035615016
 20
0.2187499999999999
 10
-1.421670243044291
 20
0.1643083897258504
 10
-1.428029323653871
 20
0.1368799989092348
 10
-1.435437106772707
 20
0.1093749999999999
  0
LWPOLYLINE
  5
16E
330
F0
100
AcDbEntity
  8
AM_4
100
AcDbPolyline
 90
        4
 70
     0
 43
0.0
 10
-1.435437106772707
 20
0.1093749999999999
 10
-1.443856603442362
 20
0.08203125
 10
-1.453296756756631
 20
0.0546875
 10
-1.474863721307631
 20
0.0
  0
LINE
  5
16F
330
F0
100
AcDbEntity
  8
AM_4
100
AcDbLine
 10
-1.545760718308843
 20
0.0
 30
0.0
 11
-1.474863721307631
 21
0.0
 31
0.0
  0
LWPOLYLINE
  5
170
330
F0
100
AcDbEntity
  8
AM_4
100
AcDbPolyline
 90
        4
 70
     0
 43
0.0
 10
-1.522039647151151
 20
-0.1093749999999999
 10
-1.529407071904651
 20
-0.08203125
 10
-1.535753840013536
 20
-0.0546875
 10
-1.545760718308843
 20
0.0
  0
LWPOLYLINE
  5
171
330
F0
100
AcDbEntity
  8
AM_4
100
AcDbPolyline
 90
        4
 70
     0
 43
0.0
 10
-1.482613032616228
 20
-0.21875
 10
-1.50409070353385
 20
-0.1643083897258504
 10
-1.513567411745681
 20
-0.1368799989092349
 10
-1.522039647151151
 20
-0.1093749999999999
  0
LWPOLYLINE
  5
172
330
F0
100
AcDbEntity
  8
AM_4
100
AcDbPolyline
 90
        4
 70
     0
 43
0.0
 10
-1.435437106772707
 20
-0.109375
 10
-1.428069682019208
 20
-0.13671875
 10
-1.421722913910323
 20
-0.1640625
 10
-1.411716035615016
 20
-0.21875
  0
LWPOLYLINE
  5
173
330
F0
100
AcDbEntity
  8
AM_4
100
AcDbPolyline
 90
        4
 70
     0
 43
0.0
 10
-1.474863721307631
 20
0.0
 10
-1.453386050390009
 20
-0.0544416102741496
 10
-1.443909342178178
 20
-0.0818700010907651
 10
-1.435437106772707
 20
-0.109375
  0
ENDBLK
  5
F3
330
F0
100
AcDbEntity
  8
0
100
AcDbBlockEnd
  0
BLOCK
  5
176
330
174
100
AcDbEntity
  8
0
100
AcDbBlockBegin
  2
4_125536vscwd_0_in_125552_4
 70
     2
 10
0.0
 20
0.0
 30
0.0
  3
4_125536vscwd_0_in_125552_4
  1

  0
ATTDEF
  5
178
330
174
100
AcDbEntity
  8
AM_6
100
AcDbText
 10
7.459
 20
0.6899999999999998
 30
0.0
 40
0.5
  1
WSTU-VSC - Body
100
AcDbAttributeDefinition
  3

  2
NN
 70
     8
280
     0
  0
ATTDEF
  5
179
330
174
100
AcDbEntity
  8
AM_6
100
AcDbText
 10
7.459
 20
0.1899999999999998
 30
0.0
 40
0.5
  1
VSC Intermediate Duty Wide Slot Take-Up Bearings
100
AcDbAttributeDefinition
  3

  2
NT
 70
     8
280
     0
  0
ATTDEF
  5
17A
330
174
100
AcDbEntity
  8
AM_6
100
AcDbText
 10
7.459
 20
-0.3100000000000002
 30
0.0
 40
0.5
  1
125536vscwd
100
AcDbAttributeDefinition
  3

  2
NB
 70
     8
280
     0
  0
ATTDEF
  5
17B
330
174
100
AcDbEntity
  8
AM_6
100
AcDbText
 10
7.459
 20
-0.8100000000000002
 30
0.0
 40
0.5
  1
$PN.
100
AcDbAttributeDefinition
  3

  2
NBSYN
 70
     8
280
     0
  0
ATTDEF
  5
17C
330
174
100
AcDbEntity
  8
AM_6
100
AcDbText
 10
7.459
 20
-1.31
 30
0.0
 40
0.5
  1
125536vscwd
100
AcDbAttributeDefinition
  3

  2
LINA
 70
     8
280
     0
  0
ATTDEF
  5
17D
330
174
100
AcDbEntity
  8
AM_6
100
AcDbText
 10
7.459
 20
-1.81
 30
0.0
 40
0.5
  1
205
100
AcDbAttributeDefinition
  3

  2
RS
 70
     8
280
     0
  0
ATTDEF
  5
17E
330
174
100
AcDbEntity
  8
AM_6
100
AcDbText
 10
7.459
 20
-2.31
 30
0.0
 40
0.5
  1
1
100
AcDbAttributeDefinition
  3

  2
SS
 70
     8
280
     0
  0
ATTDEF
  5
17F
330
174
100
AcDbEntity
  8
AM_6
100
AcDbText
 10
7.459
 20
-2.81
 30
0.0
 40
0.5
  1
125536vscwd
100
AcDbAttributeDefinition
  3

  2
PN
 70
     8
280
     0
  0
ATTDEF
  5
180
330
174
100
AcDbEntity
  8
AM_6
100
AcDbText
 10
7.459
 20
-3.31
 30
0.0
 40
0.5
  1
WSTU-VSC-100
100
AcDbAttributeDefinition
  3

  2
DESCRIPTION
 70
     8
280
     0
  0
ATTDEF
  5
181
330
174
100
AcDbEntity
  8
AM_6
100
AcDbText
 10
7.459
 20
-3.81
 30
0.0
 40
0.5
  1
1.34
100
AcDbAttributeDefinition
  3

  2
A
 70
     8
280
     0
  0
ATTDEF
  5
182
330
174
100
AcDbEntity
  8
AM_6
100
AcDbText
 10
7.459
 20
-4.31
 30
0.0
 40
0.5
  1
3.81
100
AcDbAttributeDefinition
  3

  2
B
 70
     8
280
     0
  0
ATTDEF
  5
183
330
174
100
AcDbEntity
  8
AM_6
100
AcDbText
 10
7.459
 20
-4.81
 30
0.0
 40
0.5
  1
0.531
100
AcDbAttributeDefinition
  3

  2
C
 70
     8
280
     0
  0
ATTDEF
  5
184
330
174
100
AcDbEntity
  8
AM_6
100
AcDbText
 10
7.459
 20
-5.31
 30
0.0
 40
0.5
  1
2.00
100
AcDbAttributeDefinition
  3

  2
D
 70
     8
280
     0
  0
ATTDEF
  5
185
330
174
100
AcDbEntity
  8
AM_6
100
AcDbText
 10
7.459
 20
-5.81
 30
0.0
 40
0.5
  1
2.44
100
AcDbAttributeDefinition
  3

  2
E
 70
     8
280
     0
  0
ATTDEF
  5
186
330
174
100
AcDbEntity
  8
AM_6
100
AcDbText
 10
7.459
 20
-6.31
 30
0.0
 40
0.5
  1
5/8
100
AcDbAttributeDefinition
  3

  2
F
 70
     8
280
     0
  0
ATTDEF
  5
187
330
174
100
AcDbEntity
  8
AM_6
100
AcDbText
 10
7.459
 20
-6.81
 30
0.0
 40
0.5
  1
0.38
100
AcDbAttributeDefinition
  3

  2
G
 70
     8
280
     0
  0
ATTDEF
  5
188
330
174
100
AcDbEntity
  8
AM_6
100
AcDbText
 10
7.459
 20
-7.31
 30
0.0
 40
0.5
  1
0.63
100
AcDbAttributeDefinition
  3

  2
H
 70
     8
280
     0
  0
ATTDEF
  5
189
330
174
100
AcDbEntity
  8
AM_6
100
AcDbText
 10
7.459
 20
-7.81
 30
0.0
 40
0.5
  1
2.00
100
AcDbAttributeDefinition
  3

  2
J
 70
     8
280
     0
  0
ATTDEF
  5
18A
330
174
100
AcDbEntity
  8
AM_6
100
AcDbText
 10
7.459
 20
-8.31
 30
0.0
 40
0.5
  1
1.31
100
AcDbAttributeDefinition
  3

  2
K
 70
     8
280
     0
  0
ATTDEF
  5
18B
330
174
100
AcDbEntity
  8
AM_6
100
AcDbText
 10
7.459
 20
-8.81
 30
0.0
 40
0.5
  1
1.32
100
AcDbAttributeDefinition
  3

  2
L
 70
     8
280
     0
  0
ATTDEF
  5
18C
330
174
100
AcDbEntity
  8
AM_6
100
AcDbText
 10
7.459
 20
-9.31
 30
0.0
 40
0.5
  1
2.985/3.015
100
AcDbAttributeDefinition
  3

  2
M
 70
     8
280
     0
  0
ATTDEF
  5
18D
330
174
100
AcDbEntity
  8
AM_6
100
AcDbText
 10
7.459
 20
-9.81
 30
0.0
 40
0.5
  1
3.63
100
AcDbAttributeDefinition
  3

  2
N
 70
     8
280
     0
  0
ATTDEF
  5
18E
330
174
100
AcDbEntity
  8
AM_6
100
AcDbText
 10
7.459
 20
-10.31
 30
0.0
 40
0.5
  1
0.56
100
AcDbAttributeDefinition
  3

  2
R
 70
     8
280
     0
  0
ATTDEF
  5
18F
330
174
100
AcDbEntity
  8
AM_6
100
AcDbText
 10
7.459
 20
-10.81
 30
0.0
 40
0.5
  1
0.78
100
AcDbAttributeDefinition
  3

  2
S
 70
     8
280
     0
  0
ATTDEF
  5
190
330
174
100
AcDbEntity
  8
AM_6
100
AcDbText
 10
7.459
 20
-11.31
 30
0.0
 40
0.5
  1
1.38
100
AcDbAttributeDefinition
  3

  2
T
 70
     8
280
     0
  0
ATTDEF
  5
191
330
174
100
AcDbEntity
  8
AM_6
100
AcDbText
 10
7.459
 20
-11.81
 30
0.0
 40
0.5
  1
baldor
100
AcDbAttributeDefinition
  3

  2
COMPANY
 70
     8
280
     0
  0
ELLIPSE
  5
192
330
174
100
AcDbEntity
  8
AM_9
100
AcDbEllipse
 10
-1.273057343563126
 20
0.0
 30
0.0
 11
1.224646799147352E-17
 21
0.1999999999999997
 31
0.0
210
0.0
220
0.0
230
1.0
 40
0.5
 41
0.0
 42
6.283185307179586
  0
LINE
  5
193
330
174
100
AcDbEntity
  8
AM_9
100
AcDbLine
 10
-1.188094284358024
 20
-0.2999910401375784
 30
0.0
 11
-1.186988107563837
 21
-0.2999990519525504
 31
0.0
  0
LWPOLYLINE
  5
194
330
174
100
AcDbEntity
  8
AM_9
100
AcDbPolyline
 90
       21
 70
     0
 43
0.0
 10
-1.37007491085599
 20
-0.1244222366172545
 10
-1.368519622307047
 20
-0.1298419346112092
 10
-1.363326441251688
 20
-0.1461077749213361
 10
-1.357412488845124
 20
-0.1620202226122846
 10
-1.350749242764473
 20
-0.1775224916673923
 10
-1.343310574582811
 20
-0.1925409703818489
 10
-1.335080937311521
 20
-0.2069787162919884
 10
-1.326087131408376
 20
-0.22068346156268
 10
-1.316377636051409
 20
-0.2335118361180712
 10
-1.306029317283928
 20
-0.2453304901740535
 10
-1.296299180010531
 20
-0.254970097017015
 10
-1.286211693082693
 20
-0.2636634395321277
 10
-1.275796070138219
 20
-0.2714173161636387
 10
-1.263872722580828
 20
-0.2789389376193774
 10
-1.251648865467734
 20
-0.2853012257562924
 10
-1.239209210123928
 20
-0.2905000162118502
 10
-1.226611893304408
 20
-0.2945509137223134
 10
-1.213916294704367
 20
-0.29747026781156
 10
-1.201183307889465
 20
-0.2992755929732743
 10
-1.188473947070905
 20
-0.299986409731491
 10
-1.188094284358024
 20
-0.2999910401375784
  0
LWPOLYLINE
  5
195
330
174
100
AcDbEntity
  8
AM_9
100
AcDbPolyline
 90
       21
 70
     0
 43
0.0
 10
-1.187456452316753
 20
0.2999966556354257
 10
-1.195613926801239
 20
0.2997201724842049
 10
-1.208117320104891
 20
0.2984296301531226
 10
-1.220423895366734
 20
0.2961161212145359
 10
-1.232489976772314
 20
0.2928075882776239
 10
-1.244279172492647
 20
0.2885297872037436
 10
-1.255762748191337
 20
0.283304234152795
 10
-1.266919367292183
 20
0.2771460623858637
 10
-1.277734024129303
 20
0.2700621344473834
 10
-1.288195982036372
 20
0.2620499650927953
 10
-1.298295569480527
 20
0.2530982883836174
 10
-1.308019868237487
 20
0.2431903626083764
 10
-1.317347775310466
 20
0.2323110772216106
 10
-1.326245732790721
 20
0.2204580452578796
 10
-1.334666363493747
 20
0.2076545327053572
 10
-1.342552328623333
 20
0.1939588270752663
 10
-1.349845579273474
 20
0.1794635507845032
 10
-1.356498320135228
 20
0.164283046432357
 10
-1.362472574282528
 20
0.1485564374669089
 10
-1.367760655879519
 20
0.132384733967118
 10
-1.370085152582716
 20
0.1243855558604719
  0
LINE
  5
196
330
174
100
AcDbEntity
  8
AM_9
100
AcDbLine
 10
2.06
 20
-0.3125
 30
0.0
 11
2.44
 21
-0.3125
 31
0.0
  0
LINE
  5
197
330
174
100
AcDbEntity
  8
AM_9
100
AcDbLine
 10
2.44
 20
0.3125
 30
0.0
 11
2.06
 21
0.3125
 31
0.0
  0
LINE
  5
198
330
174
100
AcDbEntity
  8
AM_9
100
AcDbLine
 10
1.4831
 20
-0.4513499999999999
 30
0.0
 11
1.4831
 21
0.45135
 31
0.0
  0
LINE
  5
199
330
174
100
AcDbEntity
  8
AM_9
100
AcDbLine
 10
1.43
 20
-0.4513499999999999
 30
0.0
 11
1.43
 21
0.45135
 31
0.0
  0
LINE
  5
19A
330
174
100
AcDbEntity
  8
AM_9
100
AcDbLine
 10
2.06
 20
-0.4513499999999999
 30
0.0
 11
2.06
 21
0.45135
 31
0.0
  0
LINE
  5
19B
330
174
100
AcDbEntity
  8
AM_9
100
AcDbLine
 10
2.006900000000001
 20
-0.4513499999999999
 30
0.0
 11
2.006900000000001
 21
0.45135
 31
0.0
  0
LWPOLYLINE
  5
19C
330
174
100
AcDbEntity
  8
AM_9
100
AcDbPolyline
 90
       17
 70
     0
 43
0.0
 10
-1.018210056311278
 20
-0.0946116572631072
 10
-1.020221154910154
 20
-0.1030436181427799
 10
-1.02670616148939
 20
-0.1261411708129664
 10
-1.03422543918486
 20
-0.1479133234741938
 10
-1.042798412390463
 20
-0.1686848756678092
 10
-1.052606165662667
 20
-0.1888499232693399
 10
-1.063304612358928
 20
-0.207685731444381
 10
-1.074698301165641
 20
-0.224956316465234
 10
-1.086726656483268
 20
-0.2406772014740799
 10
-1.099633332899882
 20
-0.2551179515824618
 10
-1.112938424387797
 20
-0.2677000359282652
 10
-1.126138880386524
 20
-0.2780640901175344
 10
-1.139457689492375
 20
-0.2864994114839536
 10
-1.153171392953195
 20
-0.2930966883344931
 10
-1.166749146109619
 20
-0.2975225163011974
 10
-1.176676264466643
 20
-0.2993771794989156
 10
-1.186454803184681
 20
-0.3000000000000001
  0
LWPOLYLINE
  5
19D
330
174
100
AcDbEntity
  8
AM_9
100
AcDbPolyline
 90
       10
 70
     0
 43
0.0
 10
-1.018154301221088
 20
0.0943660287632048
 10
-1.01799332563647
 20
0.0936447990049814
 10
-1.013171964633716
 20
0.0686926760858486
 10
-1.009945655727528
 20
0.0443461213081344
 10
-1.008107977445451
 20
0.0196832722409419
 10
-1.007701062546271
 20
-0.0058698980912321
 10
-1.008800939106924
 20
-0.0313784641745213
 10
-1.011245266186549
 20
-0.0554837974372323
 10
-1.015012500952284
 20
-0.0792080467755853
 10
-1.018210056311278
 20
-0.0946116572631072
  0
LWPOLYLINE
  5
19E
330
174
100
AcDbEntity
  8
AM_9
100
AcDbPolyline
 90
       16
 70
     0
 43
0.0
 10
-1.186454803184681
 20
0.3
 10
-1.173972889437998
 20
0.2989894432240159
 10
-1.161201735371026
 20
0.2959731695750912
 10
-1.147856234138569
 20
0.2907903841827804
 10
-1.134428212560073
 20
0.2835497635923943
 10
-1.121424407846972
 20
0.2745955659005042
 10
-1.108576898586724
 20
0.2638197467945571
 10
-1.095655657469387
 20
0.2509139541669133
 10
-1.0831572642192
 20
0.2362555501411443
 10
-1.071370963531033
 20
0.2201724473751415
 10
-1.060247063532842
 20
0.2025896496222234
 10
-1.049627766231051
 20
0.1830587770596932
 10
-1.039963224091955
 20
0.1621962784347506
 10
-1.031518096015051
 20
0.1405372530673677
 10
-1.024215395191329
 20
0.117875356101767
 10
-1.018154301221088
 20
0.0943660287632048
  0
LWPOLYLINE
  5
19F
330
174
100
AcDbEntity
  8
AM_9
100
AcDbPolyline
 90
       30
 70
     0
 43
0.0
 10
-1.186454803184681
 20
-0.3000000000000001
 10
-1.201497347330597
 20
-0.2984222464674554
 10
-1.215792774192065
 20
-0.2937262795832702
 10
-1.230126445613427
 20
-0.2852605225253476
 10
-1.243380832737353
 20
-0.273362136358797
 10
-1.255392628154556
 20
-0.2582582786115139
 10
-1.266270966355277
 20
-0.2397692949244908
 10
-1.275869439422383
 20
-0.2183003805113644
 10
-1.284132391329837
 20
-0.1942356839835302
 10
-1.291205093607254
 20
-0.1672395766191697
 10
-1.2969907749888
 20
-0.1380061309781282
 10
-1.301487551377851
 20
-0.1070757451355787
 10
-1.30472039896586
 20
-0.0749030775156538
 10
-1.30676505838282
 20
-0.0416403343203326
 10
-1.307627175262676
 20
-0.0079371580592769
 10
-1.307333340927322
 20
0.0251336951963758
 10
-1.305915556141633
 20
0.0579900900449057
 10
-1.303369736669242
 20
0.0900129409601041
 10
-1.299674690679271
 20
0.1207854402437023
 10
-1.294790012469919
 20
0.1501652242776679
 10
-1.288713360047301
 20
0.1776364165866133
 10
-1.281219717675508
 20
0.2034320698173305
 10
-1.272384378080611
 20
0.2267762603878385
 10
-1.262247592335272
 20
0.2472498113166791
 10
-1.250606094616872
 20
0.2648257587618955
 10
-1.237601567736206
 20
0.2790936077556256
 10
-1.223387632267904
 20
0.2897676224437213
 10
-1.211666615855394
 20
0.295422987958774
 10
-1.199311811327729
 20
0.2988484248189735
 10
-1.186454803184681
 20
0.3
  0
LINE
  5
1A0
330
174
100
AcDbEntity
  8
AM_9
100
AcDbLine
 10
-0.3333333333333333
 20
-0.2389499999999999
 30
0.0
 11
-0.3333333333333333
 21
0.45135
 31
0.0
  0
LINE
  5
1A1
330
174
100
AcDbEntity
  8
AM_9
100
AcDbLine
 10
0.3333333333333333
 20
-0.2389499999999999
 30
0.0
 11
0.3333333333333333
 21
0.45135
 31
0.0
  0
LINE
  5
1A2
330
174
100
AcDbEntity
  8
AM_9
100
AcDbLine
 10
1.0236
 20
-0.45135
 30
0.0
 11
1.0236
 21
0.45135
 31
0.0
  0
LINE
  5
1A3
330
174
100
AcDbEntity
  8
AM_9
100
AcDbLine
 10
-1.0236
 20
0.45135
 30
0.0
 11
-1.0236
 21
-0.45135
 31
0.0
  0
LINE
  5
1A4
330
174
100
AcDbEntity
  8
AM_9
100
AcDbLine
 10
0.3333333333333333
 20
-0.2389499999999999
 30
0.0
 11
-0.3333333333333333
 21
-0.2389499999999999
 31
0.0
  0
LINE
  5
1A5
330
174
100
AcDbEntity
  8
AM_9
100
AcDbLine
 10
1.0
 20
-0.4513499999999998
 30
0.0
 11
-1.0
 21
-0.4513499999999998
 31
0.0
  0
LINE
  5
1A6
330
174
100
AcDbEntity
  8
AM_9
100
AcDbLine
 10
1.0
 20
0.45135
 30
0.0
 11
-1.0
 21
0.45135
 31
0.0
  0
ELLIPSE
  5
1A7
330
174
100
AcDbEntity
  8
AM_9
100
AcDbEllipse
 10
-1.186454803184681
 20
-0.0000000000000001
 30
0.0
 11
-5.510910596163090E-17
 21
-0.3
 31
0.0
210
0.0
220
0.0
230
1.0
 40
0.4999999999999989
 41
0.0
 42
6.283185307179586
  0
LINE
  5
1A8
330
174
100
AcDbEntity
  8
AM_7
100
AcDbLine
 10
2.459
 20
0.0
 30
0.0
 11
2.041
 21
0.0
 31
0.0
  0
LWPOLYLINE
  5
1A9
330
174
100
AcDbEntity
  8
AM_4
100
AcDbPolyline
 90
        9
 70
     0
 43
0.0
 10
-1.386454803184681
 20
0.0
 10
-1.386363059257254
 20
-0.0095768111617527
 10
-1.385714641743252
 20
-0.0271716756788112
 10
-1.384443426344098
 20
-0.0446950248081787
 10
-1.382546006280077
 20
-0.0621049371557635
 10
-1.380016221211027
 20
-0.0793625622598186
 10
-1.376844712426041
 20
-0.096429827913398
 10
-1.373018340162452
 20
-0.1132690438800993
 10
-1.37007491085599
 20
-0.1244222366172545
  0
LWPOLYLINE
  5
1AA
330
174
100
AcDbEntity
  8
AM_4
100
AcDbPolyline
 90
        9
 70
     0
 43
0.0
 10
-1.370085152582716
 20
0.1243855558604719
 10
-1.372367484396764
 20
0.1158487937831443
 10
-1.376303713576626
 20
0.0990143168065875
 10
-1.379581584493342
 20
0.0819362667692158
 10
-1.382212541575122
 20
0.0646629339283983
 10
-1.384206132035815
 20
0.0472388815159309
 10
-1.385569647733128
 20
0.0297067930488252
 10
-1.386308114715931
 20
0.0121084812557654
 10
-1.386454803184681
 20
0.0
  0
LINE
  5
1AB
330
174
100
AcDbEntity
  8
AM_4
100
AcDbLine
 10
2.44
 20
0.6899999999999998
 30
0.0
 11
2.06
 21
0.6899999999999998
 31
0.0
  0
LINE
  5
1AC
330
174
100
AcDbEntity
  8
AM_4
100
AcDbLine
 10
2.06
 20
0.6899999999999998
 30
0.0
 11
2.06
 21
0.45135
 31
0.0
  0
LINE
  5
1AD
330
174
100
AcDbEntity
  8
AM_4
100
AcDbLine
 10
2.44
 20
0.6899999999999998
 30
0.0
 11
2.44
 21
-0.6899999999999998
 31
0.0
  0
LINE
  5
1AE
330
174
100
AcDbEntity
  8
AM_4
100
AcDbLine
 10
2.06
 20
-0.45135
 30
0.0
 11
2.06
 21
-0.6899999999999998
 31
0.0
  0
LINE
  5
1AF
330
174
100
AcDbEntity
  8
AM_4
100
AcDbLine
 10
2.06
 20
-0.6899999999999998
 30
0.0
 11
2.44
 21
-0.6899999999999998
 31
0.0
  0
LINE
  5
1B0
330
174
100
AcDbEntity
  8
AM_4
100
AcDbLine
 10
-1.3424
 20
0.4513500000000001
 30
0.0
 11
-1.37
 21
0.4237500000000001
 31
0.0
  0
LINE
  5
1B1
330
174
100
AcDbEntity
  8
AM_4
100
AcDbLine
 10
-1.3424
 20
0.4513500000000001
 30
0.0
 11
-1.0
 21
0.45135
 31
0.0
  0
LINE
  5
1B2
330
174
100
AcDbEntity
  8
AM_4
100
AcDbLine
 10
-1.37
 20
-0.4237499999999997
 30
0.0
 11
-1.3424
 21
-0.4513499999999999
 31
0.0
  0
LINE
  5
1B3
330
174
100
AcDbEntity
  8
AM_4
100
AcDbLine
 10
-1.3424
 20
-0.4513499999999999
 30
0.0
 11
-0.9999999999999997
 21
-0.4513499999999998
 31
0.0
  0
LINE
  5
1B4
330
174
100
AcDbEntity
  8
AM_4
100
AcDbLine
 10
-1.37
 20
0.4237500000000001
 30
0.0
 11
-1.37
 21
-0.4237499999999997
 31
0.0
  0
LINE
  5
1B5
330
174
100
AcDbEntity
  8
AM_4
100
AcDbLine
 10
-1.37
 20
0.4237500000000001
 30
0.0
 11
-1.0
 21
0.4237500000000002
 31
0.0
  0
LINE
  5
1B6
330
174
100
AcDbEntity
  8
AM_4
100
AcDbLine
 10
-1.37
 20
-0.4237499999999997
 30
0.0
 11
-1.0
 21
-0.4237499999999997
 31
0.0
  0
LINE
  5
1B7
330
174
100
AcDbEntity
  8
AM_4
100
AcDbLine
 10
2.44
 20
-0.4513499999999999
 30
0.0
 11
1.0
 21
-0.4513499999999999
 31
0.0
  0
LINE
  5
1B8
330
174
100
AcDbEntity
  8
AM_4
100
AcDbLine
 10
2.44
 20
-0.4513499999999995
 30
0.0
 11
2.386900004613751
 21
-0.3982500046137504
 31
0.0
  0
LINE
  5
1B9
330
174
100
AcDbEntity
  8
AM_4
100
AcDbLine
 10
2.44
 20
0.45135
 30
0.0
 11
1.0
 21
0.4513500000000001
 31
0.0
  0
LINE
  5
1BA
330
174
100
AcDbEntity
  8
AM_4
100
AcDbLine
 10
2.3869
 20
0.3982499999999998
 30
0.0
 11
2.44
 21
0.4513499999999999
 31
0.0
  0
LINE
  5
1BB
330
174
100
AcDbEntity
  8
AM_4
100
AcDbLine
 10
2.3869
 20
0.3982500000000003
 30
0.0
 11
1.0
 21
0.3982500000000003
 31
0.0
  0
LINE
  5
1BC
330
174
100
AcDbEntity
  8
AM_4
100
AcDbLine
 10
2.3869
 20
-0.3982499999999992
 30
0.0
 11
1.0
 21
-0.3982500000000001
 31
0.0
  0
LINE
  5
1BD
330
174
100
AcDbEntity
  8
AM_4
100
AcDbLine
 10
2.3869
 20
-0.3982499999999992
 30
0.0
 11
2.3869
 21
0.3982500000000003
 31
0.0
  0
LINE
  5
1BE
330
174
100
AcDbEntity
  8
AM_4
100
AcDbLine
 10
1.0
 20
0.5310000000000002
 30
0.0
 11
1.0
 21
-0.5309999999999997
 31
0.0
  0
LINE
  5
1BF
330
174
100
AcDbEntity
  8
AM_4
100
AcDbLine
 10
-1.0
 20
-0.2654999999999999
 30
0.0
 11
1.0
 21
-0.2654999999999999
 31
0.0
  0
LINE
  5
1C0
330
174
100
AcDbEntity
  8
AM_4
100
AcDbLine
 10
-0.9469
 20
-0.4778999999999999
 30
0.0
 11
-0.9469
 21
-0.2654999999999999
 31
0.0
  0
LINE
  5
1C1
330
174
100
AcDbEntity
  8
AM_4
100
AcDbLine
 10
0.9468999999999999
 20
-0.4778999999999999
 30
0.0
 11
0.9468999999999999
 21
-0.2654999999999998
 31
0.0
  0
LINE
  5
1C2
330
174
100
AcDbEntity
  8
AM_4
100
AcDbLine
 10
0.9468999999999999
 20
-0.4778999999999999
 30
0.0
 11
-0.9469
 21
-0.4778999999999999
 31
0.0
  0
LINE
  5
1C3
330
174
100
AcDbEntity
  8
AM_4
100
AcDbLine
 10
-0.9469
 20
-0.4778999999999999
 30
0.0
 11
-0.9999999999999997
 21
-0.5309999999999997
 31
0.0
  0
LINE
  5
1C4
330
174
100
AcDbEntity
  8
AM_4
100
AcDbLine
 10
1.0
 20
-0.5309999999999997
 30
0.0
 11
-0.9999999999999997
 21
-0.5309999999999997
 31
0.0
  0
LINE
  5
1C5
330
174
100
AcDbEntity
  8
AM_4
100
AcDbLine
 10
0.9999999999999997
 20
-0.5309999999999999
 30
0.0
 11
0.9469
 21
-0.4779
 31
0.0
  0
LINE
  5
1C6
330
174
100
AcDbEntity
  8
AM_4
100
AcDbLine
 10
1.0
 20
0.5310000000000002
 30
0.0
 11
-1.0
 21
0.5310000000000001
 31
0.0
  0
LINE
  5
1C7
330
174
100
AcDbEntity
  8
AM_4
100
AcDbLine
 10
0.9468999999999999
 20
0.4779
 30
0.0
 11
1.0
 21
0.5310000000000001
 31
0.0
  0
LINE
  5
1C8
330
174
100
AcDbEntity
  8
AM_4
100
AcDbLine
 10
0.9468999999999999
 20
0.2655000000000001
 30
0.0
 11
0.9468999999999999
 21
0.4779
 31
0.0
  0
LINE
  5
1C9
330
174
100
AcDbEntity
  8
AM_4
100
AcDbLine
 10
0.9468999999999999
 20
0.4779
 30
0.0
 11
-0.9469
 21
0.4779
 31
0.0
  0
LINE
  5
1CA
330
174
100
AcDbEntity
  8
AM_4
100
AcDbLine
 10
1.0
 20
0.2655000000000001
 30
0.0
 11
-1.0
 21
0.2655000000000001
 31
0.0
  0
LINE
  5
1CB
330
174
100
AcDbEntity
  8
AM_4
100
AcDbLine
 10
-0.9469
 20
0.2655000000000001
 30
0.0
 11
-0.9469
 21
0.4779
 31
0.0
  0
LINE
  5
1CC
330
174
100
AcDbEntity
  8
AM_4
100
AcDbLine
 10
-1.0
 20
0.5309999999999999
 30
0.0
 11
-0.9469
 21
0.4779
 31
0.0
  0
LINE
  5
1CD
330
174
100
AcDbEntity
  8
AM_4
100
AcDbLine
 10
-1.0
 20
0.5310000000000001
 30
0.0
 11
-0.9999999999999997
 21
-0.5309999999999997
 31
0.0
  0
ENDBLK
  5
177
330
174
100
AcDbEntity
  8
0
100
AcDbBlockEnd
  0
ENDSEC
  0
SECTION
  2
ENTITIES
  0
INSERT
  5
6F
330
1F
100
AcDbEntity
  8
0
100
AcDbBlockReference
  2
1_125552_4
 10
0.0
 20
0.0
 30
0.0
  0
POINT
  5
1CF
330
1F
100
AcDbEntity
  8
ConnectionPoints
100
AcDbPoint
 10
-1.273057343563125
 20
0.0
 30
-0.735
  0
POINT
  5
1D0
330
1F
100
AcDbEntity
  8
ConnectionPoints
100
AcDbPoint
 10
-1.273057343563125
 20
0.0
 30
-0.735
  0
POINT
  5
1D1
330
1F
100
AcDbEntity
  8
ConnectionPoints
100
AcDbPoint
 10
0.0
 20
-0.78
 30
0.0
  0
ENDSEC
  0
SECTION
  2
OBJECTS
  0
DICTIONARY
  5
C
330
0
100
AcDbDictionary
281
     1
  3
ACAD_DETAILVIEWSTYLE
350
1D9
  3
ACAD_GROUP
350
D
  3
ACAD_LAYOUT
350
1A
  3
ACAD_MATERIAL
350
43
  3
ACAD_MLEADERSTYLE
350
6B
  3
ACAD_MLINESTYLE
350
17
  3
ACAD_PLOTSETTINGS
350
19
  3
ACAD_PLOTSTYLENAME
350
E
  3
ACAD_SCALELIST
350
47
  3
ACAD_SECTIONVIEWSTYLE
350
1DA
  3
ACAD_TABLESTYLE
350
69
  3
ACAD_VISUALSTYLE
350
2A
  3
ACDB_RECOMPOSE_DATA
350
1D6
  3
AcDbVariableDictionary
350
1D2
  0
SUN
  5
6D
330
29
100
AcDbSun
 90
        1
290
     0
 63
     7
421
 16777215
 40
1.0
291
     1
 91
  2455826
 92
 54000000
292
     0
 70
     2
 71
   256
280
     1
  0
DICTIONARY
  5
1D9
102
{ACAD_REACTORS
330
C
102
}
330
C
100
AcDbDictionary
281
     1
  0
DICTIONARY
  5
D
102
{ACAD_REACTORS
330
C
102
}
330
C
100
AcDbDictionary
281
     1
  0
DICTIONARY
  5
1A
102
{ACAD_REACTORS
330
C
102
}
330
C
100
AcDbDictionary
281
     1
  3
Layout1
350
1E
  3
Layout2
350
26
  3
Model
350
22
  0
DICTIONARY
  5
43
102
{ACAD_REACTORS
330
C
102
}
330
C
100
AcDbDictionary
281
     1
  3
ByBlock
350
45
  3
ByLayer
350
44
  3
Global
350
46
  0
DICTIONARY
  5
6B
102
{ACAD_REACTORS
330
C
102
}
330
C
100
AcDbDictionary
281
     1
  3
Standard
350
6C
  0
DICTIONARY
  5
17
102
{ACAD_REACTORS
330
C
102
}
330
C
100
AcDbDictionary
281
     1
  3
Standard
350
18
  0
DICTIONARY
  5
19
102
{ACAD_REACTORS
330
C
102
}
330
C
100
AcDbDictionary
281
     1
  0
ACDBDICTIONARYWDFLT
  5
E
102
{ACAD_REACTORS
330
C
102
}
330
C
100
AcDbDictionary
281
     1
  3
Normal
350
F
100
AcDbDictionaryWithDefault
340
F
  0
DICTIONARY
  5
47
102
{ACAD_REACTORS
330
C
102
}
330
C
100
AcDbDictionary
281
     1
  3
A0
350
48
  3
A1
350
49
  3
A2
350
4A
  3
A3
350
4B
  3
A4
350
4C
  3
A5
350
4D
  3
A6
350
4E
  3
A7
350
4F
  3
A8
350
50
  3
A9
350
51
  3
B0
350
52
  3
B1
350
53
  3
B2
350
54
  3
B3
350
55
  3
B4
350
56
  3
B5
350
57
  3
B6
350
58
  3
B7
350
59
  3
B8
350
5A
  3
B9
350
5B
  3
C0
350
5C
  3
C1
350
5D
  3
C2
350
5E
  3
C3
350
5F
  3
C4
350
60
  3
C5
350
61
  3
C6
350
62
  3
C7
350
63
  3
C8
350
64
  3
C9
350
65
  3
D0
350
66
  3
D1
350
67
  3
D2
350
68
  0
DICTIONARY
  5
1DA
102
{ACAD_REACTORS
330
C
102
}
330
C
100
AcDbDictionary
281
     1
  0
DICTIONARY
  5
69
102
{ACAD_REACTORS
330
C
102
}
330
C
100
AcDbDictionary
281
     1
  3
Standard
350
6A
  0
DICTIONARY
  5
2A
102
{ACAD_REACTORS
330
C
102
}
330
C
100
AcDbDictionary
281
     1
  3
2dWireframe
350
2F
  3
Basic
350
32
  3
Brighten
350
36
  3
ColorChange
350
3A
  3
Conceptual
350
34
  3
Dim
350
35
  3
EdgeColorOff
350
3D
  3
Facepattern
350
39
  3
Flat
350
2B
  3
FlatWithEdges
350
2C
  3
Gouraud
350
2D
  3
GouraudWithEdges
350
2E
  3
Hidden
350
31
  3
JitterOff
350
3B
  3
Linepattern
350
38
  3
OverhangOff
350
3C
  3
Realistic
350
33
  3
Shaded
350
42
  3
Shaded with edges
350
41
  3
Shades of Gray
350
3E
  3
Sketchy
350
3F
  3
Thicken
350
37
  3
Wireframe
350
30
  3
X-Ray
350
40
  0
XRECORD
  5
1D6
102
{ACAD_REACTORS
330
C
102
}
330
C
100
AcDbXrecord
280
     1
 90
        1
330
6A
  0
DICTIONARY
  5
1D2
102
{ACAD_REACTORS
330
C
102
}
330
C
100
AcDbDictionary
281
     1
  3
CANNOSCALE
350
1D3
  3
CMLEADERSTYLE
350
1D8
  3
CTABLESTYLE
350
1D7
  0
LAYOUT
  5
1E
102
{ACAD_REACTORS
330
1A
102
}
330
1A
100
AcDbPlotSettings
  1

  2
none_device
  4

  6

 40
0.0
 41
0.0
 42
0.0
 43
0.0
 44
0.0
 45
0.0
 46
0.0
 47
0.0
 48
0.0
 49
0.0
140
0.0
141
0.0
142
1.0
143
1.0
 70
   688
 72
     0
 73
     0
 74
     5
  7

 75
    16
 76
     0
 77
     2
 78
   300
147
1.0
148
0.0
149
0.0
100
AcDbLayout
  1
Layout1
 70
     1
 71
     1
 10
0.0
 20
0.0
 11
12.0
 21
9.0
 12
0.0
 22
0.0
 32
0.0
 14
1.000000000000000E+20
 24
1.000000000000000E+20
 34
1.000000000000000E+20
 15
-1.000000000000000E+20
 25
-1.000000000000000E+20
 35
-1.000000000000000E+20
146
0.0
 13
0.0
 23
0.0
 33
0.0
 16
1.0
 26
0.0
 36
0.0
 17
0.0
 27
1.0
 37
0.0
 76
     0
330
1B
  0
LAYOUT
  5
26
102
{ACAD_REACTORS
330
1A
102
}
330
1A
100
AcDbPlotSettings
  1

  2
none_device
  4

  6

 40
0.0
 41
0.0
 42
0.0
 43
0.0
 44
0.0
 45
0.0
 46
0.0
 47
0.0
 48
0.0
 49
0.0
140
0.0
141
0.0
142
1.0
143
1.0
 70
   688
 72
     0
 73
     0
 74
     5
  7

 75
    16
 76
     0
 77
     2
 78
   300
147
1.0
148
0.0
149
0.0
100
AcDbLayout
  1
Layout2
 70
     1
 71
     2
 10
0.0
 20
0.0
 11
0.0
 21
0.0
 12
0.0
 22
0.0
 32
0.0
 14
0.0
 24
0.0
 34
0.0
 15
0.0
 25
0.0
 35
0.0
146
0.0
 13
0.0
 23
0.0
 33
0.0
 16
1.0
 26
0.0
 36
0.0
 17
0.0
 27
1.0
 37
0.0
 76
     0
330
23
  0
LAYOUT
  5
22
102
{ACAD_REACTORS
330
1A
102
}
330
1A
100
AcDbPlotSettings
  1

  2
none_device
  4
Letter_(8.50_x_11.00_Inches)
  6

 40
6.35
 41
6.35
 42
6.35000508
 43
6.35000508
 44
215.9
 45
279.4
 46
0.0
 47
0.0
 48
0.0
 49
0.0
140
0.0
141
0.0
142
1.0
143
1.0
 70
  1712
 72
     0
 73
     0
 74
     0
  7

 75
     0
 76
     0
 77
     2
 78
   300
147
1.0
148
0.0
149
0.0
100
AcDbLayout
  1
Model
 70
     1
 71
     0
 10
0.0
 20
0.0
 11
12.0
 21
9.0
 12
0.0
 22
0.0
 32
0.0
 14
1.000000000000000E+20
 24
1.000000000000000E+20
 34
1.000000000000000E+20
 15
-1.000000000000000E+20
 25
-1.000000000000000E+20
 35
-1.000000000000000E+20
146
0.0
 13
0.0
 23
0.0
 33
0.0
 16
1.0
 26
0.0
 36
0.0
 17
0.0
 27
1.0
 37
0.0
 76
     0
330
1F
331
29
  0
MATERIAL
  5
45
102
{ACAD_REACTORS
330
43
102
}
330
43
100
AcDbMaterial
  1
ByBlock
 72
     1
 94
      127
  0
MATERIAL
  5
44
102
{ACAD_REACTORS
330
43
102
}
330
43
100
AcDbMaterial
  1
ByLayer
 72
     1
 94
      127
  0
MATERIAL
  5
46
102
{ACAD_REACTORS
330
43
102
}
330
43
100
AcDbMaterial
  1
Global
 72
     1
 94
      127
  0
MLEADERSTYLE
  5
6C
102
{ACAD_REACTORS
330
6B
102
}
330
6B
100
AcDbMLeaderStyle
179
     2
170
     2
171
     1
172
     0
 90
        2
 40
0.0
 41
0.0
173
     1
 91
-1056964608
340
14
 92
       -2
290
     1
 42
0.09
291
     1
 43
0.36
  3
Standard
341
0
 44
0.18
300

342
11
174
     1
178
     6
175
     1
176
     0
 93
-1056964608
 45
0.18
292
     0
297
     0
 46
0.18
343
0
 94
-1056964608
 47
1.0
 49
1.0
140
1.0
293
     1
141
0.0
294
     1
177
     0
142
1.0
295
     0
296
     0
143
0.125
271
     0
272
     9
273
     9
298
     0
  0
MLINESTYLE
  5
18
102
{ACAD_REACTORS
330
17
102
}
330
17
100
AcDbMlineStyle
  2
Standard
 70
     0
  3

 62
   256
 51
90.0
 52
90.0
 71
     2
 49
0.5
 62
   256
  6
BYLAYER
 49
-0.5
 62
   256
  6
BYLAYER
  0
ACDBPLACEHOLDER
  5
F
102
{ACAD_REACTORS
330
E
102
}
330
E
  0
SCALE
  5
48
102
{ACAD_REACTORS
330
47
102
}
330
47
100
AcDbScale
 70
     0
300
1:1
140
1.0
141
1.0
290
     1
  0
SCALE
  5
49
102
{ACAD_REACTORS
330
47
102
}
330
47
100
AcDbScale
 70
     0
300
1:2
140
1.0
141
2.0
290
     0
  0
SCALE
  5
4A
102
{ACAD_REACTORS
330
47
102
}
330
47
100
AcDbScale
 70
     0
300
1:4
140
1.0
141
4.0
290
     0
  0
SCALE
  5
4B
102
{ACAD_REACTORS
330
47
102
}
330
47
100
AcDbScale
 70
     0
300
1:5
140
1.0
141
5.0
290
     0
  0
SCALE
  5
4C
102
{ACAD_REACTORS
330
47
102
}
330
47
100
AcDbScale
 70
     0
300
1:8
140
1.0
141
8.0
290
     0
  0
SCALE
  5
4D
102
{ACAD_REACTORS
330
47
102
}
330
47
100
AcDbScale
 70
     0
300
1:10
140
1.0
141
10.0
290
     0
  0
SCALE
  5
4E
102
{ACAD_REACTORS
330
47
102
}
330
47
100
AcDbScale
 70
     0
300
1:16
140
1.0
141
16.0
290
     0
  0
SCALE
  5
4F
102
{ACAD_REACTORS
330
47
102
}
330
47
100
AcDbScale
 70
     0
300
1:20
140
1.0
141
20.0
290
     0
  0
SCALE
  5
50
102
{ACAD_REACTORS
330
47
102
}
330
47
100
AcDbScale
 70
     0
300
1:30
140
1.0
141
30.0
290
     0
  0
SCALE
  5
51
102
{ACAD_REACTORS
330
47
102
}
330
47
100
AcDbScale
 70
     0
300
1:40
140
1.0
141
40.0
290
     0
  0
SCALE
  5
52
102
{ACAD_REACTORS
330
47
102
}
330
47
100
AcDbScale
 70
     0
300
1:50
140
1.0
141
50.0
290
     0
  0
SCALE
  5
53
102
{ACAD_REACTORS
330
47
102
}
330
47
100
AcDbScale
 70
     0
300
1:100
140
1.0
141
100.0
290
     0
  0
SCALE
  5
54
102
{ACAD_REACTORS
330
47
102
}
330
47
100
AcDbScale
 70
     0
300
2:1
140
2.0
141
1.0
290
     0
  0
SCALE
  5
55
102
{ACAD_REACTORS
330
47
102
}
330
47
100
AcDbScale
 70
     0
300
4:1
140
4.0
141
1.0
290
     0
  0
SCALE
  5
56
102
{ACAD_REACTORS
330
47
102
}
330
47
100
AcDbScale
 70
     0
300
8:1
140
8.0
141
1.0
290
     0
  0
SCALE
  5
57
102
{ACAD_REACTORS
330
47
102
}
330
47
100
AcDbScale
 70
     0
300
10:1
140
10.0
141
1.0
290
     0
  0
SCALE
  5
58
102
{ACAD_REACTORS
330
47
102
}
330
47
100
AcDbScale
 70
     0
300
100:1
140
100.0
141
1.0
290
     0
  0
SCALE
  5
59
102
{ACAD_REACTORS
330
47
102
}
330
47
100
AcDbScale
 70
     0
300
1/128" = 1'-0"
140
0.0078125
141
12.0
290
     0
  0
SCALE
  5
5A
102
{ACAD_REACTORS
330
47
102
}
330
47
100
AcDbScale
 70
     0
300
1/64" = 1'-0"
140
0.015625
141
12.0
290
     0
  0
SCALE
  5
5B
102
{ACAD_REACTORS
330
47
102
}
330
47
100
AcDbScale
 70
     0
300
1/32" = 1'-0"
140
0.03125
141
12.0
290
     0
  0
SCALE
  5
5C
102
{ACAD_REACTORS
330
47
102
}
330
47
100
AcDbScale
 70
     0
300
1/16" = 1'-0"
140
0.0625
141
12.0
290
     0
  0
SCALE
  5
5D
102
{ACAD_REACTORS
330
47
102
}
330
47
100
AcDbScale
 70
     0
300
3/32" = 1'-0"
140
0.09375
141
12.0
290
     0
  0
SCALE
  5
5E
102
{ACAD_REACTORS
330
47
102
}
330
47
100
AcDbScale
 70
     0
300
1/8" = 1'-0"
140
0.125
141
12.0
290
     0
  0
SCALE
  5
5F
102
{ACAD_REACTORS
330
47
102
}
330
47
100
AcDbScale
 70
     0
300
3/16" = 1'-0"
140
0.1875
141
12.0
290
     0
  0
SCALE
  5
60
102
{ACAD_REACTORS
330
47
102
}
330
47
100
AcDbScale
 70
     0
300
1/4" = 1'-0"
140
0.25
141
12.0
290
     0
  0
SCALE
  5
61
102
{ACAD_REACTORS
330
47
102
}
330
47
100
AcDbScale
 70
     0
300
3/8" = 1'-0"
140
0.375
141
12.0
290
     0
  0
SCALE
  5
62
102
{ACAD_REACTORS
330
47
102
}
330
47
100
AcDbScale
 70
     0
300
1/2" = 1'-0"
140
0.5
141
12.0
290
     0
  0
SCALE
  5
63
102
{ACAD_REACTORS
330
47
102
}
330
47
100
AcDbScale
 70
     0
300
3/4" = 1'-0"
140
0.75
141
12.0
290
     0
  0
SCALE
  5
64
102
{ACAD_REACTORS
330
47
102
}
330
47
100
AcDbScale
 70
     0
300
1" = 1'-0"
140
1.0
141
12.0
290
     0
  0
SCALE
  5
65
102
{ACAD_REACTORS
330
47
102
}
330
47
100
AcDbScale
 70
     0
300
1-1/2" = 1'-0"
140
1.5
141
12.0
290
     0
  0
SCALE
  5
66
102
{ACAD_REACTORS
330
47
102
}
330
47
100
AcDbScale
 70
     0
300
3" = 1'-0"
140
3.0
141
12.0
290
     0
  0
SCALE
  5
67
102
{ACAD_REACTORS
330
47
102
}
330
47
100
AcDbScale
 70
     0
300
6" = 1'-0"
140
6.0
141
12.0
290
     0
  0
SCALE
  5
68
102
{ACAD_REACTORS
330
47
102
}
330
47
100
AcDbScale
 70
     0
300
1'-0" = 1'-0"
140
12.0
141
12.0
290
     0
  0
TABLESTYLE
  5
6A
102
{ACAD_REACTORS
330
69
102
}
102
{ACAD_XDICTIONARY
360
1D4
102
}
330
69
100
AcDbTableStyle
  3
Standard
 70
     0
 71
     0
 40
0.06
 41
0.06
280
     0
281
     0
  7
Standard
140
0.18
170
     2
 62
     0
 63
   257
283
     0
 90
        4
 91
        0
  1

274
    -2
284
     1
 64
     0
275
    -2
285
     1
 65
     0
276
    -2
286
     1
 66
     0
277
    -2
287
     1
 67
     0
278
    -2
288
     1
 68
     0
279
    -2
289
     1
 69
     0
  7
Standard
140
0.25
170
     5
 62
     0
 63
   257
283
     0
 90
        4
 91
        0
  1

274
    -2
284
     1
 64
     0
275
    -2
285
     1
 65
     0
276
    -2
286
     1
 66
     0
277
    -2
287
     1
 67
     0
278
    -2
288
     1
 68
     0
279
    -2
289
     1
 69
     0
  7
Standard
140
0.18
170
     5
 62
     0
 63
   257
283
     0
 90
        4
 91
        0
  1

274
    -2
284
     1
 64
     0
275
    -2
285
     1
 65
     0
276
    -2
286
     1
 66
     0
277
    -2
287
     1
 67
     0
278
    -2
288
     1
 68
     0
279
    -2
289
     1
 69
     0
  0
VISUALSTYLE
  5
2F
102
{ACAD_REACTORS
330
2A
102
}
330
2A
100
AcDbVisualStyle
  2
2dWireframe
 70
     4
177
     3
291
     0
 70
    58
 90
        0
176
     1
 90
        2
176
     1
 90
        0
176
     1
 90
        0
176
     1
 40
0.6
176
     1
 40
30.0
176
     1
 62
     7
420
 16777215
176
     1
 90
        1
176
     1
 90
        4
176
     1
 62
     7
176
     1
 62
   257
176
     1
 90
        1
176
     1
 90
        1
176
     1
 40
1.0
176
     1
 90
        0
176
     1
 62
   257
176
     1
 40
1.0
176
     1
 90
        1
176
     1
 90
        6
176
     1
 90
        2
176
     1
 62
     7
176
     1
 90
        5
176
     1
 90
        0
176
     1
 90
        0
176
     1
290
     0
176
     1
 90
        1
176
     1
 40
0.0
176
     1
 90
        0
176
     1
290
     1
176
     1
290
     1
176
     1
290
     0
176
     1
290
     0
176
     1
290
     0
176
     1
290
     0
176
     1
290
     0
176
     1
290
     0
176
     1
290
     0
176
     1
 90
       50
176
     1
 40
0.0
176
     1
 40
1.0
176
     1
 90
        0
176
     1
 62
    18
420
        0
176
     1
 90
       50
176
     1
 90
        3
176
     1
 62
     5
420
      255
176
     1
290
     0
176
     1
 90
       50
176
     1
 90
       50
176
     1
 90
       50
176
     1
290
     0
176
     1
 90
       50
176
     1
 62
   256
176
     0
 40
1.0
176
     0
 90
        2
176
     1
  1
strokes_ogs.tif
176
     1
290
     0
176
     1
 40
1.0
176
     1
 40
1.0
176
     1
  0
VISUALSTYLE
  5
32
102
{ACAD_REACTORS
330
2A
102
}
330
2A
100
AcDbVisualStyle
  2
Basic
 70
     7
177
     3
291
     1
 70
    58
 90
        1
176
     1
 90
        0
176
     1
 90
        1
176
     1
 90
        0
176
     1
 40
0.6
176
     1
 40
30.0
176
     1
 62
     7
420
 16777215
176
     1
 90
        0
176
     1
 90
        4
176
     1
 62
     7
176
     1
 62
   257
176
     1
 90
        1
176
     1
 90
        1
176
     1
 40
1.0
176
     1
 90
        8
176
     1
 62
     7
176
     1
 40
1.0
176
     1
 90
        1
176
     1
 90
        6
176
     1
 90
        2
176
     1
 62
     7
176
     1
 90
        5
176
     1
 90
        0
176
     1
 90
        0
176
     1
290
     0
176
     1
 90
        1
176
     1
 40
0.0
176
     1
 90
        0
176
     1
290
     0
176
     1
290
     1
176
     1
290
     1
176
     1
290
     0
176
     1
290
     0
176
     1
290
     0
176
     1
290
     0
176
     1
290
     0
176
     1
290
     0
176
     1
 90
       50
176
     1
 40
0.0
176
     1
 40
1.0
176
     1
 90
        0
176
     1
 62
    18
420
        0
176
     1
 90
       50
176
     1
 90
        3
176
     1
 62
     5
420
      255
176
     1
290
     0
176
     1
 90
       50
176
     1
 90
       50
176
     1
 90
       50
176
     1
290
     0
176
     1
 90
       50
176
     1
 62
   256
176
     0
 40
1.0
176
     0
 90
        2
176
     1
  1
strokes_ogs.tif
176
     1
290
     0
176
     1
 40
1.0
176
     1
 40
1.0
176
     1
  0
VISUALSTYLE
  5
36
102
{ACAD_REACTORS
330
2A
102
}
330
2A
100
AcDbVisualStyle
  2
Brighten
 70
    12
177
     3
291
     1
 70
    58
 90
        2
176
     1
 90
        2
176
     1
 90
        0
176
     1
 90
        0
176
     1
 40
0.6
176
     1
 40
30.0
176
     1
 62
     7
420
 16777215
176
     1
 90
        1
176
     1
 90
        4
176
     1
 62
     7
176
     1
 62
   257
176
     1
 90
        1
176
     1
 90
        1
176
     1
 40
1.0
176
     1
 90
        8
176
     1
 62
     7
176
     1
 40
1.0
176
     1
 90
        1
176
     1
 90
        6
176
     1
 90
        2
176
     1
 62
     7
176
     1
 90
        5
176
     1
 90
        0
176
     1
 90
        0
176
     1
290
     0
176
     1
 90
        1
176
     1
 40
50.0
176
     1
 90
        0
176
     1
290
     0
176
     1
290
     1
176
     1
290
     1
176
     1
290
     0
176
     1
290
     0
176
     1
290
     0
176
     1
290
     0
176
     1
290
     0
176
     1
290
     0
176
     1
 90
       50
176
     1
 40
0.0
176
     1
 40
1.0
176
     1
 90
        0
176
     1
 62
    18
420
        0
176
     1
 90
       50
176
     1
 90
        3
176
     1
 62
     5
420
      255
176
     1
290
     0
176
     1
 90
       50
176
     1
 90
       50
176
     1
 90
       50
176
     1
290
     0
176
     1
 90
       50
176
     1
 62
   256
176
     0
 40
1.0
176
     0
 90
        2
176
     1
  1
strokes_ogs.tif
176
     1
290
     0
176
     1
 40
1.0
176
     1
 40
1.0
176
     1
  0
VISUALSTYLE
  5
3A
102
{ACAD_REACTORS
330
2A
102
}
330
2A
100
AcDbVisualStyle
  2
ColorChange
 70
    16
177
     3
291
     1
 70
    58
 90
        2
176
     1
 90
        2
176
     1
 90
        3
176
     1
 90
        0
176
     1
 40
0.6
176
     1
 40
30.0
176
     1
 62
     8
420
  8421504
176
     1
 90
        1
176
     1
 90
        4
176
     1
 62
     7
176
     1
 62
   257
176
     1
 90
        1
176
     1
 90
        1
176
     1
 40
1.0
176
     1
 90
        8
176
     1
 62
     8
420
  8421504
176
     1
 40
1.0
176
     1
 90
        1
176
     1
 90
        6
176
     1
 90
        2
176
     1
 62
     7
176
     1
 90
        5
176
     1
 90
        0
176
     1
 90
        0
176
     1
290
     0
176
     1
 90
        1
176
     1
 40
0.0
176
     1
 90
        0
176
     1
290
     0
176
     1
290
     1
176
     1
290
     1
176
     1
290
     0
176
     1
290
     0
176
     1
290
     0
176
     1
290
     0
176
     1
290
     0
176
     1
290
     0
176
     1
 90
       50
176
     1
 40
0.0
176
     1
 40
1.0
176
     1
 90
        0
176
     1
 62
    18
420
        0
176
     1
 90
       50
176
     1
 90
        3
176
     1
 62
     5
420
      255
176
     1
290
     0
176
     1
 90
       50
176
     1
 90
       50
176
     1
 90
       50
176
     1
290
     0
176
     1
 90
       50
176
     1
 62
   256
176
     0
 40
1.0
176
     0
 90
        2
176
     1
  1
strokes_ogs.tif
176
     1
290
     0
176
     1
 40
1.0
176
     1
 40
1.0
176
     1
  0
VISUALSTYLE
  5
34
102
{ACAD_REACTORS
330
2A
102
}
330
2A
100
AcDbVisualStyle
  2
Conceptual
 70
     9
177
     3
291
     0
 70
    58
 90
        3
176
     1
 90
        2
176
     1
 90
        0
176
     1
 90
        0
176
     1
 40
0.6
176
     1
 40
30.0
176
     1
 62
     7
420
 16777215
176
     1
 90
        2
176
     1
 90
        2
176
     1
 62
     7
176
     1
 62
   257
176
     1
 90
        1
176
     1
 90
        1
176
     1
 40
179.0
176
     1
 90
        8
176
     1
 62
     7
176
     1
 40
1.0
176
     1
 90
        1
176
     1
 90
        6
176
     1
 90
        2
176
     1
 62
     7
176
     1
 90
        3
176
     1
 90
        0
176
     1
 90
        0
176
     1
290
     0
176
     1
 90
        1
176
     1
 40
0.0
176
     1
 90
        0
176
     1
290
     0
176
     1
290
     1
176
     1
290
     1
176
     1
290
     0
176
     1
290
     0
176
     1
290
     0
176
     1
290
     0
176
     1
290
     0
176
     1
290
     0
176
     1
 90
       50
176
     1
 40
0.0
176
     1
 40
1.0
176
     1
 90
        0
176
     1
 62
    18
420
        0
176
     1
 90
       50
176
     1
 90
        3
176
     1
 62
     5
420
      255
176
     1
290
     0
176
     1
 90
       50
176
     1
 90
       50
176
     1
 90
       50
176
     1
290
     0
176
     1
 90
       50
176
     1
 62
   256
176
     0
 40
1.0
176
     0
 90
        2
176
     1
  1
strokes_ogs.tif
176
     1
290
     0
176
     1
 40
1.0
176
     1
 40
1.0
176
     1
  0
VISUALSTYLE
  5
35
102
{ACAD_REACTORS
330
2A
102
}
330
2A
100
AcDbVisualStyle
  2
Dim
 70
    11
177
     3
291
     1
 70
    58
 90
        2
176
     1
 90
        2
176
     1
 90
        0
176
     1
 90
        0
176
     1
 40
0.6
176
     1
 40
30.0
176
     1
 62
     7
420
 16777215
176
     1
 90
        1
176
     1
 90
        4
176
     1
 62
     7
176
     1
 62
   257
176
     1
 90
        1
176
     1
 90
        1
176
     1
 40
1.0
176
     1
 90
        8
176
     1
 62
     7
176
     1
 40
1.0
176
     1
 90
        1
176
     1
 90
        6
176
     1
 90
        2
176
     1
 62
     7
176
     1
 90
        5
176
     1
 90
        0
176
     1
 90
        0
176
     1
290
     0
176
     1
 90
        1
176
     1
 40
-50.0
176
     1
 90
        0
176
     1
290
     0
176
     1
290
     1
176
     1
290
     1
176
     1
290
     0
176
     1
290
     0
176
     1
290
     0
176
     1
290
     0
176
     1
290
     0
176
     1
290
     0
176
     1
 90
       50
176
     1
 40
0.0
176
     1
 40
1.0
176
     1
 90
        0
176
     1
 62
    18
420
        0
176
     1
 90
       50
176
     1
 90
        3
176
     1
 62
     5
420
      255
176
     1
290
     0
176
     1
 90
       50
176
     1
 90
       50
176
     1
 90
       50
176
     1
290
     0
176
     1
 90
       50
176
     1
 62
   256
176
     0
 40
1.0
176
     0
 90
        2
176
     1
  1
strokes_ogs.tif
176
     1
290
     0
176
     1
 40
1.0
176
     1
 40
1.0
176
     1
  0
VISUALSTYLE
  5
3D
102
{ACAD_REACTORS
330
2A
102
}
330
2A
100
AcDbVisualStyle
  2
EdgeColorOff
 70
    22
177
     3
291
     1
 70
    58
 90
        2
176
     0
 90
        2
176
     0
 90
        0
176
     0
 90
        0
176
     0
 40
0.6
176
     0
 40
30.0
176
     0
 62
     7
420
 16777215
176
     0
 90
        1
176
     0
 90
        4
176
     0
 62
     7
176
     0
 62
   257
176
     0
 90
        1
176
     0
 90
        1
176
     0
 40
1.0
176
     0
 90
        8
176
     2
 62
     7
176
     0
 40
1.0
176
     0
 90
        1
176
     0
 90
        6
176
     0
 90
        2
176
     0
 62
     7
176
     0
 90
        5
176
     0
 90
        0
176
     0
 90
        0
176
     0
290
     0
176
     0
 90
        1
176
     0
 40
0.0
176
     0
 90
        0
176
     0
290
     0
176
     0
290
     1
176
     0
290
     1
176
     0
290
     0
176
     0
290
     0
176
     0
290
     0
176
     0
290
     0
176
     0
290
     0
176
     0
290
     0
176
     0
 90
       50
176
     0
 40
0.0
176
     0
 40
1.0
176
     0
 90
        0
176
     0
 62
    18
420
        0
176
     0
 90
       50
176
     0
 90
        3
176
     0
 62
     5
420
      255
176
     0
290
     0
176
     0
 90
       50
176
     0
 90
       50
176
     0
 90
       50
176
     0
290
     0
176
     0
 90
       50
176
     0
 62
   256
176
     0
 40
1.0
176
     0
 90
        2
176
     0
  1
strokes_ogs.tif
176
     0
290
     0
176
     0
 40
1.0
176
     0
 40
1.0
176
     0
  0
VISUALSTYLE
  5
39
102
{ACAD_REACTORS
330
2A
102
}
330
2A
100
AcDbVisualStyle
  2
Facepattern
 70
    15
177
     3
291
     1
 70
    58
 90
        2
176
     1
 90
        2
176
     1
 90
        0
176
     1
 90
        0
176
     1
 40
0.6
176
     1
 40
30.0
176
     1
 62
     7
420
 16777215
176
     1
 90
        1
176
     1
 90
        4
176
     1
 62
     7
176
     1
 62
   257
176
     1
 90
        1
176
     1
 90
        1
176
     1
 40
1.0
176
     1
 90
        8
176
     1
 62
     7
176
     1
 40
1.0
176
     1
 90
        1
176
     1
 90
        6
176
     1
 90
        2
176
     1
 62
     7
176
     1
 90
        5
176
     1
 90
        0
176
     1
 90
        0
176
     1
290
     0
176
     1
 90
        1
176
     1
 40
0.0
176
     1
 90
        0
176
     1
290
     0
176
     1
290
     1
176
     1
290
     1
176
     1
290
     0
176
     1
290
     0
176
     1
290
     0
176
     1
290
     0
176
     1
290
     0
176
     1
290
     0
176
     1
 90
       50
176
     1
 40
0.0
176
     1
 40
1.0
176
     1
 90
        0
176
     1
 62
    18
420
        0
176
     1
 90
       50
176
     1
 90
        3
176
     1
 62
     5
420
      255
176
     1
290
     0
176
     1
 90
       50
176
     1
 90
       50
176
     1
 90
       50
176
     1
290
     0
176
     1
 90
       50
176
     1
 62
   256
176
     0
 40
1.0
176
     0
 90
        2
176
     1
  1
strokes_ogs.tif
176
     1
290
     0
176
     1
 40
1.0
176
     1
 40
1.0
176
     1
  0
VISUALSTYLE
  5
2B
102
{ACAD_REACTORS
330
2A
102
}
330
2A
100
AcDbVisualStyle
  2
Flat
 70
     0
177
     3
291
     1
 70
    58
 90
        2
176
     1
 90
        1
176
     1
 90
        1
176
     1
 90
        2
176
     1
 40
0.6
176
     1
 40
30.0
176
     1
 62
     7
420
 16777215
176
     1
 90
        0
176
     1
 90
        0
176
     1
 62
     7
176
     1
 62
   257
176
     1
 90
        1
176
     1
 90
        1
176
     1
 40
1.0
176
     1
 90
        8
176
     1
 62
     7
176
     1
 40
1.0
176
     1
 90
        1
176
     1
 90
        6
176
     1
 90
        2
176
     1
 62
     7
176
     1
 90
        5
176
     1
 90
        0
176
     1
 90
        0
176
     1
290
     0
176
     1
 90
       13
176
     1
 40
0.0
176
     1
 90
        0
176
     1
290
     0
176
     1
290
     1
176
     1
290
     1
176
     1
290
     0
176
     1
290
     0
176
     1
290
     0
176
     1
290
     0
176
     1
290
     0
176
     1
290
     0
176
     1
 90
       50
176
     1
 40
0.0
176
     1
 40
1.0
176
     1
 90
        0
176
     1
 62
    18
420
        0
176
     1
 90
       50
176
     1
 90
        3
176
     1
 62
     5
420
      255
176
     1
290
     0
176
     1
 90
       50
176
     1
 90
       50
176
     1
 90
       50
176
     1
290
     0
176
     1
 90
       50
176
     1
 62
   256
176
     0
 40
1.0
176
     0
 90
        2
176
     1
  1
strokes_ogs.tif
176
     1
290
     0
176
     1
 40
1.0
176
     1
 40
1.0
176
     1
  0
VISUALSTYLE
  5
2C
102
{ACAD_REACTORS
330
2A
102
}
330
2A
100
AcDbVisualStyle
  2
FlatWithEdges
 70
     1
177
     3
291
     1
 70
    58
 90
        2
176
     1
 90
        1
176
     1
 90
        1
176
     1
 90
        2
176
     1
 40
0.6
176
     1
 40
30.0
176
     1
 62
     7
420
 16777215
176
     1
 90
        1
176
     1
 90
        0
176
     1
 62
     7
176
     1
 62
   257
176
     1
 90
        1
176
     1
 90
        1
176
     1
 40
1.0
176
     1
 90
        0
176
     1
 62
   257
176
     1
 40
1.0
176
     1
 90
        1
176
     1
 90
        6
176
     1
 90
        2
176
     1
 62
     7
176
     1
 90
        5
176
     1
 90
        0
176
     1
 90
        0
176
     1
290
     0
176
     1
 90
       13
176
     1
 40
0.0
176
     1
 90
        0
176
     1
290
     0
176
     1
290
     1
176
     1
290
     1
176
     1
290
     0
176
     1
290
     0
176
     1
290
     0
176
     1
290
     0
176
     1
290
     0
176
     1
290
     0
176
     1
 90
       50
176
     1
 40
0.0
176
     1
 40
1.0
176
     1
 90
        0
176
     1
 62
    18
420
        0
176
     1
 90
       50
176
     1
 90
        3
176
     1
 62
     5
420
      255
176
     1
290
     0
176
     1
 90
       50
176
     1
 90
       50
176
     1
 90
       50
176
     1
290
     0
176
     1
 90
       50
176
     1
 62
   256
176
     0
 40
1.0
176
     0
 90
        2
176
     1
  1
strokes_ogs.tif
176
     1
290
     0
176
     1
 40
1.0
176
     1
 40
1.0
176
     1
  0
VISUALSTYLE
  5
2D
102
{ACAD_REACTORS
330
2A
102
}
330
2A
100
AcDbVisualStyle
  2
Gouraud
 70
     2
177
     3
291
     1
 70
    58
 90
        2
176
     1
 90
        2
176
     1
 90
        1
176
     1
 90
        2
176
     1
 40
0.6
176
     1
 40
30.0
176
     1
 62
     7
420
 16777215
176
     1
 90
        0
176
     1
 90
        0
176
     1
 62
     7
176
     1
 62
   257
176
     1
 90
        1
176
     1
 90
        1
176
     1
 40
1.0
176
     1
 90
        0
176
     1
 62
     7
176
     1
 40
1.0
176
     1
 90
        1
176
     1
 90
        6
176
     1
 90
        2
176
     1
 62
     7
176
     1
 90
        5
176
     1
 90
        0
176
     1
 90
        0
176
     1
290
     0
176
     1
 90
       13
176
     1
 40
0.0
176
     1
 90
        0
176
     1
290
     0
176
     1
290
     1
176
     1
290
     1
176
     1
290
     0
176
     1
290
     0
176
     1
290
     0
176
     1
290
     0
176
     1
290
     0
176
     1
290
     0
176
     1
 90
       50
176
     1
 40
0.0
176
     1
 40
1.0
176
     1
 90
        0
176
     1
 62
    18
420
        0
176
     1
 90
       50
176
     1
 90
        3
176
     1
 62
     5
420
      255
176
     1
290
     0
176
     1
 90
       50
176
     1
 90
       50
176
     1
 90
       50
176
     1
290
     0
176
     1
 90
       50
176
     1
 62
   256
176
     0
 40
1.0
176
     0
 90
        2
176
     1
  1
strokes_ogs.tif
176
     1
290
     0
176
     1
 40
1.0
176
     1
 40
1.0
176
     1
  0
VISUALSTYLE
  5
2E
102
{ACAD_REACTORS
330
2A
102
}
330
2A
100
AcDbVisualStyle
  2
GouraudWithEdges
 70
     3
177
     3
291
     1
 70
    58
 90
        2
176
     1
 90
        2
176
     1
 90
        1
176
     1
 90
        2
176
     1
 40
0.6
176
     1
 40
30.0
176
     1
 62
     7
420
 16777215
176
     1
 90
        1
176
     1
 90
        0
176
     1
 62
     7
176
     1
 62
   257
176
     1
 90
        1
176
     1
 90
        1
176
     1
 40
1.0
176
     1
 90
        0
176
     1
 62
   257
176
     1
 40
1.0
176
     1
 90
        1
176
     1
 90
        6
176
     1
 90
        2
176
     1
 62
     7
176
     1
 90
        5
176
     1
 90
        0
176
     1
 90
        0
176
     1
290
     0
176
     1
 90
       13
176
     1
 40
0.0
176
     1
 90
        0
176
     1
290
     0
176
     1
290
     1
176
     1
290
     1
176
     1
290
     0
176
     1
290
     0
176
     1
290
     0
176
     1
290
     0
176
     1
290
     0
176
     1
290
     0
176
     1
 90
       50
176
     1
 40
0.0
176
     1
 40
1.0
176
     1
 90
        0
176
     1
 62
    18
420
        0
176
     1
 90
       50
176
     1
 90
        3
176
     1
 62
     5
420
      255
176
     1
290
     0
176
     1
 90
       50
176
     1
 90
       50
176
     1
 90
       50
176
     1
290
     0
176
     1
 90
       50
176
     1
 62
   256
176
     0
 40
1.0
176
     0
 90
        2
176
     1
  1
strokes_ogs.tif
176
     1
290
     0
176
     1
 40
1.0
176
     1
 40
1.0
176
     1
  0
VISUALSTYLE
  5
31
102
{ACAD_REACTORS
330
2A
102
}
330
2A
100
AcDbVisualStyle
  2
Hidden
 70
     6
177
     3
291
     0
 70
    58
 90
        1
176
     1
 90
        2
176
     1
 90
        2
176
     1
 90
        0
176
     1
 40
0.6
176
     1
 40
30.0
176
     1
 62
     7
420
 16777215
176
     1
 90
        2
176
     1
 90
        2
176
     1
 62
     7
176
     1
 62
   257
176
     1
 90
        2
176
     1
 90
        1
176
     1
 40
40.0
176
     1
 90
        0
176
     1
 62
   257
176
     1
 40
1.0
176
     1
 90
        1
176
     1
 90
        6
176
     1
 90
        2
176
     1
 62
     7
176
     1
 90
        3
176
     1
 90
        0
176
     1
 90
        0
176
     1
290
     0
176
     1
 90
        1
176
     1
 40
0.0
176
     1
 90
        0
176
     1
290
     0
176
     1
290
     1
176
     1
290
     1
176
     1
290
     0
176
     1
290
     0
176
     1
290
     0
176
     1
290
     0
176
     1
290
     0
176
     1
290
     0
176
     1
 90
       50
176
     1
 40
0.0
176
     1
 40
1.0
176
     1
 90
        0
176
     1
 62
    18
420
        0
176
     1
 90
       50
176
     1
 90
        3
176
     1
 62
     5
420
      255
176
     1
290
     0
176
     1
 90
       50
176
     1
 90
       50
176
     1
 90
       50
176
     1
290
     0
176
     1
 90
       50
176
     1
 62
   256
176
     0
 40
1.0
176
     0
 90
        2
176
     1
  1
strokes_ogs.tif
176
     1
290
     0
176
     1
 40
1.0
176
     1
 40
1.0
176
     1
  0
VISUALSTYLE
  5
3B
102
{ACAD_REACTORS
330
2A
102
}
330
2A
100
AcDbVisualStyle
  2
JitterOff
 70
    20
177
     3
291
     1
 70
    58
 90
        2
176
     0
 90
        2
176
     0
 90
        0
176
     0
 90
        0
176
     0
 40
0.6
176
     0
 40
30.0
176
     0
 62
     7
420
 16777215
176
     0
 90
        1
176
     0
 90
        4
176
     0
 62
     7
176
     0
 62
   257
176
     0
 90
        1
176
     0
 90
        1
176
     0
 40
1.0
176
     0
 90
       10
176
     2
 62
     7
176
     0
 40
1.0
176
     0
 90
        1
176
     0
 90
        6
176
     0
 90
        2
176
     0
 62
     7
176
     0
 90
        5
176
     0
 90
        0
176
     0
 90
        0
176
     0
290
     0
176
     0
 90
        1
176
     0
 40
0.0
176
     0
 90
        0
176
     0
290
     0
176
     0
290
     1
176
     0
290
     1
176
     0
290
     0
176
     0
290
     0
176
     0
290
     0
176
     0
290
     0
176
     0
290
     0
176
     0
290
     0
176
     0
 90
       50
176
     0
 40
0.0
176
     0
 40
1.0
176
     0
 90
        0
176
     0
 62
    18
420
        0
176
     0
 90
       50
176
     0
 90
        3
176
     0
 62
     5
420
      255
176
     0
290
     0
176
     0
 90
       50
176
     0
 90
       50
176
     0
 90
       50
176
     0
290
     0
176
     0
 90
       50
176
     0
 62
   256
176
     0
 40
1.0
176
     0
 90
        2
176
     0
  1
strokes_ogs.tif
176
     0
290
     0
176
     0
 40
1.0
176
     0
 40
1.0
176
     0
  0
VISUALSTYLE
  5
38
102
{ACAD_REACTORS
330
2A
102
}
330
2A
100
AcDbVisualStyle
  2
Linepattern
 70
    14
177
     3
291
     1
 70
    58
 90
        2
176
     1
 90
        2
176
     1
 90
        0
176
     1
 90
        0
176
     1
 40
0.6
176
     1
 40
30.0
176
     1
 62
     7
420
 16777215
176
     1
 90
        1
176
     1
 90
        4
176
     1
 62
     7
176
     1
 62
   257
176
     1
 90
        7
176
     1
 90
        7
176
     1
 40
1.0
176
     1
 90
        8
176
     1
 62
     7
176
     1
 40
1.0
176
     1
 90
        1
176
     1
 90
        6
176
     1
 90
        2
176
     1
 62
     7
176
     1
 90
        5
176
     1
 90
        0
176
     1
 90
        0
176
     1
290
     0
176
     1
 90
        1
176
     1
 40
0.0
176
     1
 90
        0
176
     1
290
     0
176
     1
290
     1
176
     1
290
     1
176
     1
290
     0
176
     1
290
     0
176
     1
290
     0
176
     1
290
     0
176
     1
290
     0
176
     1
290
     0
176
     1
 90
       50
176
     1
 40
0.0
176
     1
 40
1.0
176
     1
 90
        0
176
     1
 62
    18
420
        0
176
     1
 90
       50
176
     1
 90
        3
176
     1
 62
     5
420
      255
176
     1
290
     0
176
     1
 90
       50
176
     1
 90
       50
176
     1
 90
       50
176
     1
290
     0
176
     1
 90
       50
176
     1
 62
   256
176
     0
 40
1.0
176
     0
 90
        2
176
     1
  1
strokes_ogs.tif
176
     1
290
     0
176
     1
 40
1.0
176
     1
 40
1.0
176
     1
  0
VISUALSTYLE
  5
3C
102
{ACAD_REACTORS
330
2A
102
}
330
2A
100
AcDbVisualStyle
  2
OverhangOff
 70
    21
177
     3
291
     1
 70
    58
 90
        2
176
     0
 90
        2
176
     0
 90
        0
176
     0
 90
        0
176
     0
 40
0.6
176
     0
 40
30.0
176
     0
 62
     7
420
 16777215
176
     0
 90
        1
176
     0
 90
        4
176
     0
 62
     7
176
     0
 62
   257
176
     0
 90
        1
176
     0
 90
        1
176
     0
 40
1.0
176
     0
 90
        9
176
     2
 62
     7
176
     0
 40
1.0
176
     0
 90
        1
176
     0
 90
        6
176
     0
 90
        2
176
     0
 62
     7
176
     0
 90
        5
176
     0
 90
        0
176
     0
 90
        0
176
     0
290
     0
176
     0
 90
        1
176
     0
 40
0.0
176
     0
 90
        0
176
     0
290
     0
176
     0
290
     1
176
     0
290
     1
176
     0
290
     0
176
     0
290
     0
176
     0
290
     0
176
     0
290
     0
176
     0
290
     0
176
     0
290
     0
176
     0
 90
       50
176
     0
 40
0.0
176
     0
 40
1.0
176
     0
 90
        0
176
     0
 62
    18
420
        0
176
     0
 90
       50
176
     0
 90
        3
176
     0
 62
     5
420
      255
176
     0
290
     0
176
     0
 90
       50
176
     0
 90
       50
176
     0
 90
       50
176
     0
290
     0
176
     0
 90
       50
176
     0
 62
   256
176
     0
 40
1.0
176
     0
 90
        2
176
     0
  1
strokes_ogs.tif
176
     0
290
     0
176
     0
 40
1.0
176
     0
 40
1.0
176
     0
  0
VISUALSTYLE
  5
33
102
{ACAD_REACTORS
330
2A
102
}
330
2A
100
AcDbVisualStyle
  2
Realistic
 70
     8
177
     3
291
     0
 70
    58
 90
        2
176
     1
 90
        3
176
     1
 90
        0
176
     1
 90
        2
176
     1
 40
0.6
176
     1
 40
30.0
176
     1
 62
     7
420
 16777215
176
     1
 90
        0
176
     1
 90
        0
176
     1
 62
     7
176
     1
 62
   257
176
     1
 90
        1
176
     1
 90
        1
176
     1
 40
1.0
176
     1
 90
        8
176
     1
 62
   257
176
     1
 40
1.0
176
     1
 90
        1
176
     1
 90
        6
176
     1
 90
        2
176
     1
 62
     7
176
     1
 90
        3
176
     1
 90
        0
176
     1
 90
        0
176
     1
290
     0
176
     1
 90
       13
176
     1
 40
0.0
176
     1
 90
        0
176
     1
290
     0
176
     1
290
     1
176
     1
290
     1
176
     1
290
     0
176
     1
290
     0
176
     1
290
     0
176
     1
290
     0
176
     1
290
     0
176
     1
290
     0
176
     1
 90
       50
176
     1
 40
0.0
176
     1
 40
1.0
176
     1
 90
        0
176
     1
 62
    18
420
        0
176
     1
 90
       50
176
     1
 90
        3
176
     1
 62
     5
420
      255
176
     1
290
     0
176
     1
 90
       50
176
     1
 90
       50
176
     1
 90
       50
176
     1
290
     0
176
     1
 90
       50
176
     1
 62
   256
176
     0
 40
1.0
176
     0
 90
        2
176
     1
  1
strokes_ogs.tif
176
     1
290
     0
176
     1
 40
1.0
176
     1
 40
1.0
176
     1
  0
VISUALSTYLE
  5
42
102
{ACAD_REACTORS
330
2A
102
}
330
2A
100
AcDbVisualStyle
  2
Shaded
 70
    27
177
     3
291
     0
 70
    58
 90
        2
176
     1
 90
        2
176
     1
 90
        1
176
     1
 90
        2
176
     1
 40
0.6
176
     1
 40
30.0
176
     1
 62
     7
420
 16777215
176
     1
 90
        0
176
     1
 90
        4
176
     1
 62
     7
176
     1
 62
   257
176
     1
 90
        1
176
     1
 90
        1
176
     1
 40
1.0
176
     1
 90
        8
176
     1
 62
   257
176
     1
 40
1.0
176
     1
 90
        1
176
     1
 90
        6
176
     1
 90
        2
176
     1
 62
     8
420
  7895160
176
     1
 90
        3
176
     1
 90
        0
176
     1
 90
        0
176
     1
290
     0
176
     1
 90
        5
176
     1
 40
0.0
176
     1
 90
        0
176
     1
290
     0
176
     1
290
     1
176
     1
290
     1
176
     1
290
     0
176
     1
290
     0
176
     1
290
     0
176
     1
290
     0
176
     1
290
     0
176
     1
290
     0
176
     1
 90
       50
176
     1
 40
0.0
176
     1
 40
1.0
176
     1
 90
        0
176
     1
 62
    18
420
        0
176
     1
 90
       50
176
     1
 90
        3
176
     1
 62
     5
420
      255
176
     1
290
     0
176
     1
 90
       50
176
     1
 90
       50
176
     1
 90
       50
176
     1
290
     0
176
     1
 90
       50
176
     1
 62
   256
176
     0
 40
1.0
176
     0
 90
        2
176
     1
  1
strokes_ogs.tif
176
     1
290
     0
176
     1
 40
1.0
176
     1
 40
1.0
176
     1
  0
VISUALSTYLE
  5
41
102
{ACAD_REACTORS
330
2A
102
}
330
2A
100
AcDbVisualStyle
  2
Shaded with edges
 70
    26
177
     3
291
     0
 70
    58
 90
        2
176
     1
 90
        2
176
     1
 90
        1
176
     1
 90
        2
176
     1
 40
0.6
176
     1
 40
30.0
176
     1
 62
     7
420
 16777215
176
     1
 90
        1
176
     1
 90
       10
176
     1
 62
     7
176
     1
 62
   257
176
     1
 90
        2
176
     1
 90
        1
176
     1
 40
1.0
176
     1
 90
        8
176
     1
 62
   257
176
     1
 40
1.0
176
     1
 90
        1
176
     1
 90
        6
176
     1
 90
        2
176
     1
 62
     7
176
     1
 90
        3
176
     1
 90
        0
176
     1
 90
        0
176
     1
290
     0
176
     1
 90
        5
176
     1
 40
0.0
176
     1
 90
        0
176
     1
290
     0
176
     1
290
     1
176
     1
290
     1
176
     1
290
     0
176
     1
290
     0
176
     1
290
     0
176
     1
290
     0
176
     1
290
     0
176
     1
290
     0
176
     1
 90
       50
176
     1
 40
0.0
176
     1
 40
1.0
176
     1
 90
        0
176
     1
 62
    18
420
        0
176
     1
 90
       50
176
     1
 90
        3
176
     1
 62
     5
420
      255
176
     1
290
     0
176
     1
 90
       50
176
     1
 90
       50
176
     1
 90
       50
176
     1
290
     0
176
     1
 90
       50
176
     1
 62
   256
176
     0
 40
1.0
176
     0
 90
        2
176
     1
  1
strokes_ogs.tif
176
     1
290
     0
176
     1
 40
1.0
176
     1
 40
1.0
176
     1
  0
VISUALSTYLE
  5
3E
102
{ACAD_REACTORS
330
2A
102
}
330
2A
100
AcDbVisualStyle
  2
Shades of Gray
 70
    23
177
     3
291
     0
 70
    58
 90
        2
176
     1
 90
        2
176
     1
 90
        3
176
     1
 90
        0
176
     1
 40
0.6
176
     1
 40
30.0
176
     1
 62
     7
420
 16777215
176
     1
 90
        2
176
     1
 90
        2
176
     1
 62
     7
176
     1
 62
     7
176
     1
 90
        1
176
     1
 90
        1
176
     1
 40
40.0
176
     1
 90
        8
176
     1
 62
     7
176
     1
 40
1.0
176
     1
 90
        1
176
     1
 90
        6
176
     1
 90
        2
176
     1
 62
     7
176
     1
 90
        3
176
     1
 90
        0
176
     1
 90
        0
176
     1
290
     0
176
     1
 90
        1
176
     1
 40
0.0
176
     1
 90
        0
176
     1
290
     0
176
     1
290
     1
176
     1
290
     1
176
     1
290
     0
176
     1
290
     0
176
     1
290
     0
176
     1
290
     0
176
     1
290
     0
176
     1
290
     0
176
     1
 90
       50
176
     1
 40
0.0
176
     1
 40
1.0
176
     1
 90
        0
176
     1
 62
    18
420
        0
176
     1
 90
       50
176
     1
 90
        3
176
     1
 62
     5
420
      255
176
     1
290
     0
176
     1
 90
       50
176
     1
 90
       50
176
     1
 90
       50
176
     1
290
     0
176
     1
 90
       50
176
     1
 62
   256
176
     0
 40
1.0
176
     0
 90
        2
176
     1
  1
strokes_ogs.tif
176
     1
290
     0
176
     1
 40
1.0
176
     1
 40
1.0
176
     1
  0
VISUALSTYLE
  5
3F
102
{ACAD_REACTORS
330
2A
102
}
330
2A
100
AcDbVisualStyle
  2
Sketchy
 70
    24
177
     3
291
     0
 70
    58
 90
        1
176
     1
 90
        2
176
     1
 90
        2
176
     1
 90
        0
176
     1
 40
0.6
176
     1
 40
30.0
176
     1
 62
     7
420
 16777215
176
     1
 90
        2
176
     1
 90
        2
176
     1
 62
     7
176
     1
 62
     7
176
     1
 90
        1
176
     1
 90
        1
176
     1
 40
40.0
176
     1
 90
       11
176
     1
 62
     7
176
     1
 40
1.0
176
     1
 90
        1
176
     1
 90
        6
176
     1
 90
        2
176
     1
 62
     7
176
     1
 90
        6
176
     1
 90
        0
176
     1
 90
        0
176
     1
290
     0
176
     1
 90
        1
176
     1
 40
0.0
176
     1
 90
        0
176
     1
290
     0
176
     1
290
     1
176
     1
290
     1
176
     1
290
     0
176
     1
290
     0
176
     1
290
     0
176
     1
290
     0
176
     1
290
     0
176
     1
290
     0
176
     1
 90
       50
176
     1
 40
0.0
176
     1
 40
1.0
176
     1
 90
        0
176
     1
 62
    18
420
        0
176
     1
 90
       50
176
     1
 90
        3
176
     1
 62
     5
420
      255
176
     1
290
     0
176
     1
 90
       50
176
     1
 90
       50
176
     1
 90
       50
176
     1
290
     0
176
     1
 90
       50
176
     1
 62
   256
176
     0
 40
1.0
176
     0
 90
        2
176
     1
  1
strokes_ogs.tif
176
     1
290
     0
176
     1
 40
1.0
176
     1
 40
1.0
176
     1
  0
VISUALSTYLE
  5
37
102
{ACAD_REACTORS
330
2A
102
}
330
2A
100
AcDbVisualStyle
  2
Thicken
 70
    13
177
     3
291
     1
 70
    58
 90
        2
176
     1
 90
        2
176
     1
 90
        0
176
     1
 90
        0
176
     1
 40
0.6
176
     1
 40
30.0
176
     1
 62
     7
420
 16777215
176
     1
 90
        1
176
     1
 90
        4
176
     1
 62
     7
176
     1
 62
   257
176
     1
 90
        1
176
     1
 90
        1
176
     1
 40
1.0
176
     1
 90
       12
176
     1
 62
     7
176
     1
 40
1.0
176
     1
 90
        1
176
     1
 90
        6
176
     1
 90
        2
176
     1
 62
     7
176
     1
 90
        5
176
     1
 90
        0
176
     1
 90
        0
176
     1
290
     0
176
     1
 90
        1
176
     1
 40
0.0
176
     1
 90
        0
176
     1
290
     0
176
     1
290
     1
176
     1
290
     1
176
     1
290
     0
176
     1
290
     0
176
     1
290
     0
176
     1
290
     0
176
     1
290
     0
176
     1
290
     0
176
     1
 90
       50
176
     1
 40
0.0
176
     1
 40
1.0
176
     1
 90
        0
176
     1
 62
    18
420
        0
176
     1
 90
       50
176
     1
 90
        3
176
     1
 62
     5
420
      255
176
     1
290
     0
176
     1
 90
       50
176
     1
 90
       50
176
     1
 90
       50
176
     1
290
     0
176
     1
 90
       50
176
     1
 62
   256
176
     0
 40
1.0
176
     0
 90
        2
176
     1
  1
strokes_ogs.tif
176
     1
290
     0
176
     1
 40
1.0
176
     1
 40
1.0
176
     1
  0
VISUALSTYLE
  5
30
102
{ACAD_REACTORS
330
2A
102
}
330
2A
100
AcDbVisualStyle
  2
Wireframe
 70
     5
177
     3
291
     0
 70
    58
 90
        0
176
     1
 90
        2
176
     1
 90
        0
176
     1
 90
        0
176
     1
 40
0.6
176
     1
 40
30.0
176
     1
 62
     7
420
 16777215
176
     1
 90
        1
176
     1
 90
        4
176
     1
 62
     7
176
     1
 62
   257
176
     1
 90
        1
176
     1
 90
        1
176
     1
 40
1.0
176
     1
 90
        0
176
     1
 62
   257
176
     1
 40
1.0
176
     1
 90
        1
176
     1
 90
        6
176
     1
 90
        2
176
     1
 62
     7
176
     1
 90
        3
176
     1
 90
        0
176
     1
 90
        0
176
     1
290
     0
176
     1
 90
        1
176
     1
 40
0.0
176
     1
 90
        0
176
     1
290
     0
176
     1
290
     1
176
     1
290
     1
176
     1
290
     0
176
     1
290
     0
176
     1
290
     0
176
     1
290
     0
176
     1
290
     0
176
     1
290
     0
176
     1
 90
       50
176
     1
 40
0.0
176
     1
 40
1.0
176
     1
 90
        0
176
     1
 62
    18
420
        0
176
     1
 90
       50
176
     1
 90
        3
176
     1
 62
     5
420
      255
176
     1
290
     0
176
     1
 90
       50
176
     1
 90
       50
176
     1
 90
       50
176
     1
290
     0
176
     1
 90
       50
176
     1
 62
   256
176
     0
 40
1.0
176
     0
 90
        2
176
     1
  1
strokes_ogs.tif
176
     1
290
     0
176
     1
 40
1.0
176
     1
 40
1.0
176
     1
  0
VISUALSTYLE
  5
40
102
{ACAD_REACTORS
330
2A
102
}
330
2A
100
AcDbVisualStyle
  2
X-Ray
 70
    25
177
     3
291
     0
 70
    58
 90
        2
176
     1
 90
        2
176
     1
 90
        1
176
     1
 90
        1
176
     1
 40
0.5
176
     1
 40
30.0
176
     1
 62
     7
420
 16777215
176
     1
 90
        1
176
     1
 90
        0
176
     1
 62
     7
176
     1
 62
   257
176
     1
 90
        1
176
     1
 90
        1
176
     1
 40
1.0
176
     1
 90
        8
176
     1
 62
     7
176
     1
 40
1.0
176
     1
 90
        1
176
     1
 90
        6
176
     1
 90
        2
176
     1
 62
     7
176
     1
 90
        3
176
     1
 90
        0
176
     1
 90
        0
176
     1
290
     0
176
     1
 90
       13
176
     1
 40
0.0
176
     1
 90
        0
176
     1
290
     0
176
     1
290
     1
176
     1
290
     1
176
     1
290
     0
176
     1
290
     0
176
     1
290
     0
176
     1
290
     0
176
     1
290
     0
176
     1
290
     0
176
     1
 90
       50
176
     1
 40
0.0
176
     1
 40
1.0
176
     1
 90
        0
176
     1
 62
    18
420
        0
176
     1
 90
       50
176
     1
 90
        3
176
     1
 62
     5
420
      255
176
     1
290
     0
176
     1
 90
       50
176
     1
 90
       50
176
     1
 90
       50
176
     1
290
     0
176
     1
 90
       50
176
     1
 62
   256
176
     0
 40
1.0
176
     0
 90
        2
176
     1
  1
strokes_ogs.tif
176
     1
290
     0
176
     1
 40
1.0
176
     1
 40
1.0
176
     1
  0
DICTIONARYVAR
  5
1D3
102
{ACAD_REACTORS
330
1D2
102
}
330
1D2
100
DictionaryVariables
280
     0
  1
1:1
  0
DICTIONARYVAR
  5
1D8
102
{ACAD_REACTORS
330
1D2
102
}
330
1D2
100
DictionaryVariables
280
     0
  1
Standard
  0
DICTIONARYVAR
  5
1D7
102
{ACAD_REACTORS
330
1D2
102
}
330
1D2
100
DictionaryVariables
280
     0
  1
Standard
  0
DICTIONARY
  5
1D4
330
6A
100
AcDbDictionary
280
     1
281
     1
  3
ACAD_ROUNDTRIP_2008_TABLESTYLE_CELLSTYLEMAP
360
1D5
  0
CELLSTYLEMAP
  5
1D5
102
{ACAD_REACTORS
330
1D4
102
}
330
1D4
100
AcDbCellStyleMap
 90
        3
300
CELLSTYLE
  1
TABLEFORMAT_BEGIN
 90
        5
170
     1
 91
        0
 92
    32768
 62
   257
 93
        1
300
CONTENTFORMAT
  1
CONTENTFORMAT_BEGIN
 90
        0
 91
        0
 92
        4
 93
        0
300

 40
0.0
140
1.0
 94
        5
 62
     0
340
11
144
0.25
309
CONTENTFORMAT_END
171
     1
301
MARGIN
  1
CELLMARGIN_BEGIN
 40
0.06
 40
0.06
 40
0.06
 40
0.06
 40
0.06
 40
0.06
309
CELLMARGIN_END
 94
        6
 95
        1
302
GRIDFORMAT
  1
GRIDFORMAT_BEGIN
 90
        0
 91
        1
 62
     0
 92
       -2
340
14
 93
        0
 40
0.045
309
GRIDFORMAT_END
 95
        2
302
GRIDFORMAT
  1
GRIDFORMAT_BEGIN
 90
        0
 91
        1
 62
     0
 92
       -2
340
14
 93
        0
 40
0.045
309
GRIDFORMAT_END
 95
        4
302
GRIDFORMAT
  1
GRIDFORMAT_BEGIN
 90
        0
 91
        1
 62
     0
 92
       -2
340
14
 93
        0
 40
0.045
309
GRIDFORMAT_END
 95
        8
302
GRIDFORMAT
  1
GRIDFORMAT_BEGIN
 90
        0
 91
        1
 62
     0
 92
       -2
340
14
 93
        0
 40
0.045
309
GRIDFORMAT_END
 95
       16
302
GRIDFORMAT
  1
GRIDFORMAT_BEGIN
 90
        0
 91
        1
 62
     0
 92
       -2
340
14
 93
        0
 40
0.045
309
GRIDFORMAT_END
 95
       32
302
GRIDFORMAT
  1
GRIDFORMAT_BEGIN
 90
        0
 91
        1
 62
     0
 92
       -2
340
14
 93
        0
 40
0.045
309
GRIDFORMAT_END
309
TABLEFORMAT_END
  1
CELLSTYLE_BEGIN
 90
        1
 91
        1
300
_TITLE
309
CELLSTYLE_END
300
CELLSTYLE
  1
TABLEFORMAT_BEGIN
 90
        5
170
     1
 91
        0
 92
        0
 62
   257
 93
        1
300
CONTENTFORMAT
  1
CONTENTFORMAT_BEGIN
 90
        0
 91
        0
 92
        4
 93
        0
300

 40
0.0
140
1.0
 94
        5
 62
     0
340
11
144
0.18
309
CONTENTFORMAT_END
171
     1
301
MARGIN
  1
CELLMARGIN_BEGIN
 40
0.06
 40
0.06
 40
0.06
 40
0.06
 40
0.06
 40
0.06
309
CELLMARGIN_END
 94
        6
 95
        1
302
GRIDFORMAT
  1
GRIDFORMAT_BEGIN
 90
        0
 91
        1
 62
     0
 92
       -2
340
14
 93
        0
 40
0.045
309
GRIDFORMAT_END
 95
        2
302
GRIDFORMAT
  1
GRIDFORMAT_BEGIN
 90
        0
 91
        1
 62
     0
 92
       -2
340
14
 93
        0
 40
0.045
309
GRIDFORMAT_END
 95
        4
302
GRIDFORMAT
  1
GRIDFORMAT_BEGIN
 90
        0
 91
        1
 62
     0
 92
       -2
340
14
 93
        0
 40
0.045
309
GRIDFORMAT_END
 95
        8
302
GRIDFORMAT
  1
GRIDFORMAT_BEGIN
 90
        0
 91
        1
 62
     0
 92
       -2
340
14
 93
        0
 40
0.045
309
GRIDFORMAT_END
 95
       16
302
GRIDFORMAT
  1
GRIDFORMAT_BEGIN
 90
        0
 91
        1
 62
     0
 92
       -2
340
14
 93
        0
 40
0.045
309
GRIDFORMAT_END
 95
       32
302
GRIDFORMAT
  1
GRIDFORMAT_BEGIN
 90
        0
 91
        1
 62
     0
 92
       -2
340
14
 93
        0
 40
0.045
309
GRIDFORMAT_END
309
TABLEFORMAT_END
  1
CELLSTYLE_BEGIN
 90
        2
 91
        1
300
_HEADER
309
CELLSTYLE_END
300
CELLSTYLE
  1
TABLEFORMAT_BEGIN
 90
        5
170
     1
 91
        0
 92
        0
 62
   257
 93
        1
300
CONTENTFORMAT
  1
CONTENTFORMAT_BEGIN
 90
        0
 91
        0
 92
        4
 93
        0
300

 40
0.0
140
1.0
 94
        2
 62
     0
340
11
144
0.18
309
CONTENTFORMAT_END
171
     1
301
MARGIN
  1
CELLMARGIN_BEGIN
 40
0.06
 40
0.06
 40
0.06
 40
0.06
 40
0.06
 40
0.06
309
CELLMARGIN_END
 94
        6
 95
        1
302
GRIDFORMAT
  1
GRIDFORMAT_BEGIN
 90
        0
 91
        1
 62
     0
 92
       -2
340
14
 93
        0
 40
0.045
309
GRIDFORMAT_END
 95
        2
302
GRIDFORMAT
  1
GRIDFORMAT_BEGIN
 90
        0
 91
        1
 62
     0
 92
       -2
340
14
 93
        0
 40
0.045
309
GRIDFORMAT_END
 95
        4
302
GRIDFORMAT
  1
GRIDFORMAT_BEGIN
 90
        0
 91
        1
 62
     0
 92
       -2
340
14
 93
        0
 40
0.045
309
GRIDFORMAT_END
 95
        8
302
GRIDFORMAT
  1
GRIDFORMAT_BEGIN
 90
        0
 91
        1
 62
     0
 92
       -2
340
14
 93
        0
 40
0.045
309
GRIDFORMAT_END
 95
       16
302
GRIDFORMAT
  1
GRIDFORMAT_BEGIN
 90
        0
 91
        1
 62
     0
 92
       -2
340
14
 93
        0
 40
0.045
309
GRIDFORMAT_END
 95
       32
302
GRIDFORMAT
  1
GRIDFORMAT_BEGIN
 90
        0
 91
        1
 62
     0
 92
       -2
340
14
 93
        0
 40
0.045
309
GRIDFORMAT_END
309
TABLEFORMAT_END
  1
CELLSTYLE_BEGIN
 90
        3
 91
        2
300
_DATA
309
CELLSTYLE_END
  0
ENDSEC
  0
EOF